999
DXF file: Y:\001_SCHNEIDER_PARIS\78_2020_429_Grey Project M580\TRAVAIL LUCAS SANTANA G2P1\CAD3D\2D views\BMXDAI0805_2D-trim.dxf
999
Pro/ENGINEER 2018260 by Parametric Technology Corporation
  0
SECTION
  2
HEADER
  9
$ACADVER
  1
AC1027
  9
$DWGCODEPAGE
  3
ANSI_1252
  9
$EXTMAX
 10
558.8
 20
431.8
 30
0.0
  9
$EXTMIN
 10
0.0
 20
0.0
 30
0.0
  9
$LIMMIN
 10
0.0
 20
0.0
  9
$LIMMAX
 10
558.8
 20
431.8
  9
$VIEWCTR
 10
279.4
 20
215.9
  9
$VIEWSIZE
 40
431.8
  9
$CLAYER
  8
0
  9
$LTSCALE
 40
30.734
  9
$CELTYPE
  6
BYLAYER
  9
$DIMSCALE
 40
1.0
  9
$DIMASZ
 40
3.5
  9
$DIMEXO
 40
1.0
  9
$DIMDLI
 40
21.2344
  9
$DIMEXE
 40
3.0
  9
$DIMCEN
 40
5.0292
  9
$DIMLFAC
 40
1.0
  9
$DIMBLK
  1
_FILLED
  9
$DIMALT
 70
0
  9
$DIMALTF
 40
0.0393700787
  9
$DIMTXT
 40
4.0
  9
$DIMTOL
 70
1
  9
$DIMLIM
 70
0
  9
$DIMTFAC
 40
1.0
  9
$DIMTP
 40
0.0001
  9
$DIMTM
 40
0.0001
  9
$DIMGAP
 40
0.625
  9
$DIMDSEP
 70
46
  9
$AUNITS
 70
0
  9
$PDMODE
 70
0
  9
$PDSIZE
 40
0.01
  9
$HANDSEED
  5
4A1
  9
$TILEMODE
 70
1
  9
$MEASUREMENT
 70
1
  9
$INSUNITS
 70
4
  0
ENDSEC
  0
SECTION
  2
CLASSES
  0
CLASS
  1
ACDBDICTIONARYWDFLT
  2
AcDbDictionaryWithDefault
  3
AutoCAD 2000
 90
0
 91
1
280
0
281
0
  0
CLASS
  1
ACDBPLACEHOLDER
  2
AcDbPlaceHolder
  3
AutoCAD 2000
 90
0
 91
1
280
0
281
0
  0
CLASS
  1
LAYOUT
  2
AcDbLayout
  3
AutoCAD 2000
 90
0
 91
0
280
0
281
0
  0
ENDSEC
  0
SECTION
  2
TABLES
  0
TABLE
  2
VPORT
  5
8
100
AcDbSymbolTable
 70
2
  0
VPORT
  5
1F4
100
AcDbSymbolTableRecord
100
AcDbViewportTableRecord
  2
*ACTIVE
 70
0
 10
0.0
 20
0.0
 11
1.0
 21
1.0
 12
279.4
 22
215.9
 13
0.0
 23
0.0
 14
1.0
 24
1.0
 15
0.0
 25
0.0
 16
0.0
 26
0.0
 36
1.0
 17
0.0
 27
0.0
 37
0.0
 40
431.8
 41
1.2941176471
 42
50.0
 43
0.0
 44
0.0
 50
0.0
 51
0.0
 71
0
 72
100
 73
1
 74
1
 75
0
 76
0
 77
0
 78
0
  0
ENDTAB
  0
TABLE
  2
LTYPE
  5
5
100
AcDbSymbolTable
 70
6
  0
LTYPE
  5
14
100
AcDbSymbolTableRecord
100
AcDbLinetypeTableRecord
  2
BYBLOCK
 70
0
  3

 72
65
 73
0
 40
0.0
  0
LTYPE
  5
15
100
AcDbSymbolTableRecord
100
AcDbLinetypeTableRecord
  2
BYLAYER
 70
0
  3

 72
65
 73
0
 40
0.0
  0
LTYPE
  5
16
100
AcDbSymbolTableRecord
100
AcDbLinetypeTableRecord
  2
CONTINUOUS
 70
64
  3
Solid line
 72
65
 73
0
 40
0.0
  0
LTYPE
  5
1F5
100
AcDbSymbolTableRecord
100
AcDbLinetypeTableRecord
  2
CENTER
 70
64
  3
____ _ ____ _ ____ _ ____ _ ____ _ ____ _ ____
 72
65
 73
4
 40
0.6
 49
0.375
 74
0
 49
-0.075
 74
0
 49
0.075
 74
0
 49
-0.075
 74
0
  0
LTYPE
  5
1F6
100
AcDbSymbolTableRecord
100
AcDbLinetypeTableRecord
  2
HIDDEN
 70
64
  3
- - - - - - - - - - - - - - - - - - - -
 72
65
 73
2
 40
0.2
 49
0.1
 74
0
 49
-0.1
 74
0
  0
LTYPE
  5
1F7
100
AcDbSymbolTableRecord
100
AcDbLinetypeTableRecord
  2
PHANTOM
 70
64
  3
_____ _ _ _____ _ _ _____ _ _ _____
 72
65
 73
6
 40
0.8
 49
0.45
 74
0
 49
-0.05
 74
0
 49
0.1
 74
0
 49
-0.05
 74
0
 49
0.1
 74
0
 49
-0.05
 74
0
  0
LTYPE
  5
1F8
100
AcDbSymbolTableRecord
100
AcDbLinetypeTableRecord
  2
DOT
 70
64
  3
. . . . . . . . . . . . . . . . . . . .
 72
65
 73
2
 40
0.2
 49
0.1
 74
0
 49
-0.1
 74
0
  0
LTYPE
  5
1F9
100
AcDbSymbolTableRecord
100
AcDbLinetypeTableRecord
  2
DASHED
 70
64
  3
- - - - - - - - - - - - - - - - - - - -
 72
65
 73
2
 40
0.2
 49
0.1
 74
0
 49
-0.1
 74
0
  0
ENDTAB
  0
TABLE
  2
LAYER
  5
2
100
AcDbSymbolTable
 70
36
  0
LAYER
  5
10
100
AcDbSymbolTableRecord
100
AcDbLayerTableRecord
  2
0
 70
0
 62
7
  6
CONTINUOUS
370
-3
390
F
  0
LAYER
  5
1FA
100
AcDbSymbolTableRecord
100
AcDbLayerTableRecord
  2
DEFAULT_1
 70
0
 62
7
  6
CENTER
370
-3
390
F
  0
LAYER
  5
1FB
100
AcDbSymbolTableRecord
100
AcDbLayerTableRecord
  2
DEFAULT_2
 70
0
 62
8
  6
HIDDEN
370
-3
390
F
  0
LAYER
  5
1FC
100
AcDbSymbolTableRecord
100
AcDbLayerTableRecord
  2
DEFAULT_3
 70
0
 62
7
  6
PHANTOM
370
-3
390
F
  0
LAYER
  5
1FD
100
AcDbSymbolTableRecord
100
AcDbLayerTableRecord
  2
01_ALL_DTM_PLN
 70
0
 62
7
  6
CONTINUOUS
370
-3
390
F
  0
LAYER
  5
1FE
100
AcDbSymbolTableRecord
100
AcDbLayerTableRecord
  2
01__ASM_ALL_DTM_PLN
 70
0
 62
7
  6
CONTINUOUS
370
-3
390
F
  0
LAYER
  5
1FF
100
AcDbSymbolTableRecord
100
AcDbLayerTableRecord
  2
01__ASM_DEF_DTM_PLN
 70
0
 62
7
  6
CONTINUOUS
370
-3
390
F
  0
LAYER
  5
200
100
AcDbSymbolTableRecord
100
AcDbLayerTableRecord
  2
01___PRT_ALL_DTM_PLN
 70
0
 62
7
  6
CONTINUOUS
370
-3
390
F
  0
LAYER
  5
201
100
AcDbSymbolTableRecord
100
AcDbLayerTableRecord
  2
01___PRT_DEF_DTM_PLN
 70
0
 62
7
  6
CONTINUOUS
370
-3
390
F
  0
LAYER
  5
202
100
AcDbSymbolTableRecord
100
AcDbLayerTableRecord
  2
02_ALL_AXES
 70
0
 62
7
  6
CONTINUOUS
370
-3
390
F
  0
LAYER
  5
203
100
AcDbSymbolTableRecord
100
AcDbLayerTableRecord
  2
02__ASM_ALL_AXES
 70
0
 62
7
  6
CONTINUOUS
370
-3
390
F
  0
LAYER
  5
204
100
AcDbSymbolTableRecord
100
AcDbLayerTableRecord
  2
02___PRT_ALL_AXES
 70
0
 62
7
  6
CONTINUOUS
370
-3
390
F
  0
LAYER
  5
205
100
AcDbSymbolTableRecord
100
AcDbLayerTableRecord
  2
03_ALL_CURVES
 70
0
 62
7
  6
CONTINUOUS
370
-3
390
F
  0
LAYER
  5
206
100
AcDbSymbolTableRecord
100
AcDbLayerTableRecord
  2
03__ASM_ALL_CURVES
 70
0
 62
7
  6
CONTINUOUS
370
-3
390
F
  0
LAYER
  5
207
100
AcDbSymbolTableRecord
100
AcDbLayerTableRecord
  2
03___PRT_ALL_CURVES
 70
0
 62
7
  6
CONTINUOUS
370
-3
390
F
  0
LAYER
  5
208
100
AcDbSymbolTableRecord
100
AcDbLayerTableRecord
  2
04_ALL_DTM_PNT
 70
0
 62
7
  6
CONTINUOUS
370
-3
390
F
  0
LAYER
  5
209
100
AcDbSymbolTableRecord
100
AcDbLayerTableRecord
  2
04__ASM_ALL_DTM_PNT
 70
0
 62
7
  6
CONTINUOUS
370
-3
390
F
  0
LAYER
  5
20A
100
AcDbSymbolTableRecord
100
AcDbLayerTableRecord
  2
04___PRT_ALL_DTM_PNT
 70
0
 62
7
  6
CONTINUOUS
370
-3
390
F
  0
LAYER
  5
20B
100
AcDbSymbolTableRecord
100
AcDbLayerTableRecord
  2
05_ALL_DTM_CSYS
 70
0
 62
7
  6
CONTINUOUS
370
-3
390
F
  0
LAYER
  5
20C
100
AcDbSymbolTableRecord
100
AcDbLayerTableRecord
  2
05__ASM_ALL_DTM_CSYS
 70
0
 62
7
  6
CONTINUOUS
370
-3
390
F
  0
LAYER
  5
20D
100
AcDbSymbolTableRecord
100
AcDbLayerTableRecord
  2
05__ASM_DEF_DTM_CSYS
 70
0
 62
7
  6
CONTINUOUS
370
-3
390
F
  0
LAYER
  5
20E
100
AcDbSymbolTableRecord
100
AcDbLayerTableRecord
  2
05___PRT_ALL_DTM_CSYS
 70
0
 62
7
  6
CONTINUOUS
370
-3
390
F
  0
LAYER
  5
20F
100
AcDbSymbolTableRecord
100
AcDbLayerTableRecord
  2
05___PRT_DEF_DTM_CSYS
 70
0
 62
7
  6
CONTINUOUS
370
-3
390
F
  0
LAYER
  5
210
100
AcDbSymbolTableRecord
100
AcDbLayerTableRecord
  2
06_ALL_SURFS
 70
0
 62
7
  6
CONTINUOUS
370
-3
390
F
  0
LAYER
  5
211
100
AcDbSymbolTableRecord
100
AcDbLayerTableRecord
  2
06__ASM_ALL_SURFS
 70
0
 62
7
  6
CONTINUOUS
370
-3
390
F
  0
LAYER
  5
212
100
AcDbSymbolTableRecord
100
AcDbLayerTableRecord
  2
06___PRT_ALL_SURFS
 70
0
 62
7
  6
CONTINUOUS
370
-3
390
F
  0
LAYER
  5
213
100
AcDbSymbolTableRecord
100
AcDbLayerTableRecord
  2
07__ASM_ALL_SKELETONS
 70
0
 62
7
  6
CONTINUOUS
370
-3
390
F
  0
ENDTAB
  0
TABLE
  2
STYLE
  5
3
100
AcDbSymbolTable
 70
1
  0
STYLE
  5
11
100
AcDbSymbolTableRecord
100
AcDbTextStyleTableRecord
  2
STANDARD
 70
0
 40
0.0
 41
0.6
 50
0.0
 71
0
 42
0.2
  3
txt
  4

  0
STYLE
  5
214
100
AcDbSymbolTableRecord
100
AcDbTextStyleTableRecord
  2
TEXTSTYLE_1
 70
0
 40
0.0
 41
0.8
 50
0.0
 71
0
 42
0.2
  3
gdt
  4

  0
ENDTAB
  0
TABLE
  2
VIEW
  5
6
100
AcDbSymbolTable
 70
0
  0
ENDTAB
  0
TABLE
  2
UCS
  5
7
100
AcDbSymbolTable
 70
0
  0
ENDTAB
  0
TABLE
  2
APPID
  5
9
100
AcDbSymbolTable
 70
1
  0
APPID
  5
215
100
AcDbSymbolTableRecord
100
AcDbRegAppTableRecord
  2
ACAD
 70
0
  0
ENDTAB
  0
TABLE
  2
BLOCK_RECORD
  5
1
100
AcDbSymbolTable
 70
0
  0
BLOCK_RECORD
  5
216
100
AcDbSymbolTableRecord
100
AcDbBlockTableRecord
  2
*Model_Space
  0
BLOCK_RECORD
  5
217
100
AcDbSymbolTableRecord
100
AcDbBlockTableRecord
  2
*Paper_Space
  0
BLOCK_RECORD
  5
218
100
AcDbSymbolTableRecord
100
AcDbBlockTableRecord
  2
_FILLED
  0
ENDTAB
  0
TABLE
  2
DIMSTYLE
  5
A
100
AcDbSymbolTable
 70
1
100
AcDbDimStyleTable
 71
0
  0
DIMSTYLE
105
219
100
AcDbSymbolTableRecord
100
AcDbDimStyleTableRecord
  2
STANDARD
 70
0
  3

  4

 40
1.0
 41
3.5
 42
1.0
 43
0.38
 44
3.0
 45
0.0
 46
0.0
 47
0.0001
 48
0.0001
140
4.0
141
0.09
142
0.0
143
25.4
144
1.0
145
0.0
146
1.0
147
0.625
 71
1.0
 72
0.0
 73
0
 74
0
 75
0
 76
0
 77
1
 78
8
 79
2
170
0
171
3
172
0
173
0
174
0
175
0
176
0
177
0
178
0
270
2
179
4
271
4
272
4
273
2
274
2
275
0
280
0
281
0
282
0
283
1
284
8
285
0
286
0
287
3
288
0
340
11
278
46
341
218
342
218
343
218
344
218
  0
ENDTAB
  0
ENDSEC
  0
SECTION
  2
BLOCKS
  0
BLOCK
  5
20
100
AcDbEntity
  8
0
100
AcDbBlockBegin
  2
*Model_Space
 70
0
 10
0.0
 20
0.0
 30
0.0
  3
*Model_Space
  1

  0
ENDBLK
  5
21
100
AcDbEntity
  8
0
100
AcDbBlockEnd
  0
BLOCK
  5
1C
100
AcDbEntity
  8
0
100
AcDbBlockBegin
  2
*Paper_Space
 70
0
 10
0.0
 20
0.0
 30
0.0
  3
*Paper_Space
  1

  0
ENDBLK
  5
1D
100
AcDbEntity
  8
0
100
AcDbBlockEnd
  0
BLOCK
  5
21A
100
AcDbEntity
  8
0
100
AcDbBlockBegin
  2
_FILLED
 70
64
 10
0.0
 20
0.0
  3
_FILLED
  1

  0
SOLID
  5
21B
100
AcDbEntity
  8
0
  6
BYBLOCK
 62
0
100
AcDbTrace
 10
0.0
 20
0.0
 11
-1.0
 21
0.2857142857
 12
-1.0
 22
-0.2857142857
 13
-1.0
 23
-0.2857142857
  0
ENDBLK
  5
21C
100
AcDbEntity
  8
0
  6
BYBLOCK
 62
0
100
AcDbBlockEnd
  0
ENDSEC
  0
SECTION
  2
ENTITIES
  0
LINE
  5
21D
100
AcDbEntity
  8
0
100
AcDbLine
 62
7
  6
CONTINUOUS
 10
140.7485260195
 20
252.6334981373
 11
114.3023698973
 21
245.5443546297
  0
LINE
  5
21E
100
AcDbEntity
  8
0
100
AcDbLine
 62
7
  6
CONTINUOUS
 10
76.9258884791
 20
370.7614543124
 11
71.7903920815
 21
366.0602732994
  0
LINE
  5
21F
100
AcDbEntity
  8
0
100
AcDbLine
 62
7
  6
CONTINUOUS
 10
75.7998458609
 20
371.411825858
 11
70.6466611782
 21
366.7208611167
  0
LINE
  5
220
100
AcDbEntity
  8
0
100
AcDbLine
 62
7
  6
CONTINUOUS
 10
65.0380053515
 20
365.4719037868
 11
65.525596108
 21
365.6499519534
  0
LINE
  5
221
100
AcDbEntity
  8
0
100
AcDbLine
 62
7
  6
CONTINUOUS
 10
119.8808559544
 20
248.8324233345
 11
135.1700399625
 21
252.9308344249
  0
LINE
  5
222
100
AcDbEntity
  8
0
100
AcDbLine
 62
7
  6
CONTINUOUS
 10
120.4806653785
 20
249.0217604965
 11
121.2367417014
 21
249.224433941
  0
LINE
  5
223
100
AcDbEntity
  8
0
100
AcDbLine
 62
7
  6
CONTINUOUS
 10
125.6168863091
 20
250.3985733345
 11
135.1332518474
 21
252.9495255659
  0
LINE
  5
224
100
AcDbEntity
  8
0
100
AcDbLine
 62
7
  6
CONTINUOUS
 10
121.2367417014
 20
249.9576557736
 11
124.7498169443
 21
250.8993689827
  0
LINE
  5
225
100
AcDbEntity
  8
0
100
AcDbLine
 62
7
  6
CONTINUOUS
 10
122.6817152499
 20
252.7442726001
 11
123.5081576287
 21
252.9658083347
  0
LINE
  5
226
100
AcDbEntity
  8
0
100
AcDbLine
 62
7
  6
CONTINUOUS
 10
122.6817152499
 20
253.6636072135
 11
123.5081576287
 21
253.8851429481
  0
LINE
  5
227
100
AcDbEntity
  8
0
100
AcDbLine
 62
7
  6
CONTINUOUS
 10
134.2118870488
 20
258.1909726166
 11
129.8317424411
 21
257.0168332232
  0
LINE
  5
228
100
AcDbEntity
  8
0
100
AcDbLine
 62
7
  6
CONTINUOUS
 10
131.3593602275
 20
260.439311956
 11
130.5329178487
 21
260.2177762213
  0
LINE
  5
229
100
AcDbEntity
  8
0
100
AcDbLine
 62
7
  6
CONTINUOUS
 10
131.3593602275
 20
261.3586465694
 11
130.5329178487
 21
261.1371108348
  0
LINE
  5
22A
100
AcDbEntity
  8
0
100
AcDbLine
 62
7
  6
CONTINUOUS
 10
90.3671062128
 20
372.2616100146
 11
90.4352124875
 21
372.3272191999
  0
LINE
  5
22B
100
AcDbEntity
  8
0
100
AcDbLine
 62
7
  6
CONTINUOUS
 10
122.6817152499
 20
259.6392822008
 11
123.5081576287
 21
259.8608179354
  0
LINE
  5
22C
100
AcDbEntity
  8
0
100
AcDbLine
 62
7
  6
CONTINUOUS
 10
122.6817152499
 20
260.5586168143
 11
123.5081576287
 21
260.7801525489
  0
LINE
  5
22D
100
AcDbEntity
  8
0
100
AcDbLine
 62
7
  6
CONTINUOUS
 10
119.5838569437
 20
262.8793587688
 11
120.4806653785
 21
263.1197567935
  0
LINE
  5
22E
100
AcDbEntity
  8
0
100
AcDbLine
 62
7
  6
CONTINUOUS
 10
131.3593602275
 20
267.3343215567
 11
130.5329178487
 21
267.1127858221
  0
LINE
  5
22F
100
AcDbEntity
  8
0
100
AcDbLine
 62
7
  6
CONTINUOUS
 10
134.8317188329
 20
268.4973852037
 11
135.1332518474
 21
268.5782139942
  0
LINE
  5
230
100
AcDbEntity
  8
0
100
AcDbLine
 62
7
  6
CONTINUOUS
 10
131.3593602275
 20
268.2536561701
 11
130.5329178487
 21
268.0321204355
  0
LINE
  5
231
100
AcDbEntity
  8
0
100
AcDbLine
 62
7
  6
CONTINUOUS
 10
122.6817152499
 20
266.5342918016
 11
123.5081576287
 21
266.7558275362
  0
LINE
  5
232
100
AcDbEntity
  8
0
100
AcDbLine
 62
7
  6
CONTINUOUS
 10
122.6817152499
 20
267.453626415
 11
123.5081576287
 21
267.6751621496
  0
LINE
  5
233
100
AcDbEntity
  8
0
100
AcDbLine
 62
7
  6
CONTINUOUS
 10
121.2367417014
 20
268.0799868625
 11
120.0384002521
 21
267.7587600473
  0
LINE
  5
234
100
AcDbEntity
  8
0
100
AcDbLine
 62
7
  6
CONTINUOUS
 10
119.8808559544
 20
249.2639057007
 11
120.4806653785
 21
249.0217604965
  0
LINE
  5
235
100
AcDbEntity
  8
0
100
AcDbLine
 62
7
  6
CONTINUOUS
 10
114.3023698973
 20
245.5443546297
 11
67.3128035343
 21
272.68424828
  0
LINE
  5
236
100
AcDbEntity
  8
0
100
AcDbLine
 62
7
  6
CONTINUOUS
 10
62.5044094605
 20
277.6678488003
 11
64.2340444396
 21
276.6688587474
  0
LINE
  5
237
100
AcDbEntity
  8
0
100
AcDbLine
 62
7
  6
CONTINUOUS
 10
65.8825373151
 20
277.5554033903
 11
64.6438904351
 21
278.2708120905
  0
LINE
  5
238
100
AcDbEntity
  8
0
100
AcDbLine
 62
7
  6
CONTINUOUS
 10
120.0384002521
 20
270.5167638876
 11
121.2367417014
 21
270.8379907028
  0
LINE
  5
239
100
AcDbEntity
  8
0
100
AcDbLine
 62
7
  6
CONTINUOUS
 10
131.3593602275
 20
274.2293311574
 11
130.5329178487
 21
274.0077954228
  0
LINE
  5
23A
100
AcDbEntity
  8
0
100
AcDbLine
 62
7
  6
CONTINUOUS
 10
134.8317188329
 20
275.8520621112
 11
135.1332518474
 21
275.9328909016
  0
LINE
  5
23B
100
AcDbEntity
  8
0
100
AcDbLine
 62
7
  6
CONTINUOUS
 10
131.3593602275
 20
275.1486657709
 11
130.5329178487
 21
274.9271300362
  0
LINE
  5
23C
100
AcDbEntity
  8
0
100
AcDbLine
 62
7
  6
CONTINUOUS
 10
122.6817152499
 20
273.4293014023
 11
123.5081576287
 21
273.6508371369
  0
LINE
  5
23D
100
AcDbEntity
  8
0
100
AcDbLine
 62
7
  6
CONTINUOUS
 10
122.6817152499
 20
274.3486360157
 11
123.5081576287
 21
274.5701717503
  0
LINE
  5
23E
100
AcDbEntity
  8
0
100
AcDbLine
 62
7
  6
CONTINUOUS
 10
121.2367417014
 20
267.1625114418
 11
120.6169099173
 21
267.2473174668
  0
LINE
  5
23F
100
AcDbEntity
  8
0
100
AcDbLine
 62
7
  6
CONTINUOUS
 10
121.2367417014
 20
252.4351738258
 11
124.2549129788
 21
250.7667052709
  0
LINE
  5
240
100
AcDbEntity
  8
0
100
AcDbLine
 62
7
  6
CONTINUOUS
 10
121.2367417014
 20
250.2268064718
 11
121.5563333397
 21
250.0433253499
  0
LINE
  5
241
100
AcDbEntity
  8
0
100
AcDbLine
 62
7
  6
CONTINUOUS
 10
121.2367417014
 20
252.9284255554
 11
125.6168863091
 21
250.3985733345
  0
LINE
  5
242
100
AcDbEntity
  8
0
100
AcDbLine
 62
7
  6
CONTINUOUS
 10
67.3128035343
 20
272.68424828
 11
65.8825373151
 21
277.5554033903
  0
LINE
  5
243
100
AcDbEntity
  8
0
100
AcDbLine
 62
7
  6
CONTINUOUS
 10
62.5044094605
 20
280.4258526406
 11
62.5044094605
 21
277.6678488003
  0
LINE
  5
244
100
AcDbEntity
  8
0
100
AcDbLine
 62
7
  6
CONTINUOUS
 10
65.0380053515
 20
354.5777886177
 11
65.0380053515
 21
365.4719037868
  0
LINE
  5
245
100
AcDbEntity
  8
0
100
AcDbLine
 62
7
  6
CONTINUOUS
 10
65.8825373151
 20
287.4842172154
 11
65.8825373151
 21
354.0900099585
  0
LINE
  5
246
100
AcDbEntity
  8
0
100
AcDbLine
 62
7
  6
CONTINUOUS
 10
62.5044094605
 20
280.4258526406
 11
62.9090109207
 21
287.7435131295
  0
LINE
  5
247
100
AcDbEntity
  8
0
100
AcDbLine
 62
7
  6
CONTINUOUS
 10
80.7585001338
 20
372.3931419203
 11
80.2097758165
 21
370.2495194283
  0
LINE
  5
248
100
AcDbEntity
  8
0
100
AcDbLine
 62
7
  6
CONTINUOUS
 10
121.2367417014
 20
274.9749964632
 11
120.0384002521
 21
274.653769648
  0
LINE
  5
249
100
AcDbEntity
  8
0
100
AcDbLine
 62
7
  6
CONTINUOUS
 10
120.0384002521
 20
277.4117734883
 11
121.2367417014
 21
277.7330003035
  0
LINE
  5
24A
100
AcDbEntity
  8
0
100
AcDbLine
 62
7
  6
CONTINUOUS
 10
131.3593602275
 20
281.1243407582
 11
130.5329178487
 21
280.9028050235
  0
LINE
  5
24B
100
AcDbEntity
  8
0
100
AcDbLine
 62
7
  6
CONTINUOUS
 10
131.3593602275
 20
282.0436753716
 11
130.5329178487
 21
281.822139637
  0
LINE
  5
24C
100
AcDbEntity
  8
0
100
AcDbLine
 62
7
  6
CONTINUOUS
 10
121.2367417014
 20
253.5788499642
 11
122.6817152499
 21
252.7442726001
  0
LINE
  5
24D
100
AcDbEntity
  8
0
100
AcDbLine
 62
7
  6
CONTINUOUS
 10
125.6168863091
 20
251.5205221209
 11
123.2393150437
 21
252.8937425245
  0
LINE
  5
24E
100
AcDbEntity
  8
0
100
AcDbLine
 62
7
  6
CONTINUOUS
 10
122.6817152499
 20
253.6636072135
 11
121.2367417014
 21
254.4981845776
  0
LINE
  5
24F
100
AcDbEntity
  8
0
100
AcDbLine
 62
7
  6
CONTINUOUS
 10
121.2367417014
 20
255.19705092
 11
123.5081576287
 21
253.8851429481
  0
LINE
  5
250
100
AcDbEntity
  8
0
100
AcDbLine
 62
7
  6
CONTINUOUS
 10
65.8825373151
 20
287.4842172154
 11
65.6010266606
 21
287.6468101018
  0
LINE
  5
251
100
AcDbEntity
  8
0
100
AcDbLine
 62
7
  6
CONTINUOUS
 10
121.2367417014
 20
257.8005384486
 11
125.6168863091
 21
255.2706862276
  0
LINE
  5
252
100
AcDbEntity
  8
0
100
AcDbLine
 62
7
  6
CONTINUOUS
 10
83.2782218647
 20
369.6593942627
 11
83.5577777477
 21
370.776355416
  0
LINE
  5
253
100
AcDbEntity
  8
0
100
AcDbLine
 62
7
  6
CONTINUOUS
 10
122.6817152499
 20
280.324311003
 11
123.5081576287
 21
280.5458467376
  0
LINE
  5
254
100
AcDbEntity
  8
0
100
AcDbLine
 62
7
  6
CONTINUOUS
 10
122.6817152499
 20
281.2436456165
 11
123.5081576287
 21
281.4651813511
  0
LINE
  5
255
100
AcDbEntity
  8
0
100
AcDbLine
 62
7
  6
CONTINUOUS
 10
121.2367417014
 20
281.870006064
 11
120.0384002521
 21
281.5487792488
  0
LINE
  5
256
100
AcDbEntity
  8
0
100
AcDbLine
 62
7
  6
CONTINUOUS
 10
120.0384002521
 20
284.3067830891
 11
121.2367417014
 21
284.6280099043
  0
LINE
  5
257
100
AcDbEntity
  8
0
100
AcDbLine
 62
7
  6
CONTINUOUS
 10
121.2367417014
 20
274.0575210425
 11
120.6169099173
 21
274.1423270675
  0
LINE
  5
258
100
AcDbEntity
  8
0
100
AcDbLine
 62
7
  6
CONTINUOUS
 10
120.4681502891
 20
265.5894121149
 11
120.6169099173
 21
265.5281617397
  0
LINE
  5
259
100
AcDbEntity
  8
0
100
AcDbLine
 62
7
  6
CONTINUOUS
 10
121.2367417014
 20
260.4738595649
 11
122.6817152499
 21
259.6392822008
  0
LINE
  5
25A
100
AcDbEntity
  8
0
100
AcDbLine
 62
7
  6
CONTINUOUS
 10
125.6168863091
 20
258.4155317216
 11
123.2393150437
 21
259.7887521253
  0
LINE
  5
25B
100
AcDbEntity
  8
0
100
AcDbLine
 62
7
  6
CONTINUOUS
 10
135.1343591322
 20
252.9514427006
 11
135.1700399625
 21
252.9308344249
  0
LINE
  5
25C
100
AcDbEntity
  8
0
100
AcDbLine
 62
7
  6
CONTINUOUS
 10
122.6817152499
 20
260.5586168143
 11
121.2367417014
 21
261.3931941783
  0
LINE
  5
25D
100
AcDbEntity
  8
0
100
AcDbLine
 62
9
  6
CONTINUOUS
 10
119.4676347646
 20
262.9253752446
 11
119.0778711123
 21
263.150492114
  0
LINE
  5
25E
100
AcDbEntity
  8
0
100
AcDbLine
 62
7
  6
CONTINUOUS
 10
119.0733788978
 20
263.1741969839
 11
119.5838569437
 21
262.8793587688
  0
LINE
  5
25F
100
AcDbEntity
  8
0
100
AcDbLine
 62
7
  6
CONTINUOUS
 10
119.6981244672
 20
262.9099892645
 11
119.7177070113
 21
262.8986789204
  0
LINE
  5
260
100
AcDbEntity
  8
0
100
AcDbLine
 62
7
  6
CONTINUOUS
 10
121.2367417014
 20
262.0920605207
 11
123.5081576287
 21
260.7801525489
  0
LINE
  5
261
100
AcDbEntity
  8
0
100
AcDbLine
 62
7
  6
CONTINUOUS
 10
76.9258884791
 20
370.7614543124
 11
76.917612652
 21
367.4346735053
  0
LINE
  5
262
100
AcDbEntity
  8
0
100
AcDbLine
 62
7
  6
CONTINUOUS
 10
64.6438904351
 20
278.2708120905
 11
64.2340444396
 21
276.6688587474
  0
LINE
  5
263
100
AcDbEntity
  8
0
100
AcDbLine
 62
7
  6
CONTINUOUS
 10
131.3593602275
 20
288.0193503589
 11
130.5329178487
 21
287.7978146243
  0
LINE
  5
264
100
AcDbEntity
  8
0
100
AcDbLine
 62
7
  6
CONTINUOUS
 10
131.3593602275
 20
288.9386849723
 11
130.5329178487
 21
288.7171492377
  0
LINE
  5
265
100
AcDbEntity
  8
0
100
AcDbLine
 62
7
  6
CONTINUOUS
 10
122.6817152499
 20
287.2193206038
 11
123.5081576287
 21
287.4408563384
  0
LINE
  5
266
100
AcDbEntity
  8
0
100
AcDbLine
 62
7
  6
CONTINUOUS
 10
122.6817152499
 20
288.1386552172
 11
123.5081576287
 21
288.3601909518
  0
LINE
  5
267
100
AcDbEntity
  8
0
100
AcDbLine
 62
7
  6
CONTINUOUS
 10
121.2367417014
 20
288.7650156647
 11
120.0384002521
 21
288.4437888495
  0
LINE
  5
268
100
AcDbEntity
  8
0
100
AcDbLine
 62
7
  6
CONTINUOUS
 10
121.2367417014
 20
280.9525306433
 11
120.6169099173
 21
281.0373366683
  0
LINE
  5
269
100
AcDbEntity
  8
0
100
AcDbLine
 62
7
  6
CONTINUOUS
 10
120.4681502891
 20
272.4844217157
 11
120.6169099173
 21
272.4231713404
  0
LINE
  5
26A
100
AcDbEntity
  8
0
100
AcDbLine
 62
7
  6
CONTINUOUS
 10
121.2367417014
 20
264.6955480493
 11
125.6168863091
 21
262.1656958283
  0
LINE
  5
26B
100
AcDbEntity
  8
0
100
AcDbLine
 62
7
  6
CONTINUOUS
 10
120.6169099173
 20
265.2184544786
 11
121.2367417014
 21
264.8604565228
  0
LINE
  5
26C
100
AcDbEntity
  8
0
100
AcDbLine
 62
7
  6
CONTINUOUS
 10
120.478834395
 20
265.6079104005
 11
120.6169099173
 21
265.5281617397
  0
LINE
  5
26D
100
AcDbEntity
  8
0
100
AcDbLine
 62
7
  6
CONTINUOUS
 10
130.5329178487
 20
260.2177762213
 11
129.3917016556
 21
260.8769116105
  0
LINE
  5
26E
100
AcDbEntity
  8
0
100
AcDbLine
 62
7
  6
CONTINUOUS
 10
130.6488888244
 20
260.2488633436
 11
134.2118870488
 21
258.1909726166
  0
LINE
  5
26F
100
AcDbEntity
  8
0
100
AcDbLine
 62
7
  6
CONTINUOUS
 10
130.5329178487
 20
261.1371108348
 11
129.734535536
 21
261.5982347126
  0
LINE
  5
270
100
AcDbEntity
  8
0
100
AcDbLine
 62
7
  6
CONTINUOUS
 10
129.8317424411
 20
262.2409569943
 11
131.3593602275
 21
261.3586465694
  0
LINE
  5
271
100
AcDbEntity
  8
0
100
AcDbLine
 62
7
  6
CONTINUOUS
 10
121.2367417014
 20
267.3688691656
 11
122.6817152499
 21
266.5342918016
  0
LINE
  5
272
100
AcDbEntity
  8
0
100
AcDbLine
 62
7
  6
CONTINUOUS
 10
125.6168863091
 20
265.3105413223
 11
123.2393150437
 21
266.683761726
  0
LINE
  5
273
100
AcDbEntity
  8
0
100
AcDbLine
 62
7
  6
CONTINUOUS
 10
121.2367417014
 20
268.0799868625
 11
120.0384002521
 21
268.7721162437
  0
LINE
  5
274
100
AcDbEntity
  8
0
100
AcDbLine
 62
7
  6
CONTINUOUS
 10
122.6817152499
 20
267.453626415
 11
120.0384002521
 21
268.9803331603
  0
LINE
  5
275
100
AcDbEntity
  8
0
100
AcDbLine
 62
7
  6
CONTINUOUS
 10
120.0384002521
 20
269.6791995026
 11
123.5081576287
 21
267.6751621496
  0
LINE
  5
276
100
AcDbEntity
  8
0
100
AcDbLine
 62
7
  6
CONTINUOUS
 10
80.2501488789
 20
370.2391847349
 11
80.2520082325
 21
369.8902124776
  0
LINE
  5
277
100
AcDbEntity
  8
0
100
AcDbLine
 62
7
  6
CONTINUOUS
 10
80.7585001338
 20
372.7410402657
 11
80.7585001338
 21
372.3931419203
  0
LINE
  5
278
100
AcDbEntity
  8
0
100
AcDbLine
 62
7
  6
CONTINUOUS
 10
81.6600335215
 20
364.471738936
 11
81.6600335215
 21
365.4186535878
  0
LINE
  5
279
100
AcDbEntity
  8
0
100
AcDbLine
 62
7
  6
CONTINUOUS
 10
78.5889882942
 20
366.4693324586
 11
78.5972641213
 21
369.7961132657
  0
LINE
  5
27A
100
AcDbEntity
  8
0
100
AcDbLine
 62
7
  6
CONTINUOUS
 10
120.0384002521
 20
291.2017926898
 11
121.2367417014
 21
291.523019505
  0
LINE
  5
27B
100
AcDbEntity
  8
0
100
AcDbLine
 62
7
  6
CONTINUOUS
 10
64.2340444396
 20
276.6688587474
 11
66.0035692478
 21
277.1431966908
  0
LINE
  5
27C
100
AcDbEntity
  8
0
100
AcDbLine
 62
7
  6
CONTINUOUS
 10
131.3593602275
 20
294.9143599596
 11
130.5329178487
 21
294.692824225
  0
LINE
  5
27D
100
AcDbEntity
  8
0
100
AcDbLine
 62
7
  6
CONTINUOUS
 10
131.3593602275
 20
295.8336945731
 11
130.5329178487
 21
295.6121588384
  0
LINE
  5
27E
100
AcDbEntity
  8
0
100
AcDbLine
 62
7
  6
CONTINUOUS
 10
122.6817152499
 20
294.1143302045
 11
123.5081576287
 21
294.3358659391
  0
LINE
  5
27F
100
AcDbEntity
  8
0
100
AcDbLine
 62
7
  6
CONTINUOUS
 10
122.6817152499
 20
295.0336648179
 11
123.5081576287
 21
295.2552005525
  0
LINE
  5
280
100
AcDbEntity
  8
0
100
AcDbLine
 62
7
  6
CONTINUOUS
 10
120.4681502891
 20
279.3794313164
 11
120.6169099173
 21
279.3181809411
  0
LINE
  5
281
100
AcDbEntity
  8
0
100
AcDbLine
 62
7
  6
CONTINUOUS
 10
121.2367417014
 20
271.5905576501
 11
125.6168863091
 21
269.0607054291
  0
LINE
  5
282
100
AcDbEntity
  8
0
100
AcDbLine
 62
7
  6
CONTINUOUS
 10
120.6169099173
 20
272.1134640793
 11
121.2367417014
 21
271.7554661235
  0
LINE
  5
283
100
AcDbEntity
  8
0
100
AcDbLine
 62
7
  6
CONTINUOUS
 10
120.478834395
 20
272.5029200012
 11
120.6169099173
 21
272.4231713404
  0
LINE
  5
284
100
AcDbEntity
  8
0
100
AcDbLine
 62
7
  6
CONTINUOUS
 10
130.5329178487
 20
267.1127858221
 11
129.3917016556
 21
267.7719212113
  0
LINE
  5
285
100
AcDbEntity
  8
0
100
AcDbLine
 62
7
  6
CONTINUOUS
 10
130.5329178487
 20
268.0321204355
 11
129.734535536
 21
268.4932443133
  0
LINE
  5
286
100
AcDbEntity
  8
0
100
AcDbLine
 62
7
  6
CONTINUOUS
 10
129.8317424411
 20
269.135966595
 11
131.3593602275
 21
268.2536561701
  0
LINE
  5
287
100
AcDbEntity
  8
0
100
AcDbLine
 62
7
  6
CONTINUOUS
 10
121.2367417014
 20
274.2638787664
 11
122.6817152499
 21
273.4293014023
  0
LINE
  5
288
100
AcDbEntity
  8
0
100
AcDbLine
 62
7
  6
CONTINUOUS
 10
125.6168863091
 20
272.2055509231
 11
123.2393150437
 21
273.5787713267
  0
LINE
  5
289
100
AcDbEntity
  8
0
100
AcDbLine
 62
7
  6
CONTINUOUS
 10
120.0384002521
 20
275.6671258444
 11
121.2367417014
 21
274.9749964632
  0
LINE
  5
28A
100
AcDbEntity
  8
0
100
AcDbLine
 62
7
  6
CONTINUOUS
 10
122.6817152499
 20
274.3486360157
 11
120.0384002521
 21
275.875342761
  0
LINE
  5
28B
100
AcDbEntity
  8
0
100
AcDbLine
 62
7
  6
CONTINUOUS
 10
120.0384002521
 20
276.5742091034
 11
123.5081576287
 21
274.5701717503
  0
LINE
  5
28C
100
AcDbEntity
  8
0
100
AcDbLine
 62
7
  6
CONTINUOUS
 10
85.2088031518
 20
371.5683991426
 11
85.2476816366
 21
368.6178392119
  0
LINE
  5
28D
100
AcDbEntity
  8
0
100
AcDbLine
 62
7
  6
CONTINUOUS
 10
83.5577777477
 20
370.776355416
 11
83.5559183942
 21
371.1253276734
  0
LINE
  5
28E
100
AcDbEntity
  8
0
100
AcDbLine
 62
7
  6
CONTINUOUS
 10
82.841773562
 20
363.60982579
 11
82.841773562
 21
364.7885155857
  0
LINE
  5
28F
100
AcDbEntity
  8
0
100
AcDbLine
 62
7
  6
CONTINUOUS
 10
82.841773562
 20
365.7354302376
 11
82.841773562
 21
368.6650635571
  0
LINE
  5
290
100
AcDbEntity
  8
0
100
AcDbLine
 62
7
  6
CONTINUOUS
 10
82.9889724529
 20
369.4186850979
 11
82.9889724529
 21
366.4890517783
  0
LINE
  5
291
100
AcDbEntity
  8
0
100
AcDbLine
 62
7
  6
CONTINUOUS
 10
82.9889724529
 20
365.5421371265
 11
82.9889724529
 21
363.5248077199
  0
LINE
  5
292
100
AcDbEntity
  8
0
100
AcDbLine
 62
7
  6
CONTINUOUS
 10
83.7160659075
 20
365.7370414377
 11
83.7160659075
 21
366.0691024032
  0
LINE
  5
293
100
AcDbEntity
  8
0
100
AcDbLine
 62
7
  6
CONTINUOUS
 10
83.8335044166
 20
368.9309064386
 11
83.8335044166
 21
366.0012731191
  0
LINE
  5
294
100
AcDbEntity
  8
0
100
AcDbLine
 62
7
  6
CONTINUOUS
 10
83.8335044166
 20
365.0543584673
 11
83.8335044166
 21
363.5901939782
  0
LINE
  5
295
100
AcDbEntity
  8
0
100
AcDbLine
 62
7
  6
CONTINUOUS
 10
84.8492544965
 20
365.4620935249
 11
84.8492544965
 21
366.2735545823
  0
LINE
  5
296
100
AcDbEntity
  8
0
100
AcDbLine
 62
7
  6
CONTINUOUS
 10
85.0094347542
 20
366.3164924228
 11
85.0094347542
 21
365.369577771
  0
LINE
  5
297
100
AcDbEntity
  8
0
100
AcDbLine
 62
7
  6
CONTINUOUS
 10
85.7292747874
 20
368.3833541184
 11
85.7225533592
 21
368.2199014524
  0
LINE
  5
298
100
AcDbEntity
  8
0
100
AcDbLine
 62
7
  6
CONTINUOUS
 10
89.5547338563
 20
365.1238239073
 11
89.4013451795
 21
363.1883236564
  0
LINE
  5
299
100
AcDbEntity
  8
0
100
AcDbLine
 62
7
  6
CONTINUOUS
 10
121.2367417014
 20
295.6600252654
 11
120.0384002521
 21
295.3387984502
  0
LINE
  5
29A
100
AcDbEntity
  8
0
100
AcDbLine
 62
7
  6
CONTINUOUS
 10
120.0384002521
 20
298.0968022905
 11
121.2367417014
 21
298.4180291057
  0
LINE
  5
29B
100
AcDbEntity
  8
0
100
AcDbLine
 62
7
  6
CONTINUOUS
 10
131.3593602275
 20
301.8093695604
 11
130.5329178487
 21
301.5878338258
  0
LINE
  5
29C
100
AcDbEntity
  8
0
100
AcDbLine
 62
7
  6
CONTINUOUS
 10
134.8317188329
 20
303.3033936682
 11
135.1332518474
 21
303.3842224587
  0
LINE
  5
29D
100
AcDbEntity
  8
0
100
AcDbLine
 62
7
  6
CONTINUOUS
 10
131.3593602275
 20
302.7287041738
 11
130.5329178487
 21
302.5071684392
  0
LINE
  5
29E
100
AcDbEntity
  8
0
100
AcDbLine
 62
7
  6
CONTINUOUS
 10
121.2367417014
 20
287.847540244
 11
120.6169099173
 21
287.932346269
  0
LINE
  5
29F
100
AcDbEntity
  8
0
100
AcDbLine
 62
7
  6
CONTINUOUS
 10
120.4681502891
 20
286.2744409171
 11
120.6169099173
 21
286.2131905419
  0
LINE
  5
2A0
100
AcDbEntity
  8
0
100
AcDbLine
 62
7
  6
CONTINUOUS
 10
121.2367417014
 20
278.4855672508
 11
125.6168863091
 21
275.9557150298
  0
LINE
  5
2A1
100
AcDbEntity
  8
0
100
AcDbLine
 62
7
  6
CONTINUOUS
 10
120.6169099173
 20
279.00847368
 11
121.2367417014
 21
278.6504757242
  0
LINE
  5
2A2
100
AcDbEntity
  8
0
100
AcDbLine
 62
7
  6
CONTINUOUS
 10
120.478834395
 20
279.397929602
 11
120.6169099173
 21
279.3181809411
  0
LINE
  5
2A3
100
AcDbEntity
  8
0
100
AcDbLine
 62
7
  6
CONTINUOUS
 10
130.5329178487
 20
274.0077954228
 11
129.3917016556
 21
274.666930812
  0
LINE
  5
2A4
100
AcDbEntity
  8
0
100
AcDbLine
 62
7
  6
CONTINUOUS
 10
130.5329178487
 20
274.9271300362
 11
129.734535536
 21
275.388253914
  0
LINE
  5
2A5
100
AcDbEntity
  8
0
100
AcDbLine
 62
7
  6
CONTINUOUS
 10
129.8317424411
 20
276.0309761957
 11
131.3593602275
 21
275.1486657709
  0
LINE
  5
2A6
100
AcDbEntity
  8
0
100
AcDbLine
 62
7
  6
CONTINUOUS
 10
121.2367417014
 20
281.1588883671
 11
122.6817152499
 21
280.324311003
  0
LINE
  5
2A7
100
AcDbEntity
  8
0
100
AcDbLine
 62
7
  6
CONTINUOUS
 10
125.6168863091
 20
279.1005605238
 11
123.2393150437
 21
280.4737809275
  0
LINE
  5
2A8
100
AcDbEntity
  8
0
100
AcDbLine
 62
7
  6
CONTINUOUS
 10
120.0384002521
 20
282.5621354452
 11
121.2367417014
 21
281.870006064
  0
LINE
  5
2A9
100
AcDbEntity
  8
0
100
AcDbLine
 62
7
  6
CONTINUOUS
 10
122.6817152499
 20
281.2436456165
 11
120.0384002521
 21
282.7703523618
  0
LINE
  5
2AA
100
AcDbEntity
  8
0
100
AcDbLine
 62
7
  6
CONTINUOUS
 10
90.3671062128
 20
372.0071138424
 11
90.3671062128
 21
372.2616100146
  0
LINE
  5
2AB
100
AcDbEntity
  8
0
100
AcDbLine
 62
7
  6
CONTINUOUS
 10
90.4352203817
 20
372.0253724928
 11
90.4352206255
 21
372.3272197657
  0
LINE
  5
2AC
100
AcDbEntity
  8
0
100
AcDbLine
 62
7
  6
CONTINUOUS
 10
122.6817152499
 20
301.0093398052
 11
123.5081576287
 21
301.2308755398
  0
LINE
  5
2AD
100
AcDbEntity
  8
0
100
AcDbLine
 62
7
  6
CONTINUOUS
 10
122.6817152499
 20
301.9286744187
 11
123.5081576287
 21
302.1502101533
  0
LINE
  5
2AE
100
AcDbEntity
  8
0
100
AcDbLine
 62
9
  6
CONTINUOUS
 10
65.8825373151
 20
287.7222717084
 11
65.6010266606
 21
287.6468101018
  0
LINE
  5
2AF
100
AcDbEntity
  8
0
100
AcDbLine
 62
7
  6
CONTINUOUS
 10
119.5838569437
 20
302.732514261
 11
120.4806653785
 21
302.9729122857
  0
LINE
  5
2B0
100
AcDbEntity
  8
0
100
AcDbLine
 62
7
  6
CONTINUOUS
 10
65.1860247726
 20
288.463325888
 11
63.5296790077
 21
288.0193266629
  0
LINE
  5
2B1
100
AcDbEntity
  8
0
100
AcDbLine
 62
7
  6
CONTINUOUS
 10
121.2367417014
 20
294.7425498447
 11
120.6169099173
 21
294.8273558697
  0
LINE
  5
2B2
100
AcDbEntity
  8
0
100
AcDbLine
 62
7
  6
CONTINUOUS
 10
120.0384002521
 20
283.4692187041
 11
123.5081576287
 21
281.4651813511
  0
LINE
  5
2B3
100
AcDbEntity
  8
0
100
AcDbLine
 62
7
  6
CONTINUOUS
 10
121.2367417014
 20
285.3805768515
 11
125.6168863091
 21
282.8507246305
  0
LINE
  5
2B4
100
AcDbEntity
  8
0
100
AcDbLine
 62
7
  6
CONTINUOUS
 10
120.6169099173
 20
285.9034832808
 11
121.2367417014
 21
285.545485325
  0
LINE
  5
2B5
100
AcDbEntity
  8
0
100
AcDbLine
 62
7
  6
CONTINUOUS
 10
120.478834395
 20
286.2929392027
 11
120.6169099173
 21
286.2131905419
  0
LINE
  5
2B6
100
AcDbEntity
  8
0
100
AcDbLine
 62
7
  6
CONTINUOUS
 10
130.5329178487
 20
280.9028050235
 11
129.3917016556
 21
281.5619404127
  0
LINE
  5
2B7
100
AcDbEntity
  8
0
100
AcDbLine
 62
7
  6
CONTINUOUS
 10
130.5329178487
 20
281.822139637
 11
129.734535536
 21
282.2832635148
  0
LINE
  5
2B8
100
AcDbEntity
  8
0
100
AcDbLine
 62
7
  6
CONTINUOUS
 10
129.8317424411
 20
282.9259857965
 11
131.3593602275
 21
282.0436753716
  0
LINE
  5
2B9
100
AcDbEntity
  8
0
100
AcDbLine
 62
7
  6
CONTINUOUS
 10
68.3420202155
 20
373.4818725229
 11
68.7930724424
 21
372.1210316962
  0
LINE
  5
2BA
100
AcDbEntity
  8
0
100
AcDbLine
 62
7
  6
CONTINUOUS
 10
140.5473278494
 20
330.0855597159
 11
140.7485260195
 21
330.1575891707
  0
LINE
  5
2BB
100
AcDbEntity
  8
0
100
AcDbLine
 62
7
  6
CONTINUOUS
 10
140.5469002724
 20
330.091373464
 11
140.7485260195
 21
330.1575891707
  0
LINE
  5
2BC
100
AcDbEntity
  8
0
100
AcDbLine
 62
7
  6
CONTINUOUS
 10
131.3593602275
 20
308.7043791611
 11
130.5329178487
 21
308.4828434265
  0
LINE
  5
2BD
100
AcDbEntity
  8
0
100
AcDbLine
 62
7
  6
CONTINUOUS
 10
131.3593602275
 20
309.6237137745
 11
130.5329178487
 21
309.4021780399
  0
LINE
  5
2BE
100
AcDbEntity
  8
0
100
AcDbLine
 62
7
  6
CONTINUOUS
 10
134.8317188329
 20
310.6580705757
 11
135.1332518474
 21
310.7388993662
  0
LINE
  5
2BF
100
AcDbEntity
  8
0
100
AcDbLine
 62
7
  6
CONTINUOUS
 10
122.6817152499
 20
307.904349406
 11
123.5081576287
 21
308.1258851406
  0
LINE
  5
2C0
100
AcDbEntity
  8
0
100
AcDbLine
 62
7
  6
CONTINUOUS
 10
122.6817152499
 20
308.8236840194
 11
123.5081576287
 21
309.045219754
  0
LINE
  5
2C1
100
AcDbEntity
  8
0
100
AcDbLine
 62
7
  6
CONTINUOUS
 10
134.2118870488
 20
312.3213946554
 11
129.8317424411
 21
311.147255262
  0
LINE
  5
2C2
100
AcDbEntity
  8
0
100
AcDbLine
 62
7
  6
CONTINUOUS
 10
129.8317424411
 20
312.0665898754
 11
134.2118870488
 21
313.2407292689
  0
LINE
  5
2C3
100
AcDbEntity
  8
0
100
AcDbLine
 62
7
  6
CONTINUOUS
 10
121.2367417014
 20
301.6375594455
 11
120.6169099173
 21
301.7223654705
  0
LINE
  5
2C4
100
AcDbEntity
  8
0
100
AcDbLine
 62
7
  6
CONTINUOUS
 10
120.4681502891
 20
293.1694505179
 11
120.6169099173
 21
293.1082001426
  0
LINE
  5
2C5
100
AcDbEntity
  8
0
100
AcDbLine
 62
7
  6
CONTINUOUS
 10
121.2367417014
 20
288.0538979679
 11
122.6817152499
 21
287.2193206038
  0
LINE
  5
2C6
100
AcDbEntity
  8
0
100
AcDbLine
 62
7
  6
CONTINUOUS
 10
125.6168863091
 20
285.9955701246
 11
123.2393150437
 21
287.3687905282
  0
LINE
  5
2C7
100
AcDbEntity
  8
0
100
AcDbLine
 62
7
  6
CONTINUOUS
 10
120.0384002521
 20
289.4571450459
 11
121.2367417014
 21
288.7650156647
  0
LINE
  5
2C8
100
AcDbEntity
  8
0
100
AcDbLine
 62
7
  6
CONTINUOUS
 10
122.6817152499
 20
288.1386552172
 11
120.0384002521
 21
289.6653619625
  0
LINE
  5
2C9
100
AcDbEntity
  8
0
100
AcDbLine
 62
7
  6
CONTINUOUS
 10
120.0384002521
 20
290.3642283048
 11
123.5081576287
 21
288.3601909518
  0
LINE
  5
2CA
100
AcDbEntity
  8
0
100
AcDbLine
 62
7
  6
CONTINUOUS
 10
121.2367417014
 20
292.2755864523
 11
125.6168863091
 21
289.7457342313
  0
LINE
  5
2CB
100
AcDbEntity
  8
0
100
AcDbLine
 62
7
  6
CONTINUOUS
 10
120.6169099173
 20
292.7984928815
 11
121.2367417014
 21
292.4404949257
  0
LINE
  5
2CC
100
AcDbEntity
  8
0
100
AcDbLine
 62
7
  6
CONTINUOUS
 10
120.478834395
 20
293.1879488034
 11
120.6169099173
 21
293.1082001426
  0
LINE
  5
2CD
100
AcDbEntity
  8
0
100
AcDbLine
 62
7
  6
CONTINUOUS
 10
130.5329178487
 20
287.7978146243
 11
129.3917016556
 21
288.4569500135
  0
LINE
  5
2CE
100
AcDbEntity
  8
0
100
AcDbLine
 62
7
  6
CONTINUOUS
 10
134.8317188329
 20
268.841414761
 11
135.1332518474
 21
268.5782139942
  0
LINE
  5
2CF
100
AcDbEntity
  8
0
100
AcDbLine
 62
7
  6
CONTINUOUS
 10
131.3593602275
 20
315.5993887618
 11
130.5329178487
 21
315.3778530272
  0
LINE
  5
2D0
100
AcDbEntity
  8
0
100
AcDbLine
 62
7
  6
CONTINUOUS
 10
131.3593602275
 20
316.5187233753
 11
130.5329178487
 21
316.2971876407
  0
LINE
  5
2D1
100
AcDbEntity
  8
0
100
AcDbLine
 62
7
  6
CONTINUOUS
 10
122.6817152499
 20
314.7993590067
 11
123.5081576287
 21
315.0208947413
  0
LINE
  5
2D2
100
AcDbEntity
  8
0
100
AcDbLine
 62
7
  6
CONTINUOUS
 10
122.6817152499
 20
315.7186936201
 11
123.5081576287
 21
315.9402293547
  0
LINE
  5
2D3
100
AcDbEntity
  8
0
100
AcDbLine
 62
7
  6
CONTINUOUS
 10
119.7364827101
 20
303.2733414836
 11
120.4806653785
 21
302.9729122857
  0
LINE
  5
2D4
100
AcDbEntity
  8
0
100
AcDbLine
 62
7
  6
CONTINUOUS
 10
120.4681502891
 20
300.0644601186
 11
120.6169099173
 21
300.0032097434
  0
LINE
  5
2D5
100
AcDbEntity
  8
0
100
AcDbLine
 62
7
  6
CONTINUOUS
 10
130.5329178487
 20
288.7171492377
 11
129.734535536
 21
289.1782731155
  0
LINE
  5
2D6
100
AcDbEntity
  8
0
100
AcDbLine
 62
7
  6
CONTINUOUS
 10
129.8317424411
 20
289.8209953972
 11
131.3593602275
 21
288.9386849723
  0
LINE
  5
2D7
100
AcDbEntity
  8
0
100
AcDbLine
 62
7
  6
CONTINUOUS
 10
121.2367417014
 20
294.9489075686
 11
122.6817152499
 21
294.1143302045
  0
LINE
  5
2D8
100
AcDbEntity
  8
0
100
AcDbLine
 62
7
  6
CONTINUOUS
 10
125.6168863091
 20
292.8905797253
 11
123.2393150437
 21
294.263800129
  0
LINE
  5
2D9
100
AcDbEntity
  8
0
100
AcDbLine
 62
7
  6
CONTINUOUS
 10
120.0384002521
 20
296.3521546466
 11
121.2367417014
 21
295.6600252654
  0
LINE
  5
2DA
100
AcDbEntity
  8
0
100
AcDbLine
 62
7
  6
CONTINUOUS
 10
122.6817152499
 20
295.0336648179
 11
120.0384002521
 21
296.5603715632
  0
LINE
  5
2DB
100
AcDbEntity
  8
0
100
AcDbLine
 62
7
  6
CONTINUOUS
 10
120.0384002521
 20
297.2592379056
 11
123.5081576287
 21
295.2552005525
  0
LINE
  5
2DC
100
AcDbEntity
  8
0
100
AcDbLine
 62
7
  6
CONTINUOUS
 10
121.2367417014
 20
299.170596053
 11
125.6168863091
 21
296.640743832
  0
LINE
  5
2DD
100
AcDbEntity
  8
0
100
AcDbLine
 62
7
  6
CONTINUOUS
 10
120.6169099173
 20
299.6935024822
 11
121.2367417014
 21
299.3355045264
  0
LINE
  5
2DE
100
AcDbEntity
  8
0
100
AcDbLine
 62
7
  6
CONTINUOUS
 10
80.2520082325
 20
369.8902124776
 11
80.5475965613
 21
368.909697766
  0
LINE
  5
2DF
100
AcDbEntity
  8
0
100
AcDbLine
 62
7
  6
CONTINUOUS
 10
103.6049650245
 20
343.6563456562
 11
103.6049650245
 21
251.7228843131
  0
LINE
  5
2E0
100
AcDbEntity
  8
0
100
AcDbLine
 62
7
  6
CONTINUOUS
 10
62.9090109207
 20
287.7435131295
 11
63.5297088153
 21
288.0192155802
  0
LINE
  5
2E1
100
AcDbEntity
  8
0
100
AcDbLine
 62
7
  6
CONTINUOUS
 10
121.2367417014
 20
317.1540685275
 11
125.6168863091
 21
318.3282079209
  0
LINE
  5
2E2
100
AcDbEntity
  8
0
100
AcDbLine
 62
7
  6
CONTINUOUS
 10
131.3593602275
 20
322.4943983626
 11
130.5329178487
 21
322.272862628
  0
LINE
  5
2E3
100
AcDbEntity
  8
0
100
AcDbLine
 62
7
  6
CONTINUOUS
 10
131.3593602275
 20
323.413732976
 11
130.5329178487
 21
323.1921972414
  0
LINE
  5
2E4
100
AcDbEntity
  8
0
100
AcDbLine
 62
7
  6
CONTINUOUS
 10
120.478834395
 20
300.0829584042
 11
120.6169099173
 21
300.0032097434
  0
LINE
  5
2E5
100
AcDbEntity
  8
0
100
AcDbLine
 62
7
  6
CONTINUOUS
 10
130.5329178487
 20
294.692824225
 11
129.3917016556
 21
295.3519596142
  0
LINE
  5
2E6
100
AcDbEntity
  8
0
100
AcDbLine
 62
7
  6
CONTINUOUS
 10
130.5329178487
 20
295.6121588384
 11
129.734535536
 21
296.0732827162
  0
LINE
  5
2E7
100
AcDbEntity
  8
0
100
AcDbLine
 62
7
  6
CONTINUOUS
 10
129.8317424411
 20
296.7160049979
 11
131.3593602275
 21
295.8336945731
  0
LINE
  5
2E8
100
AcDbEntity
  8
0
100
AcDbLine
 62
7
  6
CONTINUOUS
 10
119.1160516925
 20
303.0027058323
 11
119.5838569437
 21
302.732514261
  0
LINE
  5
2E9
100
AcDbEntity
  8
0
100
AcDbLine
 62
7
  6
CONTINUOUS
 10
121.2367417014
 20
301.8439171693
 11
122.6817152499
 21
301.0093398052
  0
LINE
  5
2EA
100
AcDbEntity
  8
0
100
AcDbLine
 62
7
  6
CONTINUOUS
 10
125.6168863091
 20
299.785589326
 11
123.2393150437
 21
301.1588097297
  0
LINE
  5
2EB
100
AcDbEntity
  8
0
100
AcDbLine
 62
7
  6
CONTINUOUS
 10
119.5597843854
 20
303.3753976231
 11
119.7364827101
 21
303.2733414836
  0
LINE
  5
2EC
100
AcDbEntity
  8
0
100
AcDbLine
 62
7
  6
CONTINUOUS
 10
122.6817152499
 20
301.9286744187
 11
121.2367417014
 21
302.7632517828
  0
LINE
  5
2ED
100
AcDbEntity
  8
0
100
AcDbLine
 62
7
  6
CONTINUOUS
 10
121.2367417014
 20
303.4621181251
 11
123.5081576287
 21
302.1502101533
  0
LINE
  5
2EE
100
AcDbEntity
  8
0
100
AcDbLine
 62
7
  6
CONTINUOUS
 10
135.1332518474
 20
326.3675877945
 11
134.2118870488
 21
326.1206072031
  0
LINE
  5
2EF
100
AcDbEntity
  8
0
100
AcDbLine
 62
7
  6
CONTINUOUS
 10
129.8317424411
 20
324.9464678096
 11
120.4806653785
 21
322.4398227251
  0
LINE
  5
2F0
100
AcDbEntity
  8
0
100
AcDbLine
 62
7
  6
CONTINUOUS
 10
135.1700399625
 20
326.9832375367
 11
119.8808559544
 21
322.8848264464
  0
LINE
  5
2F1
100
AcDbEntity
  8
0
100
AcDbLine
 62
7
  6
CONTINUOUS
 10
114.3023698973
 20
323.0684456632
 11
114.5809996755
 21
323.1263198614
  0
LINE
  5
2F2
100
AcDbEntity
  8
0
100
AcDbLine
 62
7
  6
CONTINUOUS
 10
114.3023698973
 20
323.0684456632
 11
114.5804175314
 21
323.118044156
  0
LINE
  5
2F3
100
AcDbEntity
  8
0
100
AcDbLine
 62
7
  6
CONTINUOUS
 10
121.2367417014
 20
306.0656056537
 11
125.6168863091
 21
303.5357534328
  0
LINE
  5
2F4
100
AcDbEntity
  8
0
100
AcDbLine
 62
7
  6
CONTINUOUS
 10
130.5329178487
 20
301.5878338258
 11
129.3917016556
 21
302.2469692149
  0
LINE
  5
2F5
100
AcDbEntity
  8
0
100
AcDbLine
 62
7
  6
CONTINUOUS
 10
130.5329178487
 20
302.5071684392
 11
129.734535536
 21
302.968292317
  0
LINE
  5
2F6
100
AcDbEntity
  8
0
100
AcDbLine
 62
7
  6
CONTINUOUS
 10
129.8317424411
 20
303.6110145987
 11
131.3593602275
 21
302.7287041738
  0
LINE
  5
2F7
100
AcDbEntity
  8
0
100
AcDbLine
 62
7
  6
CONTINUOUS
 10
121.2367417014
 20
308.7389267701
 11
122.6817152499
 21
307.904349406
  0
LINE
  5
2F8
100
AcDbEntity
  8
0
100
AcDbLine
 62
7
  6
CONTINUOUS
 10
125.6168863091
 20
306.6805989268
 11
123.2393150437
 21
308.0538193304
  0
LINE
  5
2F9
100
AcDbEntity
  8
0
100
AcDbLine
 62
7
  6
CONTINUOUS
 10
122.6817152499
 20
308.8236840194
 11
121.2367417014
 21
309.6582613835
  0
LINE
  5
2FA
100
AcDbEntity
  8
0
100
AcDbLine
 62
7
  6
CONTINUOUS
 10
121.2367417014
 20
310.3571277258
 11
123.5081576287
 21
309.045219754
  0
LINE
  5
2FB
100
AcDbEntity
  8
0
100
AcDbLine
 62
7
  6
CONTINUOUS
 10
112.6133059701
 20
338.4533732913
 11
112.6133059701
 21
336.8696605057
  0
LINE
  5
2FC
100
AcDbEntity
  8
0
100
AcDbLine
 62
7
  6
CONTINUOUS
 10
112.9738429455
 20
337.304181838
 11
112.9738429455
 21
338.1789964731
  0
LINE
  5
2FD
100
AcDbEntity
  8
0
100
AcDbLine
 62
7
  6
CONTINUOUS
 10
114.3023698973
 20
245.5443546297
 11
114.3023698973
 21
323.0684456632
  0
LINE
  5
2FE
100
AcDbEntity
  8
0
100
AcDbLine
 62
7
  6
CONTINUOUS
 10
113.7740604074
 20
323.6075733353
 11
113.9298043091
 21
323.6376547617
  0
LINE
  5
2FF
100
AcDbEntity
  8
0
100
AcDbLine
 62
7
  6
CONTINUOUS
 10
113.4848681811
 20
323.5523719667
 11
113.7740604074
 21
323.6075733353
  0
LINE
  5
300
100
AcDbEntity
  8
0
100
AcDbLine
 62
7
  6
CONTINUOUS
 10
113.9368288014
 20
323.6333358667
 11
113.7739875706
 21
323.6039575847
  0
LINE
  5
301
100
AcDbEntity
  8
0
100
AcDbLine
 62
7
  6
CONTINUOUS
 10
113.7739875706
 20
323.6039575847
 11
113.4848681811
 21
323.5523719667
  0
LINE
  5
302
100
AcDbEntity
  8
0
100
AcDbLine
 62
7
  6
CONTINUOUS
 10
121.2367417014
 20
312.9606152545
 11
125.6168863091
 21
310.4307630335
  0
LINE
  5
303
100
AcDbEntity
  8
0
100
AcDbLine
 62
7
  6
CONTINUOUS
 10
130.5329178487
 20
308.4828434265
 11
129.3917016556
 21
309.1419788157
  0
LINE
  5
304
100
AcDbEntity
  8
0
100
AcDbLine
 62
7
  6
CONTINUOUS
 10
130.5329178487
 20
309.4021780399
 11
129.734535536
 21
309.8633019177
  0
LINE
  5
305
100
AcDbEntity
  8
0
100
AcDbLine
 62
7
  6
CONTINUOUS
 10
129.8317424411
 20
310.5060241994
 11
131.3593602275
 21
309.6237137745
  0
LINE
  5
306
100
AcDbEntity
  8
0
100
AcDbLine
 62
7
  6
CONTINUOUS
 10
121.2367417014
 20
315.6339363708
 11
122.6817152499
 21
314.7993590067
  0
LINE
  5
307
100
AcDbEntity
  8
0
100
AcDbLine
 62
7
  6
CONTINUOUS
 10
125.6168863091
 20
313.5756085275
 11
123.2393150437
 21
314.9488289312
  0
LINE
  5
308
100
AcDbEntity
  8
0
100
AcDbLine
 62
7
  6
CONTINUOUS
 10
122.6817152499
 20
315.7186936201
 11
121.2367417014
 21
316.5532709842
  0
LINE
  5
309
100
AcDbEntity
  8
0
100
AcDbLine
 62
7
  6
CONTINUOUS
 10
119.0544135755
 20
263.2742746841
 11
119.0544135755
 21
302.759696331
  0
LINE
  5
30A
100
AcDbEntity
  8
0
100
AcDbLine
 62
7
  6
CONTINUOUS
 10
119.5838569437
 20
302.732514261
 11
119.5838569437
 21
262.8793587688
  0
LINE
  5
30B
100
AcDbEntity
  8
0
100
AcDbLine
 62
7
  6
CONTINUOUS
 10
119.7364827101
 20
303.5194320052
 11
119.7364827101
 21
303.2733414836
  0
LINE
  5
30C
100
AcDbEntity
  8
0
100
AcDbLine
 62
7
  6
CONTINUOUS
 10
119.7364827101
 20
262.9202715561
 11
119.7364827101
 21
262.8985460755
  0
LINE
  5
30D
100
AcDbEntity
  8
0
100
AcDbLine
 62
7
  6
CONTINUOUS
 10
119.8808559544
 20
322.8848264464
 11
119.8808559544
 21
303.9005666791
  0
LINE
  5
30E
100
AcDbEntity
  8
0
100
AcDbLine
 62
7
  6
CONTINUOUS
 10
119.8808559544
 20
262.5764758053
 11
119.8808559544
 21
248.8324233345
  0
LINE
  5
30F
100
AcDbEntity
  8
0
100
AcDbLine
 62
7
  6
CONTINUOUS
 10
120.0384002521
 20
267.7587600473
 11
120.0384002521
 21
270.5167638876
  0
LINE
  5
310
100
AcDbEntity
  8
0
100
AcDbLine
 62
7
  6
CONTINUOUS
 10
120.0384002521
 20
274.653769648
 11
120.0384002521
 21
277.4117734883
  0
LINE
  5
311
100
AcDbEntity
  8
0
100
AcDbLine
 62
7
  6
CONTINUOUS
 10
120.0384002521
 20
281.5487792488
 11
120.0384002521
 21
284.3067830891
  0
LINE
  5
312
100
AcDbEntity
  8
0
100
AcDbLine
 62
7
  6
CONTINUOUS
 10
120.0384002521
 20
288.4437888495
 11
120.0384002521
 21
291.2017926898
  0
LINE
  5
313
100
AcDbEntity
  8
0
100
AcDbLine
 62
7
  6
CONTINUOUS
 10
120.0384002521
 20
295.3387984502
 11
120.0384002521
 21
298.0968022905
  0
LINE
  5
314
100
AcDbEntity
  8
0
100
AcDbLine
 62
7
  6
CONTINUOUS
 10
120.4681502891
 20
265.5894121149
 11
120.4681502891
 21
266.0214993832
  0
LINE
  5
315
100
AcDbEntity
  8
0
100
AcDbLine
 62
7
  6
CONTINUOUS
 10
120.4681502891
 20
272.4844217157
 11
120.4681502891
 21
272.916508984
  0
LINE
  5
316
100
AcDbEntity
  8
0
100
AcDbLine
 62
7
  6
CONTINUOUS
 10
120.4681502891
 20
279.3794313164
 11
120.4681502891
 21
279.8115185847
  0
LINE
  5
317
100
AcDbEntity
  8
0
100
AcDbLine
 62
7
  6
CONTINUOUS
 10
120.4681502891
 20
286.2744409171
 11
120.4681502891
 21
286.7065281854
  0
LINE
  5
318
100
AcDbEntity
  8
0
100
AcDbLine
 62
7
  6
CONTINUOUS
 10
120.4681502891
 20
293.1694505179
 11
120.4681502891
 21
293.6015377862
  0
LINE
  5
319
100
AcDbEntity
  8
0
100
AcDbLine
 62
7
  6
CONTINUOUS
 10
120.4681502891
 20
300.0644601186
 11
120.4681502891
 21
300.4965473869
  0
LINE
  5
31A
100
AcDbEntity
  8
0
100
AcDbLine
 62
7
  6
CONTINUOUS
 10
120.4806653785
 20
322.4398227251
 11
120.4806653785
 21
302.9729122857
  0
LINE
  5
31B
100
AcDbEntity
  8
0
100
AcDbLine
 62
7
  6
CONTINUOUS
 10
120.4806653785
 20
263.1197567935
 11
120.4806653785
 21
249.0217604965
  0
LINE
  5
31C
100
AcDbEntity
  8
0
100
AcDbLine
 62
7
  6
CONTINUOUS
 10
120.6169099173
 20
264.4433468958
 11
120.6169099173
 21
265.5281617397
  0
LINE
  5
31D
100
AcDbEntity
  8
0
100
AcDbLine
 62
7
  6
CONTINUOUS
 10
120.6169099173
 20
266.1625026229
 11
120.6169099173
 21
267.2473174668
  0
LINE
  5
31E
100
AcDbEntity
  8
0
100
AcDbLine
 62
7
  6
CONTINUOUS
 10
120.6169099173
 20
271.3383564966
 11
120.6169099173
 21
272.4231713404
  0
LINE
  5
31F
100
AcDbEntity
  8
0
100
AcDbLine
 62
7
  6
CONTINUOUS
 10
120.6169099173
 20
273.0575122237
 11
120.6169099173
 21
274.1423270675
  0
LINE
  5
320
100
AcDbEntity
  8
0
100
AcDbLine
 62
7
  6
CONTINUOUS
 10
120.6169099173
 20
278.2333660973
 11
120.6169099173
 21
279.3181809411
  0
LINE
  5
321
100
AcDbEntity
  8
0
100
AcDbLine
 62
7
  6
CONTINUOUS
 10
120.6169099173
 20
279.9525218244
 11
120.6169099173
 21
281.0373366683
  0
LINE
  5
322
100
AcDbEntity
  8
0
100
AcDbLine
 62
7
  6
CONTINUOUS
 10
120.6169099173
 20
285.128375698
 11
120.6169099173
 21
286.2131905419
  0
LINE
  5
323
100
AcDbEntity
  8
0
100
AcDbLine
 62
7
  6
CONTINUOUS
 10
120.6169099173
 20
286.8475314251
 11
120.6169099173
 21
287.932346269
  0
LINE
  5
324
100
AcDbEntity
  8
0
100
AcDbLine
 62
7
  6
CONTINUOUS
 10
120.6169099173
 20
292.0233852988
 11
120.6169099173
 21
293.1082001426
  0
LINE
  5
325
100
AcDbEntity
  8
0
100
AcDbLine
 62
7
  6
CONTINUOUS
 10
120.6169099173
 20
293.7425410259
 11
120.6169099173
 21
294.8273558697
  0
LINE
  5
326
100
AcDbEntity
  8
0
100
AcDbLine
 62
7
  6
CONTINUOUS
 10
120.6169099173
 20
298.9183948995
 11
120.6169099173
 21
300.0032097434
  0
LINE
  5
327
100
AcDbEntity
  8
0
100
AcDbLine
 62
7
  6
CONTINUOUS
 10
120.6169099173
 20
300.6375506266
 11
120.6169099173
 21
301.7223654705
  0
LINE
  5
328
100
AcDbEntity
  8
0
100
AcDbLine
 62
7
  6
CONTINUOUS
 10
120.71860092
 20
301.7084520024
 11
120.71860092
 21
299.6347685289
  0
LINE
  5
329
100
AcDbEntity
  8
0
100
AcDbLine
 62
7
  6
CONTINUOUS
 10
120.71860092
 20
294.8134424017
 11
120.71860092
 21
292.7397589281
  0
LINE
  5
32A
100
AcDbEntity
  8
0
100
AcDbLine
 62
7
  6
CONTINUOUS
 10
120.71860092
 20
287.918432801
 11
120.71860092
 21
285.8447493274
  0
LINE
  5
32B
100
AcDbEntity
  8
0
100
AcDbLine
 62
7
  6
CONTINUOUS
 10
120.71860092
 20
281.0234232002
 11
120.71860092
 21
278.9497397267
  0
LINE
  5
32C
100
AcDbEntity
  8
0
100
AcDbLine
 62
7
  6
CONTINUOUS
 10
120.71860092
 20
274.1284135995
 11
120.71860092
 21
272.0547301259
  0
LINE
  5
32D
100
AcDbEntity
  8
0
100
AcDbLine
 62
7
  6
CONTINUOUS
 10
120.71860092
 20
267.2334039988
 11
120.71860092
 21
265.1597205252
  0
LINE
  5
32E
100
AcDbEntity
  8
0
100
AcDbLine
 62
7
  6
CONTINUOUS
 10
121.2367417014
 20
249.224433941
 11
121.2367417014
 21
264.8604565228
  0
LINE
  5
32F
100
AcDbEntity
  8
0
100
AcDbLine
 62
7
  6
CONTINUOUS
 10
121.2367417014
 20
267.1625114418
 11
121.2367417014
 21
268.0799868625
  0
LINE
  5
330
100
AcDbEntity
  8
0
100
AcDbLine
 62
7
  6
CONTINUOUS
 10
121.2367417014
 20
270.8379907028
 11
121.2367417014
 21
271.7554661235
  0
LINE
  5
331
100
AcDbEntity
  8
0
100
AcDbLine
 62
7
  6
CONTINUOUS
 10
121.2367417014
 20
274.0575210425
 11
121.2367417014
 21
274.9749964632
  0
LINE
  5
332
100
AcDbEntity
  8
0
100
AcDbLine
 62
7
  6
CONTINUOUS
 10
121.2367417014
 20
277.7330003035
 11
121.2367417014
 21
278.6504757242
  0
LINE
  5
333
100
AcDbEntity
  8
0
100
AcDbLine
 62
7
  6
CONTINUOUS
 10
121.2367417014
 20
280.9525306433
 11
121.2367417014
 21
281.870006064
  0
LINE
  5
334
100
AcDbEntity
  8
0
100
AcDbLine
 62
7
  6
CONTINUOUS
 10
121.2367417014
 20
284.6280099043
 11
121.2367417014
 21
285.545485325
  0
LINE
  5
335
100
AcDbEntity
  8
0
100
AcDbLine
 62
7
  6
CONTINUOUS
 10
121.2367417014
 20
287.847540244
 11
121.2367417014
 21
288.7650156647
  0
LINE
  5
336
100
AcDbEntity
  8
0
100
AcDbLine
 62
7
  6
CONTINUOUS
 10
121.2367417014
 20
291.523019505
 11
121.2367417014
 21
292.4404949257
  0
LINE
  5
337
100
AcDbEntity
  8
0
100
AcDbLine
 62
7
  6
CONTINUOUS
 10
121.2367417014
 20
294.7425498447
 11
121.2367417014
 21
295.6600252654
  0
LINE
  5
338
100
AcDbEntity
  8
0
100
AcDbLine
 62
7
  6
CONTINUOUS
 10
121.2367417014
 20
298.4180291057
 11
121.2367417014
 21
299.3355045264
  0
LINE
  5
339
100
AcDbEntity
  8
0
100
AcDbLine
 62
7
  6
CONTINUOUS
 10
121.2367417014
 20
301.6375594455
 11
121.2367417014
 21
317.1540685275
  0
LINE
  5
33A
100
AcDbEntity
  8
0
100
AcDbLine
 62
7
  6
CONTINUOUS
 10
120.6169099173
 20
300.6375506266
 11
120.4681502891
 21
300.4965473869
  0
LINE
  5
33B
100
AcDbEntity
  8
0
100
AcDbLine
 62
7
  6
CONTINUOUS
 10
120.6169099173
 20
298.9183948995
 11
121.2367417014
 21
299.3355045264
  0
LINE
  5
33C
100
AcDbEntity
  8
0
100
AcDbLine
 62
7
  6
CONTINUOUS
 10
120.4806653785
 20
322.4398227251
 11
119.8808559544
 21
322.6819679293
  0
LINE
  5
33D
100
AcDbEntity
  8
0
100
AcDbLine
 62
7
  6
CONTINUOUS
 10
121.3527126771
 20
317.1851556498
 11
123.5081576287
 21
315.9402293547
  0
LINE
  5
33E
100
AcDbEntity
  8
0
100
AcDbLine
 62
7
  6
CONTINUOUS
 10
113.9298088573
 20
323.6373903915
 11
114.5491454994
 21
323.2796787411
  0
LINE
  5
33F
100
AcDbEntity
  8
0
100
AcDbLine
 62
7
  6
CONTINUOUS
 10
124.4314593501
 20
318.0104429576
 11
125.6168863091
 21
317.3257726342
  0
LINE
  5
340
100
AcDbEntity
  8
0
100
AcDbLine
 62
7
  6
CONTINUOUS
 10
134.2118870488
 20
313.2407292689
 11
129.3879840245
 21
316.0268842644
  0
LINE
  5
341
100
AcDbEntity
  8
0
100
AcDbLine
 62
7
  6
CONTINUOUS
 10
130.5329178487
 20
315.3778530272
 11
129.3917016556
 21
316.0369884164
  0
LINE
  5
342
100
AcDbEntity
  8
0
100
AcDbLine
 62
7
  6
CONTINUOUS
 10
130.5329178487
 20
316.2971876407
 11
129.734535536
 21
316.7583115185
  0
LINE
  5
343
100
AcDbEntity
  8
0
100
AcDbLine
 62
7
  6
CONTINUOUS
 10
65.8825373151
 20
354.0900099585
 11
65.0380053515
 21
354.5777886177
  0
LINE
  5
344
100
AcDbEntity
  8
0
100
AcDbLine
 62
7
  6
CONTINUOUS
 10
129.8317424411
 20
317.4010338001
 11
131.3593602275
 21
316.5187233753
  0
LINE
  5
345
100
AcDbEntity
  8
0
100
AcDbLine
 62
7
  6
CONTINUOUS
 10
113.4848161091
 20
323.5523184139
 11
114.3023698973
 21
323.0684456631
  0
LINE
  5
346
100
AcDbEntity
  8
0
100
AcDbLine
 62
7
  6
CONTINUOUS
 10
134.8317188329
 20
303.6474232256
 11
135.1332518474
 21
303.3842224587
  0
LINE
  5
347
100
AcDbEntity
  8
0
100
AcDbLine
 62
7
  6
CONTINUOUS
 10
112.6133059701
 20
336.8696605057
 11
112.9831835777
 21
335.389804758
  0
LINE
  5
348
100
AcDbEntity
  8
0
100
AcDbLine
 62
7
  6
CONTINUOUS
 10
113.4197497376
 20
335.4852161297
 11
112.9738429455
 21
337.304181838
  0
LINE
  5
349
100
AcDbEntity
  8
0
100
AcDbLine
 62
7
  6
CONTINUOUS
 10
113.3491607595
 20
337.9622231265
 11
114.044894802
 21
335.124149368
  0
LINE
  5
34A
100
AcDbEntity
  8
0
100
AcDbLine
 62
7
  6
CONTINUOUS
 10
122.6817152499
 20
315.7186936201
 11
122.6817152499
 21
314.7993590067
  0
LINE
  5
34B
100
AcDbEntity
  8
0
100
AcDbLine
 62
7
  6
CONTINUOUS
 10
122.6817152499
 20
308.8236840194
 11
122.6817152499
 21
307.904349406
  0
LINE
  5
34C
100
AcDbEntity
  8
0
100
AcDbLine
 62
7
  6
CONTINUOUS
 10
122.6817152499
 20
301.9286744187
 11
122.6817152499
 21
301.0093398052
  0
LINE
  5
34D
100
AcDbEntity
  8
0
100
AcDbLine
 62
7
  6
CONTINUOUS
 10
122.6817152499
 20
295.0336648179
 11
122.6817152499
 21
294.1143302045
  0
LINE
  5
34E
100
AcDbEntity
  8
0
100
AcDbLine
 62
7
  6
CONTINUOUS
 10
122.6817152499
 20
288.1386552172
 11
122.6817152499
 21
287.2193206038
  0
LINE
  5
34F
100
AcDbEntity
  8
0
100
AcDbLine
 62
7
  6
CONTINUOUS
 10
122.6817152499
 20
281.2436456165
 11
122.6817152499
 21
280.324311003
  0
LINE
  5
350
100
AcDbEntity
  8
0
100
AcDbLine
 62
7
  6
CONTINUOUS
 10
122.6817152499
 20
274.3486360157
 11
122.6817152499
 21
273.4293014023
  0
LINE
  5
351
100
AcDbEntity
  8
0
100
AcDbLine
 62
7
  6
CONTINUOUS
 10
122.6817152499
 20
267.453626415
 11
122.6817152499
 21
266.5342918016
  0
LINE
  5
352
100
AcDbEntity
  8
0
100
AcDbLine
 62
7
  6
CONTINUOUS
 10
122.6817152499
 20
260.5586168143
 11
122.6817152499
 21
259.6392822008
  0
LINE
  5
353
100
AcDbEntity
  8
0
100
AcDbLine
 62
7
  6
CONTINUOUS
 10
122.6817152499
 20
253.6636072135
 11
122.6817152499
 21
252.7442726001
  0
LINE
  5
354
100
AcDbEntity
  8
0
100
AcDbLine
 62
7
  6
CONTINUOUS
 10
123.5081576287
 20
252.9658083347
 11
123.5081576287
 21
253.8851429481
  0
LINE
  5
355
100
AcDbEntity
  8
0
100
AcDbLine
 62
7
  6
CONTINUOUS
 10
123.5081576287
 20
259.8608179354
 11
123.5081576287
 21
260.7801525489
  0
LINE
  5
356
100
AcDbEntity
  8
0
100
AcDbLine
 62
7
  6
CONTINUOUS
 10
123.5081576287
 20
266.7558275362
 11
123.5081576287
 21
267.6751621496
  0
LINE
  5
357
100
AcDbEntity
  8
0
100
AcDbLine
 62
7
  6
CONTINUOUS
 10
123.5081576287
 20
273.6508371369
 11
123.5081576287
 21
274.5701717503
  0
LINE
  5
358
100
AcDbEntity
  8
0
100
AcDbLine
 62
7
  6
CONTINUOUS
 10
123.5081576287
 20
280.5458467376
 11
123.5081576287
 21
281.4651813511
  0
LINE
  5
359
100
AcDbEntity
  8
0
100
AcDbLine
 62
7
  6
CONTINUOUS
 10
123.5081576287
 20
287.4408563384
 11
123.5081576287
 21
288.3601909518
  0
LINE
  5
35A
100
AcDbEntity
  8
0
100
AcDbLine
 62
7
  6
CONTINUOUS
 10
123.5081576287
 20
294.3358659391
 11
123.5081576287
 21
295.2552005525
  0
LINE
  5
35B
100
AcDbEntity
  8
0
100
AcDbLine
 62
7
  6
CONTINUOUS
 10
123.5081576287
 20
301.2308755398
 11
123.5081576287
 21
302.1502101533
  0
LINE
  5
35C
100
AcDbEntity
  8
0
100
AcDbLine
 62
7
  6
CONTINUOUS
 10
123.5081576287
 20
308.1258851406
 11
123.5081576287
 21
309.045219754
  0
LINE
  5
35D
100
AcDbEntity
  8
0
100
AcDbLine
 62
7
  6
CONTINUOUS
 10
123.5081576287
 20
315.0208947413
 11
123.5081576287
 21
315.9402293547
  0
LINE
  5
35E
100
AcDbEntity
  8
0
100
AcDbLine
 62
7
  6
CONTINUOUS
 10
125.0512637712
 20
341.1971958591
 11
125.0512637712
 21
341.7874860972
  0
LINE
  5
35F
100
AcDbEntity
  8
0
100
AcDbLine
 62
7
  6
CONTINUOUS
 10
125.6168863091
 20
318.3282079209
 11
125.6168863091
 21
317.3257726342
  0
LINE
  5
360
100
AcDbEntity
  8
0
100
AcDbLine
 62
7
  6
CONTINUOUS
 10
125.6168863091
 20
313.5756085275
 11
125.6168863091
 21
310.4307630335
  0
LINE
  5
361
100
AcDbEntity
  8
0
100
AcDbLine
 62
7
  6
CONTINUOUS
 10
125.6168863091
 20
306.6805989268
 11
125.6168863091
 21
303.5357534328
  0
LINE
  5
362
100
AcDbEntity
  8
0
100
AcDbLine
 62
7
  6
CONTINUOUS
 10
125.6168863091
 20
299.785589326
 11
125.6168863091
 21
296.640743832
  0
LINE
  5
363
100
AcDbEntity
  8
0
100
AcDbLine
 62
7
  6
CONTINUOUS
 10
125.6168863091
 20
292.8905797253
 11
125.6168863091
 21
289.7457342313
  0
LINE
  5
364
100
AcDbEntity
  8
0
100
AcDbLine
 62
7
  6
CONTINUOUS
 10
125.6168863091
 20
285.9955701246
 11
125.6168863091
 21
282.8507246305
  0
LINE
  5
365
100
AcDbEntity
  8
0
100
AcDbLine
 62
7
  6
CONTINUOUS
 10
125.6168863091
 20
279.1005605238
 11
125.6168863091
 21
275.9557150298
  0
LINE
  5
366
100
AcDbEntity
  8
0
100
AcDbLine
 62
7
  6
CONTINUOUS
 10
125.6168863091
 20
272.2055509231
 11
125.6168863091
 21
269.0607054291
  0
LINE
  5
367
100
AcDbEntity
  8
0
100
AcDbLine
 62
7
  6
CONTINUOUS
 10
125.6168863091
 20
265.3105413223
 11
125.6168863091
 21
262.1656958283
  0
LINE
  5
368
100
AcDbEntity
  8
0
100
AcDbLine
 62
7
  6
CONTINUOUS
 10
125.6168863091
 20
258.4155317216
 11
125.6168863091
 21
255.2706862276
  0
LINE
  5
369
100
AcDbEntity
  8
0
100
AcDbLine
 62
7
  6
CONTINUOUS
 10
125.6168863091
 20
251.5205221209
 11
125.6168863091
 21
250.3985733345
  0
LINE
  5
36A
100
AcDbEntity
  8
0
100
AcDbLine
 62
7
  6
CONTINUOUS
 10
120.6169099173
 20
293.7425410259
 11
120.4681502891
 21
293.6015377862
  0
LINE
  5
36B
100
AcDbEntity
  8
0
100
AcDbLine
 62
7
  6
CONTINUOUS
 10
120.6169099173
 20
292.0233852988
 11
121.2367417014
 21
292.4404949257
  0
LINE
  5
36C
100
AcDbEntity
  8
0
100
AcDbLine
 62
7
  6
CONTINUOUS
 10
114.044894802
 20
335.124149368
 11
139.9951854969
 21
342.0803714348
  0
LINE
  5
36D
100
AcDbEntity
  8
0
100
AcDbLine
 62
7
  6
CONTINUOUS
 10
126.2612142742
 20
338.7575663493
 11
140.239185975
 21
342.5044945182
  0
LINE
  5
36E
100
AcDbEntity
  8
0
100
AcDbLine
 62
7
  6
CONTINUOUS
 10
126.0479310882
 20
338.870320166
 11
125.7414185451
 21
338.7881565655
  0
LINE
  5
36F
100
AcDbEntity
  8
0
100
AcDbLine
 62
7
  6
CONTINUOUS
 10
112.9831835777
 20
335.389804758
 11
113.4143442271
 21
335.505381468
  0
LINE
  5
370
100
AcDbEntity
  8
0
100
AcDbLine
 62
7
  6
CONTINUOUS
 10
112.6133059701
 20
336.8696605057
 11
113.0515636357
 21
336.9871396384
  0
LINE
  5
371
100
AcDbEntity
  8
0
100
AcDbLine
 62
7
  6
CONTINUOUS
 10
113.3491607595
 20
337.9622231265
 11
125.1672867765
 21
341.1301841314
  0
LINE
  5
372
100
AcDbEntity
  8
0
100
AcDbLine
 62
7
  6
CONTINUOUS
 10
139.5661812704
 20
345.2498496033
 11
125.5709659943
 21
341.4982991302
  0
LINE
  5
373
100
AcDbEntity
  8
0
100
AcDbLine
 62
7
  6
CONTINUOUS
 10
112.9738429455
 20
338.1789964731
 11
124.7919689626
 21
341.346957478
  0
LINE
  5
374
100
AcDbEntity
  8
0
100
AcDbLine
 62
7
  6
CONTINUOUS
 10
125.0512637713
 20
341.7874860972
 11
112.6133059701
 21
338.4533732913
  0
LINE
  5
375
100
AcDbEntity
  8
0
100
AcDbLine
 62
7
  6
CONTINUOUS
 10
130.5329178487
 20
322.272862628
 11
129.3917016556
 21
322.9319980171
  0
LINE
  5
376
100
AcDbEntity
  8
0
100
AcDbLine
 62
7
  6
CONTINUOUS
 10
130.5329178487
 20
323.1921972414
 11
129.734535536
 21
323.6533211192
  0
LINE
  5
377
100
AcDbEntity
  8
0
100
AcDbLine
 62
7
  6
CONTINUOUS
 10
129.3136016597
 20
325.4133635868
 11
129.3136016597
 21
325.2457318121
  0
LINE
  5
378
100
AcDbEntity
  8
0
100
AcDbLine
 62
7
  6
CONTINUOUS
 10
129.3136016597
 20
322.7197299848
 11
129.3136016597
 21
320.9013588325
  0
LINE
  5
379
100
AcDbEntity
  8
0
100
AcDbLine
 62
7
  6
CONTINUOUS
 10
129.3136016597
 20
308.9297107833
 11
129.3136016597
 21
307.1113396311
  0
LINE
  5
37A
100
AcDbEntity
  8
0
100
AcDbLine
 62
7
  6
CONTINUOUS
 10
129.3136016597
 20
302.0347011826
 11
129.3136016597
 21
300.2163300303
  0
LINE
  5
37B
100
AcDbEntity
  8
0
100
AcDbLine
 62
7
  6
CONTINUOUS
 10
129.3136016597
 20
295.1396915818
 11
129.3136016597
 21
293.3213204296
  0
LINE
  5
37C
100
AcDbEntity
  8
0
100
AcDbLine
 62
7
  6
CONTINUOUS
 10
129.3136016597
 20
288.2446819811
 11
129.3136016597
 21
286.4263108289
  0
LINE
  5
37D
100
AcDbEntity
  8
0
100
AcDbLine
 62
7
  6
CONTINUOUS
 10
129.3136016597
 20
281.3496723804
 11
129.3136016597
 21
279.5313012281
  0
LINE
  5
37E
100
AcDbEntity
  8
0
100
AcDbLine
 62
7
  6
CONTINUOUS
 10
129.3136016597
 20
274.4546627796
 11
129.3136016597
 21
272.6362916274
  0
LINE
  5
37F
100
AcDbEntity
  8
0
100
AcDbLine
 62
7
  6
CONTINUOUS
 10
129.3136016597
 20
267.5596531789
 11
129.3136016597
 21
265.7412820267
  0
LINE
  5
380
100
AcDbEntity
  8
0
100
AcDbLine
 62
7
  6
CONTINUOUS
 10
129.8317424411
 20
257.0168332232
 11
129.8317424411
 21
258.0192685098
  0
LINE
  5
381
100
AcDbEntity
  8
0
100
AcDbLine
 62
7
  6
CONTINUOUS
 10
129.8317424411
 20
261.7694326166
 11
129.8317424411
 21
264.9142781106
  0
LINE
  5
382
100
AcDbEntity
  8
0
100
AcDbLine
 62
7
  6
CONTINUOUS
 10
129.8317424411
 20
268.6644422173
 11
129.8317424411
 21
271.8092877113
  0
LINE
  5
383
100
AcDbEntity
  8
0
100
AcDbLine
 62
7
  6
CONTINUOUS
 10
129.8317424411
 20
275.559451818
 11
129.8317424411
 21
278.704297312
  0
LINE
  5
384
100
AcDbEntity
  8
0
100
AcDbLine
 62
7
  6
CONTINUOUS
 10
129.8317424411
 20
282.4544614188
 11
129.8317424411
 21
285.5993069128
  0
LINE
  5
385
100
AcDbEntity
  8
0
100
AcDbLine
 62
7
  6
CONTINUOUS
 10
129.8317424411
 20
289.3494710195
 11
129.8317424411
 21
292.4943165135
  0
LINE
  5
386
100
AcDbEntity
  8
0
100
AcDbLine
 62
7
  6
CONTINUOUS
 10
129.8317424411
 20
296.2444806202
 11
129.8317424411
 21
299.3893261143
  0
LINE
  5
387
100
AcDbEntity
  8
0
100
AcDbLine
 62
7
  6
CONTINUOUS
 10
129.8317424411
 20
303.139490221
 11
129.8317424411
 21
306.284335715
  0
LINE
  5
388
100
AcDbEntity
  8
0
100
AcDbLine
 62
7
  6
CONTINUOUS
 10
129.8317424411
 20
310.0344998217
 11
129.8317424411
 21
311.147255262
  0
LINE
  5
389
100
AcDbEntity
  8
0
100
AcDbLine
 62
7
  6
CONTINUOUS
 10
129.8317424411
 20
312.0665898754
 11
129.8317424411
 21
313.1793453157
  0
LINE
  5
38A
100
AcDbEntity
  8
0
100
AcDbLine
 62
7
  6
CONTINUOUS
 10
129.8317424411
 20
316.9295094225
 11
129.8317424411
 21
320.0743549165
  0
LINE
  5
38B
100
AcDbEntity
  8
0
100
AcDbLine
 62
7
  6
CONTINUOUS
 10
129.8317424411
 20
323.8245190232
 11
129.8317424411
 21
324.9464678096
  0
LINE
  5
38C
100
AcDbEntity
  8
0
100
AcDbLine
 62
7
  6
CONTINUOUS
 10
130.5329178487
 20
323.1921972414
 11
130.5329178487
 21
322.272862628
  0
LINE
  5
38D
100
AcDbEntity
  8
0
100
AcDbLine
 62
7
  6
CONTINUOUS
 10
130.5329178487
 20
316.2971876407
 11
130.5329178487
 21
315.3778530272
  0
LINE
  5
38E
100
AcDbEntity
  8
0
100
AcDbLine
 62
7
  6
CONTINUOUS
 10
130.5329178487
 20
309.4021780399
 11
130.5329178487
 21
308.4828434265
  0
LINE
  5
38F
100
AcDbEntity
  8
0
100
AcDbLine
 62
7
  6
CONTINUOUS
 10
130.5329178487
 20
302.5071684392
 11
130.5329178487
 21
301.5878338258
  0
LINE
  5
390
100
AcDbEntity
  8
0
100
AcDbLine
 62
7
  6
CONTINUOUS
 10
130.5329178487
 20
295.6121588384
 11
130.5329178487
 21
294.692824225
  0
LINE
  5
391
100
AcDbEntity
  8
0
100
AcDbLine
 62
7
  6
CONTINUOUS
 10
130.5329178487
 20
288.7171492377
 11
130.5329178487
 21
287.7978146243
  0
LINE
  5
392
100
AcDbEntity
  8
0
100
AcDbLine
 62
7
  6
CONTINUOUS
 10
130.5329178487
 20
281.822139637
 11
130.5329178487
 21
280.9028050235
  0
LINE
  5
393
100
AcDbEntity
  8
0
100
AcDbLine
 62
7
  6
CONTINUOUS
 10
130.5329178487
 20
274.9271300362
 11
130.5329178487
 21
274.0077954228
  0
LINE
  5
394
100
AcDbEntity
  8
0
100
AcDbLine
 62
7
  6
CONTINUOUS
 10
130.5329178487
 20
268.0321204355
 11
130.5329178487
 21
267.1127858221
  0
LINE
  5
395
100
AcDbEntity
  8
0
100
AcDbLine
 62
7
  6
CONTINUOUS
 10
130.5329178487
 20
261.1371108348
 11
130.5329178487
 21
260.2177762213
  0
LINE
  5
396
100
AcDbEntity
  8
0
100
AcDbLine
 62
7
  6
CONTINUOUS
 10
131.3593602275
 20
260.439311956
 11
131.3593602275
 21
261.3586465694
  0
LINE
  5
397
100
AcDbEntity
  8
0
100
AcDbLine
 62
7
  6
CONTINUOUS
 10
131.3593602275
 20
267.3343215567
 11
131.3593602275
 21
268.2536561701
  0
LINE
  5
398
100
AcDbEntity
  8
0
100
AcDbLine
 62
7
  6
CONTINUOUS
 10
131.3593602275
 20
274.2293311574
 11
131.3593602275
 21
275.1486657709
  0
LINE
  5
399
100
AcDbEntity
  8
0
100
AcDbLine
 62
7
  6
CONTINUOUS
 10
131.3593602275
 20
281.1243407582
 11
131.3593602275
 21
282.0436753716
  0
LINE
  5
39A
100
AcDbEntity
  8
0
100
AcDbLine
 62
7
  6
CONTINUOUS
 10
131.3593602275
 20
288.0193503589
 11
131.3593602275
 21
288.9386849723
  0
LINE
  5
39B
100
AcDbEntity
  8
0
100
AcDbLine
 62
7
  6
CONTINUOUS
 10
131.3593602275
 20
294.9143599596
 11
131.3593602275
 21
295.8336945731
  0
LINE
  5
39C
100
AcDbEntity
  8
0
100
AcDbLine
 62
7
  6
CONTINUOUS
 10
131.3593602275
 20
301.8093695604
 11
131.3593602275
 21
302.7287041738
  0
LINE
  5
39D
100
AcDbEntity
  8
0
100
AcDbLine
 62
7
  6
CONTINUOUS
 10
131.3593602275
 20
308.7043791611
 11
131.3593602275
 21
309.6237137745
  0
LINE
  5
39E
100
AcDbEntity
  8
0
100
AcDbLine
 62
7
  6
CONTINUOUS
 10
131.3593602275
 20
315.5993887618
 11
131.3593602275
 21
316.5187233753
  0
LINE
  5
39F
100
AcDbEntity
  8
0
100
AcDbLine
 62
7
  6
CONTINUOUS
 10
131.3593602275
 20
322.4943983626
 11
131.3593602275
 21
323.413732976
  0
LINE
  5
3A0
100
AcDbEntity
  8
0
100
AcDbLine
 62
7
  6
CONTINUOUS
 10
120.6169099173
 20
286.8475314251
 11
120.4681502891
 21
286.7065281854
  0
LINE
  5
3A1
100
AcDbEntity
  8
0
100
AcDbLine
 62
7
  6
CONTINUOUS
 10
129.8317424411
 20
324.2960434009
 11
131.3593602275
 21
323.413732976
  0
LINE
  5
3A2
100
AcDbEntity
  8
0
100
AcDbLine
 62
7
  6
CONTINUOUS
 10
129.1153691876
 20
325.3602254886
 11
129.8317424411
 21
324.9464678096
  0
LINE
  5
3A3
100
AcDbEntity
  8
0
100
AcDbLine
 62
7
  6
CONTINUOUS
 10
113.3491607595
 20
337.9622231265
 11
112.9738429455
 21
338.1789964731
  0
LINE
  5
3A4
100
AcDbEntity
  8
0
100
AcDbLine
 62
7
  6
CONTINUOUS
 10
112.6133059701
 20
338.4533732913
 11
65.525596108
 21
365.6499519534
  0
LINE
  5
3A5
100
AcDbEntity
  8
0
100
AcDbLine
 62
7
  6
CONTINUOUS
 10
133.4955137953
 20
326.534364882
 11
134.2118870488
 21
326.1206072031
  0
LINE
  5
3A6
100
AcDbEntity
  8
0
100
AcDbLine
 62
7
  6
CONTINUOUS
 10
125.8630208191
 20
338.2921103729
 11
125.1672867765
 21
341.1301841314
  0
LINE
  5
3A7
100
AcDbEntity
  8
0
100
AcDbLine
 62
7
  6
CONTINUOUS
 10
134.2118870488
 20
326.1206072031
 11
134.2118870488
 21
313.2407292689
  0
LINE
  5
3A8
100
AcDbEntity
  8
0
100
AcDbLine
 62
7
  6
CONTINUOUS
 10
134.2118870488
 20
312.3213946554
 11
134.2118870488
 21
258.1909726166
  0
LINE
  5
3A9
100
AcDbEntity
  8
0
100
AcDbLine
 62
7
  6
CONTINUOUS
 10
134.8317188329
 20
268.4973852037
 11
134.8317188329
 21
275.8520621112
  0
LINE
  5
3AA
100
AcDbEntity
  8
0
100
AcDbLine
 62
7
  6
CONTINUOUS
 10
134.8317188329
 20
303.3033936682
 11
134.8317188329
 21
310.6580705757
  0
LINE
  5
3AB
100
AcDbEntity
  8
0
100
AcDbLine
 62
7
  6
CONTINUOUS
 10
135.1332518474
 20
326.3675877945
 11
135.1332518474
 21
310.7388993662
  0
LINE
  5
3AC
100
AcDbEntity
  8
0
100
AcDbLine
 62
7
  6
CONTINUOUS
 10
135.1332518474
 20
303.3842224587
 11
135.1332518474
 21
275.9328909016
  0
LINE
  5
3AD
100
AcDbEntity
  8
0
100
AcDbLine
 62
7
  6
CONTINUOUS
 10
135.1332518474
 20
268.5782139942
 11
135.1332518474
 21
252.9495255659
  0
LINE
  5
3AE
100
AcDbEntity
  8
0
100
AcDbLine
 62
7
  6
CONTINUOUS
 10
135.1700399625
 20
252.9308344249
 11
135.1700399625
 21
326.9832375367
  0
LINE
  5
3AF
100
AcDbEntity
  8
0
100
AcDbLine
 62
7
  6
CONTINUOUS
 10
120.6169099173
 20
279.9525218244
 11
120.4681502891
 21
279.8115185847
  0
LINE
  5
3B0
100
AcDbEntity
  8
0
100
AcDbLine
 62
7
  6
CONTINUOUS
 10
120.6169099173
 20
285.128375698
 11
121.2367417014
 21
285.545485325
  0
LINE
  5
3B1
100
AcDbEntity
  8
0
100
AcDbLine
 62
7
  6
CONTINUOUS
 10
130.0511211467
 20
350.7454891638
 11
103.6049650245
 21
343.6563456562
  0
LINE
  5
3B2
100
AcDbEntity
  8
0
100
AcDbLine
 62
7
  6
CONTINUOUS
 10
67.0621106106
 20
366.0618371233
 11
67.4236321454
 21
365.856897551
  0
LINE
  5
3B3
100
AcDbEntity
  8
0
100
AcDbLine
 62
7
  6
CONTINUOUS
 10
134.5698888878
 20
326.822361337
 11
134.6950897667
 21
326.7500487195
  0
LINE
  5
3B4
100
AcDbEntity
  8
0
100
AcDbLine
 62
7
  6
CONTINUOUS
 10
71.7903920815
 20
366.0602732994
 11
70.6466611782
 21
366.7208611167
  0
LINE
  5
3B5
100
AcDbEntity
  8
0
100
AcDbLine
 62
7
  6
CONTINUOUS
 10
134.6950897667
 20
326.7500487195
 11
135.1332518474
 21
326.3675877945
  0
LINE
  5
3B6
100
AcDbEntity
  8
0
100
AcDbLine
 62
7
  6
CONTINUOUS
 10
125.5709659943
 20
341.4982991302
 11
126.2612142742
 21
338.7575663493
  0
LINE
  5
3B7
100
AcDbEntity
  8
0
100
AcDbLine
 62
7
  6
CONTINUOUS
 10
140.7485260195
 20
252.6334981373
 11
140.7485260195
 21
330.1575891707
  0
LINE
  5
3B8
100
AcDbEntity
  8
0
100
AcDbLine
 62
7
  6
CONTINUOUS
 10
120.6169099173
 20
273.0575122237
 11
120.4681502891
 21
272.916508984
  0
LINE
  5
3B9
100
AcDbEntity
  8
0
100
AcDbLine
 62
7
  6
CONTINUOUS
 10
120.6169099173
 20
278.2333660973
 11
121.2367417014
 21
278.6504757242
  0
LINE
  5
3BA
100
AcDbEntity
  8
0
100
AcDbLine
 62
7
  6
CONTINUOUS
 10
126.2612142742
 20
338.7575663493
 11
125.6726402225
 21
339.0687206039
  0
LINE
  5
3BB
100
AcDbEntity
  8
0
100
AcDbLine
 62
7
  6
CONTINUOUS
 10
125.0512637712
 20
341.7874860972
 11
125.5709659943
 21
341.4982991302
  0
LINE
  5
3BC
100
AcDbEntity
  8
0
100
AcDbLine
 62
7
  6
CONTINUOUS
 10
97.1842204934
 20
356.4529285877
 11
84.4210935508
 21
363.7477028304
  0
LINE
  5
3BD
100
AcDbEntity
  8
0
100
AcDbLine
 62
7
  6
CONTINUOUS
 10
78.1121690559
 20
366.3415165298
 11
83.1793608378
 21
363.4148445745
  0
LINE
  5
3BE
100
AcDbEntity
  8
0
100
AcDbLine
 62
7
  6
CONTINUOUS
 10
73.3236810354
 20
369.1577630589
 11
69.2876874942
 21
371.4888429977
  0
LINE
  5
3BF
100
AcDbEntity
  8
0
100
AcDbLine
 62
7
  6
CONTINUOUS
 10
76.917612652
 20
367.4346735053
 11
78.5889882942
 21
366.4693324586
  0
LINE
  5
3C0
100
AcDbEntity
  8
0
100
AcDbLine
 62
7
  6
CONTINUOUS
 10
81.9972415983
 20
365.2762942449
 11
82.841773562
 21
364.7885155857
  0
LINE
  5
3C1
100
AcDbEntity
  8
0
100
AcDbLine
 62
7
  6
CONTINUOUS
 10
124.7919689626
 20
341.346957478
 11
125.1672867765
 21
341.1301841314
  0
LINE
  5
3C2
100
AcDbEntity
  8
0
100
AcDbLine
 62
7
  6
CONTINUOUS
 10
82.9889724529
 20
365.5421371265
 11
83.8335044166
 21
365.0543584673
  0
LINE
  5
3C3
100
AcDbEntity
  8
0
100
AcDbLine
 62
7
  6
CONTINUOUS
 10
82.9889724529
 20
366.4890517783
 11
83.8335044166
 21
366.0012731191
  0
LINE
  5
3C4
100
AcDbEntity
  8
0
100
AcDbLine
 62
7
  6
CONTINUOUS
 10
84.8492544965
 20
365.4620935249
 11
85.0094347542
 21
365.369577771
  0
LINE
  5
3C5
100
AcDbEntity
  8
0
100
AcDbLine
 62
7
  6
CONTINUOUS
 10
78.5972641213
 20
369.7961132657
 11
75.7998458609
 21
371.411825858
  0
LINE
  5
3C6
100
AcDbEntity
  8
0
100
AcDbLine
 62
7
  6
CONTINUOUS
 10
75.8676792207
 20
371.4300092349
 11
75.1082946164
 21
371.8686090985
  0
LINE
  5
3C7
100
AcDbEntity
  8
0
100
AcDbLine
 62
9
  6
CONTINUOUS
 10
80.6235763869
 20
368.9694497966
 11
80.5097675819
 21
369.0351826625
  0
LINE
  5
3C8
100
AcDbEntity
  8
0
100
AcDbLine
 62
7
  6
CONTINUOUS
 10
75.0919466442
 20
372.1783023103
 11
71.0381932187
 21
374.5196398745
  0
LINE
  5
3C9
100
AcDbEntity
  8
0
100
AcDbLine
 62
9
  6
CONTINUOUS
 10
86.4141177686
 20
365.8986022172
 11
89.4759819474
 21
364.1301107948
  0
LINE
  5
3CA
100
AcDbEntity
  8
0
100
AcDbLine
 62
7
  6
CONTINUOUS
 10
140.4982486463
 20
330.305712538
 11
140.7485260195
 21
330.1575891707
  0
LINE
  5
3CB
100
AcDbEntity
  8
0
100
AcDbLine
 62
7
  6
CONTINUOUS
 10
120.6169099173
 20
266.1625026229
 11
120.4681502891
 21
266.0214993832
  0
LINE
  5
3CC
100
AcDbEntity
  8
0
100
AcDbLine
 62
7
  6
CONTINUOUS
 10
120.6169099173
 20
271.3383564966
 11
121.2367417014
 21
271.7554661235
  0
LINE
  5
3CD
100
AcDbEntity
  8
0
100
AcDbLine
 62
9
  6
CONTINUOUS
 10
102.1360790826
 20
357.7803213469
 11
89.4013451795
 21
363.1883236564
  0
LINE
  5
3CE
100
AcDbEntity
  8
0
100
AcDbLine
 62
7
  6
CONTINUOUS
 10
80.2799639691
 20
369.7974787382
 11
81.1264731924
 21
369.3085580677
  0
LINE
  5
3CF
100
AcDbEntity
  8
0
100
AcDbLine
 62
7
  6
CONTINUOUS
 10
81.9972415983
 20
369.1528422163
 11
82.841773562
 21
368.6650635571
  0
LINE
  5
3D0
100
AcDbEntity
  8
0
100
AcDbLine
 62
7
  6
CONTINUOUS
 10
80.2501488789
 20
370.2391847349
 11
77.4527306185
 21
371.8548973273
  0
LINE
  5
3D1
100
AcDbEntity
  8
0
100
AcDbLine
 62
7
  6
CONTINUOUS
 10
83.8335044166
 20
368.9309064386
 11
82.9889724529
 21
369.4186850979
  0
LINE
  5
3D2
100
AcDbEntity
  8
0
100
AcDbLine
 62
7
  6
CONTINUOUS
 10
85.213180837
 20
368.6421767204
 11
83.8056275642
 21
369.4551411524
  0
LINE
  5
3D3
100
AcDbEntity
  8
0
100
AcDbLine
 62
7
  6
CONTINUOUS
 10
90.7964665693
 20
365.4566821631
 11
85.7292747874
 21
368.3833541184
  0
LINE
  5
3D4
100
AcDbEntity
  8
0
100
AcDbLine
 62
7
  6
CONTINUOUS
 10
83.5577777477
 20
370.776355416
 11
80.7585001338
 21
372.3931419203
  0
LINE
  5
3D5
100
AcDbEntity
  8
0
100
AcDbLine
 62
7
  6
CONTINUOUS
 10
83.5559183942
 20
371.1253276734
 11
80.7585001338
 21
372.7410402657
  0
LINE
  5
3D6
100
AcDbEntity
  8
0
100
AcDbLine
 62
7
  6
CONTINUOUS
 10
85.2088031518
 20
371.5683991426
 11
82.4113848914
 21
373.1841117349
  0
LINE
  5
3D7
100
AcDbEntity
  8
0
100
AcDbLine
 62
7
  6
CONTINUOUS
 10
87.5645695741
 20
371.2558672595
 11
88.7083004774
 21
370.5952794422
  0
LINE
  5
3D8
100
AcDbEntity
  8
0
100
AcDbLine
 62
7
  6
CONTINUOUS
 10
89.5547338563
 20
365.1238239073
 11
102.1360790826
 21
357.7803213469
  0
LINE
  5
3D9
100
AcDbEntity
  8
0
100
AcDbLine
 62
7
  6
CONTINUOUS
 10
140.239185975
 20
342.5044945182
 11
139.5661812704
 21
345.2498496033
  0
LINE
  5
3DA
100
AcDbEntity
  8
0
100
AcDbLine
 62
7
  6
CONTINUOUS
 10
120.6169099173
 20
264.4433468958
 11
121.2367417014
 21
264.8604565228
  0
LINE
  5
3DB
100
AcDbEntity
  8
0
100
AcDbLine
 62
7
  6
CONTINUOUS
 10
83.7160659075
 20
365.7370414377
 11
84.8492544965
 21
365.4620935249
  0
LINE
  5
3DC
100
AcDbEntity
  8
0
100
AcDbLine
 62
7
  6
CONTINUOUS
 10
139.5709864093
 20
342.3253772737
 11
139.9951854969
 21
342.0803714348
  0
LINE
  5
3DD
100
AcDbEntity
  8
0
100
AcDbLine
 62
7
  6
CONTINUOUS
 10
139.5661812704
 20
345.2498496033
 11
91.9717522301
 21
372.7390954609
  0
LINE
  5
3DE
100
AcDbEntity
  8
0
100
AcDbLine
 62
7
  6
CONTINUOUS
 10
90.4352206255
 20
372.3272197657
 11
90.7875986069
 21
372.1198308252
  0
LINE
  5
3DF
100
AcDbEntity
  8
0
100
AcDbLine
 62
7
  6
CONTINUOUS
 10
87.5645695741
 20
371.2558672595
 11
82.4113848914
 21
373.1841117349
  0
LINE
  5
3E0
100
AcDbEntity
  8
0
100
AcDbLine
 62
7
  6
CONTINUOUS
 10
88.7083004774
 20
370.5952794422
 11
83.5374275096
 21
372.5337401893
  0
LINE
  5
3E1
100
AcDbEntity
  8
0
100
AcDbLine
 62
7
  6
CONTINUOUS
 10
83.1793608378
 20
363.4148445745
 11
84.4210935508
 21
363.7477028304
  0
LINE
  5
3E2
100
AcDbEntity
  8
0
100
AcDbLine
 62
7
  6
CONTINUOUS
 10
89.5547338563
 20
365.1238239073
 11
90.7964665693
 21
365.4566821631
  0
LINE
  5
3E3
100
AcDbEntity
  8
0
100
AcDbLine
 62
7
  6
CONTINUOUS
 10
85.0094347542
 20
365.369577771
 11
83.8335044166
 21
365.0543584673
  0
LINE
  5
3E4
100
AcDbEntity
  8
0
100
AcDbLine
 62
7
  6
CONTINUOUS
 10
82.841773562
 20
364.7885155857
 11
81.6600335215
 21
364.471738936
  0
LINE
  5
3E5
100
AcDbEntity
  8
0
100
AcDbLine
 62
7
  6
CONTINUOUS
 10
81.6600335215
 20
365.1859024149
 11
81.9972415983
 21
365.2762942449
  0
LINE
  5
3E6
100
AcDbEntity
  8
0
100
AcDbLine
 62
7
  6
CONTINUOUS
 10
82.9889724529
 20
365.5421371265
 11
83.7160659075
 21
365.7370414377
  0
LINE
  5
3E7
100
AcDbEntity
  8
0
100
AcDbLine
 62
7
  6
CONTINUOUS
 10
81.6600335215
 20
365.4186535878
 11
82.841773562
 21
365.7354302376
  0
LINE
  5
3E8
100
AcDbEntity
  8
0
100
AcDbLine
 62
7
  6
CONTINUOUS
 10
83.8335044166
 20
366.0012731191
 11
85.0094347542
 21
366.3164924228
  0
LINE
  5
3E9
100
AcDbEntity
  8
0
100
AcDbLine
 62
7
  6
CONTINUOUS
 10
78.1121690559
 20
366.3415165298
 11
78.5889882942
 21
366.4693324586
  0
LINE
  5
3EA
100
AcDbEntity
  8
0
100
AcDbLine
 62
7
  6
CONTINUOUS
 10
85.5988927421
 20
368.3484039719
 11
85.7292747874
 21
368.3833541184
  0
LINE
  5
3EB
100
AcDbEntity
  8
0
100
AcDbLine
 62
7
  6
CONTINUOUS
 10
76.917612652
 20
367.4346735053
 11
71.7903920815
 21
366.0602732994
  0
LINE
  5
3EC
100
AcDbEntity
  8
0
100
AcDbLine
 62
7
  6
CONTINUOUS
 10
85.2338976322
 20
369.6639327369
 11
88.7083004774
 21
370.5952794422
  0
LINE
  5
3ED
100
AcDbEntity
  8
0
100
AcDbLine
 62
7
  6
CONTINUOUS
 10
90.7875986069
 20
372.1198308252
 11
87.5645695741
 21
371.2558672595
  0
LINE
  5
3EE
100
AcDbEntity
  8
0
100
AcDbLine
 62
7
  6
CONTINUOUS
 10
70.6466611782
 20
366.7208611167
 11
67.4236321454
 21
365.856897551
  0
LINE
  5
3EF
100
AcDbEntity
  8
0
100
AcDbLine
 62
7
  6
CONTINUOUS
 10
67.0621124973
 20
366.0618290568
 11
65.525596108
 21
365.6499519534
  0
LINE
  5
3F0
100
AcDbEntity
  8
0
100
AcDbLine
 62
7
  6
CONTINUOUS
 10
91.9717522301
 20
372.7390954609
 11
90.4352210396
 21
372.3272129527
  0
LINE
  5
3F1
100
AcDbEntity
  8
0
100
AcDbLine
 62
7
  6
CONTINUOUS
 10
78.5972641213
 20
369.7961132657
 11
80.2501488789
 21
370.2391847349
  0
LINE
  5
3F2
100
AcDbEntity
  8
0
100
AcDbLine
 62
7
  6
CONTINUOUS
 10
83.5559183942
 20
371.1253276734
 11
85.2088031518
 21
371.5683991426
  0
LINE
  5
3F3
100
AcDbEntity
  8
0
100
AcDbLine
 62
7
  6
CONTINUOUS
 10
75.7998458609
 20
371.411825858
 11
77.4527306185
 21
371.8548973273
  0
LINE
  5
3F4
100
AcDbEntity
  8
0
100
AcDbLine
 62
7
  6
CONTINUOUS
 10
80.7585001338
 20
372.7410402657
 11
82.4113848914
 21
373.1841117349
  0
LINE
  5
3F5
100
AcDbEntity
  8
0
100
AcDbLine
 62
7
  6
CONTINUOUS
 10
68.8392862551
 20
374.3428307812
 11
70.2434317245
 21
374.6321599495
  0
ARC
  5
3F6
100
AcDbEntity
  8
0
100
AcDbCircle
 62
7
  6
CONTINUOUS
 10
-50.4046798676
 20
321.9966357482
 40
164.972707509
100
AcDbArc
 50
4.2061040411
 51
4.5640710969
  0
ARC
  5
3F7
100
AcDbEntity
  8
0
100
AcDbCircle
 62
7
  6
CONTINUOUS
 10
-51.2435606419
 20
322.3427880752
 40
164.7441900684
100
AcDbArc
 50
3.5686361065
 51
4.5423309017
  0
ARC
  5
3F8
100
AcDbEntity
  8
0
100
AcDbCircle
 62
7
  6
CONTINUOUS
 10
-48.7166209757
 20
322.3967609571
 40
162.6637955013
100
AcDbArc
 50
4.0633777133
 51
4.6151929752
  0
ARC
  5
3F9
100
AcDbEntity
  8
0
100
AcDbCircle
 62
7
  6
CONTINUOUS
 10
-48.6931788985
 20
322.5098466682
 40
162.1883554115
100
AcDbArc
 50
3.4300763361
 51
3.5658141328
  0
ARC
  5
3FA
100
AcDbEntity
  8
0
100
AcDbCircle
 62
7
  6
CONTINUOUS
 10
118.9281545461
 20
284.0640488859
 40
2.4442191731
100
AcDbArc
 50
13.7634812047
 51
17.8797373208
  0
ARC
  5
3FB
100
AcDbEntity
  8
0
100
AcDbCircle
 62
7
  6
CONTINUOUS
 10
118.9281545461
 20
277.1690392852
 40
2.4442191731
100
AcDbArc
 50
13.7634812047
 51
17.8797373207
  0
ARC
  5
3FC
100
AcDbEntity
  8
0
100
AcDbCircle
 62
7
  6
CONTINUOUS
 10
118.9281545461
 20
270.2740296845
 40
2.4442191731
100
AcDbArc
 50
13.7634812047
 51
17.8797373208
  0
ARC
  5
3FD
100
AcDbEntity
  8
0
100
AcDbCircle
 62
7
  6
CONTINUOUS
 10
119.0156724401
 20
284.0913802402
 40
2.3525370096
100
AcDbArc
 50
17.900643965
 51
18.9519582425
  0
ARC
  5
3FE
100
AcDbEntity
  8
0
100
AcDbCircle
 62
7
  6
CONTINUOUS
 10
119.0156724401
 20
277.1963706395
 40
2.3525370096
100
AcDbArc
 50
17.9006439649
 51
18.9519582425
  0
ARC
  5
3FF
100
AcDbEntity
  8
0
100
AcDbCircle
 62
7
  6
CONTINUOUS
 10
119.0156724403
 20
270.3013610388
 40
2.3525370094
100
AcDbArc
 50
17.9006439649
 51
18.9519582425
  0
ARC
  5
400
100
AcDbEntity
  8
0
100
AcDbCircle
 62
7
  6
CONTINUOUS
 10
119.7571882623
 20
283.5007362952
 40
0.8126909719
100
AcDbArc
 50
59.9916234969
 51
69.5046984559
  0
ARC
  5
401
100
AcDbEntity
  8
0
100
AcDbCircle
 62
7
  6
CONTINUOUS
 10
119.7571882622
 20
276.6057266944
 40
0.8126909719
100
AcDbArc
 50
59.9916234969
 51
69.5046984558
  0
ARC
  5
402
100
AcDbEntity
  8
0
100
AcDbCircle
 62
7
  6
CONTINUOUS
 10
119.7571882623
 20
269.7107170937
 40
0.8126909719
100
AcDbArc
 50
59.9916234969
 51
69.5046984559
  0
ARC
  5
403
100
AcDbEntity
  8
0
100
AcDbCircle
 62
7
  6
CONTINUOUS
 10
119.5695267106
 20
262.5457443348
 40
0.3930669108
100
AcDbArc
 50
99.8920595465
 51
105.023956962
  0
ARC
  5
404
100
AcDbEntity
  8
0
100
AcDbCircle
 62
7
  6
CONTINUOUS
 10
119.5724027765
 20
262.6469928364
 40
0.2905954721
100
AcDbArc
 50
60.001127485
 51
65.4314888141
  0
ARC
  5
405
100
AcDbEntity
  8
0
100
AcDbCircle
 62
7
  6
CONTINUOUS
 10
122.8119624115
 20
321.2147222015
 40
2.6970395614
100
AcDbArc
 50
324.9726799849
 51
334.8024460741
  0
ARC
  5
406
100
AcDbEntity
  8
0
100
AcDbCircle
 62
7
  6
CONTINUOUS
 10
122.8467680473
 20
321.1979347396
 40
2.6583987688
100
AcDbArc
 50
334.8104611162
 51
336.3693611257
  0
ARC
  5
407
100
AcDbEntity
  8
0
100
AcDbCircle
 62
7
  6
CONTINUOUS
 10
122.8471543817
 20
321.1905484571
 40
2.6543467152
100
AcDbArc
 50
323.2497480367
 51
324.9639665154
  0
ARC
  5
408
100
AcDbEntity
  8
0
100
AcDbCircle
 62
7
  6
CONTINUOUS
 10
118.9281545461
 20
297.8540680874
 40
2.4442191731
100
AcDbArc
 50
13.7634812047
 51
17.8797373207
  0
ARC
  5
409
100
AcDbEntity
  8
0
100
AcDbCircle
 62
7
  6
CONTINUOUS
 10
118.9281545461
 20
290.9590584867
 40
2.4442191731
100
AcDbArc
 50
13.7634812047
 51
17.8797373208
  0
ARC
  5
40A
100
AcDbEntity
  8
0
100
AcDbCircle
 62
7
  6
CONTINUOUS
 10
123.0530249863
 20
321.1346548394
 40
2.4423663082
100
AcDbArc
 50
346.7986788378
 51
347.8845927028
  0
ARC
  5
40B
100
AcDbEntity
  8
0
100
AcDbCircle
 62
7
  6
CONTINUOUS
 10
123.006958322
 20
321.0398433688
 40
2.4343879933
100
AcDbArc
 50
311.3928932776
 51
313.0407185519
  0
ARC
  5
40C
100
AcDbEntity
  8
0
100
AcDbCircle
 62
7
  6
CONTINUOUS
 10
119.0156724398
 20
297.8813994416
 40
2.3525370099
100
AcDbArc
 50
17.900643965
 51
18.9519582424
  0
ARC
  5
40D
100
AcDbEntity
  8
0
100
AcDbCircle
 62
7
  6
CONTINUOUS
 10
119.0156724399
 20
290.9863898409
 40
2.3525370098
100
AcDbArc
 50
17.9006439649
 51
18.9519582424
  0
ARC
  5
40E
100
AcDbEntity
  8
0
100
AcDbCircle
 62
7
  6
CONTINUOUS
 10
123.2202066257
 20
320.7391380078
 40
2.065009134
100
AcDbArc
 50
298.6714517676
 51
299.9454164886
  0
ARC
  5
40F
100
AcDbEntity
  8
0
100
AcDbCircle
 62
7
  6
CONTINUOUS
 10
123.7799469258
 20
321.1449929794
 40
1.709237832
100
AcDbArc
 50
12.9978768015
 51
14.6827345318
  0
ARC
  5
410
100
AcDbEntity
  8
0
100
AcDbCircle
 62
7
  6
CONTINUOUS
 10
124.0788742047
 20
321.2647065381
 40
1.3861246992
100
AcDbArc
 50
29.2133350338
 51
31.7410605211
  0
ARC
  5
411
100
AcDbEntity
  8
0
100
AcDbCircle
 62
7
  6
CONTINUOUS
 10
124.1958914824
 20
321.2065940275
 40
1.3767864574
100
AcDbArc
 50
87.6642135998
 51
89.2747788723
  0
ARC
  5
412
100
AcDbEntity
  8
0
100
AcDbCircle
 62
7
  6
CONTINUOUS
 10
123.400991607
 20
320.0756986072
 40
1.3694644015
100
AcDbArc
 50
267.675711225
 51
269.2930993097
  0
ARC
  5
413
100
AcDbEntity
  8
0
100
AcDbCircle
 62
7
  6
CONTINUOUS
 10
124.2242417716
 20
321.3773912114
 40
1.2029151719
100
AcDbArc
 50
67.3694313278
 51
70.6706701592
  0
ARC
  5
414
100
AcDbEntity
  8
0
100
AcDbCircle
 62
7
  6
CONTINUOUS
 10
124.2215513319
 20
321.3802583156
 40
1.2017176872
100
AcDbArc
 50
47.9556538932
 51
52.198847664
  0
ARC
  5
415
100
AcDbEntity
  8
0
100
AcDbCircle
 62
7
  6
CONTINUOUS
 10
123.3716505685
 20
319.9076420188
 40
1.1980987445
100
AcDbArc
 50
247.3662189918
 51
250.6595534745
  0
ARC
  5
416
100
AcDbEntity
  8
0
100
AcDbCircle
 62
7
  6
CONTINUOUS
 10
124.2277134551
 20
321.3880207762
 40
1.1918073343
100
AcDbArc
 50
52.20419195
 51
59.979467529
  0
ARC
  5
417
100
AcDbEntity
  8
0
100
AcDbCircle
 62
7
  6
CONTINUOUS
 10
123.3688830745
 20
319.9007860099
 40
1.1907057234
100
AcDbArc
 50
239.9949424715
 51
247.362171576
  0
ARC
  5
418
100
AcDbEntity
  8
0
100
AcDbCircle
 62
7
  6
CONTINUOUS
 10
123.3676971857
 20
319.89825081
 40
1.1879588076
100
AcDbArc
 50
232.1907564975
 51
239.9833182899
  0
ARC
  5
419
100
AcDbEntity
  8
0
100
AcDbCircle
 62
7
  6
CONTINUOUS
 10
124.230106194
 20
321.3914523246
 40
1.1876801351
100
AcDbArc
 50
59.9965808406
 51
67.3695445222
  0
ARC
  5
41A
100
AcDbEntity
  8
0
100
AcDbCircle
 62
7
  6
CONTINUOUS
 10
119.7571882622
 20
297.2907554966
 40
0.8126909719
100
AcDbArc
 50
59.9916234969
 51
69.5046984558
  0
ARC
  5
41B
100
AcDbEntity
  8
0
100
AcDbCircle
 62
7
  6
CONTINUOUS
 10
119.7571882622
 20
290.3957458959
 40
0.8126909719
100
AcDbArc
 50
59.9916234969
 51
69.5046984558
  0
ARC
  5
41C
100
AcDbEntity
  8
0
100
AcDbCircle
 62
7
  6
CONTINUOUS
 10
130.6631650103
 20
255.2701635942
 40
2.6970395614
100
AcDbArc
 50
324.9726799848
 51
334.8024460741
  0
ARC
  5
41D
100
AcDbEntity
  8
0
100
AcDbCircle
 62
7
  6
CONTINUOUS
 10
130.6979706462
 20
255.2533761322
 40
2.6583987687
100
AcDbArc
 50
334.8104611163
 51
336.3693611258
  0
ARC
  5
41E
100
AcDbEntity
  8
0
100
AcDbCircle
 62
7
  6
CONTINUOUS
 10
130.6983569802
 20
255.2459898499
 40
2.6543467155
100
AcDbArc
 50
323.2497480368
 51
324.9639665153
  0
ARC
  5
41F
100
AcDbEntity
  8
0
100
AcDbCircle
 62
7
  6
CONTINUOUS
 10
130.9042275848
 20
255.1900962321
 40
2.4423663085
100
AcDbArc
 50
346.7986788379
 51
347.8845927027
  0
ARC
  5
420
100
AcDbEntity
  8
0
100
AcDbCircle
 62
7
  6
CONTINUOUS
 10
130.8581609209
 20
255.0952847613
 40
2.4343879931
100
AcDbArc
 50
311.3928932775
 51
313.0407185519
  0
ARC
  5
421
100
AcDbEntity
  8
0
100
AcDbCircle
 62
7
  6
CONTINUOUS
 10
131.0714092245
 20
254.7945794003
 40
2.0650091339
100
AcDbArc
 50
298.6714517676
 51
299.9454164887
  0
ARC
  5
422
100
AcDbEntity
  8
0
100
AcDbCircle
 62
7
  6
CONTINUOUS
 10
131.6311495246
 20
255.200434372
 40
1.709237832
100
AcDbArc
 50
12.9978768016
 51
14.6827345319
  0
ARC
  5
423
100
AcDbEntity
  8
0
100
AcDbCircle
 62
7
  6
CONTINUOUS
 10
131.9300768035
 20
255.3201479307
 40
1.3861246992
100
AcDbArc
 50
29.2133350339
 51
31.7410605211
  0
ARC
  5
424
100
AcDbEntity
  8
0
100
AcDbCircle
 62
7
  6
CONTINUOUS
 10
132.0470940812
 20
255.2620354201
 40
1.3767864574
100
AcDbArc
 50
87.6642135998
 51
89.2747788723
  0
ARC
  5
425
100
AcDbEntity
  8
0
100
AcDbCircle
 62
7
  6
CONTINUOUS
 10
131.2521942057
 20
254.1311400003
 40
1.3694644019
100
AcDbArc
 50
267.6757112253
 51
269.2930993094
  0
ARC
  5
426
100
AcDbEntity
  8
0
100
AcDbCircle
 62
7
  6
CONTINUOUS
 10
132.0754443704
 20
255.4328326041
 40
1.2029151718
100
AcDbArc
 50
67.3694313277
 51
70.6706701594
  0
ARC
  5
427
100
AcDbEntity
  8
0
100
AcDbCircle
 62
7
  6
CONTINUOUS
 10
132.0727539307
 20
255.4356997082
 40
1.2017176873
100
AcDbArc
 50
47.9556538933
 51
52.198847664
  0
ARC
  5
428
100
AcDbEntity
  8
0
100
AcDbCircle
 62
7
  6
CONTINUOUS
 10
131.2228531673
 20
253.9630834115
 40
1.1980987446
100
AcDbArc
 50
247.3662189919
 51
250.6595534743
  0
ARC
  5
429
100
AcDbEntity
  8
0
100
AcDbCircle
 62
7
  6
CONTINUOUS
 10
132.0789160538
 20
255.4434621688
 40
1.1918073343
100
AcDbArc
 50
52.2041919499
 51
59.979467529
  0
ARC
  5
42A
100
AcDbEntity
  8
0
100
AcDbCircle
 62
7
  6
CONTINUOUS
 10
131.2200856733
 20
253.9562274026
 40
1.1907057234
100
AcDbArc
 50
239.9949424716
 51
247.3621715759
  0
ARC
  5
42B
100
AcDbEntity
  8
0
100
AcDbCircle
 62
7
  6
CONTINUOUS
 10
131.2188997844
 20
253.9536922026
 40
1.1879588076
100
AcDbArc
 50
232.1907564974
 51
239.98331829
  0
ARC
  5
42C
100
AcDbEntity
  8
0
100
AcDbCircle
 62
7
  6
CONTINUOUS
 10
132.0813087927
 20
255.4468937173
 40
1.187680135
100
AcDbArc
 50
59.9965808405
 51
67.3695445222
  0
ARC
  5
42D
100
AcDbEntity
  8
0
100
AcDbCircle
 62
7
  6
CONTINUOUS
 10
87.4659159614
 20
474.2785646334
 40
153.5731068462
100
AcDbArc
 50
280.1693144676
 51
281.9867338787
  0
ARC
  5
42E
100
AcDbEntity
  8
0
100
AcDbCircle
 62
7
  6
CONTINUOUS
 10
74.650199811
 20
370.2482599254
 40
1.5185196332
100
AcDbArc
 50
179.5643958655
 51
179.9997207511
  0
ARC
  5
42F
100
AcDbEntity
  8
0
100
AcDbCircle
 62
7
  6
CONTINUOUS
 10
74.6774108741
 20
371.1224969995
 40
0.8615865992
100
AcDbArc
 50
59.993335578
 51
60.213392986
  0
SPLINE
  5
430
100
AcDbEntity
  8
0
100
AcDbSpline
 62
7
  6
CONTINUOUS
 70
0
 71
3
 72
15
 73
11
 74
0
 42
0.0000001
 43
0.0000001
 44
0.0000000001
 40
0.0
 40
0.0
 40
0.0
 40
0.0
 40
0.1226794335
 40
0.2497807595
 40
0.3795763494
 40
0.5100276191
 40
0.6390310028
 40
0.7646376955
 40
0.8852765462
 40
1.0
 40
1.0
 40
1.0
 40
1.0
 10
133.344122551
 20
255.1543895243
 30
0.0
 10
133.344122551
 20
255.0284505793
 30
0.0
 10
133.3210166621
 20
254.771618999
 30
0.0
 10
133.22379789
 20
254.3927441716
 30
0.0
 10
133.0671129014
 20
254.0256261551
 30
0.0
 10
132.8568518843
 20
253.6841053399
 30
0.0
 10
132.6008846845
 20
253.3808989913
 30
0.0
 10
132.3086080777
 20
253.1273961994
 30
0.0
 10
131.9909495877
 20
252.9332379085
 30
0.0
 10
131.7636711476
 20
252.8460985466
 30
0.0
 10
131.6499156745
 20
252.8156053108
 30
0.0
  0
SPLINE
  5
431
100
AcDbEntity
  8
0
100
AcDbSpline
 62
7
  6
CONTINUOUS
 70
0
 71
3
 72
11
 73
7
 74
0
 42
0.0000001
 43
0.0000001
 44
0.0000000001
 40
0.0
 40
0.0
 40
0.0
 40
0.0
 40
0.2634112748
 40
0.5159324301
 40
0.7602041374
 40
1.0
 40
1.0
 40
1.0
 40
1.0
 10
131.6499156745
 20
252.8156053108
 30
0.0
 10
131.560285587
 20
252.791579114
 30
0.0
 10
131.3803798631
 20
252.7588942467
 30
0.0
 10
131.1109625477
 20
252.7602177241
 30
0.0
 10
130.8551506213
 20
252.8132638457
 30
0.0
 10
130.697771869
 20
252.8828134823
 30
0.0
 10
130.6246208692
 20
252.9250626778
 30
0.0
  0
SPLINE
  5
432
100
AcDbEntity
  8
0
100
AcDbSpline
 62
7
  6
CONTINUOUS
 70
0
 71
3
 72
13
 73
9
 74
0
 42
0.0000001
 43
0.0000001
 44
0.0000000001
 40
0.0
 40
0.0
 40
0.0
 40
0.0
 40
0.2714348769
 40
0.5262146899
 40
0.6482261953
 40
0.7672626307
 40
0.8841832821
 40
1.0
 40
1.0
 40
1.0
 40
1.0
 10
130.6168627009
 20
254.4233216001
 30
0.0
 10
130.6168627009
 20
254.3378664009
 30
0.0
 10
130.6334421063
 20
254.171548665
 30
0.0
 10
130.7008531367
 20
253.9765015532
 30
0.0
 10
130.7805395051
 20
253.8417585192
 30
0.0
 10
130.8511229489
 20
253.7533904173
 30
0.0
 10
130.932403336
 20
253.67759682
 30
0.0
 10
130.9931626865
 20
253.6360534613
 30
0.0
 10
131.0247366767
 20
253.617816612
 30
0.0
  0
SPLINE
  5
433
100
AcDbEntity
  8
0
100
AcDbSpline
 62
7
  6
CONTINUOUS
 70
0
 71
3
 72
19
 73
15
 74
0
 42
0.0000001
 43
0.0000001
 44
0.0000000001
 40
0.0
 40
0.0
 40
0.0
 40
0.0
 40
0.0523303465
 40
0.1053795642
 40
0.1597848772
 40
0.2160385251
 40
0.2744521184
 40
0.3351479996
 40
0.4627690029
 40
0.5970178805
 40
0.6655862665
 40
0.7343299341
 40
0.8699425461
 40
1.0
 40
1.0
 40
1.0
 40
1.0
 10
132.2750946722
 20
255.7826659247
 30
0.0
 10
132.2370087006
 20
255.8046640352
 30
0.0
 10
132.1560453114
 20
255.841986971
 30
0.0
 10
132.0252940211
 20
255.8754702948
 30
0.0
 10
131.8874464888
 20
255.8861045438
 30
0.0
 10
131.7452938257
 20
255.873783918
 30
0.0
 10
131.6015482537
 20
255.8388775894
 30
0.0
 10
131.4083248724
 20
255.762028771
 30
0.0
 10
131.1784691514
 20
255.612799881
 30
0.0
 10
130.9840673352
 20
255.4112852017
 30
0.0
 10
130.8531553134
 20
255.2238807001
 30
0.0
 10
130.7420929556
 20
255.0227455198
 30
0.0
 10
130.6454740109
 20
254.7565006687
 30
0.0
 10
130.6168627009
 20
254.5326319538
 30
0.0
 10
130.6168627009
 20
254.4233216001
 30
0.0
  0
SPLINE
  5
434
100
AcDbEntity
  8
0
100
AcDbSpline
 62
7
  6
CONTINUOUS
 70
0
 71
3
 72
13
 73
9
 74
0
 42
0.0000001
 43
0.0000001
 44
0.0000000001
 40
0.0
 40
0.0
 40
0.0
 40
0.0
 40
0.1158151401
 40
0.2327335778
 40
0.3517712202
 40
0.4737826547
 40
0.7285683216
 40
1.0
 40
1.0
 40
1.0
 40
1.0
 10
132.6752102392
 20
256.4754194462
 30
0.0
 10
132.7269915567
 20
256.4455125373
 30
0.0
 10
132.8266319214
 20
256.3773773598
 30
0.0
 10
132.9599337376
 20
256.2530806728
 30
0.0
 10
133.0756926508
 20
256.1081587758
 30
0.0
 10
133.2063790423
 20
255.8871762166
 30
0.0
 10
133.316931319
 20
255.5672968048
 30
0.0
 10
133.344122551
 20
255.2945344686
 30
0.0
 10
133.344122551
 20
255.1543895243
 30
0.0
  0
SPLINE
  5
435
100
AcDbEntity
  8
0
100
AcDbSpline
 62
7
  6
CONTINUOUS
 70
0
 71
3
 72
13
 73
9
 74
0
 42
0.0000001
 43
0.0000001
 44
0.0000000001
 40
0.0
 40
0.0
 40
0.0
 40
0.0
 40
0.2714348769
 40
0.5262146899
 40
0.6482261953
 40
0.7672626307
 40
0.8841832821
 40
1.0
 40
1.0
 40
1.0
 40
1.0
 10
132.682968648
 20
254.9771609366
 30
0.0
 10
132.682968648
 20
255.0626161358
 30
0.0
 10
132.6663892426
 20
255.2289338717
 30
0.0
 10
132.5989782122
 20
255.4239809835
 30
0.0
 10
132.5192918438
 20
255.5587240175
 30
0.0
 10
132.4487084
 20
255.6470921194
 30
0.0
 10
132.3674280129
 20
255.7228857167
 30
0.0
 10
132.3066686624
 20
255.7644290754
 30
0.0
 10
132.2750946722
 20
255.7826659247
 30
0.0
  0
SPLINE
  5
436
100
AcDbEntity
  8
0
100
AcDbSpline
 62
7
  6
CONTINUOUS
 70
0
 71
3
 72
9
 73
5
 74
0
 42
0.0000001
 43
0.0000001
 44
0.0000000001
 40
0.0
 40
0.0
 40
0.0
 40
0.0
 40
0.5082413565
 40
1.0
 40
1.0
 40
1.0
 40
1.0
 10
131.6499156745
 20
256.5848772259
 30
0.0
 10
131.718491188
 20
256.6032595441
 30
0.0
 10
131.855868449
 20
256.630961688
 30
0.0
 10
131.9958317496
 20
256.6395837945
 30
0.0
 10
132.0645202856
 20
256.6387115899
 30
0.0
  0
SPLINE
  5
437
100
AcDbEntity
  8
0
100
AcDbSpline
 62
7
  6
CONTINUOUS
 70
0
 71
3
 72
9
 73
5
 74
0
 42
0.0000001
 43
0.0000001
 44
0.0000000001
 40
0.0
 40
0.0
 40
0.0
 40
0.0
 40
0.5051209998
 40
1.0
 40
1.0
 40
1.0
 40
1.0
 10
132.1032062138
 20
256.6376779528
 30
0.0
 10
132.1667899844
 20
256.6350817636
 30
0.0
 10
132.2924933185
 20
256.6211054912
 30
0.0
 10
132.4147753351
 20
256.5885811647
 30
0.0
 10
132.4736062648
 20
256.5679414167
 30
0.0
  0
SPLINE
  5
438
100
AcDbEntity
  8
0
100
AcDbSpline
 62
7
  6
CONTINUOUS
 70
0
 71
3
 72
19
 73
15
 74
0
 42
0.0000001
 43
0.0000001
 44
0.0000000001
 40
0.0
 40
0.0
 40
0.0
 40
0.0
 40
0.0523303465
 40
0.1053795642
 40
0.1597848772
 40
0.2160385251
 40
0.2744521184
 40
0.3351479996
 40
0.4627690029
 40
0.5970178805
 40
0.6655862665
 40
0.7343299341
 40
0.8699425461
 40
1.0
 40
1.0
 40
1.0
 40
1.0
 10
131.0247366767
 20
253.617816612
 30
0.0
 10
131.0628226483
 20
253.5958185015
 30
0.0
 10
131.1437860375
 20
253.5584955657
 30
0.0
 10
131.2745373278
 20
253.5250122419
 30
0.0
 10
131.4123848601
 20
253.5143779929
 30
0.0
 10
131.5545375232
 20
253.5266986187
 30
0.0
 10
131.6982830953
 20
253.5616049473
 30
0.0
 10
131.8915064765
 20
253.6384537657
 30
0.0
 10
132.1213621975
 20
253.7876826557
 30
0.0
 10
132.3157640137
 20
253.989197335
 30
0.0
 10
132.4466760355
 20
254.1766018366
 30
0.0
 10
132.5577383933
 20
254.3777370169
 30
0.0
 10
132.654357338
 20
254.643981868
 30
0.0
 10
132.682968648
 20
254.8678505829
 30
0.0
 10
132.682968648
 20
254.9771609366
 30
0.0
  0
SPLINE
  5
439
100
AcDbEntity
  8
0
100
AcDbSpline
 62
7
  6
CONTINUOUS
 70
0
 71
3
 72
20
 73
16
 74
0
 42
0.0000001
 43
0.0000001
 44
0.0000000001
 40
0.0
 40
0.0
 40
0.0
 40
0.0
 40
0.0523510919
 40
0.1058361247
 40
0.1609554449
 40
0.2180559131
 40
0.2773160533
 40
0.33874984
 40
0.4022226534
 40
0.4674734976
 40
0.6015996096
 40
0.6697332946
 40
0.7378445907
 40
0.8717974898
 40
1.0
 40
1.0
 40
1.0
 40
1.0
 10
130.4906400258
 20
253.0151380739
 30
0.0
 10
130.4351734745
 20
253.0581675798
 30
0.0
 10
130.3305205398
 20
253.1552680938
 30
0.0
 10
130.1988867743
 20
253.3274980139
 30
0.0
 10
130.0935684037
 20
253.524192571
 30
0.0
 10
130.0163831395
 20
253.7416491391
 30
0.0
 10
129.9685397785
 20
253.9759491084
 30
0.0
 10
129.9507665269
 20
254.2229059385
 30
0.0
 10
129.9632957818
 20
254.4781998238
 30
0.0
 10
130.0204838924
 20
254.8265874157
 30
0.0
 10
130.1362977221
 20
255.1694211243
 30
0.0
 10
130.3031261306
 20
255.4918293166
 30
0.0
 10
130.5016605597
 20
255.7955920589
 30
0.0
 10
130.7992891903
 20
256.1278789649
 30
0.0
 10
131.0873834054
 20
256.3355625837
 30
0.0
 10
131.2382251115
 20
256.418030562
 30
0.0
  0
SPLINE
  5
43A
100
AcDbEntity
  8
0
100
AcDbSpline
 62
7
  6
CONTINUOUS
 70
0
 71
3
 72
9
 73
5
 74
0
 42
0.0000001
 43
0.0000001
 44
0.0000000001
 40
0.0
 40
0.0
 40
0.0
 40
0.0
 40
0.256369693
 40
1.0
 40
1.0
 40
1.0
 40
1.0
 10
131.2382251115
 20
256.418030562
 30
0.0
 10
131.2715768774
 20
256.4362645954
 30
0.0
 10
131.4035911909
 20
256.5037744109
 30
0.0
 10
131.5434207011
 20
256.5563302361
 30
0.0
 10
131.6499156745
 20
256.5848772259
 30
0.0
  0
SPLINE
  5
43B
100
AcDbEntity
  8
0
100
AcDbSpline
 62
7
  6
CONTINUOUS
 70
0
 71
3
 72
15
 73
11
 74
0
 42
0.0000001
 43
0.0000001
 44
0.0000000001
 40
0.0
 40
0.0
 40
0.0
 40
0.0
 40
0.1226794335
 40
0.2497807595
 40
0.3795763494
 40
0.5100276191
 40
0.6390310028
 40
0.7646376955
 40
0.8852765462
 40
1.0
 40
1.0
 40
1.0
 40
1.0
 10
125.4929199523
 20
321.0989481317
 30
0.0
 10
125.4929199523
 20
320.9730091867
 30
0.0
 10
125.4698140634
 20
320.7161776064
 30
0.0
 10
125.3725952912
 20
320.3373027789
 30
0.0
 10
125.2159103027
 20
319.9701847624
 30
0.0
 10
125.0056492855
 20
319.6286639472
 30
0.0
 10
124.7496820858
 20
319.3254575987
 30
0.0
 10
124.457405479
 20
319.0719548067
 30
0.0
 10
124.1397469889
 20
318.8777965158
 30
0.0
 10
123.9124685488
 20
318.790657154
 30
0.0
 10
123.7987130757
 20
318.7601639182
 30
0.0
  0
SPLINE
  5
43C
100
AcDbEntity
  8
0
100
AcDbSpline
 62
7
  6
CONTINUOUS
 70
0
 71
3
 72
11
 73
7
 74
0
 42
0.0000001
 43
0.0000001
 44
0.0000000001
 40
0.0
 40
0.0
 40
0.0
 40
0.0
 40
0.2634112748
 40
0.5159324301
 40
0.7602041374
 40
1.0
 40
1.0
 40
1.0
 40
1.0
 10
123.7987130757
 20
318.7601639182
 30
0.0
 10
123.7090829882
 20
318.7361377213
 30
0.0
 10
123.5291772643
 20
318.703452854
 30
0.0
 10
123.259759949
 20
318.7047763315
 30
0.0
 10
123.0039480226
 20
318.7578224531
 30
0.0
 10
122.8465692703
 20
318.8273720896
 30
0.0
 10
122.7734182704
 20
318.8696212851
 30
0.0
  0
SPLINE
  5
43D
100
AcDbEntity
  8
0
100
AcDbSpline
 62
7
  6
CONTINUOUS
 70
0
 71
3
 72
13
 73
9
 74
0
 42
0.0000001
 43
0.0000001
 44
0.0000000001
 40
0.0
 40
0.0
 40
0.0
 40
0.0
 40
0.2714348769
 40
0.5262146899
 40
0.6482261953
 40
0.7672626307
 40
0.8841832821
 40
1.0
 40
1.0
 40
1.0
 40
1.0
 10
122.7656601022
 20
320.3678802075
 30
0.0
 10
122.7656601022
 20
320.2824250082
 30
0.0
 10
122.7822395075
 20
320.1161072724
 30
0.0
 10
122.8496505379
 20
319.9210601606
 30
0.0
 10
122.9293369063
 20
319.7863171266
 30
0.0
 10
122.9999203501
 20
319.6979490247
 30
0.0
 10
123.0812007372
 20
319.6221554274
 30
0.0
 10
123.1419600878
 20
319.5806120687
 30
0.0
 10
123.173534078
 20
319.5623752193
 30
0.0
  0
SPLINE
  5
43E
100
AcDbEntity
  8
0
100
AcDbSpline
 62
7
  6
CONTINUOUS
 70
0
 71
3
 72
19
 73
15
 74
0
 42
0.0000001
 43
0.0000001
 44
0.0000000001
 40
0.0
 40
0.0
 40
0.0
 40
0.0
 40
0.0523303465
 40
0.1053795642
 40
0.1597848772
 40
0.2160385251
 40
0.2744521184
 40
0.3351479996
 40
0.4627690029
 40
0.5970178805
 40
0.6655862665
 40
0.7343299341
 40
0.8699425461
 40
1.0
 40
1.0
 40
1.0
 40
1.0
 10
124.4238920734
 20
321.7272245321
 30
0.0
 10
124.3858061019
 20
321.7492226426
 30
0.0
 10
124.3048427126
 20
321.7865455783
 30
0.0
 10
124.1740914224
 20
321.8200289021
 30
0.0
 10
124.0362438901
 20
321.8306631512
 30
0.0
 10
123.8940912269
 20
321.8183425253
 30
0.0
 10
123.7503456549
 20
321.7834361968
 30
0.0
 10
123.5571222737
 20
321.7065873784
 30
0.0
 10
123.3272665527
 20
321.5573584884
 30
0.0
 10
123.1328647365
 20
321.355843809
 30
0.0
 10
123.0019527146
 20
321.1684393074
 30
0.0
 10
122.8908903569
 20
320.9673041272
 30
0.0
 10
122.7942714121
 20
320.701059276
 30
0.0
 10
122.7656601022
 20
320.4771905612
 30
0.0
 10
122.7656601022
 20
320.3678802075
 30
0.0
  0
SPLINE
  5
43F
100
AcDbEntity
  8
0
100
AcDbSpline
 62
7
  6
CONTINUOUS
 70
0
 71
3
 72
13
 73
9
 74
0
 42
0.0000001
 43
0.0000001
 44
0.0000000001
 40
0.0
 40
0.0
 40
0.0
 40
0.0
 40
0.1158151401
 40
0.2327335778
 40
0.3517712202
 40
0.4737826547
 40
0.7285683216
 40
1.0
 40
1.0
 40
1.0
 40
1.0
 10
124.8240076404
 20
322.4199780535
 30
0.0
 10
124.8757889579
 20
322.3900711447
 30
0.0
 10
124.9754293227
 20
322.3219359671
 30
0.0
 10
125.1087311388
 20
322.1976392802
 30
0.0
 10
125.224490052
 20
322.0527173832
 30
0.0
 10
125.3551764436
 20
321.831734824
 30
0.0
 10
125.4657287203
 20
321.5118554122
 30
0.0
 10
125.4929199523
 20
321.239093076
 30
0.0
 10
125.4929199523
 20
321.0989481317
 30
0.0
  0
SPLINE
  5
440
100
AcDbEntity
  8
0
100
AcDbSpline
 62
7
  6
CONTINUOUS
 70
0
 71
3
 72
13
 73
9
 74
0
 42
0.0000001
 43
0.0000001
 44
0.0000000001
 40
0.0
 40
0.0
 40
0.0
 40
0.0
 40
0.2714348769
 40
0.5262146899
 40
0.6482261953
 40
0.7672626307
 40
0.8841832821
 40
1.0
 40
1.0
 40
1.0
 40
1.0
 10
124.8317660492
 20
320.921719544
 30
0.0
 10
124.8317660492
 20
321.0071747432
 30
0.0
 10
124.8151866439
 20
321.1734924791
 30
0.0
 10
124.7477756135
 20
321.3685395908
 30
0.0
 10
124.6680892451
 20
321.5032826248
 30
0.0
 10
124.5975058013
 20
321.5916507267
 30
0.0
 10
124.5162254142
 20
321.6674443241
 30
0.0
 10
124.4554660636
 20
321.7089876828
 30
0.0
 10
124.4238920734
 20
321.7272245321
 30
0.0
  0
SPLINE
  5
441
100
AcDbEntity
  8
0
100
AcDbSpline
 62
7
  6
CONTINUOUS
 70
0
 71
3
 72
9
 73
5
 74
0
 42
0.0000001
 43
0.0000001
 44
0.0000000001
 40
0.0
 40
0.0
 40
0.0
 40
0.0
 40
0.5082413565
 40
1.0
 40
1.0
 40
1.0
 40
1.0
 10
123.7987130757
 20
322.5294358333
 30
0.0
 10
123.8672885892
 20
322.5478181514
 30
0.0
 10
124.0046658503
 20
322.5755202954
 30
0.0
 10
124.1446291508
 20
322.5841424019
 30
0.0
 10
124.2133176868
 20
322.5832701973
 30
0.0
  0
SPLINE
  5
442
100
AcDbEntity
  8
0
100
AcDbSpline
 62
7
  6
CONTINUOUS
 70
0
 71
3
 72
9
 73
5
 74
0
 42
0.0000001
 43
0.0000001
 44
0.0000000001
 40
0.0
 40
0.0
 40
0.0
 40
0.0
 40
0.5051209998
 40
1.0
 40
1.0
 40
1.0
 40
1.0
 10
124.2520036151
 20
322.5822365602
 30
0.0
 10
124.3155873856
 20
322.5796403709
 30
0.0
 10
124.4412907197
 20
322.5656640986
 30
0.0
 10
124.5635727363
 20
322.5331397721
 30
0.0
 10
124.6224036661
 20
322.5125000241
 30
0.0
  0
SPLINE
  5
443
100
AcDbEntity
  8
0
100
AcDbSpline
 62
7
  6
CONTINUOUS
 70
0
 71
3
 72
19
 73
15
 74
0
 42
0.0000001
 43
0.0000001
 44
0.0000000001
 40
0.0
 40
0.0
 40
0.0
 40
0.0
 40
0.0523303465
 40
0.1053795642
 40
0.1597848772
 40
0.2160385251
 40
0.2744521184
 40
0.3351479996
 40
0.4627690029
 40
0.5970178805
 40
0.6655862665
 40
0.7343299341
 40
0.8699425461
 40
1.0
 40
1.0
 40
1.0
 40
1.0
 10
123.173534078
 20
319.5623752193
 30
0.0
 10
123.2116200495
 20
319.5403771089
 30
0.0
 10
123.2925834388
 20
319.5030541731
 30
0.0
 10
123.423334729
 20
319.4695708493
 30
0.0
 10
123.5611822613
 20
319.4589366003
 30
0.0
 10
123.7033349245
 20
319.4712572261
 30
0.0
 10
123.8470804965
 20
319.5061635547
 30
0.0
 10
124.0403038777
 20
319.583012373
 30
0.0
 10
124.2701595987
 20
319.7322412631
 30
0.0
 10
124.4645614149
 20
319.9337559424
 30
0.0
 10
124.5954734368
 20
320.121160444
 30
0.0
 10
124.7065357945
 20
320.3222956242
 30
0.0
 10
124.8031547393
 20
320.5885404754
 30
0.0
 10
124.8317660492
 20
320.8124091903
 30
0.0
 10
124.8317660492
 20
320.921719544
 30
0.0
  0
SPLINE
  5
444
100
AcDbEntity
  8
0
100
AcDbSpline
 62
7
  6
CONTINUOUS
 70
0
 71
3
 72
20
 73
16
 74
0
 42
0.0000001
 43
0.0000001
 44
0.0000000001
 40
0.0
 40
0.0
 40
0.0
 40
0.0
 40
0.0523510919
 40
0.1058361247
 40
0.1609554449
 40
0.2180559131
 40
0.2773160533
 40
0.33874984
 40
0.4022226534
 40
0.4674734976
 40
0.6015996096
 40
0.6697332946
 40
0.7378445907
 40
0.8717974898
 40
1.0
 40
1.0
 40
1.0
 40
1.0
 10
122.6394374271
 20
318.9596966813
 30
0.0
 10
122.5839708757
 20
319.0027261871
 30
0.0
 10
122.4793179411
 20
319.0998267012
 30
0.0
 10
122.3476841755
 20
319.2720566212
 30
0.0
 10
122.2423658049
 20
319.4687511783
 30
0.0
 10
122.1651805408
 20
319.6862077464
 30
0.0
 10
122.1173371797
 20
319.9205077158
 30
0.0
 10
122.0995639281
 20
320.1674645458
 30
0.0
 10
122.112093183
 20
320.4227584312
 30
0.0
 10
122.1692812936
 20
320.7711460231
 30
0.0
 10
122.2850951233
 20
321.1139797317
 30
0.0
 10
122.4519235318
 20
321.436387924
 30
0.0
 10
122.6504579609
 20
321.7401506663
 30
0.0
 10
122.9480865915
 20
322.0724375723
 30
0.0
 10
123.2361808067
 20
322.2801211911
 30
0.0
 10
123.3870225127
 20
322.3625891693
 30
0.0
  0
SPLINE
  5
445
100
AcDbEntity
  8
0
100
AcDbSpline
 62
7
  6
CONTINUOUS
 70
0
 71
3
 72
9
 73
5
 74
0
 42
0.0000001
 43
0.0000001
 44
0.0000000001
 40
0.0
 40
0.0
 40
0.0
 40
0.0
 40
0.256369693
 40
1.0
 40
1.0
 40
1.0
 40
1.0
 10
123.3870225127
 20
322.3625891693
 30
0.0
 10
123.4203742786
 20
322.3808232027
 30
0.0
 10
123.5523885921
 20
322.4483330182
 30
0.0
 10
123.6922181023
 20
322.5008888435
 30
0.0
 10
123.7987130757
 20
322.5294358333
 30
0.0
  0
SPLINE
  5
446
100
AcDbEntity
  8
0
100
AcDbSpline
 62
7
  6
CONTINUOUS
 70
0
 71
3
 72
14
 73
10
 74
0
 42
0.0000001
 43
0.0000001
 44
0.0000000001
 40
0.0
 40
0.0
 40
0.0
 40
0.0
 40
0.1130314309
 40
0.2276257979
 40
0.3451668422
 40
0.4667212025
 40
0.5929619625
 40
0.7241499706
 40
1.0
 40
1.0
 40
1.0
 40
1.0
 10
83.8056232021
 20
369.4551335684
 30
0.0
 10
83.6909812763
 20
369.521339277
 30
0.0
 10
83.4472381253
 20
369.6336336271
 30
0.0
 10
83.0535302897
 20
369.734066348
 30
0.0
 10
82.6384542655
 20
369.7654852409
 30
0.0
 10
82.2104787204
 20
369.7276004147
 30
0.0
 10
81.7777614721
 20
369.6215050412
 30
0.0
 10
81.1965418665
 20
369.3887618846
 30
0.0
 10
80.7921417208
 20
369.124452296
 30
0.0
 10
80.5429013921
 20
368.9188745284
 30
0.0
  0
SPLINE
  5
447
100
AcDbEntity
  8
0
100
AcDbSpline
 62
7
  6
CONTINUOUS
 70
0
 71
3
 72
11
 73
7
 74
0
 42
0.0000001
 43
0.0000001
 44
0.0000000001
 40
0.0
 40
0.0
 40
0.0
 40
0.0
 40
0.2478107263
 40
0.5010466883
 40
0.7537362216
 40
1.0
 40
1.0
 40
1.0
 40
1.0
 10
80.5429013921
 20
368.9188745284
 30
0.0
 10
80.3182435658
 20
368.7335728373
 30
0.0
 10
79.9007383507
 20
368.3124221942
 30
0.0
 10
79.3999659582
 20
367.5762013901
 30
0.0
 10
79.0395109723
 20
366.7640082125
 30
0.0
 10
78.9034591537
 20
366.1892274571
 30
0.0
 10
78.8658213652
 20
365.9022854098
 30
0.0
  0
SPLINE
  5
448
100
AcDbEntity
  8
0
100
AcDbSpline
 62
7
  6
CONTINUOUS
 70
0
 71
3
 72
13
 73
9
 74
0
 42
0.0000001
 43
0.0000001
 44
0.0000000001
 40
0.0
 40
0.0
 40
0.0
 40
0.0
 40
0.1158152201
 40
0.2327337532
 40
0.3517707419
 40
0.4737826355
 40
0.7285649952
 40
1.0
 40
1.0
 40
1.0
 40
1.0
 10
85.2131794718
 20
368.6421743597
 30
0.0
 10
85.3078994802
 20
368.5874632079
 30
0.0
 10
85.4901718505
 20
368.4628305763
 30
0.0
 10
85.7340071315
 20
368.2354485718
 30
0.0
 10
85.9457636792
 20
367.9703509167
 30
0.0
 10
86.1848289106
 20
367.5661207901
 30
0.0
 10
86.3870560811
 20
366.9809740526
 30
0.0
 10
86.4367979098
 20
366.4820191164
 30
0.0
 10
86.4367979098
 20
366.2256533572
 30
0.0
  0
SPLINE
  5
449
100
AcDbEntity
  8
0
100
AcDbSpline
 62
7
  6
CONTINUOUS
 70
0
 71
3
 72
10
 73
6
 74
0
 42
0.0000001
 43
0.0000001
 44
0.0000000001
 40
0.0
 40
0.0
 40
0.0
 40
0.0
 40
0.4896662728
 40
0.7450202051
 40
1.0
 40
1.0
 40
1.0
 40
1.0
 10
86.4367979098
 20
366.2256533572
 30
0.0
 10
86.4367979098
 20
365.6959177296
 30
0.0
 10
86.2695253594
 20
364.8834087702
 30
0.0
 10
85.7955196005
 20
363.9083531137
 30
0.0
 10
85.4731569258
 20
363.4558025346
 30
0.0
 10
85.2942629871
 20
363.2458327814
 30
0.0
  0
SPLINE
  5
44A
100
AcDbEntity
  8
0
100
AcDbSpline
 62
7
  6
CONTINUOUS
 70
0
 71
3
 72
9
 73
5
 74
0
 42
0.0000001
 43
0.0000001
 44
0.0000000001
 40
0.0
 40
0.0
 40
0.0
 40
0.0
 40
0.2582019487
 40
1.0
 40
1.0
 40
1.0
 40
1.0
 10
68.3158237873
 20
373.6517658501
 30
0.0
 10
68.3158237873
 20
373.6369362219
 30
0.0
 10
68.3179190849
 20
373.5795398598
 30
0.0
 10
68.3286128328
 20
373.5223122791
 30
0.0
 10
68.3420192645
 20
373.4818719644
 30
0.0
  0
SPLINE
  5
44B
100
AcDbEntity
  8
0
100
AcDbSpline
 62
7
  6
CONTINUOUS
 70
0
 71
3
 72
10
 73
6
 74
0
 42
0.0000001
 43
0.0000001
 44
0.0000000001
 40
0.0
 40
0.0
 40
0.0
 40
0.0
 40
0.2417033539
 40
0.4871990952
 40
1.0
 40
1.0
 40
1.0
 40
1.0
 10
71.0381889251
 20
374.5196324402
 30
0.0
 10
70.9811031497
 20
374.5525997837
 30
0.0
 10
70.8591098058
 20
374.6078524179
 30
0.0
 10
70.5924768625
 20
374.6708980425
 30
0.0
 10
70.3804112111
 20
374.6603921433
 30
0.0
 10
70.2434315159
 20
374.6321557251
 30
0.0
  0
SPLINE
  5
44C
100
AcDbEntity
  8
0
100
AcDbSpline
 62
7
  6
CONTINUOUS
 70
0
 71
3
 72
9
 73
5
 74
0
 42
0.0000001
 43
0.0000001
 44
0.0000000001
 40
0.0
 40
0.0
 40
0.0
 40
0.0
 40
0.487957204
 40
1.0
 40
1.0
 40
1.0
 40
1.0
 10
75.0919423506
 20
372.178294876
 30
0.0
 10
75.197122831
 20
372.1175525807
 30
0.0
 10
75.3910490002
 20
371.9519621911
 30
0.0
 10
75.5162600187
 20
371.7312328237
 30
0.0
 10
75.5626248113
 20
371.612509686
 30
0.0
  0
SPLINE
  5
44D
100
AcDbEntity
  8
0
100
AcDbSpline
 62
7
  6
CONTINUOUS
 70
0
 71
3
 72
10
 73
6
 74
0
 42
0.0000001
 43
0.0000001
 44
0.0000000001
 40
0.0
 40
0.0
 40
0.0
 40
0.0
 40
0.5127914505
 40
0.7582930357
 40
1.0
 40
1.0
 40
1.0
 40
1.0
 10
68.7930726683
 20
372.1210318418
 30
0.0
 10
68.8370747529
 20
371.9882771356
 30
0.0
 10
68.9339268557
 20
371.7993278807
 30
0.0
 10
69.1217932274
 20
371.5998947404
 30
0.0
 10
69.2306051822
 20
371.5218182549
 30
0.0
 10
69.2876917877
 20
371.488850432
 30
0.0
  0
SPLINE
  5
44E
100
AcDbEntity
  8
0
100
AcDbSpline
 62
7
  6
CONTINUOUS
 70
0
 71
3
 72
12
 73
8
 74
0
 42
0.0000001
 43
0.0000001
 44
0.0000000001
 40
0.0
 40
0.0
 40
0.0
 40
0.0
 40
0.2328661464
 40
0.4870428089
 40
0.6183149576
 40
0.7491125501
 40
1.0
 40
1.0
 40
1.0
 40
1.0
 10
68.8392859335
 20
374.3428248438
 30
0.0
 10
68.7688108833
 20
374.3283142592
 30
0.0
 10
68.6278450499
 20
374.2638832293
 30
0.0
 10
68.4889836057
 20
374.1280445911
 30
0.0
 10
68.4025704936
 20
373.9932745341
 30
0.0
 10
68.338195209
 20
373.8480430163
 30
0.0
 10
68.3158237873
 20
373.7292876447
 30
0.0
 10
68.3158237873
 20
373.6517658501
 30
0.0
  0
SPLINE
  5
44F
100
AcDbEntity
  8
0
100
AcDbSpline
 62
7
  6
CONTINUOUS
 70
0
 71
3
 72
11
 73
7
 74
0
 42
0.0000001
 43
0.0000001
 44
0.0000000001
 40
0.0
 40
0.0
 40
0.0
 40
0.0
 40
0.2702886654
 40
0.5256720621
 40
0.7675404631
 40
1.0
 40
1.0
 40
1.0
 40
1.0
 10
73.1316801778
 20
370.2482673264
 30
0.0
 10
73.1316801778
 20
370.1562986555
 30
0.0
 10
73.1478795682
 20
369.9768371761
 30
0.0
 10
73.2248961658
 20
369.7251368426
 30
0.0
 10
73.3514542622
 20
369.5087392352
 30
0.0
 10
73.4674902879
 20
369.3933229981
 30
0.0
 10
73.5306963137
 20
369.3457696874
 30
0.0
  0
SPLINE
  5
450
100
AcDbEntity
  8
0
100
AcDbSpline
 62
7
  6
CONTINUOUS
 70
0
 71
3
 72
15
 73
11
 74
0
 42
0.0000001
 43
0.0000001
 44
0.0000000001
 40
0.0
 40
0.0
 40
0.0
 40
0.0
 40
0.2646694599
 40
0.4021382152
 40
0.5367260625
 40
0.6646701152
 40
0.7837860162
 40
0.8943550023
 40
0.9475380985
 40
1.0
 40
1.0
 40
1.0
 40
1.0
 10
72.770419619
 20
370.2752163363
 30
0.0
 10
72.770419619
 20
370.5858603481
 30
0.0
 10
72.893437568
 20
371.0631077299
 30
0.0
 10
73.2280491241
 20
371.599659005
 30
0.0
 10
73.5567712171
 20
371.940586017
 30
0.0
 10
73.9360717024
 20
372.1868253287
 30
0.0
 10
74.3397151554
 20
372.3200181307
 30
0.0
 10
74.6783147179
 20
372.32467377
 30
0.0
 10
74.9252588694
 20
372.2613461403
 30
0.0
 10
75.0386205705
 20
372.2090884919
 30
0.0
 10
75.0919423506
 20
372.178294876
 30
0.0
  0
SPLINE
  5
451
100
AcDbEntity
  8
0
100
AcDbSpline
 62
7
  6
CONTINUOUS
 70
0
 71
3
 72
11
 73
7
 74
0
 42
0.0000001
 43
0.0000001
 44
0.0000000001
 40
0.0
 40
0.0
 40
0.0
 40
0.0
 40
0.2510117484
 40
0.5081578391
 40
0.7609211766
 40
1.0
 40
1.0
 40
1.0
 40
1.0
 10
80.2737386753
 20
365.0921289416
 30
0.0
 10
80.3237448104
 20
365.4712914873
 30
0.0
 10
80.5291353194
 20
366.2277602168
 30
0.0
 10
81.094160964
 20
367.2518764292
 30
0.0
 10
81.8708441694
 20
368.1024516521
 30
0.0
 10
82.5093898942
 20
368.5160338828
 30
0.0
 10
82.841773562
 20
368.6650635571
 30
0.0
  0
SPLINE
  5
452
100
AcDbEntity
  8
0
100
AcDbSpline
 62
7
  6
CONTINUOUS
 70
0
 71
3
 72
11
 73
7
 74
0
 42
0.0000001
 43
0.0000001
 44
0.0000000001
 40
0.0
 40
0.0
 40
0.0
 40
0.0
 40
0.258349201
 40
0.5098015552
 40
0.7561990008
 40
1.0
 40
1.0
 40
1.0
 40
1.0
 10
83.8335044166
 20
368.9309064386
 30
0.0
 10
83.956232661
 20
368.9416761602
 30
0.0
 10
84.2002661696
 20
368.9463844192
 30
0.0
 10
84.5592556977
 20
368.9001534679
 30
0.0
 10
84.9002191332
 20
368.8010140873
 30
0.0
 10
85.1125047248
 20
368.7003250236
 30
0.0
 10
85.2131794718
 20
368.6421743597
 30
0.0
  0
SPLINE
  5
453
100
AcDbEntity
  8
0
100
AcDbSpline
 62
7
  6
CONTINUOUS
 70
0
 71
3
 72
15
 73
11
 74
0
 42
0.0000001
 43
0.0000001
 44
0.0000000001
 40
0.0
 40
0.0
 40
0.0
 40
0.0
 40
0.0524572082
 40
0.1056428046
 40
0.2162113517
 40
0.3352832558
 40
0.4631426842
 40
0.5976421499
 40
0.7350706256
 40
1.0
 40
1.0
 40
1.0
 40
1.0
 10
75.1054222018
 20
371.8702521542
 30
0.0
 10
75.0601483993
 20
371.8961666545
 30
0.0
 10
74.9639596658
 20
371.9401134055
 30
0.0
 10
74.7546186967
 20
371.9932696818
 30
0.0
 10
74.4678409463
 20
371.9890856404
 30
0.0
 10
74.1259246378
 20
371.8765472452
 30
0.0
 10
73.8043779184
 20
371.6686409055
 30
0.0
 10
73.5252378627
 20
371.3807290371
 30
0.0
 10
73.2400095319
 20
370.9270488896
 30
0.0
 10
73.1337257672
 20
370.5232551276
 30
0.0
 10
73.1317240639
 20
370.2598047035
 30
0.0
  0
SPLINE
  5
454
100
AcDbEntity
  8
0
100
AcDbSpline
 62
7
  6
CONTINUOUS
 70
0
 71
3
 72
9
 73
5
 74
0
 42
0.0000001
 43
0.0000001
 44
0.0000000001
 40
0.0
 40
0.0
 40
0.0
 40
0.0
 40
0.5111226061
 40
1.0
 40
1.0
 40
1.0
 40
1.0
 10
81.9972415983
 20
369.1528422163
 30
0.0
 10
82.1574186765
 20
369.224660239
 30
0.0
 10
82.481866268
 20
369.3420473272
 30
0.0
 10
82.8217144672
 20
369.4040077761
 30
0.0
 10
82.9889724529
 20
369.4186850979
 30
0.0
  0
SPLINE
  5
455
100
AcDbEntity
  8
0
100
AcDbSpline
 62
7
  6
CONTINUOUS
 70
0
 71
3
 72
11
 73
7
 74
0
 42
0.0000001
 43
0.0000001
 44
0.0000000001
 40
0.0
 40
0.0
 40
0.0
 40
0.0
 40
0.2323345329
 40
0.4732820525
 40
0.7284441347
 40
1.0
 40
1.0
 40
1.0
 40
1.0
 10
73.3240807258
 20
369.1577730922
 30
0.0
 10
73.2378736966
 20
369.2098767852
 30
0.0
 10
73.0775290896
 20
369.3435461643
 30
0.0
 10
72.9007711026
 20
369.6098901328
 30
0.0
 10
72.7929577262
 20
369.9281865311
 30
0.0
 10
72.770419619
 20
370.1574821976
 30
0.0
 10
72.770419619
 20
370.2752163363
 30
0.0
  0
SPLINE
  5
456
100
AcDbEntity
  8
0
100
AcDbSpline
 62
7
  6
CONTINUOUS
 70
0
 71
3
 72
9
 73
5
 74
0
 42
0.0000001
 43
0.0000001
 44
0.0000000001
 40
0.0
 40
0.0
 40
0.0
 40
0.0
 40
0.2584063521
 40
1.0
 40
1.0
 40
1.0
 40
1.0
 10
68.7166661935
 20
372.6165539006
 30
0.0
 10
68.7166661935
 20
372.5732664337
 30
0.0
 10
68.7227441187
 20
372.4058575171
 30
0.0
 10
68.7539873309
 20
372.238952675
 30
0.0
 10
68.7930726683
 20
372.1210318418
 30
0.0
  0
SPLINE
  5
457
100
AcDbEntity
  8
0
100
AcDbSpline
 62
7
  6
CONTINUOUS
 70
0
 71
3
 72
12
 73
8
 74
0
 42
0.0000001
 43
0.0000001
 44
0.0000000001
 40
0.0
 40
0.0
 40
0.0
 40
0.0
 40
0.2328616877
 40
0.3584392653
 40
0.4878815971
 40
0.749155687
 40
1.0
 40
1.0
 40
1.0
 40
1.0
 10
70.2434315159
 20
374.6321557251
 30
0.0
 10
70.0378775417
 20
374.5897836934
 30
0.0
 10
69.7343657253
 20
374.4510756549
 30
0.0
 10
69.3929161502
 20
374.1725578368
 30
0.0
 10
69.0828639705
 20
373.8229071243
 30
0.0
 10
68.803848556
 20
373.3061562837
 30
0.0
 10
68.7166661935
 20
372.8426371856
 30
0.0
 10
68.7166661935
 20
372.6165539006
 30
0.0
  0
SPLINE
  5
458
100
AcDbEntity
  8
0
100
AcDbSpline
 62
7
  6
CONTINUOUS
 70
0
 71
3
 72
9
 73
5
 74
0
 42
0.0000001
 43
0.0000001
 44
0.0000000001
 40
0.0
 40
0.0
 40
0.0
 40
0.0
 40
0.2462935986
 40
1.0
 40
1.0
 40
1.0
 40
1.0
 10
140.4994361942
 20
330.2359008079
 30
0.0
 10
140.4955743409
 20
331.2093114449
 30
0.0
 10
140.4407241373
 20
335.1613252482
 30
0.0
 10
140.2322178258
 20
339.1109672925
 30
0.0
 10
139.9951854969
 20
342.0803714348
 30
0.0
  0
SPLINE
  5
459
100
AcDbEntity
  8
0
100
AcDbSpline
 62
7
  6
CONTINUOUS
 70
0
 71
3
 72
9
 73
5
 74
0
 42
0.0000001
 43
0.0000001
 44
0.0000000001
 40
0.0
 40
0.0
 40
0.0
 40
0.0
 40
0.5055637496
 40
1.0
 40
1.0
 40
1.0
 40
1.0
 10
140.4994361942
 20
330.2359008079
 30
0.0
 10
136.2333851942
 20
328.7075963495
 30
0.0
 10
127.6707497546
 20
326.0201551812
 30
0.0
 10
118.9124168977
 20
324.0560591073
 30
0.0
 10
114.5491454994
 20
323.2796787379
 30
0.0
  0
SPLINE
  5
45A
100
AcDbEntity
  8
0
100
AcDbSpline
 62
7
  6
CONTINUOUS
 70
0
 71
3
 72
9
 73
5
 74
0
 42
0.0000001
 43
0.0000001
 44
0.0000000001
 40
0.0
 40
0.0
 40
0.0
 40
0.0
 40
0.2466811044
 40
1.0
 40
1.0
 40
1.0
 40
1.0
 10
113.9298088573
 20
323.6373903915
 30
0.0
 10
113.9264124386
 20
324.4838488452
 30
0.0
 10
113.8827362481
 20
327.9150691679
 30
0.0
 10
113.7214390527
 20
331.3446460382
 30
0.0
 10
113.5382831066
 20
333.9230989769
 30
0.0
  0
SPLINE
  5
45B
100
AcDbEntity
  8
0
100
AcDbSpline
 62
7
  6
CONTINUOUS
 70
0
 71
3
 72
9
 73
5
 74
0
 42
0.0000001
 43
0.0000001
 44
0.0000000001
 40
0.0
 40
0.0
 40
0.0
 40
0.0
 40
0.2533256892
 40
1.0
 40
1.0
 40
1.0
 40
1.0
 10
114.1237015487
 20
334.0964676225
 30
0.0
 10
114.1907471254
 20
333.1847308161
 30
0.0
 10
114.4253399831
 20
329.5835361268
 30
0.0
 10
114.5384552262
 20
325.9742465655
 30
0.0
 10
114.5491454994
 20
323.2796787411
 30
0.0
  0
SPLINE
  5
45C
100
AcDbEntity
  8
0
100
AcDbSpline
 62
7
  6
CONTINUOUS
 70
0
 71
3
 72
9
 73
5
 74
0
 42
0.0000001
 43
0.0000001
 44
0.0000000001
 40
0.0
 40
0.0
 40
0.0
 40
0.0
 40
0.4837082031
 40
1.0
 40
1.0
 40
1.0
 40
1.0
 10
132.6751895579
 20
256.4753839829
 30
0.0
 10
132.5283511484
 20
256.5602014765
 30
0.0
 10
132.1823856158
 20
256.6688996735
 30
0.0
 10
131.8247409523
 20
256.6317408033
 30
0.0
 10
131.6499156745
 20
256.5848772259
 30
0.0
  0
SPLINE
  5
45D
100
AcDbEntity
  8
0
100
AcDbSpline
 62
7
  6
CONTINUOUS
 70
0
 71
3
 72
9
 73
5
 74
0
 42
0.0000001
 43
0.0000001
 44
0.0000000001
 40
0.0
 40
0.0
 40
0.0
 40
0.0
 40
0.4837082031
 40
1.0
 40
1.0
 40
1.0
 40
1.0
 10
124.8239869592
 20
322.4199425903
 30
0.0
 10
124.6771485497
 20
322.5047600838
 30
0.0
 10
124.331183017
 20
322.6134582809
 30
0.0
 10
123.9735383536
 20
322.5762994106
 30
0.0
 10
123.7987130757
 20
322.5294358333
 30
0.0
  0
SPLINE
  5
45E
100
AcDbEntity
  8
0
100
AcDbSpline
 62
7
  6
CONTINUOUS
 70
0
 71
3
 72
11
 73
7
 74
0
 42
0.0000001
 43
0.0000001
 44
0.0000000001
 40
0.0
 40
0.0
 40
0.0
 40
0.0
 40
0.2290010814
 40
0.4684464074
 40
0.7250034326
 40
1.0
 40
1.0
 40
1.0
 40
1.0
 10
120.1636366393
 20
297.9945071095
 30
0.0
 10
120.2441473165
 20
297.9479753538
 30
0.0
 10
120.393170382
 20
297.8227993227
 30
0.0
 10
120.5464081327
 20
297.5660050722
 30
0.0
 10
120.6241533543
 20
297.2588978102
 30
0.0
 10
120.6236048988
 20
297.0407567764
 30
0.0
 10
120.6114610488
 20
296.9297515546
 30
0.0
  0
SPLINE
  5
45F
100
AcDbEntity
  8
0
100
AcDbSpline
 62
7
  6
CONTINUOUS
 70
0
 71
3
 72
11
 73
7
 74
0
 42
0.0000001
 43
0.0000001
 44
0.0000000001
 40
0.0
 40
0.0
 40
0.0
 40
0.0
 40
0.2290010814
 40
0.4684464074
 40
0.7250034326
 40
1.0
 40
1.0
 40
1.0
 40
1.0
 10
120.1636366393
 20
291.0994975087
 30
0.0
 10
120.2441473165
 20
291.052965753
 30
0.0
 10
120.393170382
 20
290.9277897219
 30
0.0
 10
120.5464081327
 20
290.6709954715
 30
0.0
 10
120.6241533543
 20
290.3638882094
 30
0.0
 10
120.6236048988
 20
290.1457471756
 30
0.0
 10
120.6114610488
 20
290.0347419539
 30
0.0
  0
SPLINE
  5
460
100
AcDbEntity
  8
0
100
AcDbSpline
 62
7
  6
CONTINUOUS
 70
0
 71
3
 72
11
 73
7
 74
0
 42
0.0000001
 43
0.0000001
 44
0.0000000001
 40
0.0
 40
0.0
 40
0.0
 40
0.0
 40
0.2290010814
 40
0.4684464074
 40
0.7250034326
 40
1.0
 40
1.0
 40
1.0
 40
1.0
 10
120.1636366393
 20
284.204487908
 30
0.0
 10
120.2441473165
 20
284.1579561523
 30
0.0
 10
120.393170382
 20
284.0327801212
 30
0.0
 10
120.5464081327
 20
283.7759858708
 30
0.0
 10
120.6241533543
 20
283.4688786087
 30
0.0
 10
120.6236048988
 20
283.2507375749
 30
0.0
 10
120.6114610488
 20
283.1397323531
 30
0.0
  0
SPLINE
  5
461
100
AcDbEntity
  8
0
100
AcDbSpline
 62
7
  6
CONTINUOUS
 70
0
 71
3
 72
11
 73
7
 74
0
 42
0.0000001
 43
0.0000001
 44
0.0000000001
 40
0.0
 40
0.0
 40
0.0
 40
0.0
 40
0.2290010814
 40
0.4684464074
 40
0.7250034326
 40
1.0
 40
1.0
 40
1.0
 40
1.0
 10
120.1636366393
 20
277.3094783073
 30
0.0
 10
120.2441473165
 20
277.2629465516
 30
0.0
 10
120.393170382
 20
277.1377705205
 30
0.0
 10
120.5464081327
 20
276.88097627
 30
0.0
 10
120.6241533543
 20
276.573869008
 30
0.0
 10
120.6236048988
 20
276.3557279742
 30
0.0
 10
120.6114610488
 20
276.2447227524
 30
0.0
  0
SPLINE
  5
462
100
AcDbEntity
  8
0
100
AcDbSpline
 62
7
  6
CONTINUOUS
 70
0
 71
3
 72
11
 73
7
 74
0
 42
0.0000001
 43
0.0000001
 44
0.0000000001
 40
0.0
 40
0.0
 40
0.0
 40
0.0
 40
0.2290010814
 40
0.4684464074
 40
0.7250034326
 40
1.0
 40
1.0
 40
1.0
 40
1.0
 10
120.1636366393
 20
270.4144687065
 30
0.0
 10
120.2441473165
 20
270.3679369508
 30
0.0
 10
120.393170382
 20
270.2427609197
 30
0.0
 10
120.5464081327
 20
269.9859666693
 30
0.0
 10
120.6241533543
 20
269.6788594072
 30
0.0
 10
120.6236048988
 20
269.4607183734
 30
0.0
 10
120.6114610488
 20
269.3497131517
 30
0.0
  0
SPLINE
  5
463
100
AcDbEntity
  8
0
100
AcDbSpline
 62
7
  6
CONTINUOUS
 70
0
 71
3
 72
13
 73
9
 74
0
 42
0.0000001
 43
0.0000001
 44
0.0000000001
 40
0.0
 40
0.0
 40
0.0
 40
0.0
 40
0.2747757991
 40
0.5381299397
 40
0.6622442278
 40
0.7801860208
 40
0.8923553037
 40
1.0
 40
1.0
 40
1.0
 40
1.0
 10
129.8317424411
 20
323.8245190232
 30
0.0
 10
129.6228642147
 20
323.5178988652
 30
0.0
 10
129.2964091792
 20
322.8566497241
 30
0.0
 10
129.1415118914
 20
321.9604280964
 30
0.0
 10
129.1973980013
 20
321.2770696913
 30
0.0
 10
129.3239890526
 20
320.8126152073
 30
0.0
 10
129.5325635799
 20
320.403302767
 30
0.0
 10
129.7254078931
 20
320.1734394025
 30
0.0
 10
129.8317424411
 20
320.0743549165
 30
0.0
  0
SPLINE
  5
464
100
AcDbEntity
  8
0
100
AcDbSpline
 62
7
  6
CONTINUOUS
 70
0
 71
3
 72
13
 73
9
 74
0
 42
0.0000001
 43
0.0000001
 44
0.0000000001
 40
0.0
 40
0.0
 40
0.0
 40
0.0
 40
0.2747757991
 40
0.5381299397
 40
0.6622442278
 40
0.7801860208
 40
0.8923553037
 40
1.0
 40
1.0
 40
1.0
 40
1.0
 10
129.8317424411
 20
316.9295094224
 30
0.0
 10
129.6228642147
 20
316.6228892645
 30
0.0
 10
129.2964091792
 20
315.9616401234
 30
0.0
 10
129.1415118914
 20
315.0654184957
 30
0.0
 10
129.1973980013
 20
314.3820600906
 30
0.0
 10
129.3239890526
 20
313.9176056066
 30
0.0
 10
129.5325635799
 20
313.5082931662
 30
0.0
 10
129.7254078931
 20
313.2784298018
 30
0.0
 10
129.8317424411
 20
313.1793453157
 30
0.0
  0
SPLINE
  5
465
100
AcDbEntity
  8
0
100
AcDbSpline
 62
7
  6
CONTINUOUS
 70
0
 71
3
 72
15
 73
11
 74
0
 42
0.0000001
 43
0.0000001
 44
0.0000000001
 40
0.0
 40
0.0
 40
0.0
 40
0.0
 40
0.1229644169
 40
0.2549500445
 40
0.3920676545
 40
0.5289385702
 40
0.6602685659
 40
0.782330488
 40
0.8944541082
 40
1.0
 40
1.0
 40
1.0
 40
1.0
 10
123.7987130757
 20
322.5294358333
 30
0.0
 10
123.6158909852
 20
322.4804286342
 30
0.0
 10
123.2526422628
 20
322.314507671
 30
0.0
 10
122.7865465116
 20
321.9217908061
 30
0.0
 10
122.4148589599
 20
321.4121309034
 30
0.0
 10
122.171281331
 20
320.831466509
 30
0.0
 10
122.0778938812
 20
320.2314000473
 30
0.0
 10
122.1461348385
 20
319.6644637839
 30
0.0
 10
122.3758937612
 20
319.1827104841
 30
0.0
 10
122.6327574407
 20
318.9509184169
 30
0.0
 10
122.7734391922
 20
318.8696571612
 30
0.0
  0
SPLINE
  5
466
100
AcDbEntity
  8
0
100
AcDbSpline
 62
7
  6
CONTINUOUS
 70
0
 71
3
 72
15
 73
11
 74
0
 42
0.0000001
 43
0.0000001
 44
0.0000000001
 40
0.0
 40
0.0
 40
0.0
 40
0.0
 40
0.1229644169
 40
0.2549500445
 40
0.3920676545
 40
0.5289385702
 40
0.6602685659
 40
0.782330488
 40
0.8944541082
 40
1.0
 40
1.0
 40
1.0
 40
1.0
 10
131.6499156745
 20
256.5848772259
 30
0.0
 10
131.4670935839
 20
256.5358700269
 30
0.0
 10
131.1038448615
 20
256.3699490636
 30
0.0
 10
130.6377491103
 20
255.9772321987
 30
0.0
 10
130.2660615586
 20
255.467572296
 30
0.0
 10
130.0224839298
 20
254.8869079016
 30
0.0
 10
129.9290964799
 20
254.28684144
 30
0.0
 10
129.9973374372
 20
253.7199051765
 30
0.0
 10
130.2270963599
 20
253.2381518767
 30
0.0
 10
130.4839600395
 20
253.0063598096
 30
0.0
 10
130.624641791
 20
252.9250985538
 30
0.0
  0
SPLINE
  5
467
100
AcDbEntity
  8
0
100
AcDbSpline
 62
7
  6
CONTINUOUS
 70
0
 71
3
 72
13
 73
9
 74
0
 42
0.0000001
 43
0.0000001
 44
0.0000000001
 40
0.0
 40
0.0
 40
0.0
 40
0.0
 40
0.2747757991
 40
0.5381299397
 40
0.6622442278
 40
0.7801860208
 40
0.8923553037
 40
1.0
 40
1.0
 40
1.0
 40
1.0
 10
129.8317424411
 20
310.0344998217
 30
0.0
 10
129.6228642147
 20
309.7278796637
 30
0.0
 10
129.2964091792
 20
309.0666305227
 30
0.0
 10
129.1415118914
 20
308.170408895
 30
0.0
 10
129.1973980013
 20
307.4870504899
 30
0.0
 10
129.3239890526
 20
307.0225960058
 30
0.0
 10
129.5325635799
 20
306.6132835655
 30
0.0
 10
129.7254078931
 20
306.3834202011
 30
0.0
 10
129.8317424411
 20
306.284335715
 30
0.0
  0
SPLINE
  5
468
100
AcDbEntity
  8
0
100
AcDbSpline
 62
7
  6
CONTINUOUS
 70
0
 71
3
 72
13
 73
9
 74
0
 42
0.0000001
 43
0.0000001
 44
0.0000000001
 40
0.0
 40
0.0
 40
0.0
 40
0.0
 40
0.2747757991
 40
0.5381299397
 40
0.6622442278
 40
0.7801860208
 40
0.8923553037
 40
1.0
 40
1.0
 40
1.0
 40
1.0
 10
129.8317424411
 20
303.139490221
 30
0.0
 10
129.6228642147
 20
302.832870063
 30
0.0
 10
129.2964091792
 20
302.1716209219
 30
0.0
 10
129.1415118914
 20
301.2753992942
 30
0.0
 10
129.1973980013
 20
300.5920408891
 30
0.0
 10
129.3239890526
 20
300.1275864051
 30
0.0
 10
129.5325635799
 20
299.7182739648
 30
0.0
 10
129.7254078931
 20
299.4884106003
 30
0.0
 10
129.8317424411
 20
299.3893261143
 30
0.0
  0
SPLINE
  5
469
100
AcDbEntity
  8
0
100
AcDbSpline
 62
7
  6
CONTINUOUS
 70
0
 71
3
 72
13
 73
9
 74
0
 42
0.0000001
 43
0.0000001
 44
0.0000000001
 40
0.0
 40
0.0
 40
0.0
 40
0.0
 40
0.2747757991
 40
0.5381299397
 40
0.6622442278
 40
0.7801860208
 40
0.8923553037
 40
1.0
 40
1.0
 40
1.0
 40
1.0
 10
129.8317424411
 20
296.2444806202
 30
0.0
 10
129.6228642147
 20
295.9378604623
 30
0.0
 10
129.2964091792
 20
295.2766113212
 30
0.0
 10
129.1415118914
 20
294.3803896935
 30
0.0
 10
129.1973980013
 20
293.6970312884
 30
0.0
 10
129.3239890526
 20
293.2325768044
 30
0.0
 10
129.5325635799
 20
292.823264364
 30
0.0
 10
129.7254078931
 20
292.5934009996
 30
0.0
 10
129.8317424411
 20
292.4943165135
 30
0.0
  0
SPLINE
  5
46A
100
AcDbEntity
  8
0
100
AcDbSpline
 62
7
  6
CONTINUOUS
 70
0
 71
3
 72
13
 73
9
 74
0
 42
0.0000001
 43
0.0000001
 44
0.0000000001
 40
0.0
 40
0.0
 40
0.0
 40
0.0
 40
0.2747757991
 40
0.5381299397
 40
0.6622442278
 40
0.7801860208
 40
0.8923553037
 40
1.0
 40
1.0
 40
1.0
 40
1.0
 10
129.8317424411
 20
289.3494710195
 30
0.0
 10
129.6228642147
 20
289.0428508615
 30
0.0
 10
129.2964091792
 20
288.3816017205
 30
0.0
 10
129.1415118914
 20
287.4853800928
 30
0.0
 10
129.1973980013
 20
286.8020216877
 30
0.0
 10
129.3239890526
 20
286.3375672036
 30
0.0
 10
129.5325635799
 20
285.9282547633
 30
0.0
 10
129.7254078931
 20
285.6983913989
 30
0.0
 10
129.8317424411
 20
285.5993069128
 30
0.0
  0
SPLINE
  5
46B
100
AcDbEntity
  8
0
100
AcDbSpline
 62
7
  6
CONTINUOUS
 70
0
 71
3
 72
13
 73
9
 74
0
 42
0.0000001
 43
0.0000001
 44
0.0000000001
 40
0.0
 40
0.0
 40
0.0
 40
0.0
 40
0.2747757991
 40
0.5381299397
 40
0.6622442278
 40
0.7801860208
 40
0.8923553037
 40
1.0
 40
1.0
 40
1.0
 40
1.0
 10
129.8317424411
 20
282.4544614188
 30
0.0
 10
129.6228642147
 20
282.1478412608
 30
0.0
 10
129.2964091792
 20
281.4865921197
 30
0.0
 10
129.1415118914
 20
280.590370492
 30
0.0
 10
129.1973980013
 20
279.9070120869
 30
0.0
 10
129.3239890526
 20
279.4425576029
 30
0.0
 10
129.5325635799
 20
279.0332451626
 30
0.0
 10
129.7254078931
 20
278.8033817981
 30
0.0
 10
129.8317424411
 20
278.704297312
 30
0.0
  0
SPLINE
  5
46C
100
AcDbEntity
  8
0
100
AcDbSpline
 62
7
  6
CONTINUOUS
 70
0
 71
3
 72
13
 73
9
 74
0
 42
0.0000001
 43
0.0000001
 44
0.0000000001
 40
0.0
 40
0.0
 40
0.0
 40
0.0
 40
0.2747757991
 40
0.5381299397
 40
0.6622442278
 40
0.7801860208
 40
0.8923553037
 40
1.0
 40
1.0
 40
1.0
 40
1.0
 10
129.8317424411
 20
275.559451818
 30
0.0
 10
129.6228642147
 20
275.2528316601
 30
0.0
 10
129.2964091792
 20
274.591582519
 30
0.0
 10
129.1415118914
 20
273.6953608913
 30
0.0
 10
129.1973980013
 20
273.0120024862
 30
0.0
 10
129.3239890526
 20
272.5475480021
 30
0.0
 10
129.5325635799
 20
272.1382355618
 30
0.0
 10
129.7254078931
 20
271.9083721974
 30
0.0
 10
129.8317424411
 20
271.8092877113
 30
0.0
  0
SPLINE
  5
46D
100
AcDbEntity
  8
0
100
AcDbSpline
 62
7
  6
CONTINUOUS
 70
0
 71
3
 72
13
 73
9
 74
0
 42
0.0000001
 43
0.0000001
 44
0.0000000001
 40
0.0
 40
0.0
 40
0.0
 40
0.0
 40
0.2747757991
 40
0.5381299397
 40
0.6622442278
 40
0.7801860208
 40
0.8923553037
 40
1.0
 40
1.0
 40
1.0
 40
1.0
 10
129.8317424411
 20
268.6644422173
 30
0.0
 10
129.6228642147
 20
268.3578220593
 30
0.0
 10
129.2964091792
 20
267.6965729182
 30
0.0
 10
129.1415118914
 20
266.8003512906
 30
0.0
 10
129.1973980013
 20
266.1169928855
 30
0.0
 10
129.3239890526
 20
265.6525384014
 30
0.0
 10
129.5325635799
 20
265.2432259611
 30
0.0
 10
129.7254078931
 20
265.0133625967
 30
0.0
 10
129.8317424411
 20
264.9142781106
 30
0.0
  0
SPLINE
  5
46E
100
AcDbEntity
  8
0
100
AcDbSpline
 62
7
  6
CONTINUOUS
 70
0
 71
3
 72
13
 73
9
 74
0
 42
0.0000001
 43
0.0000001
 44
0.0000000001
 40
0.0
 40
0.0
 40
0.0
 40
0.0
 40
0.2747757991
 40
0.5381299397
 40
0.6622442278
 40
0.7801860208
 40
0.8923553037
 40
1.0
 40
1.0
 40
1.0
 40
1.0
 10
129.8317424411
 20
261.7694326166
 30
0.0
 10
129.6228642147
 20
261.4628124586
 30
0.0
 10
129.2964091792
 20
260.8015633175
 30
0.0
 10
129.1415118914
 20
259.9053416898
 30
0.0
 10
129.1973980013
 20
259.2219832847
 30
0.0
 10
129.3239890526
 20
258.7575288007
 30
0.0
 10
129.5325635799
 20
258.3482163604
 30
0.0
 10
129.7254078931
 20
258.1183529959
 30
0.0
 10
129.8317424411
 20
258.0192685098
 30
0.0
  0
SPLINE
  5
46F
100
AcDbEntity
  8
0
100
AcDbSpline
 62
7
  6
CONTINUOUS
 70
0
 71
3
 72
9
 73
5
 74
0
 42
0.0000001
 43
0.0000001
 44
0.0000000001
 40
0.0
 40
0.0
 40
0.0
 40
0.0
 40
0.2466954641
 40
1.0
 40
1.0
 40
1.0
 40
1.0
 10
130.8260661504
 20
252.8325964965
 30
0.0
 10
130.8553869745
 20
252.8223038262
 30
0.0
 10
130.9758204358
 20
252.7851662723
 30
0.0
 10
131.1018435843
 20
252.7666549783
 30
0.0
 10
131.196655075
 20
252.7628022667
 30
0.0
  0
SPLINE
  5
470
100
AcDbEntity
  8
0
100
AcDbSpline
 62
7
  6
CONTINUOUS
 70
0
 71
3
 72
9
 73
5
 74
0
 42
0.0000001
 43
0.0000001
 44
0.0000000001
 40
0.0
 40
0.0
 40
0.0
 40
0.0
 40
0.2444911663
 40
1.0
 40
1.0
 40
1.0
 40
1.0
 10
131.2352985324
 20
252.7617798269
 30
0.0
 10
131.2694304899
 20
252.7613571495
 30
0.0
 10
131.4090742711
 20
252.7647851394
 30
0.0
 10
131.5480324534
 20
252.7882945451
 30
0.0
 10
131.6499156745
 20
252.8156053108
 30
0.0
  0
SPLINE
  5
471
100
AcDbEntity
  8
0
100
AcDbSpline
 62
7
  6
CONTINUOUS
 70
0
 71
3
 72
13
 73
9
 74
0
 42
0.0000001
 43
0.0000001
 44
0.0000000001
 40
0.0
 40
0.0
 40
0.0
 40
0.0
 40
0.2747757991
 40
0.5381299397
 40
0.6622442278
 40
0.7801860208
 40
0.8923553037
 40
1.0
 40
1.0
 40
1.0
 40
1.0
 10
125.6168863091
 20
251.5205221209
 30
0.0
 10
125.8257645355
 20
251.8271422789
 30
0.0
 10
126.152219571
 20
252.4883914199
 30
0.0
 10
126.3071168587
 20
253.3846130476
 30
0.0
 10
126.2512307488
 20
254.0679714527
 30
0.0
 10
126.1246396975
 20
254.5324259368
 30
0.0
 10
125.9160651703
 20
254.9417383771
 30
0.0
 10
125.7232208571
 20
255.1716017415
 30
0.0
 10
125.6168863091
 20
255.2706862276
 30
0.0
  0
SPLINE
  5
472
100
AcDbEntity
  8
0
100
AcDbSpline
 62
7
  6
CONTINUOUS
 70
0
 71
3
 72
13
 73
9
 74
0
 42
0.0000001
 43
0.0000001
 44
0.0000000001
 40
0.0
 40
0.0
 40
0.0
 40
0.0
 40
0.2747757991
 40
0.5381299397
 40
0.6622442278
 40
0.7801860208
 40
0.8923553037
 40
1.0
 40
1.0
 40
1.0
 40
1.0
 10
125.6168863091
 20
258.4155317216
 30
0.0
 10
125.8257645355
 20
258.7221518796
 30
0.0
 10
126.152219571
 20
259.3834010207
 30
0.0
 10
126.3071168587
 20
260.2796226484
 30
0.0
 10
126.2512307488
 20
260.9629810535
 30
0.0
 10
126.1246396975
 20
261.4274355375
 30
0.0
 10
125.9160651703
 20
261.8367479778
 30
0.0
 10
125.7232208571
 20
262.0666113423
 30
0.0
 10
125.6168863091
 20
262.1656958283
 30
0.0
  0
SPLINE
  5
473
100
AcDbEntity
  8
0
100
AcDbSpline
 62
7
  6
CONTINUOUS
 70
0
 71
3
 72
13
 73
9
 74
0
 42
0.0000001
 43
0.0000001
 44
0.0000000001
 40
0.0
 40
0.0
 40
0.0
 40
0.0
 40
0.2747757991
 40
0.5381299397
 40
0.6622442278
 40
0.7801860208
 40
0.8923553037
 40
1.0
 40
1.0
 40
1.0
 40
1.0
 10
125.6168863091
 20
265.3105413224
 30
0.0
 10
125.8257645355
 20
265.6171614803
 30
0.0
 10
126.152219571
 20
266.2784106214
 30
0.0
 10
126.3071168587
 20
267.1746322491
 30
0.0
 10
126.2512307488
 20
267.8579906542
 30
0.0
 10
126.1246396975
 20
268.3224451382
 30
0.0
 10
125.9160651703
 20
268.7317575786
 30
0.0
 10
125.7232208571
 20
268.961620943
 30
0.0
 10
125.6168863091
 20
269.0607054291
 30
0.0
  0
SPLINE
  5
474
100
AcDbEntity
  8
0
100
AcDbSpline
 62
7
  6
CONTINUOUS
 70
0
 71
3
 72
13
 73
9
 74
0
 42
0.0000001
 43
0.0000001
 44
0.0000000001
 40
0.0
 40
0.0
 40
0.0
 40
0.0
 40
0.2747757991
 40
0.5381299397
 40
0.6622442278
 40
0.7801860208
 40
0.8923553037
 40
1.0
 40
1.0
 40
1.0
 40
1.0
 10
125.6168863091
 20
272.2055509231
 30
0.0
 10
125.8257645355
 20
272.5121710811
 30
0.0
 10
126.152219571
 20
273.1734202221
 30
0.0
 10
126.3071168587
 20
274.0696418498
 30
0.0
 10
126.2512307488
 20
274.7530002549
 30
0.0
 10
126.1246396975
 20
275.217454739
 30
0.0
 10
125.9160651703
 20
275.6267671793
 30
0.0
 10
125.7232208571
 20
275.8566305437
 30
0.0
 10
125.6168863091
 20
275.9557150298
 30
0.0
  0
SPLINE
  5
475
100
AcDbEntity
  8
0
100
AcDbSpline
 62
7
  6
CONTINUOUS
 70
0
 71
3
 72
13
 73
9
 74
0
 42
0.0000001
 43
0.0000001
 44
0.0000000001
 40
0.0
 40
0.0
 40
0.0
 40
0.0
 40
0.2747757991
 40
0.5381299397
 40
0.6622442278
 40
0.7801860208
 40
0.8923553037
 40
1.0
 40
1.0
 40
1.0
 40
1.0
 10
125.6168863091
 20
279.1005605238
 30
0.0
 10
125.8257645355
 20
279.4071806818
 30
0.0
 10
126.152219571
 20
280.0684298229
 30
0.0
 10
126.3071168587
 20
280.9646514506
 30
0.0
 10
126.2512307488
 20
281.6480098557
 30
0.0
 10
126.1246396975
 20
282.1124643397
 30
0.0
 10
125.9160651703
 20
282.52177678
 30
0.0
 10
125.7232208571
 20
282.7516401445
 30
0.0
 10
125.6168863091
 20
282.8507246305
 30
0.0
  0
SPLINE
  5
476
100
AcDbEntity
  8
0
100
AcDbSpline
 62
7
  6
CONTINUOUS
 70
0
 71
3
 72
13
 73
9
 74
0
 42
0.0000001
 43
0.0000001
 44
0.0000000001
 40
0.0
 40
0.0
 40
0.0
 40
0.0
 40
0.2747757991
 40
0.5381299397
 40
0.6622442278
 40
0.7801860208
 40
0.8923553037
 40
1.0
 40
1.0
 40
1.0
 40
1.0
 10
125.6168863091
 20
285.9955701246
 30
0.0
 10
125.8257645355
 20
286.3021902825
 30
0.0
 10
126.152219571
 20
286.9634394236
 30
0.0
 10
126.3071168587
 20
287.8596610513
 30
0.0
 10
126.2512307488
 20
288.5430194564
 30
0.0
 10
126.1246396975
 20
289.0074739404
 30
0.0
 10
125.9160651703
 20
289.4167863808
 30
0.0
 10
125.7232208571
 20
289.6466497452
 30
0.0
 10
125.6168863091
 20
289.7457342313
 30
0.0
  0
SPLINE
  5
477
100
AcDbEntity
  8
0
100
AcDbSpline
 62
7
  6
CONTINUOUS
 70
0
 71
3
 72
13
 73
9
 74
0
 42
0.0000001
 43
0.0000001
 44
0.0000000001
 40
0.0
 40
0.0
 40
0.0
 40
0.0
 40
0.2747757991
 40
0.5381299397
 40
0.6622442278
 40
0.7801860208
 40
0.8923553037
 40
1.0
 40
1.0
 40
1.0
 40
1.0
 10
125.6168863091
 20
292.8905797253
 30
0.0
 10
125.8257645355
 20
293.1971998833
 30
0.0
 10
126.152219571
 20
293.8584490243
 30
0.0
 10
126.3071168587
 20
294.754670652
 30
0.0
 10
126.2512307488
 20
295.4380290571
 30
0.0
 10
126.1246396975
 20
295.9024835412
 30
0.0
 10
125.9160651703
 20
296.3117959815
 30
0.0
 10
125.7232208571
 20
296.5416593459
 30
0.0
 10
125.6168863091
 20
296.640743832
 30
0.0
  0
SPLINE
  5
478
100
AcDbEntity
  8
0
100
AcDbSpline
 62
7
  6
CONTINUOUS
 70
0
 71
3
 72
13
 73
9
 74
0
 42
0.0000001
 43
0.0000001
 44
0.0000000001
 40
0.0
 40
0.0
 40
0.0
 40
0.0
 40
0.2747757991
 40
0.5381299397
 40
0.6622442278
 40
0.7801860208
 40
0.8923553037
 40
1.0
 40
1.0
 40
1.0
 40
1.0
 10
125.6168863091
 20
299.785589326
 30
0.0
 10
125.8257645355
 20
300.092209484
 30
0.0
 10
126.152219571
 20
300.7534586251
 30
0.0
 10
126.3071168587
 20
301.6496802528
 30
0.0
 10
126.2512307488
 20
302.3330386579
 30
0.0
 10
126.1246396975
 20
302.7974931419
 30
0.0
 10
125.9160651703
 20
303.2068055822
 30
0.0
 10
125.7232208571
 20
303.4366689467
 30
0.0
 10
125.6168863091
 20
303.5357534328
 30
0.0
  0
SPLINE
  5
479
100
AcDbEntity
  8
0
100
AcDbSpline
 62
7
  6
CONTINUOUS
 70
0
 71
3
 72
13
 73
9
 74
0
 42
0.0000001
 43
0.0000001
 44
0.0000000001
 40
0.0
 40
0.0
 40
0.0
 40
0.0
 40
0.2747757991
 40
0.5381299397
 40
0.6622442278
 40
0.7801860208
 40
0.8923553037
 40
1.0
 40
1.0
 40
1.0
 40
1.0
 10
125.6168863091
 20
306.6805989268
 30
0.0
 10
125.8257645355
 20
306.9872190847
 30
0.0
 10
126.152219571
 20
307.6484682258
 30
0.0
 10
126.3071168587
 20
308.5446898535
 30
0.0
 10
126.2512307488
 20
309.2280482586
 30
0.0
 10
126.1246396975
 20
309.6925027427
 30
0.0
 10
125.9160651703
 20
310.101815183
 30
0.0
 10
125.7232208571
 20
310.3316785474
 30
0.0
 10
125.6168863091
 20
310.4307630335
 30
0.0
  0
SPLINE
  5
47A
100
AcDbEntity
  8
0
100
AcDbSpline
 62
7
  6
CONTINUOUS
 70
0
 71
3
 72
13
 73
9
 74
0
 42
0.0000001
 43
0.0000001
 44
0.0000000001
 40
0.0
 40
0.0
 40
0.0
 40
0.0
 40
0.2747757991
 40
0.5381299397
 40
0.6622442278
 40
0.7801860208
 40
0.8923553037
 40
1.0
 40
1.0
 40
1.0
 40
1.0
 10
125.6168863091
 20
313.5756085275
 30
0.0
 10
125.8257645355
 20
313.8822286855
 30
0.0
 10
126.152219571
 20
314.5434778266
 30
0.0
 10
126.3071168587
 20
315.4396994542
 30
0.0
 10
126.2512307488
 20
316.1230578593
 30
0.0
 10
126.1246396975
 20
316.5875123434
 30
0.0
 10
125.9160651703
 20
316.9968247837
 30
0.0
 10
125.7232208571
 20
317.2266881481
 30
0.0
 10
125.6168863091
 20
317.3257726342
 30
0.0
  0
SPLINE
  5
47B
100
AcDbEntity
  8
0
100
AcDbSpline
 62
7
  6
CONTINUOUS
 70
0
 71
3
 72
9
 73
5
 74
0
 42
0.0000001
 43
0.0000001
 44
0.0000000001
 40
0.0
 40
0.0
 40
0.0
 40
0.0
 40
0.2466954641
 40
1.0
 40
1.0
 40
1.0
 40
1.0
 10
122.9748635517
 20
318.7771551038
 30
0.0
 10
123.0041843757
 20
318.7668624336
 30
0.0
 10
123.1246178371
 20
318.7297248797
 30
0.0
 10
123.2506409856
 20
318.7112135857
 30
0.0
 10
123.3454524763
 20
318.7073608741
 30
0.0
  0
SPLINE
  5
47C
100
AcDbEntity
  8
0
100
AcDbSpline
 62
7
  6
CONTINUOUS
 70
0
 71
3
 72
9
 73
5
 74
0
 42
0.0000001
 43
0.0000001
 44
0.0000000001
 40
0.0
 40
0.0
 40
0.0
 40
0.0
 40
0.2444911663
 40
1.0
 40
1.0
 40
1.0
 40
1.0
 10
123.3840959337
 20
318.7063384343
 30
0.0
 10
123.4182278911
 20
318.7059157568
 30
0.0
 10
123.5578716723
 20
318.7093437468
 30
0.0
 10
123.6968298547
 20
318.7328531524
 30
0.0
 10
123.7987130757
 20
318.7601639182
 30
0.0
  0
SPLINE
  5
47D
100
AcDbEntity
  8
0
100
AcDbSpline
 62
7
  6
CONTINUOUS
 70
0
 71
3
 72
9
 73
5
 74
0
 42
0.0000001
 43
0.0000001
 44
0.0000000001
 40
0.0
 40
0.0
 40
0.0
 40
0.0
 40
0.2455934696
 40
1.0
 40
1.0
 40
1.0
 40
1.0
 10
124.251007031
 20
318.9498048225
 30
0.0
 10
124.2830180632
 20
318.9682445902
 30
0.0
 10
124.4113489805
 20
319.0467844327
 30
0.0
 10
124.5314879037
 20
319.138551913
 30
0.0
 10
124.6166214775
 20
319.2135823175
 30
0.0
  0
SPLINE
  5
47E
100
AcDbEntity
  8
0
100
AcDbSpline
 62
7
  6
CONTINUOUS
 70
0
 71
3
 72
9
 73
5
 74
0
 42
0.0000001
 43
0.0000001
 44
0.0000000001
 40
0.0
 40
0.0
 40
0.0
 40
0.0
 40
0.2475829432
 40
1.0
 40
1.0
 40
1.0
 40
1.0
 10
124.6684718027
 20
319.2606250418
 30
0.0
 10
124.6961416133
 20
319.2864623094
 30
0.0
 10
124.8054784657
 20
319.3933909094
 30
0.0
 10
124.9051132902
 20
319.5101949346
 30
0.0
 10
124.9739528234
 20
319.6023781661
 30
0.0
  0
SPLINE
  5
47F
100
AcDbEntity
  8
0
100
AcDbSpline
 62
7
  6
CONTINUOUS
 70
0
 71
3
 72
9
 73
5
 74
0
 42
0.0000001
 43
0.0000001
 44
0.0000000001
 40
0.0
 40
0.0
 40
0.0
 40
0.0
 40
0.2523276779
 40
1.0
 40
1.0
 40
1.0
 40
1.0
 10
125.2822561242
 20
320.1323448367
 30
0.0
 10
125.2980702766
 20
320.1684903767
 30
0.0
 10
125.357540928
 20
320.313113144
 30
0.0
 10
125.4041521459
 20
320.4630674895
 30
0.0
 10
125.4308484363
 20
320.5768835382
 30
0.0
  0
SPLINE
  5
480
100
AcDbEntity
  8
0
100
AcDbSpline
 62
7
  6
CONTINUOUS
 70
0
 71
3
 72
9
 73
5
 74
0
 42
0.0000001
 43
0.0000001
 44
0.0000000001
 40
0.0
 40
0.0
 40
0.0
 40
0.0
 40
0.2547102789
 40
1.0
 40
1.0
 40
1.0
 40
1.0
 10
125.4409920626
 20
320.6220473616
 30
0.0
 10
125.449416796
 20
320.6612966736
 30
0.0
 10
125.4786723887
 20
320.8161730416
 30
0.0
 10
125.4924820405
 20
320.9740677565
 30
0.0
 10
125.4928970293
 20
321.0915274958
 30
0.0
  0
SPLINE
  5
481
100
AcDbEntity
  8
0
100
AcDbSpline
 62
7
  6
CONTINUOUS
 70
0
 71
3
 72
9
 73
5
 74
0
 42
0.0000001
 43
0.0000001
 44
0.0000000001
 40
0.0
 40
0.0
 40
0.0
 40
0.0
 40
0.2561359397
 40
1.0
 40
1.0
 40
1.0
 40
1.0
 10
125.4928970293
 20
321.0915274958
 30
0.0
 10
125.4930300559
 20
321.1291797709
 30
0.0
 10
125.4895857157
 20
321.2761506764
 30
0.0
 10
125.4699922625
 20
321.4228797948
 30
0.0
 10
125.44539135
 20
321.5294261161
 30
0.0
  0
SPLINE
  5
482
100
AcDbEntity
  8
0
100
AcDbSpline
 62
7
  6
CONTINUOUS
 70
0
 71
3
 72
9
 73
5
 74
0
 42
0.0000001
 43
0.0000001
 44
0.0000000001
 40
0.0
 40
0.0
 40
0.0
 40
0.0
 40
0.2543586818
 40
1.0
 40
1.0
 40
1.0
 40
1.0
 10
125.2576822155
 20
321.993920742
 30
0.0
 10
125.2414914072
 20
322.0200878205
 30
0.0
 10
125.1744115098
 20
322.1207885772
 30
0.0
 10
125.0933401558
 20
322.2122801055
 30
0.0
 10
125.0263483838
 20
322.2726859626
 30
0.0
  0
SPLINE
  5
483
100
AcDbEntity
  8
0
100
AcDbSpline
 62
7
  6
CONTINUOUS
 70
0
 71
3
 72
9
 73
5
 74
0
 42
0.0000001
 43
0.0000001
 44
0.0000000001
 40
0.0
 40
0.0
 40
0.0
 40
0.0
 40
0.2455934696
 40
1.0
 40
1.0
 40
1.0
 40
1.0
 10
132.1022096297
 20
253.0052462151
 30
0.0
 10
132.1342206619
 20
253.0236859829
 30
0.0
 10
132.2625515793
 20
253.1022258253
 30
0.0
 10
132.3826905025
 20
253.1939933056
 30
0.0
 10
132.4678240763
 20
253.2690237102
 30
0.0
  0
SPLINE
  5
484
100
AcDbEntity
  8
0
100
AcDbSpline
 62
7
  6
CONTINUOUS
 70
0
 71
3
 72
9
 73
5
 74
0
 42
0.0000001
 43
0.0000001
 44
0.0000000001
 40
0.0
 40
0.0
 40
0.0
 40
0.0
 40
0.2475829432
 40
1.0
 40
1.0
 40
1.0
 40
1.0
 10
132.5196744014
 20
253.3160664344
 30
0.0
 10
132.547344212
 20
253.341903702
 30
0.0
 10
132.6566810645
 20
253.448832302
 30
0.0
 10
132.756315889
 20
253.5656363273
 30
0.0
 10
132.8251554221
 20
253.6578195587
 30
0.0
  0
SPLINE
  5
485
100
AcDbEntity
  8
0
100
AcDbSpline
 62
7
  6
CONTINUOUS
 70
0
 71
3
 72
9
 73
5
 74
0
 42
0.0000001
 43
0.0000001
 44
0.0000000001
 40
0.0
 40
0.0
 40
0.0
 40
0.0
 40
0.2523276779
 40
1.0
 40
1.0
 40
1.0
 40
1.0
 10
133.133458723
 20
254.1877862293
 30
0.0
 10
133.1492728753
 20
254.2239317693
 30
0.0
 10
133.2087435267
 20
254.3685545366
 30
0.0
 10
133.2553547447
 20
254.5185088821
 30
0.0
 10
133.282051035
 20
254.6323249309
 30
0.0
  0
SPLINE
  5
486
100
AcDbEntity
  8
0
100
AcDbSpline
 62
7
  6
CONTINUOUS
 70
0
 71
3
 72
9
 73
5
 74
0
 42
0.0000001
 43
0.0000001
 44
0.0000000001
 40
0.0
 40
0.0
 40
0.0
 40
0.0
 40
0.2547102789
 40
1.0
 40
1.0
 40
1.0
 40
1.0
 10
133.2921946613
 20
254.6774887542
 30
0.0
 10
133.3006193948
 20
254.7167380662
 30
0.0
 10
133.3298749874
 20
254.8716144343
 30
0.0
 10
133.3436846393
 20
255.0295091491
 30
0.0
 10
133.344099628
 20
255.1469688884
 30
0.0
  0
SPLINE
  5
487
100
AcDbEntity
  8
0
100
AcDbSpline
 62
7
  6
CONTINUOUS
 70
0
 71
3
 72
9
 73
5
 74
0
 42
0.0000001
 43
0.0000001
 44
0.0000000001
 40
0.0
 40
0.0
 40
0.0
 40
0.0
 40
0.2561359397
 40
1.0
 40
1.0
 40
1.0
 40
1.0
 10
133.344099628
 20
255.1469688884
 30
0.0
 10
133.3442326547
 20
255.1846211635
 30
0.0
 10
133.3407883144
 20
255.331592069
 30
0.0
 10
133.3211948613
 20
255.4783211874
 30
0.0
 10
133.2965939487
 20
255.5848675087
 30
0.0
  0
SPLINE
  5
488
100
AcDbEntity
  8
0
100
AcDbSpline
 62
7
  6
CONTINUOUS
 70
0
 71
3
 72
9
 73
5
 74
0
 42
0.0000001
 43
0.0000001
 44
0.0000000001
 40
0.0
 40
0.0
 40
0.0
 40
0.0
 40
0.2543586818
 40
1.0
 40
1.0
 40
1.0
 40
1.0
 10
133.1088848143
 20
256.0493621346
 30
0.0
 10
133.092694006
 20
256.0755292132
 30
0.0
 10
133.0256141085
 20
256.1762299698
 30
0.0
 10
132.9445427546
 20
256.2677214982
 30
0.0
 10
132.8775509825
 20
256.3281273552
 30
0.0
  0
SPLINE
  5
489
100
AcDbEntity
  8
0
100
AcDbSpline
 62
7
  6
CONTINUOUS
 70
0
 71
3
 72
9
 73
5
 74
0
 42
0.0000001
 43
0.0000001
 44
0.0000000001
 40
0.0
 40
0.0
 40
0.0
 40
0.0
 40
0.4800018668
 40
1.0
 40
1.0
 40
1.0
 40
1.0
 10
121.2406813069
 20
264.1703971986
 30
0.0
 10
121.3364352661
 20
263.8915663251
 30
0.0
 10
121.4263190103
 20
263.2708413893
 30
0.0
 10
121.329641274
 20
262.6557002462
 30
0.0
 10
121.2406813069
 20
262.3489600179
 30
0.0
  0
SPLINE
  5
48A
100
AcDbEntity
  8
0
100
AcDbSpline
 62
7
  6
CONTINUOUS
 70
0
 71
3
 72
9
 73
5
 74
0
 42
0.0000001
 43
0.0000001
 44
0.0000000001
 40
0.0
 40
0.0
 40
0.0
 40
0.0
 40
0.4800018668
 40
1.0
 40
1.0
 40
1.0
 40
1.0
 10
121.2406813069
 20
257.2753875979
 30
0.0
 10
121.3364352661
 20
256.9965567243
 30
0.0
 10
121.4263190103
 20
256.3758317885
 30
0.0
 10
121.329641274
 20
255.7606906454
 30
0.0
 10
121.2406813069
 20
255.4539504172
 30
0.0
  0
SPLINE
  5
48B
100
AcDbEntity
  8
0
100
AcDbSpline
 62
7
  6
CONTINUOUS
 70
0
 71
3
 72
9
 73
5
 74
0
 42
0.0000001
 43
0.0000001
 44
0.0000000001
 40
0.0
 40
0.0
 40
0.0
 40
0.0
 40
0.4800018668
 40
1.0
 40
1.0
 40
1.0
 40
1.0
 10
121.2406813069
 20
312.4354644038
 30
0.0
 10
121.3364352661
 20
312.1566335302
 30
0.0
 10
121.4263190103
 20
311.5359085944
 30
0.0
 10
121.329641274
 20
310.9207674513
 30
0.0
 10
121.2406813069
 20
310.614027223
 30
0.0
  0
SPLINE
  5
48C
100
AcDbEntity
  8
0
100
AcDbSpline
 62
7
  6
CONTINUOUS
 70
0
 71
3
 72
9
 73
5
 74
0
 42
0.0000001
 43
0.0000001
 44
0.0000000001
 40
0.0
 40
0.0
 40
0.0
 40
0.0
 40
0.4800018668
 40
1.0
 40
1.0
 40
1.0
 40
1.0
 10
121.2406813069
 20
305.540454803
 30
0.0
 10
121.3364352661
 20
305.2616239295
 30
0.0
 10
121.4263190103
 20
304.6408989937
 30
0.0
 10
121.329641274
 20
304.0257578506
 30
0.0
 10
121.2406813069
 20
303.7190176223
 30
0.0
  0
SPLINE
  5
48D
100
AcDbEntity
  8
0
100
AcDbSpline
 62
7
  6
CONTINUOUS
 70
0
 71
3
 72
9
 73
5
 74
0
 42
0.0000001
 43
0.0000001
 44
0.0000000001
 40
0.0
 40
0.0
 40
0.0
 40
0.0
 40
0.4820781557
 40
1.0
 40
1.0
 40
1.0
 40
1.0
 10
121.302190697
 20
298.435583109
 30
0.0
 10
121.3730232608
 20
298.1468604894
 30
0.0
 10
121.4141434952
 20
297.5199593746
 30
0.0
 10
121.2785549999
 20
296.9102931204
 30
0.0
 10
121.1713799352
 20
296.6094238325
 30
0.0
  0
SPLINE
  5
48E
100
AcDbEntity
  8
0
100
AcDbSpline
 62
7
  6
CONTINUOUS
 70
0
 71
3
 72
9
 73
5
 74
0
 42
0.0000001
 43
0.0000001
 44
0.0000000001
 40
0.0
 40
0.0
 40
0.0
 40
0.0
 40
0.4820781557
 40
1.0
 40
1.0
 40
1.0
 40
1.0
 10
121.302190697
 20
291.5405735083
 30
0.0
 10
121.3730232608
 20
291.2518508887
 30
0.0
 10
121.4141434952
 20
290.6249497738
 30
0.0
 10
121.2785549999
 20
290.0152835196
 30
0.0
 10
121.1713799352
 20
289.7144142317
 30
0.0
  0
SPLINE
  5
48F
100
AcDbEntity
  8
0
100
AcDbSpline
 62
7
  6
CONTINUOUS
 70
0
 71
3
 72
9
 73
5
 74
0
 42
0.0000001
 43
0.0000001
 44
0.0000000001
 40
0.0
 40
0.0
 40
0.0
 40
0.0
 40
0.4820781557
 40
1.0
 40
1.0
 40
1.0
 40
1.0
 10
121.302190697
 20
284.6455639075
 30
0.0
 10
121.3730232608
 20
284.356841288
 30
0.0
 10
121.4141434952
 20
283.7299401731
 30
0.0
 10
121.2785549999
 20
283.1202739189
 30
0.0
 10
121.1713799352
 20
282.819404631
 30
0.0
  0
SPLINE
  5
490
100
AcDbEntity
  8
0
100
AcDbSpline
 62
7
  6
CONTINUOUS
 70
0
 71
3
 72
9
 73
5
 74
0
 42
0.0000001
 43
0.0000001
 44
0.0000000001
 40
0.0
 40
0.0
 40
0.0
 40
0.0
 40
0.4820781557
 40
1.0
 40
1.0
 40
1.0
 40
1.0
 10
121.302190697
 20
277.7505543068
 30
0.0
 10
121.3730232608
 20
277.4618316872
 30
0.0
 10
121.4141434952
 20
276.8349305724
 30
0.0
 10
121.2785549999
 20
276.2252643182
 30
0.0
 10
121.1713799352
 20
275.9243950303
 30
0.0
  0
SPLINE
  5
491
100
AcDbEntity
  8
0
100
AcDbSpline
 62
7
  6
CONTINUOUS
 70
0
 71
3
 72
9
 73
5
 74
0
 42
0.0000001
 43
0.0000001
 44
0.0000000001
 40
0.0
 40
0.0
 40
0.0
 40
0.0
 40
0.4820781557
 40
1.0
 40
1.0
 40
1.0
 40
1.0
 10
121.302190697
 20
270.8555447061
 30
0.0
 10
121.3730232608
 20
270.5668220865
 30
0.0
 10
121.4141434952
 20
269.9399209716
 30
0.0
 10
121.2785549999
 20
269.3302547174
 30
0.0
 10
121.1713799352
 20
269.0293854295
 30
0.0
  0
SPLINE
  5
492
100
AcDbEntity
  8
0
100
AcDbSpline
 62
7
  6
CONTINUOUS
 70
0
 71
3
 72
9
 73
5
 74
0
 42
0.0000001
 43
0.0000001
 44
0.0000000001
 40
0.0
 40
0.0
 40
0.0
 40
0.0
 40
0.4720084546
 40
1.0
 40
1.0
 40
1.0
 40
1.0
 10
119.7176955602
 20
262.8986587567
 30
0.0
 10
119.7686642713
 20
262.8692285583
 30
0.0
 10
119.8572169986
 20
262.7700365633
 30
0.0
 10
119.8808559544
 20
262.6423117016
 30
0.0
 10
119.8808559544
 20
262.5764758053
 30
0.0
  0
SPLINE
  5
493
100
AcDbEntity
  8
0
100
AcDbSpline
 62
7
  6
CONTINUOUS
 70
0
 71
3
 72
9
 73
5
 74
0
 42
0.0000001
 43
0.0000001
 44
0.0000000001
 40
0.0
 40
0.0
 40
0.0
 40
0.0
 40
0.5107221236
 40
1.0
 40
1.0
 40
1.0
 40
1.0
 10
119.8808559544
 20
303.9005666791
 30
0.0
 10
119.8808559546
 20
303.7747644899
 30
0.0
 10
119.7935824218
 20
303.5269863566
 30
0.0
 10
119.5840449301
 20
303.3613363562
 30
0.0
 10
119.4676347649
 20
303.330131505
 30
0.0
  0
SPLINE
  5
494
100
AcDbEntity
  8
0
100
AcDbSpline
 62
7
  6
CONTINUOUS
 70
0
 71
3
 72
9
 73
5
 74
0
 42
0.0000001
 43
0.0000001
 44
0.0000000001
 40
0.0
 40
0.0
 40
0.0
 40
0.0
 40
0.4892778764
 40
1.0
 40
1.0
 40
1.0
 40
1.0
 10
119.4676347649
 20
303.330131505
 30
0.0
 10
119.3512245998
 20
303.2989266539
 30
0.0
 10
119.141687108
 20
303.1332766535
 30
0.0
 10
119.0544135755
 20
302.8854985202
 30
0.0
 10
119.0544135755
 20
302.759696331
 30
0.0
  0
SPLINE
  5
495
100
AcDbEntity
  8
0
100
AcDbSpline
 62
7
  6
CONTINUOUS
 70
0
 71
3
 72
9
 73
5
 74
0
 42
0.0000001
 43
0.0000001
 44
0.0000000001
 40
0.0
 40
0.0
 40
0.0
 40
0.0
 40
0.5279915454
 40
1.0
 40
1.0
 40
1.0
 40
1.0
 10
119.0544135755
 20
263.2742746841
 30
0.0
 10
119.0544135755
 20
263.2084387878
 30
0.0
 10
119.0780525313
 20
263.0807139261
 30
0.0
 10
119.1666052586
 20
262.9815219312
 30
0.0
 10
119.2175739697
 20
262.9520917328
 30
0.0
  0
SPLINE
  5
496
100
AcDbEntity
  8
0
100
AcDbSpline
 62
7
  6
CONTINUOUS
 70
0
 71
3
 72
9
 73
5
 74
0
 42
0.0000001
 43
0.0000001
 44
0.0000000001
 40
0.0
 40
0.0
 40
0.0
 40
0.0
 40
0.2527454345
 40
1.0
 40
1.0
 40
1.0
 40
1.0
 10
113.2046255837
 20
332.2136363882
 30
0.0
 10
113.2483094845
 20
331.4848067922
 30
0.0
 10
113.40163216
 20
328.6000290853
 30
0.0
 10
113.4762154663
 20
325.7109896453
 30
0.0
 10
113.4848161091
 20
323.5523184139
 30
0.0
  0
SPLINE
  5
497
100
AcDbEntity
  8
0
100
AcDbSpline
 62
7
  6
CONTINUOUS
 70
0
 71
3
 72
9
 73
5
 74
0
 42
0.0000001
 43
0.0000001
 44
0.0000000001
 40
0.0
 40
0.0
 40
0.0
 40
0.0
 40
0.4839928291
 40
1.0
 40
1.0
 40
1.0
 40
1.0
 10
119.2175739697
 20
262.9520917328
 30
0.0
 10
119.2534100518
 20
262.9313993711
 30
0.0
 10
119.3377989398
 20
262.9049459373
 30
0.0
 10
119.4250208885
 20
262.9139521901
 30
0.0
 10
119.4676347649
 20
262.9253752447
 30
0.0
  0
SPLINE
  5
498
100
AcDbEntity
  8
0
100
AcDbSpline
 62
7
  6
CONTINUOUS
 70
0
 71
3
 72
9
 73
5
 74
0
 42
0.0000001
 43
0.0000001
 44
0.0000000001
 40
0.0
 40
0.0
 40
0.0
 40
0.0
 40
0.2476637255
 40
1.0
 40
1.0
 40
1.0
 40
1.0
 10
119.3607785079
 20
324.0540097513
 30
0.0
 10
120.6034674812
 20
324.3177220699
 30
0.0
 10
125.6079514637
 20
325.4438255557
 30
0.0
 10
130.5574922283
 20
326.8125574127
 30
0.0
 10
134.239309036
 20
327.9685284798
 30
0.0
  0
SPLINE
  5
499
100
AcDbEntity
  8
0
100
AcDbSpline
 62
7
  6
CONTINUOUS
 70
0
 71
3
 72
9
 73
5
 74
0
 42
0.0000001
 43
0.0000001
 44
0.0000000001
 40
0.0
 40
0.0
 40
0.0
 40
0.0
 40
0.249013901
 40
1.0
 40
1.0
 40
1.0
 40
1.0
 10
134.239309036
 20
327.9685284798
 30
0.0
 10
134.7662620975
 20
328.1339746507
 30
0.0
 10
136.8791361473
 20
328.808802571
 30
0.0
 10
138.9787561341
 20
329.5250962915
 30
0.0
 10
140.5473278494
 20
330.0855597159
 30
0.0
  0
SPLINE
  5
49A
100
AcDbEntity
  8
0
100
AcDbSpline
 62
7
  6
CONTINUOUS
 70
0
 71
3
 72
10
 73
6
 74
0
 42
0.0000001
 43
0.0000001
 44
0.0000000001
 40
0.0
 40
0.0
 40
0.0
 40
0.0
 40
0.2307777507
 40
0.4701171682
 40
1.0
 40
1.0
 40
1.0
 40
1.0
 10
63.5297012589
 20
288.0192437597
 30
0.0
 10
63.6896685452
 20
288.0621793413
 30
0.0
 10
64.0271187201
 20
288.1114023031
 30
0.0
 10
64.7471357805
 20
288.0532741229
 30
0.0
 10
65.2717118024
 20
287.8370133941
 30
0.0
 10
65.6010266606
 20
287.6468101018
 30
0.0
  0
SPLINE
  5
49B
100
AcDbEntity
  8
0
100
AcDbSpline
 62
7
  6
CONTINUOUS
 70
0
 71
3
 72
15
 73
11
 74
0
 42
0.0000001
 43
0.0000001
 44
0.0000000001
 40
0.0
 40
0.0
 40
0.0
 40
0.0
 40
0.2646694599
 40
0.4021382152
 40
0.5367260625
 40
0.6646701152
 40
0.7837860162
 40
0.8943550023
 40
0.9475380985
 40
1.0
 40
1.0
 40
1.0
 40
1.0
 10
68.6120986093
 20
372.8866091917
 30
0.0
 10
68.6120986093
 20
373.1439999443
 30
0.0
 10
68.714027767
 20
373.5394334893
 30
0.0
 10
68.9912773421
 20
373.9840045458
 30
0.0
 10
69.2636470763
 20
374.2664869272
 30
0.0
 10
69.5779246213
 20
374.4705137854
 30
0.0
 10
69.9123720537
 20
374.5808735356
 30
0.0
 10
70.1929259769
 20
374.5847310653
 30
0.0
 10
70.3975368453
 20
374.5322596008
 30
0.0
 10
70.491465112
 20
374.4889604063
 30
0.0
 10
70.5356460155
 20
374.463445696
 30
0.0
  0
ELLIPSE
  5
49C
100
AcDbEntity
  8
0
100
AcDbEllipse
 62
7
  6
CONTINUOUS
 10
67.2839062064
 20
280.7432450516
 30
0.0
 11
-2.1079303093
 21
7.7173616231
 31
0.0
 40
0.524226928
 41
-0.166250482
 42
-0.002482277
  0
ELLIPSE
  5
49D
100
AcDbEntity
  8
0
100
AcDbEllipse
 62
7
  6
CONTINUOUS
 10
86.930091875
 20
362.667615808
 30
0.0
 11
1.6258488036
 21
2.5439986443
 31
0.0
 40
0.7366131053
 41
-1.6365204847
 42
-0.9445486019
  0
ELLIPSE
  5
49E
100
AcDbEntity
  8
0
100
AcDbEllipse
 62
7
  6
CONTINUOUS
 10
98.7120293983
 20
357.6642334798
 30
0.0
 11
18.2630757319
 21
-10.3657320623
 31
0.0
 40
0.0861292999
 41
4.6775819171
 42
7.7144545688
  0
ENDSEC
  0
SECTION
  2
OBJECTS
  0
DICTIONARY
  5
C
100
AcDbDictionary
280
0
281
1
  3
ACAD_GROUP
350
D
  3
ACAD_MLINESTYLE
350
17
  3
ACAD_LAYOUT
350
1A
  3
ACAD_PLOTSETTINGS
350
19
  3
ACAD_PLOTSTYLENAME
350
E
  0
DICTIONARY
  5
D
102
{ACAD_REACTORS
330
C
102
}
100
AcDbDictionary
280
0
281
1
  0
ACDBDICTIONARYWDFLT
  5
E
102
{ACAD_REACTORS
330
C
102
}
100
AcDbDictionary
281
1
  3
Normal
350
F
100
AcDbDictionaryWithDefault
340
F
  0
DICTIONARY
  5
17
102
{ACAD_REACTORS
330
C
102
}
100
AcDbDictionary
280
0
281
1
  3
Standard
350
18
  0
DICTIONARY
  5
19
102
{ACAD_REACTORS
330
C
102
}
100
AcDbDictionary
281
1
  0
DICTIONARY
  5
1A
102
{ACAD_REACTORS
330
C
102
}
100
AcDbDictionary
281
1
  3
Model
350
49F
  3
Layout1
350
4A0
  0
ACDBPLACEHOLDER
  5
F
102
{ACAD_REACTORS
330
E
102
}
  0
MLINESTYLE
  5
18
102
{ACAD_REACTORS
330
17
102
}
100
AcDbMlineStyle
  2
STANDARD
 70
0
  3

 62
256
 51
90.0
 52
90.0
 71
2
 49
0.5
 62
256
  6
BYLAYER
 49
-0.5
 62
256
  6
BYLAYER
  0
LAYOUT
  5
49F
102
{ACAD_REACTORS
330
1A
102
}
100
AcDbPlotSettings
  1

  2
none_device
  4
ANSI_C_(22.00_x_17.00_Inches)
  6

 40
0.0
 41
0.0
 42
0.0
 43
0.0
 44
558.8
 45
431.8
 46
0.0
 47
0.0
 48
0.0
 49
0.0
140
0.0
141
0.0
142
1.0
143
1.0
 70
1024
 72
1
 73
0
 74
0
  7

 75
0
147
1.0
148
0.0
149
0.0
100
AcDbLayout
  1
Model
 70
0
 71
0
 10
0.0
 20
0.0
 11
558.8
 21
431.8
 12
0.0
 22
0.0
 32
0.0
 14
0.0
 24
0.0
 34
0.0
 15
0.0
 25
0.0
 35
0.0
146
0.0
 13
0.0
 23
0.0
 33
0.0
 16
1.0
 26
0.0
 36
0.0
 17
0.0
 27
1.0
 37
0.0
 76
0
330
216
345
0
346
0
  0
LAYOUT
  5
4A0
102
{ACAD_REACTORS
330
1A
102
}
100
AcDbPlotSettings
  1

  2
none_device
  4
ANSI_C_(22.00_x_17.00_Inches)
  6

 40
0.0
 41
0.0
 42
0.0
 43
0.0
 44
558.8
 45
431.8
 46
0.0
 47
0.0
 48
0.0
 49
0.0
140
0.0
141
0.0
142
1.0
143
1.0
 70
0
 72
1
 73
0
 74
0
  7

 75
0
147
1.0
148
0.0
149
0.0
100
AcDbLayout
  1
Layout1
 70
0
 71
1
 10
0.0
 20
0.0
 11
558.8
 21
431.8
 12
0.0
 22
0.0
 32
0.0
 14
0.0
 24
0.0
 34
0.0
 15
0.0
 25
0.0
 35
0.0
146
0.0
 13
0.0
 23
0.0
 33
0.0
 16
1.0
 26
0.0
 36
0.0
 17
0.0
 27
1.0
 37
0.0
 76
0
330
217
345
0
346
0
  0
ENDSEC
  0
EOF
