999
DXF file: C:\Users\sesa63760\Dev\_Creo\CAD\MCADPD0003872_3D-CAD\drw0001_7.dxf
999
Pro/ENGINEER 2019471 by Parametric Technology Corporation
  0
SECTION
  2
HEADER
  9
$ACADVER
  1
AC1024
  9
$DWGCODEPAGE
  3
ANSI_1252
  9
$EXTMAX
 10
98.0912819514
 20
138.7290987598
 30
0.0
  9
$EXTMIN
 10
0.0
 20
0.0
 30
0.0
  9
$LIMMIN
 10
0.0
 20
0.0
  9
$LIMMAX
 10
98.0912819514
 20
138.7290987598
  9
$VIEWCTR
 10
49.0456409757
 20
69.3645493799
  9
$VIEWSIZE
 40
138.7290987598
  9
$CLAYER
  8
0
  9
$LTSCALE
 40
9.0430819932
  9
$CELTYPE
  6
BYLAYER
  9
$DIMSCALE
 40
1.0
  9
$DIMASZ
 40
1.1677533566
  9
$DIMEXO
 40
1.0
  9
$DIMDLI
 40
6.247947559
  9
$DIMEXE
 40
1.0
  9
$DIMCEN
 40
1.4797770534
  9
$DIMLFAC
 40
1.0
  9
$DIMBLK
  1
_FILLED
  9
$DIMALT
 70
0
  9
$DIMALTF
 40
0.0393700787
  9
$DIMTXT
 40
1.6348546992
  9
$DIMTOL
 70
1
  9
$DIMLIM
 70
0
  9
$DIMTFAC
 40
1.0
  9
$DIMTP
 40
0.01
  9
$DIMTM
 40
0.01
  9
$DIMGAP
 40
0.625
  9
$DIMDSEP
 70
46
  9
$AUNITS
 70
0
  9
$PDMODE
 70
3
  9
$PDSIZE
 40
0.3125
  9
$HANDSEED
  5
251
  9
$TILEMODE
 70
1
  9
$MEASUREMENT
 70
1
  9
$INSUNITS
 70
4
  0
ENDSEC
  0
SECTION
  2
CLASSES
  0
CLASS
  1
ACDBDICTIONARYWDFLT
  2
AcDbDictionaryWithDefault
  3
AutoCAD 2000
 90
0
 91
1
280
0
281
0
  0
CLASS
  1
ACDBPLACEHOLDER
  2
AcDbPlaceHolder
  3
AutoCAD 2000
 90
0
 91
1
280
0
281
0
  0
CLASS
  1
LAYOUT
  2
AcDbLayout
  3
AutoCAD 2000
 90
0
 91
0
280
0
281
0
  0
ENDSEC
  0
SECTION
  2
TABLES
  0
TABLE
  2
VPORT
  5
8
100
AcDbSymbolTable
 70
2
  0
VPORT
  5
1F4
100
AcDbSymbolTableRecord
100
AcDbViewportTableRecord
  2
*ACTIVE
 70
0
 10
0.0
 20
0.0
 11
1.0
 21
1.0
 12
49.0456409757
 22
69.3645493799
 13
0.0
 23
0.0
 14
1.0
 24
1.0
 15
0.0
 25
0.0
 16
0.0
 26
0.0
 36
1.0
 17
0.0
 27
0.0
 37
0.0
 40
138.7290987598
 41
0.7070707071
 42
50.0
 43
0.0
 44
0.0
 50
0.0
 51
0.0
 71
0
 72
100
 73
1
 74
1
 75
0
 76
0
 77
0
 78
0
  0
ENDTAB
  0
TABLE
  2
LTYPE
  5
5
100
AcDbSymbolTable
 70
6
  0
LTYPE
  5
14
100
AcDbSymbolTableRecord
100
AcDbLinetypeTableRecord
  2
BYBLOCK
 70
0
  3

 72
65
 73
0
 40
0.0
  0
LTYPE
  5
15
100
AcDbSymbolTableRecord
100
AcDbLinetypeTableRecord
  2
BYLAYER
 70
0
  3

 72
65
 73
0
 40
0.0
  0
LTYPE
  5
16
100
AcDbSymbolTableRecord
100
AcDbLinetypeTableRecord
  2
CONTINUOUS
 70
64
  3
Solid line
 72
65
 73
0
 40
0.0
  0
LTYPE
  5
1F5
100
AcDbSymbolTableRecord
100
AcDbLinetypeTableRecord
  2
CENTER
 70
64
  3
____ _ ____ _ ____ _ ____ _ ____ _ ____ _ ____
 72
65
 73
4
 40
0.6
 49
0.375
 74
0
 49
-0.075
 74
0
 49
0.075
 74
0
 49
-0.075
 74
0
  0
LTYPE
  5
1F6
100
AcDbSymbolTableRecord
100
AcDbLinetypeTableRecord
  2
HIDDEN
 70
64
  3
- - - - - - - - - - - - - - - - - - - -
 72
65
 73
2
 40
0.2
 49
0.1
 74
0
 49
-0.1
 74
0
  0
LTYPE
  5
1F7
100
AcDbSymbolTableRecord
100
AcDbLinetypeTableRecord
  2
PHANTOM
 70
64
  3
_____ _ _ _____ _ _ _____ _ _ _____
 72
65
 73
6
 40
0.8
 49
0.45
 74
0
 49
-0.05
 74
0
 49
0.1
 74
0
 49
-0.05
 74
0
 49
0.1
 74
0
 49
-0.05
 74
0
  0
LTYPE
  5
1F8
100
AcDbSymbolTableRecord
100
AcDbLinetypeTableRecord
  2
DOT
 70
64
  3
. . . . . . . . . . . . . . . . . . . .
 72
65
 73
2
 40
0.2
 49
0.1
 74
0
 49
-0.1
 74
0
  0
LTYPE
  5
1F9
100
AcDbSymbolTableRecord
100
AcDbLinetypeTableRecord
  2
DASHED
 70
64
  3
- - - - - - - - - - - - - - - - - - - -
 72
65
 73
2
 40
0.2
 49
0.1
 74
0
 49
-0.1
 74
0
  0
ENDTAB
  0
TABLE
  2
LAYER
  5
2
100
AcDbSymbolTable
 70
36
  0
LAYER
  5
10
100
AcDbSymbolTableRecord
100
AcDbLayerTableRecord
  2
0
 70
0
 62
7
  6
CONTINUOUS
370
-3
390
F
  0
LAYER
  5
1FA
100
AcDbSymbolTableRecord
100
AcDbLayerTableRecord
  2
DEFAULT_1
 70
0
 62
7
  6
CENTER
370
-3
390
F
  0
LAYER
  5
1FB
100
AcDbSymbolTableRecord
100
AcDbLayerTableRecord
  2
DEFAULT_2
 70
0
 62
7
  6
HIDDEN
370
-3
390
F
  0
LAYER
  5
1FC
100
AcDbSymbolTableRecord
100
AcDbLayerTableRecord
  2
DEFAULT_3
 70
0
 62
7
  6
PHANTOM
370
-3
390
F
  0
LAYER
  5
1FD
100
AcDbSymbolTableRecord
100
AcDbLayerTableRecord
  2
00_COMPONENTS
 70
0
 62
7
  6
CONTINUOUS
370
-3
390
F
  0
LAYER
  5
1FE
100
AcDbSymbolTableRecord
100
AcDbLayerTableRecord
  2
01_1_DEFAULT_DATUMS
 70
0
 62
7
  6
CONTINUOUS
370
-3
390
F
  0
LAYER
  5
1FF
100
AcDbSymbolTableRecord
100
AcDbLayerTableRecord
  2
01_PLANES
 70
0
 62
7
  6
CONTINUOUS
370
-3
390
F
  0
LAYER
  5
200
100
AcDbSymbolTableRecord
100
AcDbLayerTableRecord
  2
02_COORD_SYS
 70
0
 62
7
  6
CONTINUOUS
370
-3
390
F
  0
LAYER
  5
201
100
AcDbSymbolTableRecord
100
AcDbLayerTableRecord
  2
03_AXES
 70
0
 62
7
  6
CONTINUOUS
370
-3
390
F
  0
LAYER
  5
202
100
AcDbSymbolTableRecord
100
AcDbLayerTableRecord
  2
04_POINTS
 70
0
 62
7
  6
CONTINUOUS
370
-3
390
F
  0
LAYER
  5
203
100
AcDbSymbolTableRecord
100
AcDbLayerTableRecord
  2
05_CURVES
 70
0
 62
7
  6
CONTINUOUS
370
-3
390
F
  0
LAYER
  5
204
100
AcDbSymbolTableRecord
100
AcDbLayerTableRecord
  2
06_SURFS
 70
0
 62
7
  6
CONTINUOUS
370
-3
390
F
  0
LAYER
  5
205
100
AcDbSymbolTableRecord
100
AcDbLayerTableRecord
  2
07_COSMETICS
 70
0
 62
7
  6
CONTINUOUS
370
-3
390
F
  0
LAYER
  5
206
100
AcDbSymbolTableRecord
100
AcDbLayerTableRecord
  2
10_NOTES
 70
0
 62
7
  6
CONTINUOUS
370
-3
390
F
  0
LAYER
  5
207
100
AcDbSymbolTableRecord
100
AcDbLayerTableRecord
  2
11_NOTES_PUB
 70
0
 62
7
  6
CONTINUOUS
370
-3
390
F
  0
LAYER
  5
208
100
AcDbSymbolTableRecord
100
AcDbLayerTableRecord
  2
13_REF_GTOL
 70
0
 62
7
  6
CONTINUOUS
370
-3
390
F
  0
LAYER
  5
209
100
AcDbSymbolTableRecord
100
AcDbLayerTableRecord
  2
16_MISC
 70
0
 62
7
  6
CONTINUOUS
370
-3
390
F
  0
LAYER
  5
20A
100
AcDbSymbolTableRecord
100
AcDbLayerTableRecord
  2
17_NO_PRINT
 70
0
 62
7
  6
CONTINUOUS
370
-3
390
F
  0
LAYER
  5
20B
100
AcDbSymbolTableRecord
100
AcDbLayerTableRecord
  2
18_DATUM_CAMS_JOINTS
 70
0
 62
7
  6
CONTINUOUS
370
-3
390
F
  0
LAYER
  5
20C
100
AcDbSymbolTableRecord
100
AcDbLayerTableRecord
  2
19_DATUM_FUNCTIONAL
 70
0
 62
7
  6
CONTINUOUS
370
-3
390
F
  0
LAYER
  5
20D
100
AcDbSymbolTableRecord
100
AcDbLayerTableRecord
  2
20_DATUM_KINEMATIC_SCHEME
 70
0
 62
7
  6
CONTINUOUS
370
-3
390
F
  0
ENDTAB
  0
TABLE
  2
STYLE
  5
3
100
AcDbSymbolTable
 70
1
  0
STYLE
  5
11
100
AcDbSymbolTableRecord
100
AcDbTextStyleTableRecord
  2
STANDARD
 70
0
 40
0.0
 41
1.0
 50
0.0
 71
0
 42
0.2
  3
ARIAL.TTF
  4

  0
STYLE
  5
20E
100
AcDbSymbolTableRecord
100
AcDbTextStyleTableRecord
  2
TEXTSTYLE_1
 70
0
 40
0.0
 41
0.8
 50
0.0
 71
0
 42
0.2
  3
gdt
  4

  0
ENDTAB
  0
TABLE
  2
VIEW
  5
6
100
AcDbSymbolTable
 70
0
  0
ENDTAB
  0
TABLE
  2
UCS
  5
7
100
AcDbSymbolTable
 70
0
  0
ENDTAB
  0
TABLE
  2
APPID
  5
9
100
AcDbSymbolTable
 70
1
  0
APPID
  5
20F
100
AcDbSymbolTableRecord
100
AcDbRegAppTableRecord
  2
ACAD
 70
0
  0
ENDTAB
  0
TABLE
  2
BLOCK_RECORD
  5
1
100
AcDbSymbolTable
 70
0
  0
BLOCK_RECORD
  5
210
100
AcDbSymbolTableRecord
100
AcDbBlockTableRecord
  2
*Model_Space
  0
BLOCK_RECORD
  5
211
100
AcDbSymbolTableRecord
100
AcDbBlockTableRecord
  2
*Paper_Space
  0
BLOCK_RECORD
  5
212
100
AcDbSymbolTableRecord
100
AcDbBlockTableRecord
  2
_FILLED
  0
ENDTAB
  0
TABLE
  2
DIMSTYLE
  5
A
100
AcDbSymbolTable
 70
1
100
AcDbDimStyleTable
 71
0
  0
DIMSTYLE
105
213
100
AcDbSymbolTableRecord
100
AcDbDimStyleTableRecord
  2
STANDARD
 70
0
  3

  4

 40
1.0
 41
1.1677533566
 42
1.0
 43
0.38
 44
1.0
 45
0.0
 46
0.0
 47
0.01
 48
0.01
140
1.6348546992
141
0.09
142
0.0
143
25.4
144
1.0
145
0.0
146
1.0
147
0.625
 71
1
 72
0
 73
0
 74
0
 75
0
 76
0
 77
1
 78
8
 79
2
170
0
171
1
172
0
173
0
174
0
175
0
176
0
177
0
178
0
270
2
179
2
271
2
272
2
273
2
274
2
275
0
280
0
281
0
282
0
283
1
284
8
285
0
286
0
287
3
288
0
340
11
278
46
341
212
342
212
343
212
344
212
  0
ENDTAB
  0
ENDSEC
  0
SECTION
  2
BLOCKS
  0
BLOCK
  5
20
100
AcDbEntity
  8
0
100
AcDbBlockBegin
  2
*Model_Space
 70
0
 10
0.0
 20
0.0
 30
0.0
  3
*Model_Space
  1

  0
ENDBLK
  5
21
100
AcDbEntity
  8
0
100
AcDbBlockEnd
  0
BLOCK
  5
1C
100
AcDbEntity
  8
0
100
AcDbBlockBegin
  2
*Paper_Space
 70
0
 10
0.0
 20
0.0
 30
0.0
  3
*Paper_Space
  1

  0
ENDBLK
  5
1D
100
AcDbEntity
  8
0
100
AcDbBlockEnd
  0
BLOCK
  5
214
100
AcDbEntity
  8
0
100
AcDbBlockBegin
  2
_FILLED
 70
64
 10
0.0
 20
0.0
  3
_FILLED
  1

  0
SOLID
  5
215
100
AcDbEntity
  8
0
  6
BYBLOCK
 62
0
100
AcDbTrace
 10
0.0
 20
0.0
 11
-1.0
 21
0.25
 12
-1.0
 22
-0.25
 13
-1.0
 23
-0.25
  0
ENDBLK
  5
216
100
AcDbEntity
  8
0
  6
BYBLOCK
 62
0
100
AcDbBlockEnd
  0
ENDSEC
  0
SECTION
  2
ENTITIES
  0
LINE
  5
217
100
AcDbEntity
  8
0
100
AcDbLine
 62
7
  6
BYLAYER
 10
30.908201376
 20
118.5225155854
 11
30.9083407424
 21
118.5226218136
  0
LWPOLYLINE
  5
218
100
AcDbEntity
  8
0
100
AcDbPolyline
 62
7
  6
BYLAYER
 90
3
 70
0
 10
30.9076424002
 20
118.5220893586
 10
30.2553937665
 20
117.653531856
 10
30.1257472094
 20
117.0740784933
  0
LINE
  5
219
100
AcDbEntity
  8
0
100
AcDbLine
 62
7
  6
BYLAYER
 10
18.7704540769
 20
36.7510933029
 11
27.0651537679
 21
36.771393881
  0
LINE
  5
21A
100
AcDbEntity
  8
0
100
AcDbLine
 62
7
  6
BYLAYER
 10
79.660475393
 20
36.7513519888
 11
71.365232654
 21
36.7714875766
  0
LINE
  5
21B
100
AcDbEntity
  8
0
100
AcDbLine
 62
7
  6
BYLAYER
 10
30.1257487855
 20
117.0741278572
 11
30.1257472771
 21
117.0741056811
  0
LWPOLYLINE
  5
21C
100
AcDbEntity
  8
0
100
AcDbPolyline
 62
7
  6
BYLAYER
 90
3
 70
0
 10
30.1257472771
 20
117.0741056811
 10
29.7953008201
 20
113.1743879359
 10
29.2168684783
 20
107.8908898512
  0
LINE
  5
21D
100
AcDbEntity
  8
0
100
AcDbLine
 62
7
  6
BYLAYER
 10
28.5654443386
 20
102.704157851
 11
29.2168684783
 21
107.8908898512
  0
LWPOLYLINE
  5
21E
100
AcDbEntity
  8
0
100
AcDbPolyline
 62
7
  6
BYLAYER
 90
45
 70
0
 10
28.5654435984
 20
102.7041521275
 10
28.5204488768
 20
102.3587202378
 10
28.357025956
 20
101.1440445838
 10
28.187480032
 20
99.9441273287
 10
28.0119711137
 20
98.7594671844
 10
27.8306724689
 20
97.5906377301
 10
27.6437730176
 20
96.4382903401
 10
27.4514789679
 20
95.3031392298
 10
27.2540115523
 20
94.1858111196
 10
27.0516101479
 20
93.0869045694
 10
26.8445330025
 20
92.0070678231
 10
26.6330574979
 20
90.9469905337
 10
26.4174800843
 20
89.9073932135
 10
26.198035276
 20
88.8886208851
 10
25.9749579394
 20
87.8908513303
 10
25.7485557125
 20
86.9144945389
 10
25.5190820726
 20
85.9596577042
 10
25.2867977254
 20
85.0264166727
 10
25.0519724485
 20
84.1148285819
 10
24.8148404699
 20
83.2247442285
 10
24.5755896078
 20
82.3557235842
 10
24.3343869928
 20
81.5072008198
 10
24.0913651878
 20
80.6784678527
 10
23.8466995073
 20
79.8689429384
 10
23.6015495792
 20
79.0812361654
 10
23.3564992807
 20
78.3159807813
 10
23.2342847519
 20
77.9422256615
 10
22.9914318812
 20
77.2144670964
 10
22.7519623647
 20
76.5154500695
 10
22.5174202828
 20
75.8477751464
 10
22.2892266183
 20
75.2134200478
 10
22.0677448147
 20
74.6113438539
 10
21.8527843706
 20
74.0391649319
 10
21.644504036
 20
73.495725445
 10
21.4427042722
 20
72.9791708024
 10
21.2468429832
 20
72.4869639188
 10
21.0568271758
 20
72.0178867878
 10
20.873942145
 20
71.5742469968
 10
20.6976472785
 20
71.1540031646
 10
20.527528925
 20
70.7556252739
 10
20.3643112191
 20
70.3803996716
 10
20.2127102789
 20
70.0386633002
 10
20.0837335021
 20
69.7543247098
 10
20.0023179014
 20
69.5794496725
 10
19.9999243724
 20
69.5744123818
  0
LINE
  5
21F
100
AcDbEntity
  8
0
100
AcDbLine
 62
7
  6
BYLAYER
 10
15.7196470376
 20
62.7549018204
 11
20.508238524
 21
70.7112780487
  0
LINE
  5
220
100
AcDbEntity
  8
0
100
AcDbLine
 62
7
  6
BYLAYER
 10
41.7131234546
 20
101.274274146
 11
41.7154470949
 21
101.304194909
  0
LINE
  5
221
100
AcDbEntity
  8
0
100
AcDbLine
 62
7
  6
BYLAYER
 10
41.7154440342
 20
105.5000191493
 11
41.7154440342
 21
101.3041554968
  0
LINE
  5
222
100
AcDbEntity
  8
0
100
AcDbLine
 62
7
  6
BYLAYER
 10
50.7150950446
 20
18.7865200913
 11
49.3404437629
 21
27.0044159135
  0
LINE
  5
223
100
AcDbEntity
  8
0
100
AcDbLine
 62
7
  6
BYLAYER
 10
49.2154440342
 20
105.5000191493
 11
49.215444791
 21
124.7041554968
  0
LINE
  5
224
100
AcDbEntity
  8
0
100
AcDbLine
 62
7
  6
BYLAYER
 10
56.7154440342
 20
101.3041554968
 11
56.7154440342
 21
105.5000191493
  0
LINE
  5
225
100
AcDbEntity
  8
0
100
AcDbLine
 62
7
  6
BYLAYER
 10
47.7157934356
 20
18.7865295976
 11
49.0904443054
 21
27.0044159135
  0
LINE
  5
226
100
AcDbEntity
  8
0
100
AcDbLine
 62
7
  6
BYLAYER
 10
56.7177646258
 20
101.2742741488
 11
56.7154440342
 21
101.3041554968
  0
LINE
  5
227
100
AcDbEntity
  8
0
100
AcDbLine
 62
7
  6
BYLAYER
 10
68.3051412321
 20
117.0740994992
 11
68.3051387096
 21
117.0741359342
  0
LINE
  5
228
100
AcDbEntity
  8
0
100
AcDbLine
 62
7
  6
BYLAYER
 10
82.7121431354
 20
62.7534737672
 11
77.9232421357
 21
70.7103097393
  0
LWPOLYLINE
  5
229
100
AcDbEntity
  8
0
100
AcDbPolyline
 62
7
  6
BYLAYER
 90
45
 70
0
 10
78.4342284755
 20
69.5675686556
 10
78.4128787522
 20
69.6127034845
 10
78.3149082097
 20
69.8247403253
 10
78.1815336808
 20
70.1206045117
 10
78.0292537413
 20
70.4655693345
 10
77.8675375348
 20
70.8389104382
 10
77.6993276052
 20
71.2342687379
 10
77.525055799
 20
71.6510476032
 10
77.344203711
 20
72.0910457832
 10
77.1565661679
 20
72.5554836829
 10
76.9633424424
 20
73.0422373828
 10
76.7642231546
 20
73.5530446339
 10
76.5586493915
 20
74.090469682
 10
76.3465450631
 20
74.6560151791
 10
76.1281136127
 20
75.2506765238
 10
75.9032354511
 20
75.8765660139
 10
75.6724555058
 20
76.5341024984
 10
75.4371437651
 20
77.2213055395
 10
75.1987165535
 20
77.9358080135
 10
75.0787762267
 20
78.3024737855
 10
74.8383227672
 20
79.0527963961
 10
74.597798453
 20
79.824610116
 10
74.3577039804
 20
80.6174765446
 10
74.1191801151
 20
81.4287777314
 10
73.8824185774
 20
82.2589702822
 10
73.6475373141
 20
83.1087418412
 10
73.4146866288
 20
83.9786495423
 10
73.1840386101
 20
84.869133971
 10
72.9558012482
 20
85.7803962459
 10
72.7302235228
 20
86.7124099705
 10
72.5075557366
 20
87.6650924628
 10
72.2880242625
 20
88.6384080028
 10
72.0719122794
 20
89.6320153662
 10
71.8594706716
 20
90.6456448003
 10
71.6508904015
 20
91.6791515706
 10
71.4464487382
 20
92.7318874216
 10
71.2464116337
 20
93.8032013934
 10
71.0510275597
 20
94.892477931
 10
70.8605277197
 20
95.9991454742
 10
70.675126166
 20
97.1226554958
 10
70.4950226865
 20
98.2623573321
 10
70.3204020905
 20
99.4176157475
 10
70.1514339847
 20
100.5878683777
 10
69.9882749779
 20
101.772623332
 10
69.8654502662
 20
102.7041073049
  0
LWPOLYLINE
  5
22A
100
AcDbEntity
  8
0
100
AcDbPolyline
 62
7
  6
BYLAYER
 90
4
 70
0
 10
69.8654427454
 20
102.7041654402
 10
69.2140195744
 20
107.8908899812
 10
68.6355872199
 20
113.1743882289
 10
68.3051412321
 20
117.0740994992
  0
LWPOLYLINE
  5
22B
100
AcDbEntity
  8
0
100
AcDbPolyline
 62
7
  6
BYLAYER
 90
3
 70
0
 10
68.3051299665
 20
117.0742364385
 10
68.1756395024
 20
117.6531566904
 10
67.5237245962
 20
118.5217238837
  0
LINE
  5
22C
100
AcDbEntity
  8
0
100
AcDbLine
 62
7
  6
BYLAYER
 10
28.5654443381
 20
102.7041578476
 11
41.7143016788
 21
102.7041554891
  0
LINE
  5
22D
100
AcDbEntity
  8
0
100
AcDbLine
 62
7
  6
BYLAYER
 10
56.7165857506
 20
102.7041554974
 11
69.8654437384
 21
102.7041577839
  0
LINE
  5
22E
100
AcDbEntity
  8
0
100
AcDbLine
 62
7
  6
BYLAYER
 10
41.7154440342
 20
105.5000191493
 11
56.7154440342
 21
105.5000191493
  0
LINE
  5
22F
100
AcDbEntity
  8
0
100
AcDbLine
 62
7
  6
BYLAYER
 10
67.5225473259
 20
118.5226218136
 11
67.5226823842
 21
118.5225188691
  0
ARC
  5
230
100
AcDbEntity
  8
0
100
AcDbCircle
 62
7
  6
BYLAYER
 10
49.2154185028
 20
57.0042437733
 40
30.0000655407
100
AcDbArc
 50
270.2390573914
 51
317.5895424188
  0
ARC
  5
231
100
AcDbEntity
  8
0
100
AcDbCircle
 62
7
  6
BYLAYER
 10
49.2152635345
 20
18.7541554968
 40
1.5001804576
100
AcDbArc
 50
358.7634532037
 51
1.2365467963
  0
ARC
  5
232
100
AcDbEntity
  8
0
100
AcDbCircle
 62
7
  6
BYLAYER
 10
-108.2848691155
 20
101.4272003242
 40
150.0001183148
100
AcDbArc
 50
334.4664421576
 51
359.9530004467
  0
ARC
  5
233
100
AcDbEntity
  8
0
100
AcDbCircle
 62
7
  6
BYLAYER
 10
49.2154440342
 20
53.5041554968
 40
38.8
100
AcDbArc
 50
129.4755373578
 51
50.5248467989
  0
ARC
  5
234
100
AcDbEntity
  8
0
100
AcDbCircle
 62
7
  6
BYLAYER
 10
49.2154440342
 20
53.5041554968
 40
34.7498469795
100
AcDbArc
 50
138.6949084043
 51
267.5266088354
  0
ARC
  5
235
100
AcDbEntity
  8
0
100
AcDbCircle
 62
7
  6
BYLAYER
 10
49.2154440342
 20
53.5041554968
 40
34.7498319826
100
AcDbArc
 50
272.4733911648
 51
41.305724493
  0
ARC
  5
236
100
AcDbEntity
  8
0
100
AcDbCircle
 62
7
  6
BYLAYER
 10
49.2154937647
 20
57.0042979949
 40
30.000124917
100
AcDbArc
 50
222.4105028691
 51
269.7611735696
  0
ARC
  5
237
100
AcDbEntity
  8
0
100
AcDbCircle
 62
7
  6
BYLAYER
 10
49.2154449377
 20
18.7541973481
 40
1.5000000001
100
AcDbArc
 50
178.7649033902
 51
358.7617054452
  0
ARC
  5
238
100
AcDbEntity
  8
0
100
AcDbCircle
 62
7
  6
BYLAYER
 10
206.7157570248
 20
101.4272002748
 40
150.0001183149
100
AcDbArc
 50
180.0469995345
 51
205.5335578516
  0
ARC
  5
239
100
AcDbEntity
  8
0
100
AcDbCircle
 62
7
  6
BYLAYER
 10
49.2154440342
 20
94.5044179604
 40
30.1997375365
100
AcDbArc
 50
52.6847040764
 51
127.3152959236
  0
SPLINE
  5
23A
100
AcDbEntity
  8
0
100
AcDbSpline
 62
7
  6
BYLAYER
 70
0
 71
3
 72
26
 73
22
 74
0
 42
0.0000001
 43
0.0000001
 44
0.0000000001
 40
0.0
 40
0.0
 40
0.0
 40
0.0
 40
0.0110635509
 40
0.022702228
 40
0.0364562753
 40
0.0533211276
 40
0.0737603362
 40
0.0979464739
 40
0.1572813223
 40
0.229634156
 40
0.3121149193
 40
0.4012959055
 40
0.4935844205
 40
0.6738467966
 40
0.7556777303
 40
0.8284391025
 40
0.8900374069
 40
0.9389838178
 40
0.958564083
 40
0.9749918728
 40
1.0
 40
1.0
 40
1.0
 40
1.0
 10
59.5904440342
 20
17.5199662604
 30
0.0
 10
59.5904440342
 20
17.5389643424
 30
0.0
 10
59.5825978932
 20
17.5785574052
 30
0.0
 10
59.5447351454
 20
17.6303571111
 30
0.0
 10
59.4843119645
 20
17.6721495727
 30
0.0
 10
59.4025418528
 20
17.704999826
 30
0.0
 10
59.299620498
 20
17.7297066923
 30
0.0
 10
59.1224242669
 20
17.7531595448
 30
0.0
 10
58.8540789032
 20
17.7573465374
 30
0.0
 10
58.4869843516
 20
17.7323313609
 30
0.0
 10
58.0711186605
 20
17.6794049899
 30
0.0
 10
57.6242866046
 20
17.6027358974
 30
0.0
 10
57.0161642812
 20
17.4758176512
 30
0.0
 10
56.4264979037
 20
17.3228797914
 30
0.0
 10
55.8794325441
 20
17.145336957
 30
0.0
 10
55.5324439951
 20
17.0126492999
 30
0.0
 10
55.2470169296
 20
16.8792562113
 30
0.0
 10
55.0549482341
 20
16.7634878954
 30
0.0
 10
54.9428366101
 20
16.6690268297
 30
0.0
 10
54.8731945502
 20
16.5915626931
 30
0.0
 10
54.8404440342
 20
16.5219469691
 30
0.0
 10
54.8404440342
 20
16.4790035728
 30
0.0
  0
SPLINE
  5
23B
100
AcDbEntity
  8
0
100
AcDbSpline
 62
7
  6
BYLAYER
 70
0
 71
3
 72
26
 73
22
 74
0
 42
0.0000001
 43
0.0000001
 44
0.0000000001
 40
0.0
 40
0.0
 40
0.0
 40
0.0
 40
0.0109261213
 40
0.0228960103
 40
0.0371795108
 40
0.0545384466
 40
0.0753172795
 40
0.0996469279
 40
0.1587403653
 40
0.2304323788
 40
0.3121185046
 40
0.4004717342
 40
0.4918222674
 40
0.669809664
 40
0.7507500752
 40
0.8232325542
 40
0.8854155869
 40
0.9358200306
 40
0.9563354137
 40
0.9737108817
 40
1.0
 40
1.0
 40
1.0
 40
1.0
 10
54.8404440342
 20
16.4790035728
 30
0.0
 10
54.8404440342
 20
16.4599159217
 30
0.0
 10
54.8489880215
 20
16.4194712644
 30
0.0
 10
54.8869035808
 20
16.3651873697
 30
0.0
 10
54.9470790412
 20
16.3173178901
 30
0.0
 10
55.0288842846
 20
16.2752881176
 30
0.0
 10
55.1320532146
 20
16.2389852317
 30
0.0
 10
55.3092204589
 20
16.1961784518
 30
0.0
 10
55.5791856893
 20
16.1644151109
 30
0.0
 10
55.9506876644
 20
16.1579653438
 30
0.0
 10
56.3725703034
 20
16.1842530559
 30
0.0
 10
56.8256775873
 20
16.2435581211
 30
0.0
 10
57.4393313245
 20
16.3627854372
 30
0.0
 10
58.0295037556
 20
16.5311360852
 30
0.0
 10
58.5691959143
 20
16.7416113216
 30
0.0
 10
58.9101795001
 20
16.9025209176
 30
0.0
 10
59.1903396526
 20
17.0647395945
 30
0.0
 10
59.3782742153
 20
17.2029368702
 30
0.0
 10
59.4884685168
 20
17.3118636648
 30
0.0
 10
59.5571858659
 20
17.3995522388
 30
0.0
 10
59.5904440342
 20
17.4740398511
 30
0.0
 10
59.5904440342
 20
17.5199662604
 30
0.0
  0
SPLINE
  5
23C
100
AcDbEntity
  8
0
100
AcDbSpline
 62
7
  6
BYLAYER
 70
0
 71
3
 72
16
 73
12
 74
0
 42
0.0000001
 43
0.0000001
 44
0.0000000001
 40
0.0
 40
0.0
 40
0.0
 40
0.0
 40
0.0675323611
 40
0.1359496483
 40
0.2730612491
 40
0.4071039045
 40
0.5354297223
 40
0.6574509789
 40
0.774264742
 40
0.8878028557
 40
1.0
 40
1.0
 40
1.0
 40
1.0
 10
79.6622823788
 20
36.7535659243
 30
0.0
 10
79.1045137431
 20
38.1743684313
 30
0.0
 10
78.0258013328
 20
41.0520639168
 30
0.0
 10
76.0103975803
 20
46.885964722
 30
0.0
 10
73.7461835739
 20
54.2216953539
 30
0.0
 10
71.3810329763
 20
62.9369010109
 30
0.0
 10
69.3675430569
 20
71.3898295906
 30
0.0
 10
67.7138968009
 20
79.523725456
 30
0.0
 10
66.4308591751
 20
87.3864139609
 30
0.0
 10
65.5260013835
 20
95.0783307138
 30
0.0
 10
65.1752437579
 20
100.1707457107
 30
0.0
 10
65.063511555
 20
102.7041580598
 30
0.0
  0
SPLINE
  5
23D
100
AcDbEntity
  8
0
100
AcDbSpline
 62
7
  6
BYLAYER
 70
0
 71
3
 72
23
 73
19
 74
0
 42
0.0000001
 43
0.0000001
 44
0.0000000001
 40
0.0
 40
0.0
 40
0.0
 40
0.0
 40
0.0244477901
 40
0.049534677
 40
0.0752461228
 40
0.1015706685
 40
0.1559958751
 40
0.2127086363
 40
0.271551892
 40
0.3323598193
 40
0.3949332054
 40
0.4590518577
 40
0.5909304514
 40
0.6582192352
 40
0.7260767686
 40
0.8627462221
 40
0.9313387276
 40
1.0
 40
1.0
 40
1.0
 40
1.0
 10
79.661612267
 20
36.7531099954
 30
0.0
 10
79.1812551698
 20
37.0724719572
 30
0.0
 10
78.2284504838
 20
37.7509846655
 30
0.0
 10
76.8512699698
 20
38.8731960448
 30
0.0
 10
75.5114840202
 20
40.1060526155
 30
0.0
 10
73.7588801368
 20
41.9069869686
 30
0.0
 10
71.6838695604
 20
44.4071728978
 30
0.0
 10
69.408358384
 20
47.7151977418
 30
0.0
 10
67.324947203
 20
51.3217089302
 30
0.0
 10
65.4354362836
 20
55.1870602993
 30
0.0
 10
63.7381137843
 20
59.2752025064
 30
0.0
 10
61.710133271
 20
65.0316191681
 30
0.0
 10
60.0892882189
 20
71.0394068758
 30
0.0
 10
58.8323004099
 20
77.2141366353
 30
0.0
 10
57.8016191367
 20
83.5455872474
 30
0.0
 10
57.1258349588
 20
89.9608559775
 30
0.0
 10
56.7827057224
 20
96.4156082111
 30
0.0
 10
56.7209125027
 20
99.6542530703
 30
0.0
 10
56.7177642565
 20
101.2742741455
 30
0.0
  0
SPLINE
  5
23E
100
AcDbEntity
  8
0
100
AcDbSpline
 62
7
  6
BYLAYER
 70
0
 71
3
 72
8
 73
4
 74
0
 42
0.0000001
 43
0.0000001
 44
0.0000000001
 40
0.0
 40
0.0
 40
0.0
 40
0.0
 40
1.0
 40
1.0
 40
1.0
 40
1.0
 10
56.7177642565
 20
101.2742741455
 30
0.0
 10
56.7172237346
 20
101.7509011182
 30
0.0
 10
56.7168428267
 20
102.2275282876
 30
0.0
 10
56.7165857506
 20
102.7041554974
 30
0.0
  0
SPLINE
  5
23F
100
AcDbEntity
  8
0
100
AcDbSpline
 62
7
  6
BYLAYER
 70
0
 71
3
 72
19
 73
15
 74
0
 42
0.0000001
 43
0.0000001
 44
0.0000000001
 40
0.0
 40
0.0
 40
0.0
 40
0.0
 40
0.0054946392
 40
0.0186702742
 40
0.0407279059
 40
0.0723435533
 40
0.1139280431
 40
0.1651114252
 40
0.2253238634
 40
0.2939911419
 40
0.4531178662
 40
0.6315404009
 40
0.817359378
 40
1.0
 40
1.0
 40
1.0
 40
1.0
 10
32.9046094712
 20
119.9205707599
 30
0.0
 10
32.9015667103
 20
119.9186180659
 30
0.0
 10
32.9035124448
 20
119.9029815218
 30
0.0
 10
32.9114364611
 20
119.8802643781
 30
0.0
 10
32.9292663438
 20
119.8383359345
 30
0.0
 10
32.9566954734
 20
119.7827391094
 30
0.0
 10
32.994807845
 20
119.7099905109
 30
0.0
 10
33.0431853386
 20
119.6218285286
 30
0.0
 10
33.101523062
 20
119.5186633241
 30
0.0
 10
33.1965367294
 20
119.3547097178
 30
0.0
 10
33.3335870104
 20
119.1252104322
 30
0.0
 10
33.5133500479
 20
118.8314771685
 30
0.0
 10
33.7040673169
 20
118.5263224044
 30
0.0
 10
33.834123366
 20
118.3217112997
 30
0.0
 10
33.8989642547
 20
118.2205281059
 30
0.0
  0
SPLINE
  5
240
100
AcDbEntity
  8
0
100
AcDbSpline
 62
7
  6
BYLAYER
 70
0
 71
3
 72
8
 73
4
 74
0
 42
0.0000001
 43
0.0000001
 44
0.0000000001
 40
0.0
 40
0.0
 40
0.0
 40
0.0
 40
1.0
 40
1.0
 40
1.0
 40
1.0
 10
41.7143016788
 20
102.7041554891
 30
0.0
 10
41.7140446591
 20
102.2275317885
 30
0.0
 10
41.7136640608
 20
101.7509081281
 30
0.0
 10
41.713123545
 20
101.2742846646
 30
0.0
  0
SPLINE
  5
241
100
AcDbEntity
  8
0
100
AcDbSpline
 62
7
  6
BYLAYER
 70
0
 71
3
 72
23
 73
19
 74
0
 42
0.0000001
 43
0.0000001
 44
0.0000000001
 40
0.0
 40
0.0
 40
0.0
 40
0.0
 40
0.0686612275
 40
0.1372535976
 40
0.2739231305
 40
0.3417807034
 40
0.4090695069
 40
0.5409481323
 40
0.605066905
 40
0.6676404691
 40
0.7284483626
 40
0.7872915989
 40
0.8440043627
 40
0.8984295417
 40
0.9247540878
 40
0.9504655058
 40
0.9755523623
 40
1.0
 40
1.0
 40
1.0
 40
1.0
 10
41.713123545
 20
101.2742846646
 30
0.0
 10
41.7099753049
 20
99.6542639538
 30
0.0
 10
41.6481830932
 20
96.41562194
 30
0.0
 10
41.3050537192
 20
89.9608693185
 30
0.0
 10
40.6292707398
 20
83.5455980812
 30
0.0
 10
39.5985888483
 20
77.2141414571
 30
0.0
 10
38.3416000068
 20
71.0394069502
 30
0.0
 10
36.7207527041
 20
65.031612905
 30
0.0
 10
34.6927685714
 20
59.2751864364
 30
0.0
 10
32.9954413935
 20
55.1870373925
 30
0.0
 10
31.1059271939
 20
51.3216820764
 30
0.0
 10
29.0225121423
 20
47.7151730378
 30
0.0
 10
26.7470041326
 20
44.4071436487
 30
0.0
 10
24.6719763502
 20
41.9069733552
 30
0.0
 10
22.9193967754
 20
40.106014555
 30
0.0
 10
21.5795668894
 20
38.8732049205
 30
0.0
 10
20.2024211692
 20
37.7509675391
 30
0.0
 10
19.2497223552
 20
37.0723093902
 30
0.0
 10
18.7693681076
 20
36.7529491888
 30
0.0
  0
SPLINE
  5
242
100
AcDbEntity
  8
0
100
AcDbSpline
 62
7
  6
BYLAYER
 70
0
 71
3
 72
16
 73
12
 74
0
 42
0.0000001
 43
0.0000001
 44
0.0000000001
 40
0.0
 40
0.0
 40
0.0
 40
0.0
 40
0.0675323198
 40
0.135949581
 40
0.2730611672
 40
0.4071038403
 40
0.5354296851
 40
0.6574509631
 40
0.7742647374
 40
0.8878028547
 40
1.0
 40
1.0
 40
1.0
 40
1.0
 10
18.7685873195
 20
36.7534740219
 30
0.0
 10
19.3263572625
 20
38.1742773012
 30
0.0
 10
20.4050721659
 20
41.0519748114
 30
0.0
 10
22.4204804614
 20
46.8858812043
 30
0.0
 10
24.6846993219
 20
54.2216210201
 30
0.0
 10
27.0498546412
 20
62.9368391583
 30
0.0
 10
29.0633484727
 20
71.3897808042
 30
0.0
 10
30.7169978077
 20
79.5236892377
 30
0.0
 10
32.0000376091
 20
87.3863894835
 30
0.0
 10
32.9048966077
 20
95.0783173391
 30
0.0
 10
33.2556543797
 20
100.1707395737
 30
0.0
 10
33.3673864921
 20
102.7041554892
 30
0.0
  0
LINE
  5
243
100
AcDbEntity
  8
0
100
AcDbLine
 62
7
  6
BYLAYER
 10
41.7154440342
 20
105.5000191493
 11
41.7143023883
 21
102.7041554891
  0
SPLINE
  5
244
100
AcDbEntity
  8
0
100
AcDbSpline
 62
7
  6
BYLAYER
 70
0
 71
3
 72
9
 73
5
 74
0
 42
0.0000001
 43
0.0000001
 44
0.0000000001
 40
0.0
 40
0.0
 40
0.0
 40
0.0
 40
0.5042677127
 40
1.0
 40
1.0
 40
1.0
 40
1.0
 10
33.3673419204
 20
102.7041554892
 30
0.0
 10
33.482330261
 20
105.3113729211
 30
0.0
 10
33.6970454919
 20
110.4822892588
 30
0.0
 10
33.8488972501
 20
115.6556611889
 30
0.0
 10
33.8989734029
 20
118.2207507068
 30
0.0
  0
SPLINE
  5
245
100
AcDbEntity
  8
0
100
AcDbSpline
 62
7
  6
BYLAYER
 70
0
 71
3
 72
12
 73
8
 74
0
 42
0.0000001
 43
0.0000001
 44
0.0000000001
 40
0.0
 40
0.0
 40
0.0
 40
0.0
 40
0.2499844051
 40
0.375059352
 40
0.5000970148
 40
0.7499935418
 40
1.0
 40
1.0
 40
1.0
 40
1.0
 10
33.8990651013
 20
118.2206074512
 30
0.0
 10
35.0331092609
 20
118.9475586605
 30
0.0
 10
36.8162981736
 20
119.9178351358
 30
0.0
 10
39.3087647519
 20
120.9464343636
 30
0.0
 10
41.8681852827
 20
121.7950741902
 30
0.0
 10
45.1709727047
 20
122.5096098853
 30
0.0
 10
47.8682861176
 20
122.7024564936
 30
0.0
 10
49.2154440043
 20
122.7025216636
 30
0.0
  0
SPLINE
  5
246
100
AcDbEntity
  8
0
100
AcDbSpline
 62
7
  6
BYLAYER
 70
0
 71
3
 72
12
 73
8
 74
0
 42
0.0000001
 43
0.0000001
 44
0.0000000001
 40
0.0
 40
0.0
 40
0.0
 40
0.0
 40
0.2500063297
 40
0.4999040745
 40
0.6249416022
 40
0.7500161436
 40
1.0
 40
1.0
 40
1.0
 40
1.0
 10
49.2154440696
 20
122.7027536474
 30
0.0
 10
50.5626078082
 20
122.702694237
 30
0.0
 10
53.2599406851
 20
122.5098437102
 30
0.0
 10
56.5627485776
 20
121.7953024326
 30
0.0
 10
59.1221854903
 20
120.9466586903
 30
0.0
 10
61.6146593272
 20
119.9180584912
 30
0.0
 10
63.3978553716
 20
118.9477850279
 30
0.0
 10
64.5319025834
 20
118.2208319343
 30
0.0
  0
LINE
  5
247
100
AcDbEntity
  8
0
100
AcDbLine
 62
7
  6
BYLAYER
 10
56.7165856816
 20
102.7041554974
 11
56.7154440342
 21
105.5000191493
  0
SPLINE
  5
248
100
AcDbEntity
  8
0
100
AcDbSpline
 62
7
  6
BYLAYER
 70
0
 71
3
 72
23
 73
19
 74
0
 42
0.0000001
 43
0.0000001
 44
0.0000000001
 40
0.0
 40
0.0
 40
0.0
 40
0.0
 40
0.0049295399
 40
0.0108704856
 40
0.0192964607
 40
0.0302156678
 40
0.0436150589
 40
0.0594430477
 40
0.0776227314
 40
0.120720253
 40
0.1722675128
 40
0.2316107826
 40
0.2980848752
 40
0.3710180237
 40
0.4496790257
 40
0.6211213459
 40
0.8066136171
 40
1.0
 40
1.0
 40
1.0
 40
1.0
 10
30.125750476
 20
117.0741060872
 30
0.0
 10
30.1253588006
 20
117.0676297569
 30
0.0
 10
30.1484866229
 20
117.0666555771
 30
0.0
 10
30.1693138986
 20
117.0698275377
 30
0.0
 10
30.2038556484
 20
117.0760377953
 30
0.0
 10
30.2451079487
 20
117.0858458418
 30
0.0
 10
30.2965236401
 20
117.0991026182
 30
0.0
 10
30.3565682215
 20
117.1157585309
 30
0.0
 10
30.4540928552
 20
117.1439674369
 30
0.0
 10
30.5961846442
 20
117.1870514372
 30
0.0
 10
30.7896470945
 20
117.2474968654
 30
0.0
 10
31.0121315002
 20
117.3181767021
 30
0.0
 10
31.2612776501
 20
117.3979060454
 30
0.0
 10
31.5346120966
 20
117.4854672704
 30
0.0
 10
31.939616248
 20
117.6148691859
 30
0.0
 10
32.4861802841
 20
117.787983306
 30
0.0
 10
33.1778514471
 20
118.0030140062
 30
0.0
 10
33.6550497267
 20
118.1478002184
 30
0.0
 10
33.8989690851
 20
118.2205295376
 30
0.0
  0
SPLINE
  5
249
100
AcDbEntity
  8
0
100
AcDbSpline
 62
7
  6
BYLAYER
 70
0
 71
3
 72
19
 73
15
 74
0
 42
0.0000001
 43
0.0000001
 44
0.0000000001
 40
0.0
 40
0.0
 40
0.0
 40
0.0
 40
0.0055238729
 40
0.0187779011
 40
0.0409544496
 40
0.0727198941
 40
0.1144739504
 40
0.1658297252
 40
0.2261989573
 40
0.2949889932
 40
0.4542055151
 40
0.6324813473
 40
0.8179115592
 40
1.0
 40
1.0
 40
1.0
 40
1.0
 10
65.5262772587
 20
119.9205716188
 30
0.0
 10
65.5293358221
 20
119.9186088797
 30
0.0
 10
65.5273412129
 20
119.9028771746
 30
0.0
 10
65.5193719008
 20
119.8800537038
 30
0.0
 10
65.5014239318
 20
119.8379164237
 30
0.0
 10
65.4738585306
 20
119.7820828555
 30
0.0
 10
65.4355812183
 20
119.7090655675
 30
0.0
 10
65.3870364353
 20
119.620638203
 30
0.0
 10
65.3285447587
 20
119.5172373347
 30
0.0
 10
65.233403424
 20
119.3531077613
 30
0.0
 10
65.0963318924
 20
119.1236144813
 30
0.0
 10
64.9167311899
 20
118.8301824196
 30
0.0
 10
64.7264120424
 20
118.525682346
 30
0.0
 10
64.596704771
 20
118.3216234735
 30
0.0
 10
64.5320695698
 20
118.2207600052
 30
0.0
  0
SPLINE
  5
24A
100
AcDbEntity
  8
0
100
AcDbSpline
 62
7
  6
BYLAYER
 70
0
 71
3
 72
15
 73
11
 74
0
 42
0.0000001
 43
0.0000001
 44
0.0000000001
 40
0.0
 40
0.0
 40
0.0
 40
0.0
 40
0.1220098037
 40
0.2456070933
 40
0.3690423168
 40
0.4920145427
 40
0.6154083694
 40
0.7405834948
 40
0.868644998
 40
1.0
 40
1.0
 40
1.0
 40
1.0
 10
14.4651649799
 20
53.5035669264
 30
0.0
 10
15.3603771539
 20
55.391699997
 30
0.0
 10
17.0548233963
 20
59.2439468103
 30
0.0
 10
19.3545481522
 20
65.1325419759
 30
0.0
 10
21.4477495874
 20
71.1151477754
 30
0.0
 10
23.328424976
 20
77.1643185663
 30
0.0
 10
24.9885171189
 20
83.3088219414
 30
0.0
 10
26.4225593587
 20
89.5995641697
 30
0.0
 10
27.6296443478
 20
96.0763838955
 30
0.0
 10
28.2769267692
 20
100.473079252
 30
0.0
 10
28.5654443381
 20
102.7041578476
 30
0.0
  0
SPLINE
  5
24B
100
AcDbEntity
  8
0
100
AcDbSpline
 62
7
  6
BYLAYER
 70
0
 71
3
 72
15
 73
11
 74
0
 42
0.0000001
 43
0.0000001
 44
0.0000000001
 40
0.0
 40
0.0
 40
0.0
 40
0.0
 40
0.1220103343
 40
0.2456075915
 40
0.3690425914
 40
0.4920146597
 40
0.6154084608
 40
0.7405836204
 40
0.8686451121
 40
1.0
 40
1.0
 40
1.0
 40
1.0
 10
83.9650771099
 20
53.5049294135
 30
0.0
 10
83.0699142529
 20
55.3930257794
 30
0.0
 10
81.3755575463
 20
59.2451814211
 30
0.0
 10
79.0759443728
 20
65.1336192066
 30
0.0
 10
76.9828431017
 20
71.1160487727
 30
0.0
 10
75.1022562321
 20
77.1650385134
 30
0.0
 10
73.4422397066
 20
83.3093596121
 30
0.0
 10
72.0082588986
 20
89.5999149569
 30
0.0
 10
70.8012207062
 20
96.0765384252
 30
0.0
 10
70.1539594269
 20
100.4730983958
 30
0.0
 10
69.8654502662
 20
102.7041073049
 30
0.0
  0
SPLINE
  5
24C
100
AcDbEntity
  8
0
100
AcDbSpline
 62
7
  6
BYLAYER
 70
0
 71
3
 72
23
 73
19
 74
0
 42
0.0000001
 43
0.0000001
 44
0.0000000001
 40
0.0
 40
0.0
 40
0.0
 40
0.0
 40
0.1935600327
 40
0.3791546121
 40
0.5506581843
 40
0.6293445174
 40
0.7022868355
 40
0.7687570469
 40
0.8280648039
 40
0.8795343944
 40
0.922529827
 40
0.9406597393
 40
0.9564546529
 40
0.9698510496
 40
0.9807872015
 40
0.989213224
 40
0.9951330982
 40
1.0
 40
1.0
 40
1.0
 40
1.0
 10
64.5319190981
 20
118.2205299503
 30
0.0
 10
64.7761899756
 20
118.1482065645
 30
0.0
 10
65.2536190174
 20
118.0029636013
 30
0.0
 10
65.9456672912
 20
117.7877291837
 30
0.0
 10
66.4924655184
 20
117.6145826119
 30
0.0
 10
66.8975405271
 20
117.485028178
 30
0.0
 10
67.1709229417
 20
117.3975112106
 30
0.0
 10
67.4200624
 20
117.317915947
 30
0.0
 10
67.6423707724
 20
117.247213265
 30
0.0
 10
67.8354160608
 20
117.1864075725
 30
0.0
 10
67.9771574589
 20
117.1432137615
 30
0.0
 10
68.0745337706
 20
117.1153746654
 30
0.0
 10
68.13454938
 20
117.0990496137
 30
0.0
 10
68.1860169113
 20
117.0860872397
 30
0.0
 10
68.2273125495
 20
117.0764478496
 30
0.0
 10
68.2618673974
 20
117.0702143796
 30
0.0
 10
68.2825155648
 20
117.066861335
 30
0.0
 10
68.3055467509
 20
117.0677076963
 30
0.0
 10
68.3051397599
 20
117.0741002927
 30
0.0
  0
SPLINE
  5
24D
100
AcDbEntity
  8
0
100
AcDbSpline
 62
7
  6
BYLAYER
 70
0
 71
3
 72
9
 73
5
 74
0
 42
0.0000001
 43
0.0000001
 44
0.0000000001
 40
0.0
 40
0.0
 40
0.0
 40
0.0
 40
0.5042676496
 40
1.0
 40
1.0
 40
1.0
 40
1.0
 10
65.0635461883
 20
102.704157812
 30
0.0
 10
64.9485595144
 20
105.3113374504
 30
0.0
 10
64.7338471856
 20
110.4821794705
 30
0.0
 10
64.5819959901
 20
115.6554769957
 30
0.0
 10
64.5319190981
 20
118.2205299503
 30
0.0
  0
SPLINE
  5
24E
100
AcDbEntity
  8
0
100
AcDbSpline
 62
7
  6
BYLAYER
 70
0
 71
3
 72
15
 73
11
 74
0
 42
0.0000001
 43
0.0000001
 44
0.0000000001
 40
0.0
 40
0.0
 40
0.0
 40
0.0
 40
0.1248985627
 40
0.2500755741
 40
0.3749676474
 40
0.4999815964
 40
0.6249908904
 40
0.7499078591
 40
0.8751039436
 40
1.0
 40
1.0
 40
1.0
 40
1.0
 10
49.3405886242
 20
27.0044265122
 30
0.0
 10
49.3405549988
 20
26.9881620135
 30
0.0
 10
49.3339591949
 20
26.9552804671
 30
0.0
 10
49.306274183
 20
26.913587468
 30
0.0
 10
49.2645925404
 20
26.8857324202
 30
0.0
 10
49.2154747228
 20
26.8758857833
 30
0.0
 10
49.1663501954
 20
26.8857113913
 30
0.0
 10
49.1246483981
 20
26.913543856
 30
0.0
 10
49.0969404175
 20
26.9552368047
 30
0.0
 10
49.0904101593
 20
26.9881517422
 30
0.0
 10
49.0904443054
 20
27.0044159135
 30
0.0
  0
ENDSEC
  0
SECTION
  2
OBJECTS
  0
DICTIONARY
  5
C
100
AcDbDictionary
280
0
281
1
  3
ACAD_GROUP
350
D
  3
ACAD_MLINESTYLE
350
17
  3
ACAD_LAYOUT
350
1A
  3
ACAD_PLOTSETTINGS
350
19
  3
ACAD_PLOTSTYLENAME
350
E
  0
DICTIONARY
  5
D
102
{ACAD_REACTORS
330
C
102
}
100
AcDbDictionary
280
0
281
1
  0
ACDBDICTIONARYWDFLT
  5
E
102
{ACAD_REACTORS
330
C
102
}
100
AcDbDictionary
281
1
  3
Normal
350
F
100
AcDbDictionaryWithDefault
340
F
  0
DICTIONARY
  5
17
102
{ACAD_REACTORS
330
C
102
}
100
AcDbDictionary
280
0
281
1
  3
Standard
350
18
  0
DICTIONARY
  5
19
102
{ACAD_REACTORS
330
C
102
}
100
AcDbDictionary
281
1
  0
DICTIONARY
  5
1A
102
{ACAD_REACTORS
330
C
102
}
100
AcDbDictionary
281
1
  3
Model
350
24F
  3
Layout1
350
250
  0
ACDBPLACEHOLDER
  5
F
102
{ACAD_REACTORS
330
E
102
}
  0
MLINESTYLE
  5
18
102
{ACAD_REACTORS
330
17
102
}
100
AcDbMlineStyle
  2
STANDARD
 70
0
  3

 62
256
 51
90.0
 52
90.0
 71
2
 49
0.5
 62
256
  6
BYLAYER
 49
-0.5
 62
256
  6
BYLAYER
  0
LAYOUT
  5
24F
102
{ACAD_REACTORS
330
1A
102
}
100
AcDbPlotSettings
  1

  2
none_device
  4

  6

 40
0.0
 41
0.0
 42
0.0
 43
0.0
 44
210.0
 45
297.0
 46
0.0
 47
0.0
 48
0.0
 49
0.0
140
0.0
141
0.0
142
1.0
143
1.0
 70
1024
 72
1
 73
0
 74
0
  7

 75
0
147
1.0
148
0.0
149
0.0
100
AcDbLayout
  1
Model
 70
0
 71
0
 10
0.0
 20
0.0
 11
210.0
 21
297.0
 12
0.0
 22
0.0
 32
0.0
 14
0.0
 24
0.0
 34
0.0
 15
0.0
 25
0.0
 35
0.0
146
0.0
 13
0.0
 23
0.0
 33
0.0
 16
1.0
 26
0.0
 36
0.0
 17
0.0
 27
1.0
 37
0.0
 76
0
330
210
345
0
346
0
  0
LAYOUT
  5
250
102
{ACAD_REACTORS
330
1A
102
}
100
AcDbPlotSettings
  1

  2
none_device
  4

  6

 40
0.0
 41
0.0
 42
0.0
 43
0.0
 44
210.0
 45
297.0
 46
0.0
 47
0.0
 48
0.0
 49
0.0
140
0.0
141
0.0
142
1.0
143
1.0
 70
0
 72
1
 73
0
 74
0
  7

 75
0
147
1.0
148
0.0
149
0.0
100
AcDbLayout
  1
Layout1
 70
0
 71
1
 10
0.0
 20
0.0
 11
210.0
 21
297.0
 12
0.0
 22
0.0
 32
0.0
 14
0.0
 24
0.0
 34
0.0
 15
0.0
 25
0.0
 35
0.0
146
0.0
 13
0.0
 23
0.0
 33
0.0
 16
1.0
 26
0.0
 36
0.0
 17
0.0
 27
1.0
 37
0.0
 76
0
330
211
345
0
346
0
  0
ENDSEC
  0
EOF
