  0
SECTION
  2
HEADER
  9
$ACADVER
  1
AC1009
  9
$DWGCODEPAGE
  3
ansi_1250
  9
$INSBASE
 10
0.0
 20
0.0
 30
0.0
  9
$EXTMIN
 10
-10.498031
 20
-9.405512
 30
0.0
  9
$EXTMAX
 10
10.498031
 20
25.064758
 30
0.0
  9
$LIMMIN
 10
0.0
 20
0.0
  9
$LIMMAX
 10
0.0
 20
0.0
  9
$ORTHOMODE
 70
     0
  9
$REGENMODE
 70
     1
  9
$FILLMODE
 70
     1
  9
$QTEXTMODE
 70
     0
  9
$MIRRTEXT
 70
     1
  9
$DRAGMODE
 70
     2
  9
$LTSCALE
 40
1.0
  9
$OSMODE
 70
     0
  9
$ATTMODE
 70
     1
  9
$TEXTSIZE
 40
0.2
  9
$TRACEWID
 40
0.05
  9
$TEXTSTYLE
  7
STANDARD
  9
$CLAYER
  8
0
  9
$CELTYPE
  6
CONTINUOUS
  9
$CECOLOR
 62
   256
  9
$DIMSCALE
 40
1.0
  9
$DIMASZ
 40
0.18
  9
$DIMEXO
 40
0.0625
  9
$DIMDLI
 40
0.38
  9
$DIMRND
 40
0.0
  9
$DIMDLE
 40
0.0
  9
$DIMEXE
 40
0.18
  9
$DIMTP
 40
0.0
  9
$DIMTM
 40
0.0
  9
$DIMTXT
 40
0.18
  9
$DIMCEN
 40
0.09
  9
$DIMTSZ
 40
0.0
  9
$DIMTOL
 70
     0
  9
$DIMLIM
 70
     0
  9
$DIMTIH
 70
     1
  9
$DIMTOH
 70
     1
  9
$DIMSE1
 70
     0
  9
$DIMSE2
 70
     0
  9
$DIMTAD
 70
     0
  9
$DIMZIN
 70
     0
  9
$DIMBLK
  1

  9
$DIMASO
 70
     1
  9
$DIMSHO
 70
     1
  9
$DIMPOST
  1

  9
$DIMAPOST
  1

  9
$DIMALT
 70
     0
  9
$DIMALTD
 70
     2
  9
$DIMALTF
 40
25.4
  9
$DIMLFAC
 40
1.0
  9
$DIMTOFL
 70
     0
  9
$DIMTVP
 40
0.0
  9
$DIMTIX
 70
     0
  9
$DIMSOXD
 70
     0
  9
$DIMSAH
 70
     0
  9
$DIMBLK1
  1

  9
$DIMBLK2
  1

  9
$DIMSTYLE
  2
STANDARD
  9
$DIMCLRD
 70
     0
  9
$DIMCLRE
 70
     0
  9
$DIMCLRT
 70
     0
  9
$DIMTFAC
 40
1.0
  9
$DIMGAP
 40
0.09
  9
$LUNITS
 70
     2
  9
$LUPREC
 70
     4
  9
$AXISMODE
 70
     0
  9
$AXISUNIT
 10
0.0
 20
0.0
  9
$SKETCHINC
 40
0.1
  9
$FILLETRAD
 40
0.0
  9
$AUNITS
 70
     0
  9
$AUPREC
 70
     0
  9
$MENU
  1
acad
  9
$ELEVATION
 40
0.0
  9
$PELEVATION
 40
0.0
  9
$THICKNESS
 40
0.0
  9
$LIMCHECK
 70
     0
  9
$BLIPMODE
 70
     1
  9
$CHAMFERA
 40
0.0
  9
$CHAMFERB
 40
0.0
  9
$SKPOLY
 70
     0
  9
$TDCREATE
 40
0.000000000
  9
$TDUPDATE
 40
0.000000000
  9
$TDINDWG
 40
0.0000000000
  9
$TDUSRTIMER
 40
0.0000000000
  9
$USRTIMER
 70
     1
  9
$ANGBASE
 50
0.0
  9
$ANGDIR
 70
     0
  9
$PDMODE
 70
     0
  9
$PDSIZE
 40
0.0
  9
$PLINEWID
 40
0.0
  9
$COORDS
 70
     0
  9
$SPLFRAME
 70
     0
  9
$SPLINETYPE
 70
     6
  9
$SPLINESEGS
 70
     8
  9
$ATTDIA
 70
     0
  9
$ATTREQ
 70
     1
  9
$HANDLING
 70
     1
  9
$HANDSEED
  5
97B
  9
$SURFTAB1
 70
     6
  9
$SURFTAB2
 70
     6
  9
$SURFTYPE
 70
     6
  9
$SURFU
 70
     6
  9
$SURFV
 70
     6
  9
$UCSNAME
  2

  9
$UCSORG
 10
0.0
 20
0.0
 30
0.0
  9
$UCSXDIR
 10
1.0
 20
0.0
 30
0.0
  9
$UCSYDIR
 10
0.0
 20
1.0
 30
0.0
  9
$PUCSNAME
  2

  9
$PUCSORG
 10
0.0
 20
0.0
 30
0.0
  9
$PUCSXDIR
 10
1.0
 20
0.0
 30
0.0
  9
$PUCSYDIR
 10
0.0
 20
1.0
 30
0.0
  9
$USERI1
 70
     0
  9
$USERI2
 70
     0
  9
$USERI3
 70
     0
  9
$USERI4
 70
     0
  9
$USERI5
 70
     0
  9
$USERR1
 40
0.0
  9
$USERR2
 40
0.0
  9
$USERR3
 40
0.0
  9
$USERR4
 40
0.0
  9
$USERR5
 40
0.0
  9
$WORLDVIEW
 70
     1
  9
$SHADEDGE
 70
     3
  9
$SHADEDIF
 70
    70
  9
$TILEMODE
 70
     1
  9
$MAXACTVP
 70
    16
  9
$PINSBASE
 10
0.0
 20
0.0
 30
0.0
  9
$PLIMCHECK
 70
     0
  9
$PEXTMIN
 10
1.000000E+20
 20
1.000000E+20
 30
1.000000E+20
  9
$PEXTMAX
 10
-1.000000E+20
 20
-1.000000E+20
 30
-1.000000E+20
  9
$PLIMMIN
 10
0.0
 20
0.0
  9
$PLIMMAX
 10
12.0
 20
9.0
  9
$UNITMODE
 70
     0
  9
$VISRETAIN
 70
     0
  9
$PLINEGEN
 70
     1
  9
$PSLTSCALE
 70
     0
  9
$TREEDEPTH
 70
  3020
  0
ENDSEC
  0
SECTION
  2
TABLES
  0
TABLE
  2
VPORT
 70
     1
  0
VPORT
  2
*ACTIVE
 70
     0
 10
0.0
 20
0.0
 11
1.0
 21
1.0
 12
6.591288
 22
4.579184
 13
0.0
 23
0.0
 14
1.0
 24
1.0
 15
0.0
 25
0.0
 16
0.0
 26
0.0
 36
1.0
 17
0.0
 27
0.0
 37
0.0
 40
9.158369
 41
0.688564
 42
50.0
 43
0.0
 44
0.0
 50
0.0
 51
0.0
 71
     0
 72
   100
 73
     1
 74
     1
 75
     0
 76
     0
 77
     0
 78
     0
  0
ENDTAB
  0
TABLE
  2
LTYPE
 70
     5
  0
LTYPE
  2
CONTINUOUS
 70
    64
  3
Solid line
 72
    65
 73
     0
 40
0.0
  0
LTYPE
  2
CENTER
 70
    64
  3
Center ____ _ ____ _ ____ _ ____ _ ____ _ ____
 72
    65
 73
     4
 40
50.8
 49
31.75
 49
-6.35
 49
6.35
 49
-6.35
  0
LTYPE
  2
HIDDEN
 70
    64
  3
Hidden __ __ __ __ __ __ __ __ __ __ __ __ __ __
 72
    65
 73
     2
 40
9.525
 49
6.35
 49
-3.175
  0
LTYPE
  2
CENTER2
 70
    64
  3
Center (.5x) ___ _ ___ _ ___ _ ___ _ ___ _ ___
 72
    65
 73
     4
 40
28.575
 49
19.05
 49
-3.175
 49
3.175
 49
-3.175
  0
LTYPE
  2
HIDDEN2
 70
    64
  3
Hidden (.5x) _ _ _ _ _ _ _ _ _ _ _ _ _ _ _ _ _
 72
    65
 73
     2
 40
4.7625
 49
3.175
 49
-1.5875
  0
ENDTAB
  0
TABLE
  2
LAYER
 70
     1
  0
LAYER
  2
0
 70
     0
 62
     7
  6
CONTINUOUS
  0
ENDTAB
  0
TABLE
  2
STYLE
 70
     1
  0
STYLE
  2
STANDARD
 70
     0
 40
0.0
 41
1.0
 50
0.0
 71
     0
 42
0.0
  3
txt
  4

  0
ENDTAB
  0
TABLE
  2
VIEW
 70
     0
  0
ENDTAB
  0
TABLE
  2
UCS
 70
     0
  0
ENDTAB
  0
TABLE
  2
APPID
 70
     1
  0
APPID
  2
ACAD
 70
     0
  0
ENDTAB
  0
TABLE
  2
DIMSTYLE
 70
     1
  0
DIMSTYLE
  2
STANDARD
 70
     0
  3

  4

  5

  6

  7

 40
1.0
 41
0.18
 42
0.0625
 43
0.38
 44
0.18
 45
0.0
 46
0.0
 47
0.0
 48
0.0
 71
     0
 72
     0
 73
     1
 74
     1
 75
     0
 76
     0
 77
     0
 78
     0
140
0.18
141
0.09
142
0.0
143
25.4
144
1.0
145
0.0
146
1.0
147
0.09
170
     0
171
     2
172
     0
173
     0
174
     0
175
     0
176
     0
177
     0
178
     0
  0
ENDTAB
  0
ENDSEC
  0
SECTION
  2
BLOCKS
  0
ENDSEC
  0
SECTION
  2
ENTITIES
  0
LINE
  8
0
  6
CONTINUOUS
 62
     7
  5
550
 10
7.043307
 20
4.992126
 30
0.0
 11
6.688976
 21
4.992126
 31
0.0
  0
LINE
  8
0
  6
CONTINUOUS
 62
     7
  5
551
 10
7.102472
 20
4.992126
 30
0.0
 11
7.043307
 21
4.992126
 31
0.0
  0
LINE
  8
0
  6
CONTINUOUS
 62
     7
  5
552
 10
-7.043307
 20
4.992126
 30
0.0
 11
-7.102472
 21
4.992126
 31
0.0
  0
LINE
  8
0
  6
CONTINUOUS
 62
     7
  5
553
 10
-6.688976
 20
4.992126
 30
0.0
 11
-7.043307
 21
4.992126
 31
0.0
  0
LINE
  8
0
  6
CONTINUOUS
 62
     7
  5
554
 10
-7.677165
 20
0.838583
 30
0.0
 11
-8.267717
 21
0.838583
 31
0.0
  0
LINE
  8
0
  6
CONTINUOUS
 62
     7
  5
555
 10
-6.023622
 20
0.838583
 30
0.0
 11
-7.677165
 21
0.838583
 31
0.0
  0
LINE
  8
0
  6
CONTINUOUS
 62
     7
  5
556
 10
-1.496063
 20
0.838583
 30
0.0
 11
-3.031496
 21
0.838583
 31
0.0
  0
LINE
  8
0
  6
CONTINUOUS
 62
     7
  5
557
 10
3.031496
 20
0.838583
 30
0.0
 11
1.496063
 21
0.838583
 31
0.0
  0
LINE
  8
0
  6
CONTINUOUS
 62
     7
  5
558
 10
7.677165
 20
0.838583
 30
0.0
 11
6.023622
 21
0.838583
 31
0.0
  0
LINE
  8
0
  6
CONTINUOUS
 62
     7
  5
559
 10
8.267717
 20
0.838583
 30
0.0
 11
7.677165
 21
0.838583
 31
0.0
  0
LINE
  8
0
  6
CONTINUOUS
 62
     7
  5
55A
 10
8.267717
 20
0.0
 30
0.0
 11
8.267717
 21
0.838583
 31
0.0
  0
LINE
  8
0
  6
CONTINUOUS
 62
     7
  5
55B
 10
7.677165
 20
0.720472
 30
0.0
 11
7.677165
 21
0.838583
 31
0.0
  0
LINE
  8
0
  6
CONTINUOUS
 62
     7
  5
55C
 10
7.677165
 20
0.0
 30
0.0
 11
7.677165
 21
0.405512
 31
0.0
  0
LINE
  8
0
  6
CONTINUOUS
 62
     7
  5
55D
 10
8.185039
 20
0.0
 30
0.0
 11
8.267717
 21
0.0
 31
0.0
  0
LINE
  8
0
  6
CONTINUOUS
 62
     7
  5
55E
 10
7.677165
 20
0.0
 30
0.0
 11
7.870079
 21
0.0
 31
0.0
  0
LINE
  8
0
  6
CONTINUOUS
 62
     7
  5
55F
 10
-7.677165
 20
0.720472
 30
0.0
 11
-7.677165
 21
0.838583
 31
0.0
  0
LINE
  8
0
  6
CONTINUOUS
 62
     7
  5
560
 10
-7.677165
 20
0.0
 30
0.0
 11
-7.677165
 21
0.405512
 31
0.0
  0
LINE
  8
0
  6
CONTINUOUS
 62
     7
  5
561
 10
0.15748
 20
0.0
 30
0.0
 11
7.677165
 21
0.0
 31
0.0
  0
LINE
  8
0
  6
CONTINUOUS
 62
     7
  5
562
 10
-7.677165
 20
0.0
 30
0.0
 11
-0.15748
 21
0.0
 31
0.0
  0
LINE
  8
0
  6
CONTINUOUS
 62
     7
  5
563
 10
-8.267717
 20
0.0
 30
0.0
 11
-8.267717
 21
0.838583
 31
0.0
  0
LINE
  8
0
  6
CONTINUOUS
 62
     7
  5
564
 10
-7.870079
 20
0.0
 30
0.0
 11
-7.677165
 21
0.0
 31
0.0
  0
LINE
  8
0
  6
CONTINUOUS
 62
     7
  5
565
 10
-8.267717
 20
0.0
 30
0.0
 11
-8.185039
 21
0.0
 31
0.0
  0
LINE
  8
0
  6
CONTINUOUS
 62
     7
  5
566
 10
7.122047
 20
2.749016
 30
0.0
 11
7.105375
 21
0.838583
 31
0.0
  0
LINE
  8
0
  6
CONTINUOUS
 62
     7
  5
567
 10
7.043307
 20
2.749016
 30
0.0
 11
7.122047
 21
2.749016
 31
0.0
  0
LINE
  8
0
  6
CONTINUOUS
 62
     7
  5
568
 10
-7.122047
 20
2.749016
 30
0.0
 11
-7.105375
 21
0.838583
 31
0.0
  0
LINE
  8
0
  6
CONTINUOUS
 62
     7
  5
569
 10
-7.122047
 20
2.749016
 30
0.0
 11
-7.043307
 21
2.749016
 31
0.0
  0
LINE
  8
0
  6
CONTINUOUS
 62
     7
  5
56A
 10
-7.043307
 20
2.749016
 30
0.0
 11
7.043307
 21
2.749016
 31
0.0
  0
LINE
  8
0
  6
CONTINUOUS
 62
     7
  5
56B
 10
7.122047
 20
2.749016
 30
0.0
 11
7.102472
 21
4.992126
 31
0.0
  0
LINE
  8
0
  6
CONTINUOUS
 62
     7
  5
56C
 10
-7.122047
 20
2.749016
 30
0.0
 11
-7.102472
 21
4.992126
 31
0.0
  0
LINE
  8
0
  6
CONTINUOUS
 62
     7
  5
56D
 10
6.688976
 20
4.992126
 30
0.0
 11
-6.688976
 21
4.992126
 31
0.0
  0
LINE
  8
0
  6
CONTINUOUS
 62
     7
  5
56E
 10
7.122047
 20
4.992126
 30
0.0
 11
7.102472
 21
4.992126
 31
0.0
  0
LINE
  8
0
  6
CONTINUOUS
 62
     7
  5
56F
 10
-7.102472
 20
4.992126
 30
0.0
 11
-7.122047
 21
4.992126
 31
0.0
  0
LINE
  8
0
  6
CONTINUOUS
 62
     7
  5
570
 10
1.988588
 20
7.965221
 30
0.0
 11
2.054192
 21
6.830709
 31
0.0
  0
LINE
  8
0
  6
CONTINUOUS
 62
     7
  5
571
 10
1.884238
 20
8.065951
 30
0.0
 11
1.888929
 21
8.065372
 31
0.0
  0
LINE
  8
0
  6
CONTINUOUS
 62
     7
  5
572
 10
1.888929
 20
8.065372
 30
0.0
 11
1.89359
 21
8.064622
 31
0.0
  0
LINE
  8
0
  6
CONTINUOUS
 62
     7
  5
573
 10
1.89359
 20
8.064622
 30
0.0
 11
1.898215
 21
8.063704
 31
0.0
  0
LINE
  8
0
  6
CONTINUOUS
 62
     7
  5
574
 10
1.898215
 20
8.063704
 30
0.0
 11
1.902795
 21
8.062619
 31
0.0
  0
LINE
  8
0
  6
CONTINUOUS
 62
     7
  5
575
 10
1.902795
 20
8.062619
 30
0.0
 11
1.907324
 21
8.061369
 31
0.0
  0
LINE
  8
0
  6
CONTINUOUS
 62
     7
  5
576
 10
1.907324
 20
8.061369
 30
0.0
 11
1.911794
 21
8.059954
 31
0.0
  0
LINE
  8
0
  6
CONTINUOUS
 62
     7
  5
577
 10
1.911794
 20
8.059954
 30
0.0
 11
1.916198
 21
8.058379
 31
0.0
  0
LINE
  8
0
  6
CONTINUOUS
 62
     7
  5
578
 10
1.916198
 20
8.058379
 30
0.0
 11
1.920528
 21
8.056645
 31
0.0
  0
LINE
  8
0
  6
CONTINUOUS
 62
     7
  5
579
 10
1.920528
 20
8.056645
 30
0.0
 11
1.924779
 21
8.054755
 31
0.0
  0
LINE
  8
0
  6
CONTINUOUS
 62
     7
  5
57A
 10
1.924779
 20
8.054755
 30
0.0
 11
1.928942
 21
8.052712
 31
0.0
  0
LINE
  8
0
  6
CONTINUOUS
 62
     7
  5
57B
 10
1.928942
 20
8.052712
 30
0.0
 11
1.933012
 21
8.05052
 31
0.0
  0
LINE
  8
0
  6
CONTINUOUS
 62
     7
  5
57C
 10
1.933012
 20
8.05052
 30
0.0
 11
1.936981
 21
8.048181
 31
0.0
  0
LINE
  8
0
  6
CONTINUOUS
 62
     7
  5
57D
 10
1.936981
 20
8.048181
 30
0.0
 11
1.940844
 21
8.0457
 31
0.0
  0
LINE
  8
0
  6
CONTINUOUS
 62
     7
  5
57E
 10
1.940844
 20
8.0457
 30
0.0
 11
1.944594
 21
8.043081
 31
0.0
  0
LINE
  8
0
  6
CONTINUOUS
 62
     7
  5
57F
 10
1.944594
 20
8.043081
 30
0.0
 11
1.948226
 21
8.040328
 31
0.0
  0
LINE
  8
0
  6
CONTINUOUS
 62
     7
  5
580
 10
1.948226
 20
8.040328
 30
0.0
 11
1.951732
 21
8.037445
 31
0.0
  0
LINE
  8
0
  6
CONTINUOUS
 62
     7
  5
581
 10
1.951732
 20
8.037445
 30
0.0
 11
1.955109
 21
8.034437
 31
0.0
  0
LINE
  8
0
  6
CONTINUOUS
 62
     7
  5
582
 10
1.955109
 20
8.034437
 30
0.0
 11
1.958349
 21
8.031309
 31
0.0
  0
LINE
  8
0
  6
CONTINUOUS
 62
     7
  5
583
 10
1.958349
 20
8.031309
 30
0.0
 11
1.961449
 21
8.028066
 31
0.0
  0
LINE
  8
0
  6
CONTINUOUS
 62
     7
  5
584
 10
1.961449
 20
8.028066
 30
0.0
 11
1.964403
 21
8.024712
 31
0.0
  0
LINE
  8
0
  6
CONTINUOUS
 62
     7
  5
585
 10
1.964403
 20
8.024712
 30
0.0
 11
1.967206
 21
8.021254
 31
0.0
  0
LINE
  8
0
  6
CONTINUOUS
 62
     7
  5
586
 10
1.967206
 20
8.021254
 30
0.0
 11
1.969854
 21
8.017698
 31
0.0
  0
LINE
  8
0
  6
CONTINUOUS
 62
     7
  5
587
 10
1.969854
 20
8.017698
 30
0.0
 11
1.972342
 21
8.014047
 31
0.0
  0
LINE
  8
0
  6
CONTINUOUS
 62
     7
  5
588
 10
1.972342
 20
8.014047
 30
0.0
 11
1.974667
 21
8.01031
 31
0.0
  0
LINE
  8
0
  6
CONTINUOUS
 62
     7
  5
589
 10
1.974667
 20
8.01031
 30
0.0
 11
1.976825
 21
8.00649
 31
0.0
  0
LINE
  8
0
  6
CONTINUOUS
 62
     7
  5
58A
 10
1.976825
 20
8.00649
 30
0.0
 11
1.978813
 21
8.002596
 31
0.0
  0
LINE
  8
0
  6
CONTINUOUS
 62
     7
  5
58B
 10
1.978813
 20
8.002596
 30
0.0
 11
1.980626
 21
7.998632
 31
0.0
  0
LINE
  8
0
  6
CONTINUOUS
 62
     7
  5
58C
 10
1.980626
 20
7.998632
 30
0.0
 11
1.982263
 21
7.994606
 31
0.0
  0
LINE
  8
0
  6
CONTINUOUS
 62
     7
  5
58D
 10
1.982263
 20
7.994606
 30
0.0
 11
1.98372
 21
7.990524
 31
0.0
  0
LINE
  8
0
  6
CONTINUOUS
 62
     7
  5
58E
 10
1.98372
 20
7.990524
 30
0.0
 11
1.984996
 21
7.986392
 31
0.0
  0
LINE
  8
0
  6
CONTINUOUS
 62
     7
  5
58F
 10
1.984996
 20
7.986392
 30
0.0
 11
1.986088
 21
7.982216
 31
0.0
  0
LINE
  8
0
  6
CONTINUOUS
 62
     7
  5
590
 10
1.986088
 20
7.982216
 30
0.0
 11
1.986995
 21
7.978005
 31
0.0
  0
LINE
  8
0
  6
CONTINUOUS
 62
     7
  5
591
 10
1.986995
 20
7.978005
 30
0.0
 11
1.987714
 21
7.973764
 31
0.0
  0
LINE
  8
0
  6
CONTINUOUS
 62
     7
  5
592
 10
1.987714
 20
7.973764
 30
0.0
 11
1.988246
 21
7.9695
 31
0.0
  0
LINE
  8
0
  6
CONTINUOUS
 62
     7
  5
593
 10
1.988246
 20
7.9695
 30
0.0
 11
1.988588
 21
7.965221
 31
0.0
  0
LINE
  8
0
  6
CONTINUOUS
 62
     7
  5
594
 10
0.48341
 20
8.213092
 30
0.0
 11
1.884238
 21
8.065951
 31
0.0
  0
LINE
  8
0
  6
CONTINUOUS
 62
     7
  5
595
 10
0.425847
 20
8.216105
 30
0.0
 11
0.427495
 21
8.216103
 31
0.0
  0
LINE
  8
0
  6
CONTINUOUS
 62
     7
  5
596
 10
0.427495
 20
8.216103
 30
0.0
 11
0.429143
 21
8.216095
 31
0.0
  0
LINE
  8
0
  6
CONTINUOUS
 62
     7
  5
597
 10
0.429143
 20
8.216095
 30
0.0
 11
0.430792
 21
8.216083
 31
0.0
  0
LINE
  8
0
  6
CONTINUOUS
 62
     7
  5
598
 10
0.430792
 20
8.216083
 30
0.0
 11
0.43244
 21
8.216066
 31
0.0
  0
LINE
  8
0
  6
CONTINUOUS
 62
     7
  5
599
 10
0.43244
 20
8.216066
 30
0.0
 11
0.434088
 21
8.216043
 31
0.0
  0
LINE
  8
0
  6
CONTINUOUS
 62
     7
  5
59A
 10
0.434088
 20
8.216043
 30
0.0
 11
0.435736
 21
8.216016
 31
0.0
  0
LINE
  8
0
  6
CONTINUOUS
 62
     7
  5
59B
 10
0.435736
 20
8.216016
 30
0.0
 11
0.437384
 21
8.215984
 31
0.0
  0
LINE
  8
0
  6
CONTINUOUS
 62
     7
  5
59C
 10
0.437384
 20
8.215984
 30
0.0
 11
0.439032
 21
8.215947
 31
0.0
  0
LINE
  8
0
  6
CONTINUOUS
 62
     7
  5
59D
 10
0.439032
 20
8.215947
 30
0.0
 11
0.440679
 21
8.215906
 31
0.0
  0
LINE
  8
0
  6
CONTINUOUS
 62
     7
  5
59E
 10
0.440679
 20
8.215906
 30
0.0
 11
0.442327
 21
8.215859
 31
0.0
  0
LINE
  8
0
  6
CONTINUOUS
 62
     7
  5
59F
 10
0.442327
 20
8.215859
 30
0.0
 11
0.443974
 21
8.215807
 31
0.0
  0
LINE
  8
0
  6
CONTINUOUS
 62
     7
  5
5A0
 10
0.443974
 20
8.215807
 30
0.0
 11
0.445621
 21
8.21575
 31
0.0
  0
LINE
  8
0
  6
CONTINUOUS
 62
     7
  5
5A1
 10
0.445621
 20
8.21575
 30
0.0
 11
0.447268
 21
8.215689
 31
0.0
  0
LINE
  8
0
  6
CONTINUOUS
 62
     7
  5
5A2
 10
0.447268
 20
8.215689
 30
0.0
 11
0.448915
 21
8.215622
 31
0.0
  0
LINE
  8
0
  6
CONTINUOUS
 62
     7
  5
5A3
 10
0.448915
 20
8.215622
 30
0.0
 11
0.450561
 21
8.215551
 31
0.0
  0
LINE
  8
0
  6
CONTINUOUS
 62
     7
  5
5A4
 10
0.450561
 20
8.215551
 30
0.0
 11
0.452208
 21
8.215475
 31
0.0
  0
LINE
  8
0
  6
CONTINUOUS
 62
     7
  5
5A5
 10
0.452208
 20
8.215475
 30
0.0
 11
0.453854
 21
8.215394
 31
0.0
  0
LINE
  8
0
  6
CONTINUOUS
 62
     7
  5
5A6
 10
0.453854
 20
8.215394
 30
0.0
 11
0.455499
 21
8.215307
 31
0.0
  0
LINE
  8
0
  6
CONTINUOUS
 62
     7
  5
5A7
 10
0.455499
 20
8.215307
 30
0.0
 11
0.457144
 21
8.215216
 31
0.0
  0
LINE
  8
0
  6
CONTINUOUS
 62
     7
  5
5A8
 10
0.457144
 20
8.215216
 30
0.0
 11
0.458789
 21
8.21512
 31
0.0
  0
LINE
  8
0
  6
CONTINUOUS
 62
     7
  5
5A9
 10
0.458789
 20
8.21512
 30
0.0
 11
0.460434
 21
8.21502
 31
0.0
  0
LINE
  8
0
  6
CONTINUOUS
 62
     7
  5
5AA
 10
0.460434
 20
8.21502
 30
0.0
 11
0.462078
 21
8.214914
 31
0.0
  0
LINE
  8
0
  6
CONTINUOUS
 62
     7
  5
5AB
 10
0.462078
 20
8.214914
 30
0.0
 11
0.463722
 21
8.214803
 31
0.0
  0
LINE
  8
0
  6
CONTINUOUS
 62
     7
  5
5AC
 10
0.463722
 20
8.214803
 30
0.0
 11
0.465365
 21
8.214687
 31
0.0
  0
LINE
  8
0
  6
CONTINUOUS
 62
     7
  5
5AD
 10
0.465365
 20
8.214687
 30
0.0
 11
0.467008
 21
8.214567
 31
0.0
  0
LINE
  8
0
  6
CONTINUOUS
 62
     7
  5
5AE
 10
0.467008
 20
8.214567
 30
0.0
 11
0.468651
 21
8.214441
 31
0.0
  0
LINE
  8
0
  6
CONTINUOUS
 62
     7
  5
5AF
 10
0.468651
 20
8.214441
 30
0.0
 11
0.470293
 21
8.214311
 31
0.0
  0
LINE
  8
0
  6
CONTINUOUS
 62
     7
  5
5B0
 10
0.470293
 20
8.214311
 30
0.0
 11
0.471934
 21
8.214176
 31
0.0
  0
LINE
  8
0
  6
CONTINUOUS
 62
     7
  5
5B1
 10
0.471934
 20
8.214176
 30
0.0
 11
0.473575
 21
8.214036
 31
0.0
  0
LINE
  8
0
  6
CONTINUOUS
 62
     7
  5
5B2
 10
0.473575
 20
8.214036
 30
0.0
 11
0.475216
 21
8.213891
 31
0.0
  0
LINE
  8
0
  6
CONTINUOUS
 62
     7
  5
5B3
 10
0.475216
 20
8.213891
 30
0.0
 11
0.476856
 21
8.213741
 31
0.0
  0
LINE
  8
0
  6
CONTINUOUS
 62
     7
  5
5B4
 10
0.476856
 20
8.213741
 30
0.0
 11
0.478495
 21
8.213586
 31
0.0
  0
LINE
  8
0
  6
CONTINUOUS
 62
     7
  5
5B5
 10
0.478495
 20
8.213586
 30
0.0
 11
0.480134
 21
8.213426
 31
0.0
  0
LINE
  8
0
  6
CONTINUOUS
 62
     7
  5
5B6
 10
0.480134
 20
8.213426
 30
0.0
 11
0.481772
 21
8.213261
 31
0.0
  0
LINE
  8
0
  6
CONTINUOUS
 62
     7
  5
5B7
 10
0.481772
 20
8.213261
 30
0.0
 11
0.48341
 21
8.213092
 31
0.0
  0
LINE
  8
0
  6
CONTINUOUS
 62
     7
  5
5B8
 10
0.405098
 20
8.216105
 30
0.0
 11
0.425847
 21
8.216105
 31
0.0
  0
LINE
  8
0
  6
CONTINUOUS
 62
     7
  5
5B9
 10
-0.425847
 20
8.216105
 30
0.0
 11
-0.405098
 21
8.216105
 31
0.0
  0
LINE
  8
0
  6
CONTINUOUS
 62
     7
  5
5BA
 10
-0.48341
 20
8.213092
 30
0.0
 11
-0.481772
 21
8.213261
 31
0.0
  0
LINE
  8
0
  6
CONTINUOUS
 62
     7
  5
5BB
 10
-0.481772
 20
8.213261
 30
0.0
 11
-0.480134
 21
8.213426
 31
0.0
  0
LINE
  8
0
  6
CONTINUOUS
 62
     7
  5
5BC
 10
-0.480134
 20
8.213426
 30
0.0
 11
-0.478495
 21
8.213586
 31
0.0
  0
LINE
  8
0
  6
CONTINUOUS
 62
     7
  5
5BD
 10
-0.478495
 20
8.213586
 30
0.0
 11
-0.476856
 21
8.213741
 31
0.0
  0
LINE
  8
0
  6
CONTINUOUS
 62
     7
  5
5BE
 10
-0.476856
 20
8.213741
 30
0.0
 11
-0.475216
 21
8.213891
 31
0.0
  0
LINE
  8
0
  6
CONTINUOUS
 62
     7
  5
5BF
 10
-0.475216
 20
8.213891
 30
0.0
 11
-0.473575
 21
8.214036
 31
0.0
  0
LINE
  8
0
  6
CONTINUOUS
 62
     7
  5
5C0
 10
-0.473575
 20
8.214036
 30
0.0
 11
-0.471934
 21
8.214176
 31
0.0
  0
LINE
  8
0
  6
CONTINUOUS
 62
     7
  5
5C1
 10
-0.471934
 20
8.214176
 30
0.0
 11
-0.470293
 21
8.214311
 31
0.0
  0
LINE
  8
0
  6
CONTINUOUS
 62
     7
  5
5C2
 10
-0.470293
 20
8.214311
 30
0.0
 11
-0.468651
 21
8.214441
 31
0.0
  0
LINE
  8
0
  6
CONTINUOUS
 62
     7
  5
5C3
 10
-0.468651
 20
8.214441
 30
0.0
 11
-0.467008
 21
8.214567
 31
0.0
  0
LINE
  8
0
  6
CONTINUOUS
 62
     7
  5
5C4
 10
-0.467008
 20
8.214567
 30
0.0
 11
-0.465365
 21
8.214687
 31
0.0
  0
LINE
  8
0
  6
CONTINUOUS
 62
     7
  5
5C5
 10
-0.465365
 20
8.214687
 30
0.0
 11
-0.463722
 21
8.214803
 31
0.0
  0
LINE
  8
0
  6
CONTINUOUS
 62
     7
  5
5C6
 10
-0.463722
 20
8.214803
 30
0.0
 11
-0.462078
 21
8.214914
 31
0.0
  0
LINE
  8
0
  6
CONTINUOUS
 62
     7
  5
5C7
 10
-0.462078
 20
8.214914
 30
0.0
 11
-0.460434
 21
8.21502
 31
0.0
  0
LINE
  8
0
  6
CONTINUOUS
 62
     7
  5
5C8
 10
-0.460434
 20
8.21502
 30
0.0
 11
-0.458789
 21
8.21512
 31
0.0
  0
LINE
  8
0
  6
CONTINUOUS
 62
     7
  5
5C9
 10
-0.458789
 20
8.21512
 30
0.0
 11
-0.457144
 21
8.215216
 31
0.0
  0
LINE
  8
0
  6
CONTINUOUS
 62
     7
  5
5CA
 10
-0.457144
 20
8.215216
 30
0.0
 11
-0.455499
 21
8.215307
 31
0.0
  0
LINE
  8
0
  6
CONTINUOUS
 62
     7
  5
5CB
 10
-0.455499
 20
8.215307
 30
0.0
 11
-0.453854
 21
8.215394
 31
0.0
  0
LINE
  8
0
  6
CONTINUOUS
 62
     7
  5
5CC
 10
-0.453854
 20
8.215394
 30
0.0
 11
-0.452208
 21
8.215475
 31
0.0
  0
LINE
  8
0
  6
CONTINUOUS
 62
     7
  5
5CD
 10
-0.452208
 20
8.215475
 30
0.0
 11
-0.450561
 21
8.215551
 31
0.0
  0
LINE
  8
0
  6
CONTINUOUS
 62
     7
  5
5CE
 10
-0.450561
 20
8.215551
 30
0.0
 11
-0.448915
 21
8.215622
 31
0.0
  0
LINE
  8
0
  6
CONTINUOUS
 62
     7
  5
5CF
 10
-0.448915
 20
8.215622
 30
0.0
 11
-0.447268
 21
8.215689
 31
0.0
  0
LINE
  8
0
  6
CONTINUOUS
 62
     7
  5
5D0
 10
-0.447268
 20
8.215689
 30
0.0
 11
-0.445621
 21
8.21575
 31
0.0
  0
LINE
  8
0
  6
CONTINUOUS
 62
     7
  5
5D1
 10
-0.445621
 20
8.21575
 30
0.0
 11
-0.443974
 21
8.215807
 31
0.0
  0
LINE
  8
0
  6
CONTINUOUS
 62
     7
  5
5D2
 10
-0.443974
 20
8.215807
 30
0.0
 11
-0.442327
 21
8.215859
 31
0.0
  0
LINE
  8
0
  6
CONTINUOUS
 62
     7
  5
5D3
 10
-0.442327
 20
8.215859
 30
0.0
 11
-0.440679
 21
8.215906
 31
0.0
  0
LINE
  8
0
  6
CONTINUOUS
 62
     7
  5
5D4
 10
-0.440679
 20
8.215906
 30
0.0
 11
-0.439032
 21
8.215947
 31
0.0
  0
LINE
  8
0
  6
CONTINUOUS
 62
     7
  5
5D5
 10
-0.439032
 20
8.215947
 30
0.0
 11
-0.437384
 21
8.215984
 31
0.0
  0
LINE
  8
0
  6
CONTINUOUS
 62
     7
  5
5D6
 10
-0.437384
 20
8.215984
 30
0.0
 11
-0.435736
 21
8.216016
 31
0.0
  0
LINE
  8
0
  6
CONTINUOUS
 62
     7
  5
5D7
 10
-0.435736
 20
8.216016
 30
0.0
 11
-0.434088
 21
8.216043
 31
0.0
  0
LINE
  8
0
  6
CONTINUOUS
 62
     7
  5
5D8
 10
-0.434088
 20
8.216043
 30
0.0
 11
-0.43244
 21
8.216066
 31
0.0
  0
LINE
  8
0
  6
CONTINUOUS
 62
     7
  5
5D9
 10
-0.43244
 20
8.216066
 30
0.0
 11
-0.430792
 21
8.216083
 31
0.0
  0
LINE
  8
0
  6
CONTINUOUS
 62
     7
  5
5DA
 10
-0.430792
 20
8.216083
 30
0.0
 11
-0.429143
 21
8.216095
 31
0.0
  0
LINE
  8
0
  6
CONTINUOUS
 62
     7
  5
5DB
 10
-0.429143
 20
8.216095
 30
0.0
 11
-0.427495
 21
8.216103
 31
0.0
  0
LINE
  8
0
  6
CONTINUOUS
 62
     7
  5
5DC
 10
-0.427495
 20
8.216103
 30
0.0
 11
-0.425847
 21
8.216105
 31
0.0
  0
LINE
  8
0
  6
CONTINUOUS
 62
     7
  5
5DD
 10
-1.884238
 20
8.065951
 30
0.0
 11
-0.48341
 21
8.213092
 31
0.0
  0
LINE
  8
0
  6
CONTINUOUS
 62
     7
  5
5DE
 10
-1.988588
 20
7.965221
 30
0.0
 11
-1.988246
 21
7.9695
 31
0.0
  0
LINE
  8
0
  6
CONTINUOUS
 62
     7
  5
5DF
 10
-1.988246
 20
7.9695
 30
0.0
 11
-1.987714
 21
7.973764
 31
0.0
  0
LINE
  8
0
  6
CONTINUOUS
 62
     7
  5
5E0
 10
-1.987714
 20
7.973764
 30
0.0
 11
-1.986995
 21
7.978005
 31
0.0
  0
LINE
  8
0
  6
CONTINUOUS
 62
     7
  5
5E1
 10
-1.986995
 20
7.978005
 30
0.0
 11
-1.986088
 21
7.982216
 31
0.0
  0
LINE
  8
0
  6
CONTINUOUS
 62
     7
  5
5E2
 10
-1.986088
 20
7.982216
 30
0.0
 11
-1.984996
 21
7.986392
 31
0.0
  0
LINE
  8
0
  6
CONTINUOUS
 62
     7
  5
5E3
 10
-1.984996
 20
7.986392
 30
0.0
 11
-1.98372
 21
7.990524
 31
0.0
  0
LINE
  8
0
  6
CONTINUOUS
 62
     7
  5
5E4
 10
-1.98372
 20
7.990524
 30
0.0
 11
-1.982263
 21
7.994606
 31
0.0
  0
LINE
  8
0
  6
CONTINUOUS
 62
     7
  5
5E5
 10
-1.982263
 20
7.994606
 30
0.0
 11
-1.980626
 21
7.998632
 31
0.0
  0
LINE
  8
0
  6
CONTINUOUS
 62
     7
  5
5E6
 10
-1.980626
 20
7.998632
 30
0.0
 11
-1.978813
 21
8.002596
 31
0.0
  0
LINE
  8
0
  6
CONTINUOUS
 62
     7
  5
5E7
 10
-1.978813
 20
8.002596
 30
0.0
 11
-1.976825
 21
8.00649
 31
0.0
  0
LINE
  8
0
  6
CONTINUOUS
 62
     7
  5
5E8
 10
-1.976825
 20
8.00649
 30
0.0
 11
-1.974667
 21
8.01031
 31
0.0
  0
LINE
  8
0
  6
CONTINUOUS
 62
     7
  5
5E9
 10
-1.974667
 20
8.01031
 30
0.0
 11
-1.972342
 21
8.014047
 31
0.0
  0
LINE
  8
0
  6
CONTINUOUS
 62
     7
  5
5EA
 10
-1.972342
 20
8.014047
 30
0.0
 11
-1.969854
 21
8.017698
 31
0.0
  0
LINE
  8
0
  6
CONTINUOUS
 62
     7
  5
5EB
 10
-1.969854
 20
8.017698
 30
0.0
 11
-1.967206
 21
8.021254
 31
0.0
  0
LINE
  8
0
  6
CONTINUOUS
 62
     7
  5
5EC
 10
-1.967206
 20
8.021254
 30
0.0
 11
-1.964403
 21
8.024712
 31
0.0
  0
LINE
  8
0
  6
CONTINUOUS
 62
     7
  5
5ED
 10
-1.964403
 20
8.024712
 30
0.0
 11
-1.961449
 21
8.028066
 31
0.0
  0
LINE
  8
0
  6
CONTINUOUS
 62
     7
  5
5EE
 10
-1.961449
 20
8.028066
 30
0.0
 11
-1.958349
 21
8.031309
 31
0.0
  0
LINE
  8
0
  6
CONTINUOUS
 62
     7
  5
5EF
 10
-1.958349
 20
8.031309
 30
0.0
 11
-1.955109
 21
8.034437
 31
0.0
  0
LINE
  8
0
  6
CONTINUOUS
 62
     7
  5
5F0
 10
-1.955109
 20
8.034437
 30
0.0
 11
-1.951732
 21
8.037445
 31
0.0
  0
LINE
  8
0
  6
CONTINUOUS
 62
     7
  5
5F1
 10
-1.951732
 20
8.037445
 30
0.0
 11
-1.948226
 21
8.040328
 31
0.0
  0
LINE
  8
0
  6
CONTINUOUS
 62
     7
  5
5F2
 10
-1.948226
 20
8.040328
 30
0.0
 11
-1.944594
 21
8.043081
 31
0.0
  0
LINE
  8
0
  6
CONTINUOUS
 62
     7
  5
5F3
 10
-1.944594
 20
8.043081
 30
0.0
 11
-1.940844
 21
8.0457
 31
0.0
  0
LINE
  8
0
  6
CONTINUOUS
 62
     7
  5
5F4
 10
-1.940844
 20
8.0457
 30
0.0
 11
-1.936981
 21
8.048181
 31
0.0
  0
LINE
  8
0
  6
CONTINUOUS
 62
     7
  5
5F5
 10
-1.936981
 20
8.048181
 30
0.0
 11
-1.933012
 21
8.05052
 31
0.0
  0
LINE
  8
0
  6
CONTINUOUS
 62
     7
  5
5F6
 10
-1.933012
 20
8.05052
 30
0.0
 11
-1.928942
 21
8.052712
 31
0.0
  0
LINE
  8
0
  6
CONTINUOUS
 62
     7
  5
5F7
 10
-1.928942
 20
8.052712
 30
0.0
 11
-1.924779
 21
8.054755
 31
0.0
  0
LINE
  8
0
  6
CONTINUOUS
 62
     7
  5
5F8
 10
-1.924779
 20
8.054755
 30
0.0
 11
-1.920528
 21
8.056645
 31
0.0
  0
LINE
  8
0
  6
CONTINUOUS
 62
     7
  5
5F9
 10
-1.920528
 20
8.056645
 30
0.0
 11
-1.916198
 21
8.058379
 31
0.0
  0
LINE
  8
0
  6
CONTINUOUS
 62
     7
  5
5FA
 10
-1.916198
 20
8.058379
 30
0.0
 11
-1.911794
 21
8.059954
 31
0.0
  0
LINE
  8
0
  6
CONTINUOUS
 62
     7
  5
5FB
 10
-1.911794
 20
8.059954
 30
0.0
 11
-1.907324
 21
8.061369
 31
0.0
  0
LINE
  8
0
  6
CONTINUOUS
 62
     7
  5
5FC
 10
-1.907324
 20
8.061369
 30
0.0
 11
-1.902795
 21
8.062619
 31
0.0
  0
LINE
  8
0
  6
CONTINUOUS
 62
     7
  5
5FD
 10
-1.902795
 20
8.062619
 30
0.0
 11
-1.898215
 21
8.063704
 31
0.0
  0
LINE
  8
0
  6
CONTINUOUS
 62
     7
  5
5FE
 10
-1.898215
 20
8.063704
 30
0.0
 11
-1.89359
 21
8.064622
 31
0.0
  0
LINE
  8
0
  6
CONTINUOUS
 62
     7
  5
5FF
 10
-1.89359
 20
8.064622
 30
0.0
 11
-1.888929
 21
8.065372
 31
0.0
  0
LINE
  8
0
  6
CONTINUOUS
 62
     7
  5
600
 10
-1.888929
 20
8.065372
 30
0.0
 11
-1.884238
 21
8.065951
 31
0.0
  0
LINE
  8
0
  6
CONTINUOUS
 62
     7
  5
601
 10
-2.054192
 20
6.830709
 30
0.0
 11
-1.988588
 21
7.965221
 31
0.0
  0
LINE
  8
0
  6
CONTINUOUS
 62
     7
  5
602
 10
1.988588
 20
7.551397
 30
0.0
 11
2.031365
 21
6.830709
 31
0.0
  0
LINE
  8
0
  6
CONTINUOUS
 62
     7
  5
603
 10
1.884238
 20
7.64953
 30
0.0
 11
1.888929
 21
7.648966
 31
0.0
  0
LINE
  8
0
  6
CONTINUOUS
 62
     7
  5
604
 10
1.888929
 20
7.648966
 30
0.0
 11
1.89359
 21
7.648236
 31
0.0
  0
LINE
  8
0
  6
CONTINUOUS
 62
     7
  5
605
 10
1.89359
 20
7.648236
 30
0.0
 11
1.898215
 21
7.647342
 31
0.0
  0
LINE
  8
0
  6
CONTINUOUS
 62
     7
  5
606
 10
1.898215
 20
7.647342
 30
0.0
 11
1.902795
 21
7.646285
 31
0.0
  0
LINE
  8
0
  6
CONTINUOUS
 62
     7
  5
607
 10
1.902795
 20
7.646285
 30
0.0
 11
1.907324
 21
7.645066
 31
0.0
  0
LINE
  8
0
  6
CONTINUOUS
 62
     7
  5
608
 10
1.907324
 20
7.645066
 30
0.0
 11
1.911794
 21
7.643688
 31
0.0
  0
LINE
  8
0
  6
CONTINUOUS
 62
     7
  5
609
 10
1.911794
 20
7.643688
 30
0.0
 11
1.916198
 21
7.642154
 31
0.0
  0
LINE
  8
0
  6
CONTINUOUS
 62
     7
  5
60A
 10
1.916198
 20
7.642154
 30
0.0
 11
1.920528
 21
7.640464
 31
0.0
  0
LINE
  8
0
  6
CONTINUOUS
 62
     7
  5
60B
 10
1.920528
 20
7.640464
 30
0.0
 11
1.924779
 21
7.638623
 31
0.0
  0
LINE
  8
0
  6
CONTINUOUS
 62
     7
  5
60C
 10
1.924779
 20
7.638623
 30
0.0
 11
1.928942
 21
7.636633
 31
0.0
  0
LINE
  8
0
  6
CONTINUOUS
 62
     7
  5
60D
 10
1.928942
 20
7.636633
 30
0.0
 11
1.933012
 21
7.634497
 31
0.0
  0
LINE
  8
0
  6
CONTINUOUS
 62
     7
  5
60E
 10
1.933012
 20
7.634497
 30
0.0
 11
1.936981
 21
7.632219
 31
0.0
  0
LINE
  8
0
  6
CONTINUOUS
 62
     7
  5
60F
 10
1.936981
 20
7.632219
 30
0.0
 11
1.940844
 21
7.629802
 31
0.0
  0
LINE
  8
0
  6
CONTINUOUS
 62
     7
  5
610
 10
1.940844
 20
7.629802
 30
0.0
 11
1.944594
 21
7.62725
 31
0.0
  0
LINE
  8
0
  6
CONTINUOUS
 62
     7
  5
611
 10
1.944594
 20
7.62725
 30
0.0
 11
1.948226
 21
7.624568
 31
0.0
  0
LINE
  8
0
  6
CONTINUOUS
 62
     7
  5
612
 10
1.948226
 20
7.624568
 30
0.0
 11
1.951732
 21
7.621759
 31
0.0
  0
LINE
  8
0
  6
CONTINUOUS
 62
     7
  5
613
 10
1.951732
 20
7.621759
 30
0.0
 11
1.955109
 21
7.618829
 31
0.0
  0
LINE
  8
0
  6
CONTINUOUS
 62
     7
  5
614
 10
1.955109
 20
7.618829
 30
0.0
 11
1.958349
 21
7.615781
 31
0.0
  0
LINE
  8
0
  6
CONTINUOUS
 62
     7
  5
615
 10
1.958349
 20
7.615781
 30
0.0
 11
1.961449
 21
7.612622
 31
0.0
  0
LINE
  8
0
  6
CONTINUOUS
 62
     7
  5
616
 10
1.961449
 20
7.612622
 30
0.0
 11
1.964403
 21
7.609355
 31
0.0
  0
LINE
  8
0
  6
CONTINUOUS
 62
     7
  5
617
 10
1.964403
 20
7.609355
 30
0.0
 11
1.967206
 21
7.605986
 31
0.0
  0
LINE
  8
0
  6
CONTINUOUS
 62
     7
  5
618
 10
1.967206
 20
7.605986
 30
0.0
 11
1.969854
 21
7.602521
 31
0.0
  0
LINE
  8
0
  6
CONTINUOUS
 62
     7
  5
619
 10
1.969854
 20
7.602521
 30
0.0
 11
1.972342
 21
7.598965
 31
0.0
  0
LINE
  8
0
  6
CONTINUOUS
 62
     7
  5
61A
 10
1.972342
 20
7.598965
 30
0.0
 11
1.974667
 21
7.595323
 31
0.0
  0
LINE
  8
0
  6
CONTINUOUS
 62
     7
  5
61B
 10
1.974667
 20
7.595323
 30
0.0
 11
1.976825
 21
7.591602
 31
0.0
  0
LINE
  8
0
  6
CONTINUOUS
 62
     7
  5
61C
 10
1.976825
 20
7.591602
 30
0.0
 11
1.978813
 21
7.587808
 31
0.0
  0
LINE
  8
0
  6
CONTINUOUS
 62
     7
  5
61D
 10
1.978813
 20
7.587808
 30
0.0
 11
1.980626
 21
7.583947
 31
0.0
  0
LINE
  8
0
  6
CONTINUOUS
 62
     7
  5
61E
 10
1.980626
 20
7.583947
 30
0.0
 11
1.982263
 21
7.580025
 31
0.0
  0
LINE
  8
0
  6
CONTINUOUS
 62
     7
  5
61F
 10
1.982263
 20
7.580025
 30
0.0
 11
1.98372
 21
7.576047
 31
0.0
  0
LINE
  8
0
  6
CONTINUOUS
 62
     7
  5
620
 10
1.98372
 20
7.576047
 30
0.0
 11
1.984996
 21
7.572022
 31
0.0
  0
LINE
  8
0
  6
CONTINUOUS
 62
     7
  5
621
 10
1.984996
 20
7.572022
 30
0.0
 11
1.986088
 21
7.567954
 31
0.0
  0
LINE
  8
0
  6
CONTINUOUS
 62
     7
  5
622
 10
1.986088
 20
7.567954
 30
0.0
 11
1.986995
 21
7.563851
 31
0.0
  0
LINE
  8
0
  6
CONTINUOUS
 62
     7
  5
623
 10
1.986995
 20
7.563851
 30
0.0
 11
1.987714
 21
7.55972
 31
0.0
  0
LINE
  8
0
  6
CONTINUOUS
 62
     7
  5
624
 10
1.987714
 20
7.55972
 30
0.0
 11
1.988246
 21
7.555566
 31
0.0
  0
LINE
  8
0
  6
CONTINUOUS
 62
     7
  5
625
 10
1.988246
 20
7.555566
 30
0.0
 11
1.988588
 21
7.551397
 31
0.0
  0
LINE
  8
0
  6
CONTINUOUS
 62
     7
  5
626
 10
0.48341
 20
7.792879
 30
0.0
 11
1.884238
 21
7.64953
 31
0.0
  0
LINE
  8
0
  6
CONTINUOUS
 62
     7
  5
627
 10
0.425847
 20
7.795814
 30
0.0
 11
0.427495
 21
7.795812
 31
0.0
  0
LINE
  8
0
  6
CONTINUOUS
 62
     7
  5
628
 10
0.427495
 20
7.795812
 30
0.0
 11
0.429143
 21
7.795805
 31
0.0
  0
LINE
  8
0
  6
CONTINUOUS
 62
     7
  5
629
 10
0.429143
 20
7.795805
 30
0.0
 11
0.430792
 21
7.795793
 31
0.0
  0
LINE
  8
0
  6
CONTINUOUS
 62
     7
  5
62A
 10
0.430792
 20
7.795793
 30
0.0
 11
0.43244
 21
7.795776
 31
0.0
  0
LINE
  8
0
  6
CONTINUOUS
 62
     7
  5
62B
 10
0.43244
 20
7.795776
 30
0.0
 11
0.434088
 21
7.795754
 31
0.0
  0
LINE
  8
0
  6
CONTINUOUS
 62
     7
  5
62C
 10
0.434088
 20
7.795754
 30
0.0
 11
0.435736
 21
7.795728
 31
0.0
  0
LINE
  8
0
  6
CONTINUOUS
 62
     7
  5
62D
 10
0.435736
 20
7.795728
 30
0.0
 11
0.437384
 21
7.795697
 31
0.0
  0
LINE
  8
0
  6
CONTINUOUS
 62
     7
  5
62E
 10
0.437384
 20
7.795697
 30
0.0
 11
0.439032
 21
7.795661
 31
0.0
  0
LINE
  8
0
  6
CONTINUOUS
 62
     7
  5
62F
 10
0.439032
 20
7.795661
 30
0.0
 11
0.440679
 21
7.79562
 31
0.0
  0
LINE
  8
0
  6
CONTINUOUS
 62
     7
  5
630
 10
0.440679
 20
7.79562
 30
0.0
 11
0.442327
 21
7.795574
 31
0.0
  0
LINE
  8
0
  6
CONTINUOUS
 62
     7
  5
631
 10
0.442327
 20
7.795574
 30
0.0
 11
0.443974
 21
7.795524
 31
0.0
  0
LINE
  8
0
  6
CONTINUOUS
 62
     7
  5
632
 10
0.443974
 20
7.795524
 30
0.0
 11
0.445621
 21
7.795469
 31
0.0
  0
LINE
  8
0
  6
CONTINUOUS
 62
     7
  5
633
 10
0.445621
 20
7.795469
 30
0.0
 11
0.447268
 21
7.795409
 31
0.0
  0
LINE
  8
0
  6
CONTINUOUS
 62
     7
  5
634
 10
0.447268
 20
7.795409
 30
0.0
 11
0.448915
 21
7.795344
 31
0.0
  0
LINE
  8
0
  6
CONTINUOUS
 62
     7
  5
635
 10
0.448915
 20
7.795344
 30
0.0
 11
0.450561
 21
7.795275
 31
0.0
  0
LINE
  8
0
  6
CONTINUOUS
 62
     7
  5
636
 10
0.450561
 20
7.795275
 30
0.0
 11
0.452208
 21
7.7952
 31
0.0
  0
LINE
  8
0
  6
CONTINUOUS
 62
     7
  5
637
 10
0.452208
 20
7.7952
 30
0.0
 11
0.453854
 21
7.795121
 31
0.0
  0
LINE
  8
0
  6
CONTINUOUS
 62
     7
  5
638
 10
0.453854
 20
7.795121
 30
0.0
 11
0.455499
 21
7.795037
 31
0.0
  0
LINE
  8
0
  6
CONTINUOUS
 62
     7
  5
639
 10
0.455499
 20
7.795037
 30
0.0
 11
0.457144
 21
7.794949
 31
0.0
  0
LINE
  8
0
  6
CONTINUOUS
 62
     7
  5
63A
 10
0.457144
 20
7.794949
 30
0.0
 11
0.458789
 21
7.794855
 31
0.0
  0
LINE
  8
0
  6
CONTINUOUS
 62
     7
  5
63B
 10
0.458789
 20
7.794855
 30
0.0
 11
0.460434
 21
7.794757
 31
0.0
  0
LINE
  8
0
  6
CONTINUOUS
 62
     7
  5
63C
 10
0.460434
 20
7.794757
 30
0.0
 11
0.462078
 21
7.794654
 31
0.0
  0
LINE
  8
0
  6
CONTINUOUS
 62
     7
  5
63D
 10
0.462078
 20
7.794654
 30
0.0
 11
0.463722
 21
7.794546
 31
0.0
  0
LINE
  8
0
  6
CONTINUOUS
 62
     7
  5
63E
 10
0.463722
 20
7.794546
 30
0.0
 11
0.465365
 21
7.794433
 31
0.0
  0
LINE
  8
0
  6
CONTINUOUS
 62
     7
  5
63F
 10
0.465365
 20
7.794433
 30
0.0
 11
0.467008
 21
7.794316
 31
0.0
  0
LINE
  8
0
  6
CONTINUOUS
 62
     7
  5
640
 10
0.467008
 20
7.794316
 30
0.0
 11
0.468651
 21
7.794194
 31
0.0
  0
LINE
  8
0
  6
CONTINUOUS
 62
     7
  5
641
 10
0.468651
 20
7.794194
 30
0.0
 11
0.470293
 21
7.794067
 31
0.0
  0
LINE
  8
0
  6
CONTINUOUS
 62
     7
  5
642
 10
0.470293
 20
7.794067
 30
0.0
 11
0.471934
 21
7.793935
 31
0.0
  0
LINE
  8
0
  6
CONTINUOUS
 62
     7
  5
643
 10
0.471934
 20
7.793935
 30
0.0
 11
0.473575
 21
7.793798
 31
0.0
  0
LINE
  8
0
  6
CONTINUOUS
 62
     7
  5
644
 10
0.473575
 20
7.793798
 30
0.0
 11
0.475216
 21
7.793657
 31
0.0
  0
LINE
  8
0
  6
CONTINUOUS
 62
     7
  5
645
 10
0.475216
 20
7.793657
 30
0.0
 11
0.476856
 21
7.793511
 31
0.0
  0
LINE
  8
0
  6
CONTINUOUS
 62
     7
  5
646
 10
0.476856
 20
7.793511
 30
0.0
 11
0.478495
 21
7.79336
 31
0.0
  0
LINE
  8
0
  6
CONTINUOUS
 62
     7
  5
647
 10
0.478495
 20
7.79336
 30
0.0
 11
0.480134
 21
7.793204
 31
0.0
  0
LINE
  8
0
  6
CONTINUOUS
 62
     7
  5
648
 10
0.480134
 20
7.793204
 30
0.0
 11
0.481772
 21
7.793044
 31
0.0
  0
LINE
  8
0
  6
CONTINUOUS
 62
     7
  5
649
 10
0.481772
 20
7.793044
 30
0.0
 11
0.48341
 21
7.792879
 31
0.0
  0
LINE
  8
0
  6
CONTINUOUS
 62
     7
  5
64A
 10
0.393701
 20
7.795814
 30
0.0
 11
0.425847
 21
7.795814
 31
0.0
  0
LINE
  8
0
  6
CONTINUOUS
 62
     7
  5
64B
 10
-0.492126
 20
7.50034
 30
0.0
 11
-0.492043
 21
7.508328
 31
0.0
  0
LINE
  8
0
  6
CONTINUOUS
 62
     7
  5
64C
 10
-0.492043
 20
7.508328
 30
0.0
 11
-0.491793
 21
7.516314
 31
0.0
  0
LINE
  8
0
  6
CONTINUOUS
 62
     7
  5
64D
 10
-0.491793
 20
7.516314
 30
0.0
 11
-0.491378
 21
7.524295
 31
0.0
  0
LINE
  8
0
  6
CONTINUOUS
 62
     7
  5
64E
 10
-0.491378
 20
7.524295
 30
0.0
 11
-0.490796
 21
7.532267
 31
0.0
  0
LINE
  8
0
  6
CONTINUOUS
 62
     7
  5
64F
 10
-0.490796
 20
7.532267
 30
0.0
 11
-0.490048
 21
7.540228
 31
0.0
  0
LINE
  8
0
  6
CONTINUOUS
 62
     7
  5
650
 10
-0.490048
 20
7.540228
 30
0.0
 11
-0.489135
 21
7.548177
 31
0.0
  0
LINE
  8
0
  6
CONTINUOUS
 62
     7
  5
651
 10
-0.489135
 20
7.548177
 30
0.0
 11
-0.488056
 21
7.556108
 31
0.0
  0
LINE
  8
0
  6
CONTINUOUS
 62
     7
  5
652
 10
-0.488056
 20
7.556108
 30
0.0
 11
-0.486812
 21
7.564022
 31
0.0
  0
LINE
  8
0
  6
CONTINUOUS
 62
     7
  5
653
 10
-0.486812
 20
7.564022
 30
0.0
 11
-0.485404
 21
7.571913
 31
0.0
  0
LINE
  8
0
  6
CONTINUOUS
 62
     7
  5
654
 10
-0.485404
 20
7.571913
 30
0.0
 11
-0.483832
 21
7.57978
 31
0.0
  0
LINE
  8
0
  6
CONTINUOUS
 62
     7
  5
655
 10
-0.483832
 20
7.57978
 30
0.0
 11
-0.482096
 21
7.587621
 31
0.0
  0
LINE
  8
0
  6
CONTINUOUS
 62
     7
  5
656
 10
-0.482096
 20
7.587621
 30
0.0
 11
-0.480197
 21
7.595432
 31
0.0
  0
LINE
  8
0
  6
CONTINUOUS
 62
     7
  5
657
 10
-0.480197
 20
7.595432
 30
0.0
 11
-0.478136
 21
7.603211
 31
0.0
  0
LINE
  8
0
  6
CONTINUOUS
 62
     7
  5
658
 10
-0.478136
 20
7.603211
 30
0.0
 11
-0.475913
 21
7.610955
 31
0.0
  0
LINE
  8
0
  6
CONTINUOUS
 62
     7
  5
659
 10
-0.475913
 20
7.610955
 30
0.0
 11
-0.473529
 21
7.618661
 31
0.0
  0
LINE
  8
0
  6
CONTINUOUS
 62
     7
  5
65A
 10
-0.473529
 20
7.618661
 30
0.0
 11
-0.470986
 21
7.626328
 31
0.0
  0
LINE
  8
0
  6
CONTINUOUS
 62
     7
  5
65B
 10
-0.470986
 20
7.626328
 30
0.0
 11
-0.468283
 21
7.633952
 31
0.0
  0
LINE
  8
0
  6
CONTINUOUS
 62
     7
  5
65C
 10
-0.468283
 20
7.633952
 30
0.0
 11
-0.465421
 21
7.641531
 31
0.0
  0
LINE
  8
0
  6
CONTINUOUS
 62
     7
  5
65D
 10
-0.465421
 20
7.641531
 30
0.0
 11
-0.462403
 21
7.649062
 31
0.0
  0
LINE
  8
0
  6
CONTINUOUS
 62
     7
  5
65E
 10
-0.462403
 20
7.649062
 30
0.0
 11
-0.459228
 21
7.656543
 31
0.0
  0
LINE
  8
0
  6
CONTINUOUS
 62
     7
  5
65F
 10
-0.459228
 20
7.656543
 30
0.0
 11
-0.455898
 21
7.663971
 31
0.0
  0
LINE
  8
0
  6
CONTINUOUS
 62
     7
  5
660
 10
-0.455898
 20
7.663971
 30
0.0
 11
-0.452414
 21
7.671344
 31
0.0
  0
LINE
  8
0
  6
CONTINUOUS
 62
     7
  5
661
 10
-0.452414
 20
7.671344
 30
0.0
 11
-0.448777
 21
7.678659
 31
0.0
  0
LINE
  8
0
  6
CONTINUOUS
 62
     7
  5
662
 10
-0.448777
 20
7.678659
 30
0.0
 11
-0.444988
 21
7.685914
 31
0.0
  0
LINE
  8
0
  6
CONTINUOUS
 62
     7
  5
663
 10
-0.444988
 20
7.685914
 30
0.0
 11
-0.441049
 21
7.693106
 31
0.0
  0
LINE
  8
0
  6
CONTINUOUS
 62
     7
  5
664
 10
-0.441049
 20
7.693106
 30
0.0
 11
-0.43696
 21
7.700233
 31
0.0
  0
LINE
  8
0
  6
CONTINUOUS
 62
     7
  5
665
 10
-0.43696
 20
7.700233
 30
0.0
 11
-0.432724
 21
7.707292
 31
0.0
  0
LINE
  8
0
  6
CONTINUOUS
 62
     7
  5
666
 10
-0.432724
 20
7.707292
 30
0.0
 11
-0.428342
 21
7.714281
 31
0.0
  0
LINE
  8
0
  6
CONTINUOUS
 62
     7
  5
667
 10
-0.428342
 20
7.714281
 30
0.0
 11
-0.423815
 21
7.721198
 31
0.0
  0
LINE
  8
0
  6
CONTINUOUS
 62
     7
  5
668
 10
-0.423815
 20
7.721198
 30
0.0
 11
-0.419144
 21
7.728041
 31
0.0
  0
LINE
  8
0
  6
CONTINUOUS
 62
     7
  5
669
 10
-0.419144
 20
7.728041
 30
0.0
 11
-0.414332
 21
7.734806
 31
0.0
  0
LINE
  8
0
  6
CONTINUOUS
 62
     7
  5
66A
 10
-0.414332
 20
7.734806
 30
0.0
 11
-0.40938
 21
7.741492
 31
0.0
  0
LINE
  8
0
  6
CONTINUOUS
 62
     7
  5
66B
 10
-0.40938
 20
7.741492
 30
0.0
 11
-0.40429
 21
7.748097
 31
0.0
  0
LINE
  8
0
  6
CONTINUOUS
 62
     7
  5
66C
 10
-0.40429
 20
7.748097
 30
0.0
 11
-0.399063
 21
7.754618
 31
0.0
  0
LINE
  8
0
  6
CONTINUOUS
 62
     7
  5
66D
 10
-0.399063
 20
7.754618
 30
0.0
 11
-0.393701
 21
7.761053
 31
0.0
  0
LINE
  8
0
  6
CONTINUOUS
 62
     7
  5
66E
 10
0.393701
 20
7.761053
 30
0.0
 11
0.399063
 21
7.754618
 31
0.0
  0
LINE
  8
0
  6
CONTINUOUS
 62
     7
  5
66F
 10
0.399063
 20
7.754618
 30
0.0
 11
0.40429
 21
7.748097
 31
0.0
  0
LINE
  8
0
  6
CONTINUOUS
 62
     7
  5
670
 10
0.40429
 20
7.748097
 30
0.0
 11
0.40938
 21
7.741492
 31
0.0
  0
LINE
  8
0
  6
CONTINUOUS
 62
     7
  5
671
 10
0.40938
 20
7.741492
 30
0.0
 11
0.414332
 21
7.734806
 31
0.0
  0
LINE
  8
0
  6
CONTINUOUS
 62
     7
  5
672
 10
0.414332
 20
7.734806
 30
0.0
 11
0.419144
 21
7.728041
 31
0.0
  0
LINE
  8
0
  6
CONTINUOUS
 62
     7
  5
673
 10
0.419144
 20
7.728041
 30
0.0
 11
0.423815
 21
7.721198
 31
0.0
  0
LINE
  8
0
  6
CONTINUOUS
 62
     7
  5
674
 10
0.423815
 20
7.721198
 30
0.0
 11
0.428342
 21
7.714281
 31
0.0
  0
LINE
  8
0
  6
CONTINUOUS
 62
     7
  5
675
 10
0.428342
 20
7.714281
 30
0.0
 11
0.432724
 21
7.707292
 31
0.0
  0
LINE
  8
0
  6
CONTINUOUS
 62
     7
  5
676
 10
0.432724
 20
7.707292
 30
0.0
 11
0.43696
 21
7.700233
 31
0.0
  0
LINE
  8
0
  6
CONTINUOUS
 62
     7
  5
677
 10
0.43696
 20
7.700233
 30
0.0
 11
0.441049
 21
7.693106
 31
0.0
  0
LINE
  8
0
  6
CONTINUOUS
 62
     7
  5
678
 10
0.441049
 20
7.693106
 30
0.0
 11
0.444988
 21
7.685914
 31
0.0
  0
LINE
  8
0
  6
CONTINUOUS
 62
     7
  5
679
 10
0.444988
 20
7.685914
 30
0.0
 11
0.448777
 21
7.678659
 31
0.0
  0
LINE
  8
0
  6
CONTINUOUS
 62
     7
  5
67A
 10
0.448777
 20
7.678659
 30
0.0
 11
0.452414
 21
7.671344
 31
0.0
  0
LINE
  8
0
  6
CONTINUOUS
 62
     7
  5
67B
 10
0.452414
 20
7.671344
 30
0.0
 11
0.455898
 21
7.663971
 31
0.0
  0
LINE
  8
0
  6
CONTINUOUS
 62
     7
  5
67C
 10
0.455898
 20
7.663971
 30
0.0
 11
0.459228
 21
7.656543
 31
0.0
  0
LINE
  8
0
  6
CONTINUOUS
 62
     7
  5
67D
 10
0.459228
 20
7.656543
 30
0.0
 11
0.462403
 21
7.649062
 31
0.0
  0
LINE
  8
0
  6
CONTINUOUS
 62
     7
  5
67E
 10
0.462403
 20
7.649062
 30
0.0
 11
0.465421
 21
7.641531
 31
0.0
  0
LINE
  8
0
  6
CONTINUOUS
 62
     7
  5
67F
 10
0.465421
 20
7.641531
 30
0.0
 11
0.468283
 21
7.633952
 31
0.0
  0
LINE
  8
0
  6
CONTINUOUS
 62
     7
  5
680
 10
0.468283
 20
7.633952
 30
0.0
 11
0.470986
 21
7.626328
 31
0.0
  0
LINE
  8
0
  6
CONTINUOUS
 62
     7
  5
681
 10
0.470986
 20
7.626328
 30
0.0
 11
0.473529
 21
7.618661
 31
0.0
  0
LINE
  8
0
  6
CONTINUOUS
 62
     7
  5
682
 10
0.473529
 20
7.618661
 30
0.0
 11
0.475913
 21
7.610955
 31
0.0
  0
LINE
  8
0
  6
CONTINUOUS
 62
     7
  5
683
 10
0.475913
 20
7.610955
 30
0.0
 11
0.478136
 21
7.603211
 31
0.0
  0
LINE
  8
0
  6
CONTINUOUS
 62
     7
  5
684
 10
0.478136
 20
7.603211
 30
0.0
 11
0.480197
 21
7.595432
 31
0.0
  0
LINE
  8
0
  6
CONTINUOUS
 62
     7
  5
685
 10
0.480197
 20
7.595432
 30
0.0
 11
0.482096
 21
7.587621
 31
0.0
  0
LINE
  8
0
  6
CONTINUOUS
 62
     7
  5
686
 10
0.482096
 20
7.587621
 30
0.0
 11
0.483832
 21
7.57978
 31
0.0
  0
LINE
  8
0
  6
CONTINUOUS
 62
     7
  5
687
 10
0.483832
 20
7.57978
 30
0.0
 11
0.485404
 21
7.571913
 31
0.0
  0
LINE
  8
0
  6
CONTINUOUS
 62
     7
  5
688
 10
0.485404
 20
7.571913
 30
0.0
 11
0.486812
 21
7.564022
 31
0.0
  0
LINE
  8
0
  6
CONTINUOUS
 62
     7
  5
689
 10
0.486812
 20
7.564022
 30
0.0
 11
0.488056
 21
7.556108
 31
0.0
  0
LINE
  8
0
  6
CONTINUOUS
 62
     7
  5
68A
 10
0.488056
 20
7.556108
 30
0.0
 11
0.489135
 21
7.548177
 31
0.0
  0
LINE
  8
0
  6
CONTINUOUS
 62
     7
  5
68B
 10
0.489135
 20
7.548177
 30
0.0
 11
0.490048
 21
7.540228
 31
0.0
  0
LINE
  8
0
  6
CONTINUOUS
 62
     7
  5
68C
 10
0.490048
 20
7.540228
 30
0.0
 11
0.490796
 21
7.532267
 31
0.0
  0
LINE
  8
0
  6
CONTINUOUS
 62
     7
  5
68D
 10
0.490796
 20
7.532267
 30
0.0
 11
0.491378
 21
7.524295
 31
0.0
  0
LINE
  8
0
  6
CONTINUOUS
 62
     7
  5
68E
 10
0.491378
 20
7.524295
 30
0.0
 11
0.491793
 21
7.516314
 31
0.0
  0
LINE
  8
0
  6
CONTINUOUS
 62
     7
  5
68F
 10
0.491793
 20
7.516314
 30
0.0
 11
0.492043
 21
7.508328
 31
0.0
  0
LINE
  8
0
  6
CONTINUOUS
 62
     7
  5
690
 10
0.492043
 20
7.508328
 30
0.0
 11
0.492126
 21
7.50034
 31
0.0
  0
LINE
  8
0
  6
CONTINUOUS
 62
     7
  5
691
 10
-0.425847
 20
7.795814
 30
0.0
 11
-0.393701
 21
7.795814
 31
0.0
  0
LINE
  8
0
  6
CONTINUOUS
 62
     7
  5
692
 10
-0.48341
 20
7.792879
 30
0.0
 11
-0.481772
 21
7.793044
 31
0.0
  0
LINE
  8
0
  6
CONTINUOUS
 62
     7
  5
693
 10
-0.481772
 20
7.793044
 30
0.0
 11
-0.480134
 21
7.793204
 31
0.0
  0
LINE
  8
0
  6
CONTINUOUS
 62
     7
  5
694
 10
-0.480134
 20
7.793204
 30
0.0
 11
-0.478495
 21
7.79336
 31
0.0
  0
LINE
  8
0
  6
CONTINUOUS
 62
     7
  5
695
 10
-0.478495
 20
7.79336
 30
0.0
 11
-0.476856
 21
7.793511
 31
0.0
  0
LINE
  8
0
  6
CONTINUOUS
 62
     7
  5
696
 10
-0.476856
 20
7.793511
 30
0.0
 11
-0.475216
 21
7.793657
 31
0.0
  0
LINE
  8
0
  6
CONTINUOUS
 62
     7
  5
697
 10
-0.475216
 20
7.793657
 30
0.0
 11
-0.473575
 21
7.793798
 31
0.0
  0
LINE
  8
0
  6
CONTINUOUS
 62
     7
  5
698
 10
-0.473575
 20
7.793798
 30
0.0
 11
-0.471934
 21
7.793935
 31
0.0
  0
LINE
  8
0
  6
CONTINUOUS
 62
     7
  5
699
 10
-0.471934
 20
7.793935
 30
0.0
 11
-0.470293
 21
7.794067
 31
0.0
  0
LINE
  8
0
  6
CONTINUOUS
 62
     7
  5
69A
 10
-0.470293
 20
7.794067
 30
0.0
 11
-0.468651
 21
7.794194
 31
0.0
  0
LINE
  8
0
  6
CONTINUOUS
 62
     7
  5
69B
 10
-0.468651
 20
7.794194
 30
0.0
 11
-0.467008
 21
7.794316
 31
0.0
  0
LINE
  8
0
  6
CONTINUOUS
 62
     7
  5
69C
 10
-0.467008
 20
7.794316
 30
0.0
 11
-0.465365
 21
7.794433
 31
0.0
  0
LINE
  8
0
  6
CONTINUOUS
 62
     7
  5
69D
 10
-0.465365
 20
7.794433
 30
0.0
 11
-0.463722
 21
7.794546
 31
0.0
  0
LINE
  8
0
  6
CONTINUOUS
 62
     7
  5
69E
 10
-0.463722
 20
7.794546
 30
0.0
 11
-0.462078
 21
7.794654
 31
0.0
  0
LINE
  8
0
  6
CONTINUOUS
 62
     7
  5
69F
 10
-0.462078
 20
7.794654
 30
0.0
 11
-0.460434
 21
7.794757
 31
0.0
  0
LINE
  8
0
  6
CONTINUOUS
 62
     7
  5
6A0
 10
-0.460434
 20
7.794757
 30
0.0
 11
-0.458789
 21
7.794855
 31
0.0
  0
LINE
  8
0
  6
CONTINUOUS
 62
     7
  5
6A1
 10
-0.458789
 20
7.794855
 30
0.0
 11
-0.457144
 21
7.794949
 31
0.0
  0
LINE
  8
0
  6
CONTINUOUS
 62
     7
  5
6A2
 10
-0.457144
 20
7.794949
 30
0.0
 11
-0.455499
 21
7.795037
 31
0.0
  0
LINE
  8
0
  6
CONTINUOUS
 62
     7
  5
6A3
 10
-0.455499
 20
7.795037
 30
0.0
 11
-0.453854
 21
7.795121
 31
0.0
  0
LINE
  8
0
  6
CONTINUOUS
 62
     7
  5
6A4
 10
-0.453854
 20
7.795121
 30
0.0
 11
-0.452208
 21
7.7952
 31
0.0
  0
LINE
  8
0
  6
CONTINUOUS
 62
     7
  5
6A5
 10
-0.452208
 20
7.7952
 30
0.0
 11
-0.450561
 21
7.795275
 31
0.0
  0
LINE
  8
0
  6
CONTINUOUS
 62
     7
  5
6A6
 10
-0.450561
 20
7.795275
 30
0.0
 11
-0.448915
 21
7.795344
 31
0.0
  0
LINE
  8
0
  6
CONTINUOUS
 62
     7
  5
6A7
 10
-0.448915
 20
7.795344
 30
0.0
 11
-0.447268
 21
7.795409
 31
0.0
  0
LINE
  8
0
  6
CONTINUOUS
 62
     7
  5
6A8
 10
-0.447268
 20
7.795409
 30
0.0
 11
-0.445621
 21
7.795469
 31
0.0
  0
LINE
  8
0
  6
CONTINUOUS
 62
     7
  5
6A9
 10
-0.445621
 20
7.795469
 30
0.0
 11
-0.443974
 21
7.795524
 31
0.0
  0
LINE
  8
0
  6
CONTINUOUS
 62
     7
  5
6AA
 10
-0.443974
 20
7.795524
 30
0.0
 11
-0.442327
 21
7.795574
 31
0.0
  0
LINE
  8
0
  6
CONTINUOUS
 62
     7
  5
6AB
 10
-0.442327
 20
7.795574
 30
0.0
 11
-0.440679
 21
7.79562
 31
0.0
  0
LINE
  8
0
  6
CONTINUOUS
 62
     7
  5
6AC
 10
-0.440679
 20
7.79562
 30
0.0
 11
-0.439032
 21
7.795661
 31
0.0
  0
LINE
  8
0
  6
CONTINUOUS
 62
     7
  5
6AD
 10
-0.439032
 20
7.795661
 30
0.0
 11
-0.437384
 21
7.795697
 31
0.0
  0
LINE
  8
0
  6
CONTINUOUS
 62
     7
  5
6AE
 10
-0.437384
 20
7.795697
 30
0.0
 11
-0.435736
 21
7.795728
 31
0.0
  0
LINE
  8
0
  6
CONTINUOUS
 62
     7
  5
6AF
 10
-0.435736
 20
7.795728
 30
0.0
 11
-0.434088
 21
7.795754
 31
0.0
  0
LINE
  8
0
  6
CONTINUOUS
 62
     7
  5
6B0
 10
-0.434088
 20
7.795754
 30
0.0
 11
-0.43244
 21
7.795776
 31
0.0
  0
LINE
  8
0
  6
CONTINUOUS
 62
     7
  5
6B1
 10
-0.43244
 20
7.795776
 30
0.0
 11
-0.430792
 21
7.795793
 31
0.0
  0
LINE
  8
0
  6
CONTINUOUS
 62
     7
  5
6B2
 10
-0.430792
 20
7.795793
 30
0.0
 11
-0.429143
 21
7.795805
 31
0.0
  0
LINE
  8
0
  6
CONTINUOUS
 62
     7
  5
6B3
 10
-0.429143
 20
7.795805
 30
0.0
 11
-0.427495
 21
7.795812
 31
0.0
  0
LINE
  8
0
  6
CONTINUOUS
 62
     7
  5
6B4
 10
-0.427495
 20
7.795812
 30
0.0
 11
-0.425847
 21
7.795814
 31
0.0
  0
LINE
  8
0
  6
CONTINUOUS
 62
     7
  5
6B5
 10
-1.884238
 20
7.64953
 30
0.0
 11
-0.48341
 21
7.792879
 31
0.0
  0
LINE
  8
0
  6
CONTINUOUS
 62
     7
  5
6B6
 10
-1.988588
 20
7.551397
 30
0.0
 11
-1.988246
 21
7.555566
 31
0.0
  0
LINE
  8
0
  6
CONTINUOUS
 62
     7
  5
6B7
 10
-1.988246
 20
7.555566
 30
0.0
 11
-1.987714
 21
7.55972
 31
0.0
  0
LINE
  8
0
  6
CONTINUOUS
 62
     7
  5
6B8
 10
-1.987714
 20
7.55972
 30
0.0
 11
-1.986995
 21
7.563851
 31
0.0
  0
LINE
  8
0
  6
CONTINUOUS
 62
     7
  5
6B9
 10
-1.986995
 20
7.563851
 30
0.0
 11
-1.986088
 21
7.567954
 31
0.0
  0
LINE
  8
0
  6
CONTINUOUS
 62
     7
  5
6BA
 10
-1.986088
 20
7.567954
 30
0.0
 11
-1.984996
 21
7.572022
 31
0.0
  0
LINE
  8
0
  6
CONTINUOUS
 62
     7
  5
6BB
 10
-1.984996
 20
7.572022
 30
0.0
 11
-1.98372
 21
7.576047
 31
0.0
  0
LINE
  8
0
  6
CONTINUOUS
 62
     7
  5
6BC
 10
-1.98372
 20
7.576047
 30
0.0
 11
-1.982263
 21
7.580025
 31
0.0
  0
LINE
  8
0
  6
CONTINUOUS
 62
     7
  5
6BD
 10
-1.982263
 20
7.580025
 30
0.0
 11
-1.980626
 21
7.583947
 31
0.0
  0
LINE
  8
0
  6
CONTINUOUS
 62
     7
  5
6BE
 10
-1.980626
 20
7.583947
 30
0.0
 11
-1.978813
 21
7.587808
 31
0.0
  0
LINE
  8
0
  6
CONTINUOUS
 62
     7
  5
6BF
 10
-1.978813
 20
7.587808
 30
0.0
 11
-1.976825
 21
7.591602
 31
0.0
  0
LINE
  8
0
  6
CONTINUOUS
 62
     7
  5
6C0
 10
-1.976825
 20
7.591602
 30
0.0
 11
-1.974667
 21
7.595323
 31
0.0
  0
LINE
  8
0
  6
CONTINUOUS
 62
     7
  5
6C1
 10
-1.974667
 20
7.595323
 30
0.0
 11
-1.972342
 21
7.598965
 31
0.0
  0
LINE
  8
0
  6
CONTINUOUS
 62
     7
  5
6C2
 10
-1.972342
 20
7.598965
 30
0.0
 11
-1.969854
 21
7.602521
 31
0.0
  0
LINE
  8
0
  6
CONTINUOUS
 62
     7
  5
6C3
 10
-1.969854
 20
7.602521
 30
0.0
 11
-1.967206
 21
7.605986
 31
0.0
  0
LINE
  8
0
  6
CONTINUOUS
 62
     7
  5
6C4
 10
-1.967206
 20
7.605986
 30
0.0
 11
-1.964403
 21
7.609355
 31
0.0
  0
LINE
  8
0
  6
CONTINUOUS
 62
     7
  5
6C5
 10
-1.964403
 20
7.609355
 30
0.0
 11
-1.961449
 21
7.612622
 31
0.0
  0
LINE
  8
0
  6
CONTINUOUS
 62
     7
  5
6C6
 10
-1.961449
 20
7.612622
 30
0.0
 11
-1.958349
 21
7.615781
 31
0.0
  0
LINE
  8
0
  6
CONTINUOUS
 62
     7
  5
6C7
 10
-1.958349
 20
7.615781
 30
0.0
 11
-1.955109
 21
7.618829
 31
0.0
  0
LINE
  8
0
  6
CONTINUOUS
 62
     7
  5
6C8
 10
-1.955109
 20
7.618829
 30
0.0
 11
-1.951732
 21
7.621759
 31
0.0
  0
LINE
  8
0
  6
CONTINUOUS
 62
     7
  5
6C9
 10
-1.951732
 20
7.621759
 30
0.0
 11
-1.948226
 21
7.624568
 31
0.0
  0
LINE
  8
0
  6
CONTINUOUS
 62
     7
  5
6CA
 10
-1.948226
 20
7.624568
 30
0.0
 11
-1.944594
 21
7.62725
 31
0.0
  0
LINE
  8
0
  6
CONTINUOUS
 62
     7
  5
6CB
 10
-1.944594
 20
7.62725
 30
0.0
 11
-1.940844
 21
7.629802
 31
0.0
  0
LINE
  8
0
  6
CONTINUOUS
 62
     7
  5
6CC
 10
-1.940844
 20
7.629802
 30
0.0
 11
-1.936981
 21
7.632219
 31
0.0
  0
LINE
  8
0
  6
CONTINUOUS
 62
     7
  5
6CD
 10
-1.936981
 20
7.632219
 30
0.0
 11
-1.933012
 21
7.634497
 31
0.0
  0
LINE
  8
0
  6
CONTINUOUS
 62
     7
  5
6CE
 10
-1.933012
 20
7.634497
 30
0.0
 11
-1.928942
 21
7.636633
 31
0.0
  0
LINE
  8
0
  6
CONTINUOUS
 62
     7
  5
6CF
 10
-1.928942
 20
7.636633
 30
0.0
 11
-1.924779
 21
7.638623
 31
0.0
  0
LINE
  8
0
  6
CONTINUOUS
 62
     7
  5
6D0
 10
-1.924779
 20
7.638623
 30
0.0
 11
-1.920528
 21
7.640464
 31
0.0
  0
LINE
  8
0
  6
CONTINUOUS
 62
     7
  5
6D1
 10
-1.920528
 20
7.640464
 30
0.0
 11
-1.916198
 21
7.642154
 31
0.0
  0
LINE
  8
0
  6
CONTINUOUS
 62
     7
  5
6D2
 10
-1.916198
 20
7.642154
 30
0.0
 11
-1.911794
 21
7.643688
 31
0.0
  0
LINE
  8
0
  6
CONTINUOUS
 62
     7
  5
6D3
 10
-1.911794
 20
7.643688
 30
0.0
 11
-1.907324
 21
7.645066
 31
0.0
  0
LINE
  8
0
  6
CONTINUOUS
 62
     7
  5
6D4
 10
-1.907324
 20
7.645066
 30
0.0
 11
-1.902795
 21
7.646285
 31
0.0
  0
LINE
  8
0
  6
CONTINUOUS
 62
     7
  5
6D5
 10
-1.902795
 20
7.646285
 30
0.0
 11
-1.898215
 21
7.647342
 31
0.0
  0
LINE
  8
0
  6
CONTINUOUS
 62
     7
  5
6D6
 10
-1.898215
 20
7.647342
 30
0.0
 11
-1.89359
 21
7.648236
 31
0.0
  0
LINE
  8
0
  6
CONTINUOUS
 62
     7
  5
6D7
 10
-1.89359
 20
7.648236
 30
0.0
 11
-1.888929
 21
7.648966
 31
0.0
  0
LINE
  8
0
  6
CONTINUOUS
 62
     7
  5
6D8
 10
-1.888929
 20
7.648966
 30
0.0
 11
-1.884238
 21
7.64953
 31
0.0
  0
LINE
  8
0
  6
CONTINUOUS
 62
     7
  5
6D9
 10
-2.031365
 20
6.830709
 30
0.0
 11
-1.988588
 21
7.551397
 31
0.0
  0
LINE
  8
0
  6
CONTINUOUS
 62
     7
  5
6DA
 10
2.052209
 20
6.830709
 30
0.0
 11
1.988588
 21
7.902576
 31
0.0
  0
LINE
  8
0
  6
CONTINUOUS
 62
     7
  5
6DB
 10
-1.988588
 20
7.902576
 30
0.0
 11
-2.052209
 21
6.830709
 31
0.0
  0
LINE
  8
0
  6
CONTINUOUS
 62
     7
  5
6DC
 10
-1.884238
 20
8.00071
 30
0.0
 11
-1.888929
 21
8.000146
 31
0.0
  0
LINE
  8
0
  6
CONTINUOUS
 62
     7
  5
6DD
 10
-1.888929
 20
8.000146
 30
0.0
 11
-1.89359
 21
7.999416
 31
0.0
  0
LINE
  8
0
  6
CONTINUOUS
 62
     7
  5
6DE
 10
-1.89359
 20
7.999416
 30
0.0
 11
-1.898215
 21
7.998521
 31
0.0
  0
LINE
  8
0
  6
CONTINUOUS
 62
     7
  5
6DF
 10
-1.898215
 20
7.998521
 30
0.0
 11
-1.902795
 21
7.997464
 31
0.0
  0
LINE
  8
0
  6
CONTINUOUS
 62
     7
  5
6E0
 10
-1.902795
 20
7.997464
 30
0.0
 11
-1.907324
 21
7.996246
 31
0.0
  0
LINE
  8
0
  6
CONTINUOUS
 62
     7
  5
6E1
 10
-1.907324
 20
7.996246
 30
0.0
 11
-1.911794
 21
7.994868
 31
0.0
  0
LINE
  8
0
  6
CONTINUOUS
 62
     7
  5
6E2
 10
-1.911794
 20
7.994868
 30
0.0
 11
-1.916198
 21
7.993333
 31
0.0
  0
LINE
  8
0
  6
CONTINUOUS
 62
     7
  5
6E3
 10
-1.916198
 20
7.993333
 30
0.0
 11
-1.920528
 21
7.991644
 31
0.0
  0
LINE
  8
0
  6
CONTINUOUS
 62
     7
  5
6E4
 10
-1.920528
 20
7.991644
 30
0.0
 11
-1.924779
 21
7.989803
 31
0.0
  0
LINE
  8
0
  6
CONTINUOUS
 62
     7
  5
6E5
 10
-1.924779
 20
7.989803
 30
0.0
 11
-1.928942
 21
7.987812
 31
0.0
  0
LINE
  8
0
  6
CONTINUOUS
 62
     7
  5
6E6
 10
-1.928942
 20
7.987812
 30
0.0
 11
-1.933012
 21
7.985676
 31
0.0
  0
LINE
  8
0
  6
CONTINUOUS
 62
     7
  5
6E7
 10
-1.933012
 20
7.985676
 30
0.0
 11
-1.936981
 21
7.983398
 31
0.0
  0
LINE
  8
0
  6
CONTINUOUS
 62
     7
  5
6E8
 10
-1.936981
 20
7.983398
 30
0.0
 11
-1.940844
 21
7.980981
 31
0.0
  0
LINE
  8
0
  6
CONTINUOUS
 62
     7
  5
6E9
 10
-1.940844
 20
7.980981
 30
0.0
 11
-1.944594
 21
7.97843
 31
0.0
  0
LINE
  8
0
  6
CONTINUOUS
 62
     7
  5
6EA
 10
-1.944594
 20
7.97843
 30
0.0
 11
-1.948226
 21
7.975748
 31
0.0
  0
LINE
  8
0
  6
CONTINUOUS
 62
     7
  5
6EB
 10
-1.948226
 20
7.975748
 30
0.0
 11
-1.951732
 21
7.972939
 31
0.0
  0
LINE
  8
0
  6
CONTINUOUS
 62
     7
  5
6EC
 10
-1.951732
 20
7.972939
 30
0.0
 11
-1.955109
 21
7.970009
 31
0.0
  0
LINE
  8
0
  6
CONTINUOUS
 62
     7
  5
6ED
 10
-1.955109
 20
7.970009
 30
0.0
 11
-1.958349
 21
7.966961
 31
0.0
  0
LINE
  8
0
  6
CONTINUOUS
 62
     7
  5
6EE
 10
-1.958349
 20
7.966961
 30
0.0
 11
-1.961449
 21
7.963801
 31
0.0
  0
LINE
  8
0
  6
CONTINUOUS
 62
     7
  5
6EF
 10
-1.961449
 20
7.963801
 30
0.0
 11
-1.964403
 21
7.960534
 31
0.0
  0
LINE
  8
0
  6
CONTINUOUS
 62
     7
  5
6F0
 10
-1.964403
 20
7.960534
 30
0.0
 11
-1.967206
 21
7.957166
 31
0.0
  0
LINE
  8
0
  6
CONTINUOUS
 62
     7
  5
6F1
 10
-1.967206
 20
7.957166
 30
0.0
 11
-1.969854
 21
7.9537
 31
0.0
  0
LINE
  8
0
  6
CONTINUOUS
 62
     7
  5
6F2
 10
-1.969854
 20
7.9537
 30
0.0
 11
-1.972342
 21
7.950144
 31
0.0
  0
LINE
  8
0
  6
CONTINUOUS
 62
     7
  5
6F3
 10
-1.972342
 20
7.950144
 30
0.0
 11
-1.974667
 21
7.946503
 31
0.0
  0
LINE
  8
0
  6
CONTINUOUS
 62
     7
  5
6F4
 10
-1.974667
 20
7.946503
 30
0.0
 11
-1.976825
 21
7.942782
 31
0.0
  0
LINE
  8
0
  6
CONTINUOUS
 62
     7
  5
6F5
 10
-1.976825
 20
7.942782
 30
0.0
 11
-1.978813
 21
7.938988
 31
0.0
  0
LINE
  8
0
  6
CONTINUOUS
 62
     7
  5
6F6
 10
-1.978813
 20
7.938988
 30
0.0
 11
-1.980626
 21
7.935127
 31
0.0
  0
LINE
  8
0
  6
CONTINUOUS
 62
     7
  5
6F7
 10
-1.980626
 20
7.935127
 30
0.0
 11
-1.982263
 21
7.931204
 31
0.0
  0
LINE
  8
0
  6
CONTINUOUS
 62
     7
  5
6F8
 10
-1.982263
 20
7.931204
 30
0.0
 11
-1.98372
 21
7.927227
 31
0.0
  0
LINE
  8
0
  6
CONTINUOUS
 62
     7
  5
6F9
 10
-1.98372
 20
7.927227
 30
0.0
 11
-1.984996
 21
7.923201
 31
0.0
  0
LINE
  8
0
  6
CONTINUOUS
 62
     7
  5
6FA
 10
-1.984996
 20
7.923201
 30
0.0
 11
-1.986088
 21
7.919134
 31
0.0
  0
LINE
  8
0
  6
CONTINUOUS
 62
     7
  5
6FB
 10
-1.986088
 20
7.919134
 30
0.0
 11
-1.986995
 21
7.915031
 31
0.0
  0
LINE
  8
0
  6
CONTINUOUS
 62
     7
  5
6FC
 10
-1.986995
 20
7.915031
 30
0.0
 11
-1.987714
 21
7.910899
 31
0.0
  0
LINE
  8
0
  6
CONTINUOUS
 62
     7
  5
6FD
 10
-1.987714
 20
7.910899
 30
0.0
 11
-1.988246
 21
7.906745
 31
0.0
  0
LINE
  8
0
  6
CONTINUOUS
 62
     7
  5
6FE
 10
-1.988246
 20
7.906745
 30
0.0
 11
-1.988588
 21
7.902576
 31
0.0
  0
LINE
  8
0
  6
CONTINUOUS
 62
     7
  5
6FF
 10
-0.48341
 20
8.144058
 30
0.0
 11
-1.884238
 21
8.00071
 31
0.0
  0
LINE
  8
0
  6
CONTINUOUS
 62
     7
  5
700
 10
-0.425847
 20
8.146994
 30
0.0
 11
-0.427495
 21
8.146991
 31
0.0
  0
LINE
  8
0
  6
CONTINUOUS
 62
     7
  5
701
 10
-0.427495
 20
8.146991
 30
0.0
 11
-0.429143
 21
8.146984
 31
0.0
  0
LINE
  8
0
  6
CONTINUOUS
 62
     7
  5
702
 10
-0.429143
 20
8.146984
 30
0.0
 11
-0.430792
 21
8.146972
 31
0.0
  0
LINE
  8
0
  6
CONTINUOUS
 62
     7
  5
703
 10
-0.430792
 20
8.146972
 30
0.0
 11
-0.43244
 21
8.146955
 31
0.0
  0
LINE
  8
0
  6
CONTINUOUS
 62
     7
  5
704
 10
-0.43244
 20
8.146955
 30
0.0
 11
-0.434088
 21
8.146934
 31
0.0
  0
LINE
  8
0
  6
CONTINUOUS
 62
     7
  5
705
 10
-0.434088
 20
8.146934
 30
0.0
 11
-0.435736
 21
8.146907
 31
0.0
  0
LINE
  8
0
  6
CONTINUOUS
 62
     7
  5
706
 10
-0.435736
 20
8.146907
 30
0.0
 11
-0.437384
 21
8.146876
 31
0.0
  0
LINE
  8
0
  6
CONTINUOUS
 62
     7
  5
707
 10
-0.437384
 20
8.146876
 30
0.0
 11
-0.439032
 21
8.14684
 31
0.0
  0
LINE
  8
0
  6
CONTINUOUS
 62
     7
  5
708
 10
-0.439032
 20
8.14684
 30
0.0
 11
-0.440679
 21
8.1468
 31
0.0
  0
LINE
  8
0
  6
CONTINUOUS
 62
     7
  5
709
 10
-0.440679
 20
8.1468
 30
0.0
 11
-0.442327
 21
8.146754
 31
0.0
  0
LINE
  8
0
  6
CONTINUOUS
 62
     7
  5
70A
 10
-0.442327
 20
8.146754
 30
0.0
 11
-0.443974
 21
8.146704
 31
0.0
  0
LINE
  8
0
  6
CONTINUOUS
 62
     7
  5
70B
 10
-0.443974
 20
8.146704
 30
0.0
 11
-0.445621
 21
8.146648
 31
0.0
  0
LINE
  8
0
  6
CONTINUOUS
 62
     7
  5
70C
 10
-0.445621
 20
8.146648
 30
0.0
 11
-0.447268
 21
8.146588
 31
0.0
  0
LINE
  8
0
  6
CONTINUOUS
 62
     7
  5
70D
 10
-0.447268
 20
8.146588
 30
0.0
 11
-0.448915
 21
8.146524
 31
0.0
  0
LINE
  8
0
  6
CONTINUOUS
 62
     7
  5
70E
 10
-0.448915
 20
8.146524
 30
0.0
 11
-0.450561
 21
8.146454
 31
0.0
  0
LINE
  8
0
  6
CONTINUOUS
 62
     7
  5
70F
 10
-0.450561
 20
8.146454
 30
0.0
 11
-0.452208
 21
8.14638
 31
0.0
  0
LINE
  8
0
  6
CONTINUOUS
 62
     7
  5
710
 10
-0.452208
 20
8.14638
 30
0.0
 11
-0.453854
 21
8.146301
 31
0.0
  0
LINE
  8
0
  6
CONTINUOUS
 62
     7
  5
711
 10
-0.453854
 20
8.146301
 30
0.0
 11
-0.455499
 21
8.146217
 31
0.0
  0
LINE
  8
0
  6
CONTINUOUS
 62
     7
  5
712
 10
-0.455499
 20
8.146217
 30
0.0
 11
-0.457144
 21
8.146128
 31
0.0
  0
LINE
  8
0
  6
CONTINUOUS
 62
     7
  5
713
 10
-0.457144
 20
8.146128
 30
0.0
 11
-0.458789
 21
8.146035
 31
0.0
  0
LINE
  8
0
  6
CONTINUOUS
 62
     7
  5
714
 10
-0.458789
 20
8.146035
 30
0.0
 11
-0.460434
 21
8.145936
 31
0.0
  0
LINE
  8
0
  6
CONTINUOUS
 62
     7
  5
715
 10
-0.460434
 20
8.145936
 30
0.0
 11
-0.462078
 21
8.145833
 31
0.0
  0
LINE
  8
0
  6
CONTINUOUS
 62
     7
  5
716
 10
-0.462078
 20
8.145833
 30
0.0
 11
-0.463722
 21
8.145725
 31
0.0
  0
LINE
  8
0
  6
CONTINUOUS
 62
     7
  5
717
 10
-0.463722
 20
8.145725
 30
0.0
 11
-0.465365
 21
8.145613
 31
0.0
  0
LINE
  8
0
  6
CONTINUOUS
 62
     7
  5
718
 10
-0.465365
 20
8.145613
 30
0.0
 11
-0.467008
 21
8.145495
 31
0.0
  0
LINE
  8
0
  6
CONTINUOUS
 62
     7
  5
719
 10
-0.467008
 20
8.145495
 30
0.0
 11
-0.468651
 21
8.145373
 31
0.0
  0
LINE
  8
0
  6
CONTINUOUS
 62
     7
  5
71A
 10
-0.468651
 20
8.145373
 30
0.0
 11
-0.470293
 21
8.145246
 31
0.0
  0
LINE
  8
0
  6
CONTINUOUS
 62
     7
  5
71B
 10
-0.470293
 20
8.145246
 30
0.0
 11
-0.471934
 21
8.145114
 31
0.0
  0
LINE
  8
0
  6
CONTINUOUS
 62
     7
  5
71C
 10
-0.471934
 20
8.145114
 30
0.0
 11
-0.473575
 21
8.144978
 31
0.0
  0
LINE
  8
0
  6
CONTINUOUS
 62
     7
  5
71D
 10
-0.473575
 20
8.144978
 30
0.0
 11
-0.475216
 21
8.144837
 31
0.0
  0
LINE
  8
0
  6
CONTINUOUS
 62
     7
  5
71E
 10
-0.475216
 20
8.144837
 30
0.0
 11
-0.476856
 21
8.14469
 31
0.0
  0
LINE
  8
0
  6
CONTINUOUS
 62
     7
  5
71F
 10
-0.476856
 20
8.14469
 30
0.0
 11
-0.478495
 21
8.14454
 31
0.0
  0
LINE
  8
0
  6
CONTINUOUS
 62
     7
  5
720
 10
-0.478495
 20
8.14454
 30
0.0
 11
-0.480134
 21
8.144384
 31
0.0
  0
LINE
  8
0
  6
CONTINUOUS
 62
     7
  5
721
 10
-0.480134
 20
8.144384
 30
0.0
 11
-0.481772
 21
8.144224
 31
0.0
  0
LINE
  8
0
  6
CONTINUOUS
 62
     7
  5
722
 10
-0.481772
 20
8.144224
 30
0.0
 11
-0.48341
 21
8.144058
 31
0.0
  0
LINE
  8
0
  6
CONTINUOUS
 62
     7
  5
723
 10
-0.393701
 20
8.146994
 30
0.0
 11
-0.425847
 21
8.146994
 31
0.0
  0
LINE
  8
0
  6
CONTINUOUS
 62
     7
  5
724
 10
0.425847
 20
8.146994
 30
0.0
 11
0.393701
 21
8.146994
 31
0.0
  0
LINE
  8
0
  6
CONTINUOUS
 62
     7
  5
725
 10
0.48341
 20
8.144058
 30
0.0
 11
0.481772
 21
8.144224
 31
0.0
  0
LINE
  8
0
  6
CONTINUOUS
 62
     7
  5
726
 10
0.481772
 20
8.144224
 30
0.0
 11
0.480134
 21
8.144384
 31
0.0
  0
LINE
  8
0
  6
CONTINUOUS
 62
     7
  5
727
 10
0.480134
 20
8.144384
 30
0.0
 11
0.478495
 21
8.14454
 31
0.0
  0
LINE
  8
0
  6
CONTINUOUS
 62
     7
  5
728
 10
0.478495
 20
8.14454
 30
0.0
 11
0.476856
 21
8.14469
 31
0.0
  0
LINE
  8
0
  6
CONTINUOUS
 62
     7
  5
729
 10
0.476856
 20
8.14469
 30
0.0
 11
0.475216
 21
8.144837
 31
0.0
  0
LINE
  8
0
  6
CONTINUOUS
 62
     7
  5
72A
 10
0.475216
 20
8.144837
 30
0.0
 11
0.473575
 21
8.144978
 31
0.0
  0
LINE
  8
0
  6
CONTINUOUS
 62
     7
  5
72B
 10
0.473575
 20
8.144978
 30
0.0
 11
0.471934
 21
8.145114
 31
0.0
  0
LINE
  8
0
  6
CONTINUOUS
 62
     7
  5
72C
 10
0.471934
 20
8.145114
 30
0.0
 11
0.470293
 21
8.145246
 31
0.0
  0
LINE
  8
0
  6
CONTINUOUS
 62
     7
  5
72D
 10
0.470293
 20
8.145246
 30
0.0
 11
0.468651
 21
8.145373
 31
0.0
  0
LINE
  8
0
  6
CONTINUOUS
 62
     7
  5
72E
 10
0.468651
 20
8.145373
 30
0.0
 11
0.467008
 21
8.145495
 31
0.0
  0
LINE
  8
0
  6
CONTINUOUS
 62
     7
  5
72F
 10
0.467008
 20
8.145495
 30
0.0
 11
0.465365
 21
8.145613
 31
0.0
  0
LINE
  8
0
  6
CONTINUOUS
 62
     7
  5
730
 10
0.465365
 20
8.145613
 30
0.0
 11
0.463722
 21
8.145725
 31
0.0
  0
LINE
  8
0
  6
CONTINUOUS
 62
     7
  5
731
 10
0.463722
 20
8.145725
 30
0.0
 11
0.462078
 21
8.145833
 31
0.0
  0
LINE
  8
0
  6
CONTINUOUS
 62
     7
  5
732
 10
0.462078
 20
8.145833
 30
0.0
 11
0.460434
 21
8.145936
 31
0.0
  0
LINE
  8
0
  6
CONTINUOUS
 62
     7
  5
733
 10
0.460434
 20
8.145936
 30
0.0
 11
0.458789
 21
8.146035
 31
0.0
  0
LINE
  8
0
  6
CONTINUOUS
 62
     7
  5
734
 10
0.458789
 20
8.146035
 30
0.0
 11
0.457144
 21
8.146128
 31
0.0
  0
LINE
  8
0
  6
CONTINUOUS
 62
     7
  5
735
 10
0.457144
 20
8.146128
 30
0.0
 11
0.455499
 21
8.146217
 31
0.0
  0
LINE
  8
0
  6
CONTINUOUS
 62
     7
  5
736
 10
0.455499
 20
8.146217
 30
0.0
 11
0.453854
 21
8.146301
 31
0.0
  0
LINE
  8
0
  6
CONTINUOUS
 62
     7
  5
737
 10
0.453854
 20
8.146301
 30
0.0
 11
0.452208
 21
8.14638
 31
0.0
  0
LINE
  8
0
  6
CONTINUOUS
 62
     7
  5
738
 10
0.452208
 20
8.14638
 30
0.0
 11
0.450561
 21
8.146454
 31
0.0
  0
LINE
  8
0
  6
CONTINUOUS
 62
     7
  5
739
 10
0.450561
 20
8.146454
 30
0.0
 11
0.448915
 21
8.146524
 31
0.0
  0
LINE
  8
0
  6
CONTINUOUS
 62
     7
  5
73A
 10
0.448915
 20
8.146524
 30
0.0
 11
0.447268
 21
8.146588
 31
0.0
  0
LINE
  8
0
  6
CONTINUOUS
 62
     7
  5
73B
 10
0.447268
 20
8.146588
 30
0.0
 11
0.445621
 21
8.146648
 31
0.0
  0
LINE
  8
0
  6
CONTINUOUS
 62
     7
  5
73C
 10
0.445621
 20
8.146648
 30
0.0
 11
0.443974
 21
8.146704
 31
0.0
  0
LINE
  8
0
  6
CONTINUOUS
 62
     7
  5
73D
 10
0.443974
 20
8.146704
 30
0.0
 11
0.442327
 21
8.146754
 31
0.0
  0
LINE
  8
0
  6
CONTINUOUS
 62
     7
  5
73E
 10
0.442327
 20
8.146754
 30
0.0
 11
0.440679
 21
8.1468
 31
0.0
  0
LINE
  8
0
  6
CONTINUOUS
 62
     7
  5
73F
 10
0.440679
 20
8.1468
 30
0.0
 11
0.439032
 21
8.14684
 31
0.0
  0
LINE
  8
0
  6
CONTINUOUS
 62
     7
  5
740
 10
0.439032
 20
8.14684
 30
0.0
 11
0.437384
 21
8.146876
 31
0.0
  0
LINE
  8
0
  6
CONTINUOUS
 62
     7
  5
741
 10
0.437384
 20
8.146876
 30
0.0
 11
0.435736
 21
8.146907
 31
0.0
  0
LINE
  8
0
  6
CONTINUOUS
 62
     7
  5
742
 10
0.435736
 20
8.146907
 30
0.0
 11
0.434088
 21
8.146934
 31
0.0
  0
LINE
  8
0
  6
CONTINUOUS
 62
     7
  5
743
 10
0.434088
 20
8.146934
 30
0.0
 11
0.43244
 21
8.146955
 31
0.0
  0
LINE
  8
0
  6
CONTINUOUS
 62
     7
  5
744
 10
0.43244
 20
8.146955
 30
0.0
 11
0.430792
 21
8.146972
 31
0.0
  0
LINE
  8
0
  6
CONTINUOUS
 62
     7
  5
745
 10
0.430792
 20
8.146972
 30
0.0
 11
0.429143
 21
8.146984
 31
0.0
  0
LINE
  8
0
  6
CONTINUOUS
 62
     7
  5
746
 10
0.429143
 20
8.146984
 30
0.0
 11
0.427495
 21
8.146991
 31
0.0
  0
LINE
  8
0
  6
CONTINUOUS
 62
     7
  5
747
 10
0.427495
 20
8.146991
 30
0.0
 11
0.425847
 21
8.146994
 31
0.0
  0
LINE
  8
0
  6
CONTINUOUS
 62
     7
  5
748
 10
1.884238
 20
8.00071
 30
0.0
 11
0.48341
 21
8.144058
 31
0.0
  0
LINE
  8
0
  6
CONTINUOUS
 62
     7
  5
749
 10
1.988588
 20
7.902576
 30
0.0
 11
1.988246
 21
7.906745
 31
0.0
  0
LINE
  8
0
  6
CONTINUOUS
 62
     7
  5
74A
 10
1.988246
 20
7.906745
 30
0.0
 11
1.987714
 21
7.910899
 31
0.0
  0
LINE
  8
0
  6
CONTINUOUS
 62
     7
  5
74B
 10
1.987714
 20
7.910899
 30
0.0
 11
1.986995
 21
7.915031
 31
0.0
  0
LINE
  8
0
  6
CONTINUOUS
 62
     7
  5
74C
 10
1.986995
 20
7.915031
 30
0.0
 11
1.986088
 21
7.919134
 31
0.0
  0
LINE
  8
0
  6
CONTINUOUS
 62
     7
  5
74D
 10
1.986088
 20
7.919134
 30
0.0
 11
1.984996
 21
7.923201
 31
0.0
  0
LINE
  8
0
  6
CONTINUOUS
 62
     7
  5
74E
 10
1.984996
 20
7.923201
 30
0.0
 11
1.98372
 21
7.927227
 31
0.0
  0
LINE
  8
0
  6
CONTINUOUS
 62
     7
  5
74F
 10
1.98372
 20
7.927227
 30
0.0
 11
1.982263
 21
7.931204
 31
0.0
  0
LINE
  8
0
  6
CONTINUOUS
 62
     7
  5
750
 10
1.982263
 20
7.931204
 30
0.0
 11
1.980626
 21
7.935127
 31
0.0
  0
LINE
  8
0
  6
CONTINUOUS
 62
     7
  5
751
 10
1.980626
 20
7.935127
 30
0.0
 11
1.978813
 21
7.938988
 31
0.0
  0
LINE
  8
0
  6
CONTINUOUS
 62
     7
  5
752
 10
1.978813
 20
7.938988
 30
0.0
 11
1.976825
 21
7.942782
 31
0.0
  0
LINE
  8
0
  6
CONTINUOUS
 62
     7
  5
753
 10
1.976825
 20
7.942782
 30
0.0
 11
1.974667
 21
7.946503
 31
0.0
  0
LINE
  8
0
  6
CONTINUOUS
 62
     7
  5
754
 10
1.974667
 20
7.946503
 30
0.0
 11
1.972342
 21
7.950144
 31
0.0
  0
LINE
  8
0
  6
CONTINUOUS
 62
     7
  5
755
 10
1.972342
 20
7.950144
 30
0.0
 11
1.969854
 21
7.9537
 31
0.0
  0
LINE
  8
0
  6
CONTINUOUS
 62
     7
  5
756
 10
1.969854
 20
7.9537
 30
0.0
 11
1.967206
 21
7.957166
 31
0.0
  0
LINE
  8
0
  6
CONTINUOUS
 62
     7
  5
757
 10
1.967206
 20
7.957166
 30
0.0
 11
1.964403
 21
7.960534
 31
0.0
  0
LINE
  8
0
  6
CONTINUOUS
 62
     7
  5
758
 10
1.964403
 20
7.960534
 30
0.0
 11
1.961449
 21
7.963801
 31
0.0
  0
LINE
  8
0
  6
CONTINUOUS
 62
     7
  5
759
 10
1.961449
 20
7.963801
 30
0.0
 11
1.958349
 21
7.966961
 31
0.0
  0
LINE
  8
0
  6
CONTINUOUS
 62
     7
  5
75A
 10
1.958349
 20
7.966961
 30
0.0
 11
1.955109
 21
7.970009
 31
0.0
  0
LINE
  8
0
  6
CONTINUOUS
 62
     7
  5
75B
 10
1.955109
 20
7.970009
 30
0.0
 11
1.951732
 21
7.972939
 31
0.0
  0
LINE
  8
0
  6
CONTINUOUS
 62
     7
  5
75C
 10
1.951732
 20
7.972939
 30
0.0
 11
1.948226
 21
7.975748
 31
0.0
  0
LINE
  8
0
  6
CONTINUOUS
 62
     7
  5
75D
 10
1.948226
 20
7.975748
 30
0.0
 11
1.944594
 21
7.97843
 31
0.0
  0
LINE
  8
0
  6
CONTINUOUS
 62
     7
  5
75E
 10
1.944594
 20
7.97843
 30
0.0
 11
1.940844
 21
7.980981
 31
0.0
  0
LINE
  8
0
  6
CONTINUOUS
 62
     7
  5
75F
 10
1.940844
 20
7.980981
 30
0.0
 11
1.936981
 21
7.983398
 31
0.0
  0
LINE
  8
0
  6
CONTINUOUS
 62
     7
  5
760
 10
1.936981
 20
7.983398
 30
0.0
 11
1.933012
 21
7.985676
 31
0.0
  0
LINE
  8
0
  6
CONTINUOUS
 62
     7
  5
761
 10
1.933012
 20
7.985676
 30
0.0
 11
1.928942
 21
7.987812
 31
0.0
  0
LINE
  8
0
  6
CONTINUOUS
 62
     7
  5
762
 10
1.928942
 20
7.987812
 30
0.0
 11
1.924779
 21
7.989803
 31
0.0
  0
LINE
  8
0
  6
CONTINUOUS
 62
     7
  5
763
 10
1.924779
 20
7.989803
 30
0.0
 11
1.920528
 21
7.991644
 31
0.0
  0
LINE
  8
0
  6
CONTINUOUS
 62
     7
  5
764
 10
1.920528
 20
7.991644
 30
0.0
 11
1.916198
 21
7.993333
 31
0.0
  0
LINE
  8
0
  6
CONTINUOUS
 62
     7
  5
765
 10
1.916198
 20
7.993333
 30
0.0
 11
1.911794
 21
7.994868
 31
0.0
  0
LINE
  8
0
  6
CONTINUOUS
 62
     7
  5
766
 10
1.911794
 20
7.994868
 30
0.0
 11
1.907324
 21
7.996246
 31
0.0
  0
LINE
  8
0
  6
CONTINUOUS
 62
     7
  5
767
 10
1.907324
 20
7.996246
 30
0.0
 11
1.902795
 21
7.997464
 31
0.0
  0
LINE
  8
0
  6
CONTINUOUS
 62
     7
  5
768
 10
1.902795
 20
7.997464
 30
0.0
 11
1.898215
 21
7.998521
 31
0.0
  0
LINE
  8
0
  6
CONTINUOUS
 62
     7
  5
769
 10
1.898215
 20
7.998521
 30
0.0
 11
1.89359
 21
7.999416
 31
0.0
  0
LINE
  8
0
  6
CONTINUOUS
 62
     7
  5
76A
 10
1.89359
 20
7.999416
 30
0.0
 11
1.888929
 21
8.000146
 31
0.0
  0
LINE
  8
0
  6
CONTINUOUS
 62
     7
  5
76B
 10
1.888929
 20
8.000146
 30
0.0
 11
1.884238
 21
8.00071
 31
0.0
  0
LINE
  8
0
  6
CONTINUOUS
 62
     7
  5
76C
 10
-0.448395
 20
8.146532
 30
0.0
 11
-0.447119
 21
8.149068
 31
0.0
  0
LINE
  8
0
  6
CONTINUOUS
 62
     7
  5
76D
 10
-0.447119
 20
8.149068
 30
0.0
 11
-0.445825
 21
8.151597
 31
0.0
  0
LINE
  8
0
  6
CONTINUOUS
 62
     7
  5
76E
 10
-0.445825
 20
8.151597
 30
0.0
 11
-0.444514
 21
8.154119
 31
0.0
  0
LINE
  8
0
  6
CONTINUOUS
 62
     7
  5
76F
 10
-0.444514
 20
8.154119
 30
0.0
 11
-0.443186
 21
8.156633
 31
0.0
  0
LINE
  8
0
  6
CONTINUOUS
 62
     7
  5
770
 10
-0.443186
 20
8.156633
 30
0.0
 11
-0.44184
 21
8.159139
 31
0.0
  0
LINE
  8
0
  6
CONTINUOUS
 62
     7
  5
771
 10
-0.44184
 20
8.159139
 30
0.0
 11
-0.440477
 21
8.161638
 31
0.0
  0
LINE
  8
0
  6
CONTINUOUS
 62
     7
  5
772
 10
-0.440477
 20
8.161638
 30
0.0
 11
-0.439097
 21
8.164129
 31
0.0
  0
LINE
  8
0
  6
CONTINUOUS
 62
     7
  5
773
 10
-0.439097
 20
8.164129
 30
0.0
 11
-0.437699
 21
8.166612
 31
0.0
  0
LINE
  8
0
  6
CONTINUOUS
 62
     7
  5
774
 10
-0.437699
 20
8.166612
 30
0.0
 11
-0.436285
 21
8.169088
 31
0.0
  0
LINE
  8
0
  6
CONTINUOUS
 62
     7
  5
775
 10
-0.436285
 20
8.169088
 30
0.0
 11
-0.434853
 21
8.171555
 31
0.0
  0
LINE
  8
0
  6
CONTINUOUS
 62
     7
  5
776
 10
-0.434853
 20
8.171555
 30
0.0
 11
-0.433405
 21
8.174014
 31
0.0
  0
LINE
  8
0
  6
CONTINUOUS
 62
     7
  5
777
 10
-0.433405
 20
8.174014
 30
0.0
 11
-0.431939
 21
8.176465
 31
0.0
  0
LINE
  8
0
  6
CONTINUOUS
 62
     7
  5
778
 10
-0.431939
 20
8.176465
 30
0.0
 11
-0.430457
 21
8.178907
 31
0.0
  0
LINE
  8
0
  6
CONTINUOUS
 62
     7
  5
779
 10
-0.430457
 20
8.178907
 30
0.0
 11
-0.428958
 21
8.181341
 31
0.0
  0
LINE
  8
0
  6
CONTINUOUS
 62
     7
  5
77A
 10
-0.428958
 20
8.181341
 30
0.0
 11
-0.427442
 21
8.183767
 31
0.0
  0
LINE
  8
0
  6
CONTINUOUS
 62
     7
  5
77B
 10
-0.427442
 20
8.183767
 30
0.0
 11
-0.425909
 21
8.186183
 31
0.0
  0
LINE
  8
0
  6
CONTINUOUS
 62
     7
  5
77C
 10
-0.425909
 20
8.186183
 30
0.0
 11
-0.42436
 21
8.188592
 31
0.0
  0
LINE
  8
0
  6
CONTINUOUS
 62
     7
  5
77D
 10
-0.42436
 20
8.188592
 30
0.0
 11
-0.422794
 21
8.190991
 31
0.0
  0
LINE
  8
0
  6
CONTINUOUS
 62
     7
  5
77E
 10
-0.422794
 20
8.190991
 30
0.0
 11
-0.421212
 21
8.193381
 31
0.0
  0
LINE
  8
0
  6
CONTINUOUS
 62
     7
  5
77F
 10
-0.421212
 20
8.193381
 30
0.0
 11
-0.419613
 21
8.195762
 31
0.0
  0
LINE
  8
0
  6
CONTINUOUS
 62
     7
  5
780
 10
-0.419613
 20
8.195762
 30
0.0
 11
-0.417998
 21
8.198135
 31
0.0
  0
LINE
  8
0
  6
CONTINUOUS
 62
     7
  5
781
 10
-0.417998
 20
8.198135
 30
0.0
 11
-0.416366
 21
8.200498
 31
0.0
  0
LINE
  8
0
  6
CONTINUOUS
 62
     7
  5
782
 10
-0.416366
 20
8.200498
 30
0.0
 11
-0.414718
 21
8.202852
 31
0.0
  0
LINE
  8
0
  6
CONTINUOUS
 62
     7
  5
783
 10
-0.414718
 20
8.202852
 30
0.0
 11
-0.413054
 21
8.205196
 31
0.0
  0
LINE
  8
0
  6
CONTINUOUS
 62
     7
  5
784
 10
-0.413054
 20
8.205196
 30
0.0
 11
-0.411374
 21
8.207531
 31
0.0
  0
LINE
  8
0
  6
CONTINUOUS
 62
     7
  5
785
 10
-0.411374
 20
8.207531
 30
0.0
 11
-0.409678
 21
8.209856
 31
0.0
  0
LINE
  8
0
  6
CONTINUOUS
 62
     7
  5
786
 10
-0.409678
 20
8.209856
 30
0.0
 11
-0.407966
 21
8.212172
 31
0.0
  0
LINE
  8
0
  6
CONTINUOUS
 62
     7
  5
787
 10
-0.407966
 20
8.212172
 30
0.0
 11
-0.406238
 21
8.214478
 31
0.0
  0
LINE
  8
0
  6
CONTINUOUS
 62
     7
  5
788
 10
-0.406238
 20
8.214478
 30
0.0
 11
-0.404494
 21
8.216774
 31
0.0
  0
LINE
  8
0
  6
CONTINUOUS
 62
     7
  5
789
 10
-0.404494
 20
8.216774
 30
0.0
 11
-0.402734
 21
8.21906
 31
0.0
  0
LINE
  8
0
  6
CONTINUOUS
 62
     7
  5
78A
 10
-0.402734
 20
8.21906
 30
0.0
 11
-0.400959
 21
8.221336
 31
0.0
  0
LINE
  8
0
  6
CONTINUOUS
 62
     7
  5
78B
 10
-0.400959
 20
8.221336
 30
0.0
 11
-0.399168
 21
8.223602
 31
0.0
  0
LINE
  8
0
  6
CONTINUOUS
 62
     7
  5
78C
 10
-0.399168
 20
8.223602
 30
0.0
 11
-0.397361
 21
8.225858
 31
0.0
  0
LINE
  8
0
  6
CONTINUOUS
 62
     7
  5
78D
 10
-0.397361
 20
8.225858
 30
0.0
 11
-0.395539
 21
8.228104
 31
0.0
  0
LINE
  8
0
  6
CONTINUOUS
 62
     7
  5
78E
 10
-0.395539
 20
8.228104
 30
0.0
 11
-0.393701
 21
8.230339
 31
0.0
  0
LINE
  8
0
  6
CONTINUOUS
 62
     7
  5
78F
 10
0.393701
 20
8.230339
 30
0.0
 11
0.395539
 21
8.228104
 31
0.0
  0
LINE
  8
0
  6
CONTINUOUS
 62
     7
  5
790
 10
0.395539
 20
8.228104
 30
0.0
 11
0.397361
 21
8.225858
 31
0.0
  0
LINE
  8
0
  6
CONTINUOUS
 62
     7
  5
791
 10
0.397361
 20
8.225858
 30
0.0
 11
0.399168
 21
8.223602
 31
0.0
  0
LINE
  8
0
  6
CONTINUOUS
 62
     7
  5
792
 10
0.399168
 20
8.223602
 30
0.0
 11
0.400959
 21
8.221336
 31
0.0
  0
LINE
  8
0
  6
CONTINUOUS
 62
     7
  5
793
 10
0.400959
 20
8.221336
 30
0.0
 11
0.402734
 21
8.21906
 31
0.0
  0
LINE
  8
0
  6
CONTINUOUS
 62
     7
  5
794
 10
0.402734
 20
8.21906
 30
0.0
 11
0.404494
 21
8.216774
 31
0.0
  0
LINE
  8
0
  6
CONTINUOUS
 62
     7
  5
795
 10
0.404494
 20
8.216774
 30
0.0
 11
0.406238
 21
8.214478
 31
0.0
  0
LINE
  8
0
  6
CONTINUOUS
 62
     7
  5
796
 10
0.406238
 20
8.214478
 30
0.0
 11
0.407966
 21
8.212172
 31
0.0
  0
LINE
  8
0
  6
CONTINUOUS
 62
     7
  5
797
 10
0.407966
 20
8.212172
 30
0.0
 11
0.409678
 21
8.209856
 31
0.0
  0
LINE
  8
0
  6
CONTINUOUS
 62
     7
  5
798
 10
0.409678
 20
8.209856
 30
0.0
 11
0.411374
 21
8.207531
 31
0.0
  0
LINE
  8
0
  6
CONTINUOUS
 62
     7
  5
799
 10
0.411374
 20
8.207531
 30
0.0
 11
0.413054
 21
8.205196
 31
0.0
  0
LINE
  8
0
  6
CONTINUOUS
 62
     7
  5
79A
 10
0.413054
 20
8.205196
 30
0.0
 11
0.414718
 21
8.202852
 31
0.0
  0
LINE
  8
0
  6
CONTINUOUS
 62
     7
  5
79B
 10
0.414718
 20
8.202852
 30
0.0
 11
0.416366
 21
8.200498
 31
0.0
  0
LINE
  8
0
  6
CONTINUOUS
 62
     7
  5
79C
 10
0.416366
 20
8.200498
 30
0.0
 11
0.417998
 21
8.198135
 31
0.0
  0
LINE
  8
0
  6
CONTINUOUS
 62
     7
  5
79D
 10
0.417998
 20
8.198135
 30
0.0
 11
0.419613
 21
8.195762
 31
0.0
  0
LINE
  8
0
  6
CONTINUOUS
 62
     7
  5
79E
 10
0.419613
 20
8.195762
 30
0.0
 11
0.421212
 21
8.193381
 31
0.0
  0
LINE
  8
0
  6
CONTINUOUS
 62
     7
  5
79F
 10
0.421212
 20
8.193381
 30
0.0
 11
0.422794
 21
8.190991
 31
0.0
  0
LINE
  8
0
  6
CONTINUOUS
 62
     7
  5
7A0
 10
0.422794
 20
8.190991
 30
0.0
 11
0.42436
 21
8.188592
 31
0.0
  0
LINE
  8
0
  6
CONTINUOUS
 62
     7
  5
7A1
 10
0.42436
 20
8.188592
 30
0.0
 11
0.425909
 21
8.186183
 31
0.0
  0
LINE
  8
0
  6
CONTINUOUS
 62
     7
  5
7A2
 10
0.425909
 20
8.186183
 30
0.0
 11
0.427442
 21
8.183767
 31
0.0
  0
LINE
  8
0
  6
CONTINUOUS
 62
     7
  5
7A3
 10
0.427442
 20
8.183767
 30
0.0
 11
0.428958
 21
8.181341
 31
0.0
  0
LINE
  8
0
  6
CONTINUOUS
 62
     7
  5
7A4
 10
0.428958
 20
8.181341
 30
0.0
 11
0.430457
 21
8.178907
 31
0.0
  0
LINE
  8
0
  6
CONTINUOUS
 62
     7
  5
7A5
 10
0.430457
 20
8.178907
 30
0.0
 11
0.431939
 21
8.176465
 31
0.0
  0
LINE
  8
0
  6
CONTINUOUS
 62
     7
  5
7A6
 10
0.431939
 20
8.176465
 30
0.0
 11
0.433405
 21
8.174014
 31
0.0
  0
LINE
  8
0
  6
CONTINUOUS
 62
     7
  5
7A7
 10
0.433405
 20
8.174014
 30
0.0
 11
0.434853
 21
8.171555
 31
0.0
  0
LINE
  8
0
  6
CONTINUOUS
 62
     7
  5
7A8
 10
0.434853
 20
8.171555
 30
0.0
 11
0.436285
 21
8.169088
 31
0.0
  0
LINE
  8
0
  6
CONTINUOUS
 62
     7
  5
7A9
 10
0.436285
 20
8.169088
 30
0.0
 11
0.437699
 21
8.166612
 31
0.0
  0
LINE
  8
0
  6
CONTINUOUS
 62
     7
  5
7AA
 10
0.437699
 20
8.166612
 30
0.0
 11
0.439097
 21
8.164129
 31
0.0
  0
LINE
  8
0
  6
CONTINUOUS
 62
     7
  5
7AB
 10
0.439097
 20
8.164129
 30
0.0
 11
0.440477
 21
8.161638
 31
0.0
  0
LINE
  8
0
  6
CONTINUOUS
 62
     7
  5
7AC
 10
0.440477
 20
8.161638
 30
0.0
 11
0.44184
 21
8.159139
 31
0.0
  0
LINE
  8
0
  6
CONTINUOUS
 62
     7
  5
7AD
 10
0.44184
 20
8.159139
 30
0.0
 11
0.443186
 21
8.156633
 31
0.0
  0
LINE
  8
0
  6
CONTINUOUS
 62
     7
  5
7AE
 10
0.443186
 20
8.156633
 30
0.0
 11
0.444514
 21
8.154119
 31
0.0
  0
LINE
  8
0
  6
CONTINUOUS
 62
     7
  5
7AF
 10
0.444514
 20
8.154119
 30
0.0
 11
0.445825
 21
8.151597
 31
0.0
  0
LINE
  8
0
  6
CONTINUOUS
 62
     7
  5
7B0
 10
0.445825
 20
8.151597
 30
0.0
 11
0.447119
 21
8.149068
 31
0.0
  0
LINE
  8
0
  6
CONTINUOUS
 62
     7
  5
7B1
 10
0.447119
 20
8.149068
 30
0.0
 11
0.448395
 21
8.146532
 31
0.0
  0
LINE
  8
0
  6
CONTINUOUS
 62
     7
  5
7B2
 10
-0.688976
 20
13.535811
 30
0.0
 11
-0.688976
 21
13.262328
 31
0.0
  0
LINE
  8
0
  6
CONTINUOUS
 62
     7
  5
7B3
 10
0.688976
 20
13.320879
 30
0.0
 11
0.688976
 21
13.535811
 31
0.0
  0
LINE
  8
0
  6
CONTINUOUS
 62
     7
  5
7B4
 10
0.410235
 20
8.146986
 30
0.0
 11
0.409782
 21
8.147589
 31
0.0
  0
LINE
  8
0
  6
CONTINUOUS
 62
     7
  5
7B5
 10
0.409782
 20
8.147589
 30
0.0
 11
0.409327
 21
8.148192
 31
0.0
  0
LINE
  8
0
  6
CONTINUOUS
 62
     7
  5
7B6
 10
0.409327
 20
8.148192
 30
0.0
 11
0.408872
 21
8.148793
 31
0.0
  0
LINE
  8
0
  6
CONTINUOUS
 62
     7
  5
7B7
 10
0.408872
 20
8.148793
 30
0.0
 11
0.408415
 21
8.149394
 31
0.0
  0
LINE
  8
0
  6
CONTINUOUS
 62
     7
  5
7B8
 10
0.408415
 20
8.149394
 30
0.0
 11
0.407957
 21
8.149994
 31
0.0
  0
LINE
  8
0
  6
CONTINUOUS
 62
     7
  5
7B9
 10
0.407957
 20
8.149994
 30
0.0
 11
0.407498
 21
8.150594
 31
0.0
  0
LINE
  8
0
  6
CONTINUOUS
 62
     7
  5
7BA
 10
0.407498
 20
8.150594
 30
0.0
 11
0.407038
 21
8.151193
 31
0.0
  0
LINE
  8
0
  6
CONTINUOUS
 62
     7
  5
7BB
 10
0.407038
 20
8.151193
 30
0.0
 11
0.406577
 21
8.151791
 31
0.0
  0
LINE
  8
0
  6
CONTINUOUS
 62
     7
  5
7BC
 10
0.406577
 20
8.151791
 30
0.0
 11
0.406114
 21
8.152389
 31
0.0
  0
LINE
  8
0
  6
CONTINUOUS
 62
     7
  5
7BD
 10
0.406114
 20
8.152389
 30
0.0
 11
0.405651
 21
8.152986
 31
0.0
  0
LINE
  8
0
  6
CONTINUOUS
 62
     7
  5
7BE
 10
0.405651
 20
8.152986
 30
0.0
 11
0.405186
 21
8.153582
 31
0.0
  0
LINE
  8
0
  6
CONTINUOUS
 62
     7
  5
7BF
 10
0.405186
 20
8.153582
 30
0.0
 11
0.40472
 21
8.154177
 31
0.0
  0
LINE
  8
0
  6
CONTINUOUS
 62
     7
  5
7C0
 10
0.40472
 20
8.154177
 30
0.0
 11
0.404253
 21
8.154772
 31
0.0
  0
LINE
  8
0
  6
CONTINUOUS
 62
     7
  5
7C1
 10
0.404253
 20
8.154772
 30
0.0
 11
0.403785
 21
8.155366
 31
0.0
  0
LINE
  8
0
  6
CONTINUOUS
 62
     7
  5
7C2
 10
0.403785
 20
8.155366
 30
0.0
 11
0.403316
 21
8.15596
 31
0.0
  0
LINE
  8
0
  6
CONTINUOUS
 62
     7
  5
7C3
 10
0.403316
 20
8.15596
 30
0.0
 11
0.402846
 21
8.156552
 31
0.0
  0
LINE
  8
0
  6
CONTINUOUS
 62
     7
  5
7C4
 10
0.402846
 20
8.156552
 30
0.0
 11
0.402375
 21
8.157145
 31
0.0
  0
LINE
  8
0
  6
CONTINUOUS
 62
     7
  5
7C5
 10
0.402375
 20
8.157145
 30
0.0
 11
0.401902
 21
8.157736
 31
0.0
  0
LINE
  8
0
  6
CONTINUOUS
 62
     7
  5
7C6
 10
0.401902
 20
8.157736
 30
0.0
 11
0.401429
 21
8.158327
 31
0.0
  0
LINE
  8
0
  6
CONTINUOUS
 62
     7
  5
7C7
 10
0.401429
 20
8.158327
 30
0.0
 11
0.400954
 21
8.158917
 31
0.0
  0
LINE
  8
0
  6
CONTINUOUS
 62
     7
  5
7C8
 10
0.400954
 20
8.158917
 30
0.0
 11
0.400478
 21
8.159506
 31
0.0
  0
LINE
  8
0
  6
CONTINUOUS
 62
     7
  5
7C9
 10
0.400478
 20
8.159506
 30
0.0
 11
0.400001
 21
8.160094
 31
0.0
  0
LINE
  8
0
  6
CONTINUOUS
 62
     7
  5
7CA
 10
0.400001
 20
8.160094
 30
0.0
 11
0.399523
 21
8.160682
 31
0.0
  0
LINE
  8
0
  6
CONTINUOUS
 62
     7
  5
7CB
 10
0.399523
 20
8.160682
 30
0.0
 11
0.399044
 21
8.16127
 31
0.0
  0
LINE
  8
0
  6
CONTINUOUS
 62
     7
  5
7CC
 10
0.399044
 20
8.16127
 30
0.0
 11
0.398564
 21
8.161856
 31
0.0
  0
LINE
  8
0
  6
CONTINUOUS
 62
     7
  5
7CD
 10
0.398564
 20
8.161856
 30
0.0
 11
0.398082
 21
8.162442
 31
0.0
  0
LINE
  8
0
  6
CONTINUOUS
 62
     7
  5
7CE
 10
0.398082
 20
8.162442
 30
0.0
 11
0.3976
 21
8.163027
 31
0.0
  0
LINE
  8
0
  6
CONTINUOUS
 62
     7
  5
7CF
 10
0.3976
 20
8.163027
 30
0.0
 11
0.397116
 21
8.163611
 31
0.0
  0
LINE
  8
0
  6
CONTINUOUS
 62
     7
  5
7D0
 10
0.397116
 20
8.163611
 30
0.0
 11
0.396632
 21
8.164195
 31
0.0
  0
LINE
  8
0
  6
CONTINUOUS
 62
     7
  5
7D1
 10
0.396632
 20
8.164195
 30
0.0
 11
0.396146
 21
8.164778
 31
0.0
  0
LINE
  8
0
  6
CONTINUOUS
 62
     7
  5
7D2
 10
0.396146
 20
8.164778
 30
0.0
 11
0.395659
 21
8.16536
 31
0.0
  0
LINE
  8
0
  6
CONTINUOUS
 62
     7
  5
7D3
 10
0.395659
 20
8.16536
 30
0.0
 11
0.395171
 21
8.165941
 31
0.0
  0
LINE
  8
0
  6
CONTINUOUS
 62
     7
  5
7D4
 10
0.395171
 20
8.165941
 30
0.0
 11
0.394682
 21
8.166522
 31
0.0
  0
LINE
  8
0
  6
CONTINUOUS
 62
     7
  5
7D5
 10
0.394682
 20
8.166522
 30
0.0
 11
0.394192
 21
8.167102
 31
0.0
  0
LINE
  8
0
  6
CONTINUOUS
 62
     7
  5
7D6
 10
0.394192
 20
8.167102
 30
0.0
 11
0.393701
 21
8.167682
 31
0.0
  0
LINE
  8
0
  6
CONTINUOUS
 62
     7
  5
7D7
 10
-0.393701
 20
8.167682
 30
0.0
 11
-0.394192
 21
8.167102
 31
0.0
  0
LINE
  8
0
  6
CONTINUOUS
 62
     7
  5
7D8
 10
-0.394192
 20
8.167102
 30
0.0
 11
-0.394682
 21
8.166522
 31
0.0
  0
LINE
  8
0
  6
CONTINUOUS
 62
     7
  5
7D9
 10
-0.394682
 20
8.166522
 30
0.0
 11
-0.395171
 21
8.165941
 31
0.0
  0
LINE
  8
0
  6
CONTINUOUS
 62
     7
  5
7DA
 10
-0.395171
 20
8.165941
 30
0.0
 11
-0.395659
 21
8.16536
 31
0.0
  0
LINE
  8
0
  6
CONTINUOUS
 62
     7
  5
7DB
 10
-0.395659
 20
8.16536
 30
0.0
 11
-0.396146
 21
8.164778
 31
0.0
  0
LINE
  8
0
  6
CONTINUOUS
 62
     7
  5
7DC
 10
-0.396146
 20
8.164778
 30
0.0
 11
-0.396632
 21
8.164195
 31
0.0
  0
LINE
  8
0
  6
CONTINUOUS
 62
     7
  5
7DD
 10
-0.396632
 20
8.164195
 30
0.0
 11
-0.397116
 21
8.163611
 31
0.0
  0
LINE
  8
0
  6
CONTINUOUS
 62
     7
  5
7DE
 10
-0.397116
 20
8.163611
 30
0.0
 11
-0.3976
 21
8.163027
 31
0.0
  0
LINE
  8
0
  6
CONTINUOUS
 62
     7
  5
7DF
 10
-0.3976
 20
8.163027
 30
0.0
 11
-0.398082
 21
8.162442
 31
0.0
  0
LINE
  8
0
  6
CONTINUOUS
 62
     7
  5
7E0
 10
-0.398082
 20
8.162442
 30
0.0
 11
-0.398564
 21
8.161856
 31
0.0
  0
LINE
  8
0
  6
CONTINUOUS
 62
     7
  5
7E1
 10
-0.398564
 20
8.161856
 30
0.0
 11
-0.399044
 21
8.16127
 31
0.0
  0
LINE
  8
0
  6
CONTINUOUS
 62
     7
  5
7E2
 10
-0.399044
 20
8.16127
 30
0.0
 11
-0.399523
 21
8.160682
 31
0.0
  0
LINE
  8
0
  6
CONTINUOUS
 62
     7
  5
7E3
 10
-0.399523
 20
8.160682
 30
0.0
 11
-0.400001
 21
8.160094
 31
0.0
  0
LINE
  8
0
  6
CONTINUOUS
 62
     7
  5
7E4
 10
-0.400001
 20
8.160094
 30
0.0
 11
-0.400478
 21
8.159506
 31
0.0
  0
LINE
  8
0
  6
CONTINUOUS
 62
     7
  5
7E5
 10
-0.400478
 20
8.159506
 30
0.0
 11
-0.400954
 21
8.158917
 31
0.0
  0
LINE
  8
0
  6
CONTINUOUS
 62
     7
  5
7E6
 10
-0.400954
 20
8.158917
 30
0.0
 11
-0.401429
 21
8.158327
 31
0.0
  0
LINE
  8
0
  6
CONTINUOUS
 62
     7
  5
7E7
 10
-0.401429
 20
8.158327
 30
0.0
 11
-0.401902
 21
8.157736
 31
0.0
  0
LINE
  8
0
  6
CONTINUOUS
 62
     7
  5
7E8
 10
-0.401902
 20
8.157736
 30
0.0
 11
-0.402375
 21
8.157145
 31
0.0
  0
LINE
  8
0
  6
CONTINUOUS
 62
     7
  5
7E9
 10
-0.402375
 20
8.157145
 30
0.0
 11
-0.402846
 21
8.156552
 31
0.0
  0
LINE
  8
0
  6
CONTINUOUS
 62
     7
  5
7EA
 10
-0.402846
 20
8.156552
 30
0.0
 11
-0.403316
 21
8.15596
 31
0.0
  0
LINE
  8
0
  6
CONTINUOUS
 62
     7
  5
7EB
 10
-0.403316
 20
8.15596
 30
0.0
 11
-0.403785
 21
8.155366
 31
0.0
  0
LINE
  8
0
  6
CONTINUOUS
 62
     7
  5
7EC
 10
-0.403785
 20
8.155366
 30
0.0
 11
-0.404253
 21
8.154772
 31
0.0
  0
LINE
  8
0
  6
CONTINUOUS
 62
     7
  5
7ED
 10
-0.404253
 20
8.154772
 30
0.0
 11
-0.40472
 21
8.154177
 31
0.0
  0
LINE
  8
0
  6
CONTINUOUS
 62
     7
  5
7EE
 10
-0.40472
 20
8.154177
 30
0.0
 11
-0.405186
 21
8.153582
 31
0.0
  0
LINE
  8
0
  6
CONTINUOUS
 62
     7
  5
7EF
 10
-0.405186
 20
8.153582
 30
0.0
 11
-0.405651
 21
8.152986
 31
0.0
  0
LINE
  8
0
  6
CONTINUOUS
 62
     7
  5
7F0
 10
-0.405651
 20
8.152986
 30
0.0
 11
-0.406114
 21
8.152389
 31
0.0
  0
LINE
  8
0
  6
CONTINUOUS
 62
     7
  5
7F1
 10
-0.406114
 20
8.152389
 30
0.0
 11
-0.406577
 21
8.151791
 31
0.0
  0
LINE
  8
0
  6
CONTINUOUS
 62
     7
  5
7F2
 10
-0.406577
 20
8.151791
 30
0.0
 11
-0.407038
 21
8.151193
 31
0.0
  0
LINE
  8
0
  6
CONTINUOUS
 62
     7
  5
7F3
 10
-0.407038
 20
8.151193
 30
0.0
 11
-0.407498
 21
8.150594
 31
0.0
  0
LINE
  8
0
  6
CONTINUOUS
 62
     7
  5
7F4
 10
-0.407498
 20
8.150594
 30
0.0
 11
-0.407957
 21
8.149994
 31
0.0
  0
LINE
  8
0
  6
CONTINUOUS
 62
     7
  5
7F5
 10
-0.407957
 20
8.149994
 30
0.0
 11
-0.408415
 21
8.149394
 31
0.0
  0
LINE
  8
0
  6
CONTINUOUS
 62
     7
  5
7F6
 10
-0.408415
 20
8.149394
 30
0.0
 11
-0.408872
 21
8.148793
 31
0.0
  0
LINE
  8
0
  6
CONTINUOUS
 62
     7
  5
7F7
 10
-0.408872
 20
8.148793
 30
0.0
 11
-0.409327
 21
8.148192
 31
0.0
  0
LINE
  8
0
  6
CONTINUOUS
 62
     7
  5
7F8
 10
-0.409327
 20
8.148192
 30
0.0
 11
-0.409782
 21
8.147589
 31
0.0
  0
LINE
  8
0
  6
CONTINUOUS
 62
     7
  5
7F9
 10
-0.409782
 20
8.147589
 30
0.0
 11
-0.410235
 21
8.146986
 31
0.0
  0
LINE
  8
0
  6
CONTINUOUS
 62
     7
  5
7FA
 10
-0.492126
 20
7.44489
 30
0.0
 11
-0.492043
 21
7.452879
 31
0.0
  0
LINE
  8
0
  6
CONTINUOUS
 62
     7
  5
7FB
 10
-0.492043
 20
7.452879
 30
0.0
 11
-0.491793
 21
7.460865
 31
0.0
  0
LINE
  8
0
  6
CONTINUOUS
 62
     7
  5
7FC
 10
-0.491793
 20
7.460865
 30
0.0
 11
-0.491378
 21
7.468845
 31
0.0
  0
LINE
  8
0
  6
CONTINUOUS
 62
     7
  5
7FD
 10
-0.491378
 20
7.468845
 30
0.0
 11
-0.490796
 21
7.476818
 31
0.0
  0
LINE
  8
0
  6
CONTINUOUS
 62
     7
  5
7FE
 10
-0.490796
 20
7.476818
 30
0.0
 11
-0.490048
 21
7.484779
 31
0.0
  0
LINE
  8
0
  6
CONTINUOUS
 62
     7
  5
7FF
 10
-0.490048
 20
7.484779
 30
0.0
 11
-0.489135
 21
7.492727
 31
0.0
  0
LINE
  8
0
  6
CONTINUOUS
 62
     7
  5
800
 10
-0.489135
 20
7.492727
 30
0.0
 11
-0.488056
 21
7.500659
 31
0.0
  0
LINE
  8
0
  6
CONTINUOUS
 62
     7
  5
801
 10
-0.488056
 20
7.500659
 30
0.0
 11
-0.486812
 21
7.508572
 31
0.0
  0
LINE
  8
0
  6
CONTINUOUS
 62
     7
  5
802
 10
-0.486812
 20
7.508572
 30
0.0
 11
-0.485404
 21
7.516464
 31
0.0
  0
LINE
  8
0
  6
CONTINUOUS
 62
     7
  5
803
 10
-0.485404
 20
7.516464
 30
0.0
 11
-0.483832
 21
7.524331
 31
0.0
  0
LINE
  8
0
  6
CONTINUOUS
 62
     7
  5
804
 10
-0.483832
 20
7.524331
 30
0.0
 11
-0.482096
 21
7.532171
 31
0.0
  0
LINE
  8
0
  6
CONTINUOUS
 62
     7
  5
805
 10
-0.482096
 20
7.532171
 30
0.0
 11
-0.480197
 21
7.539982
 31
0.0
  0
LINE
  8
0
  6
CONTINUOUS
 62
     7
  5
806
 10
-0.480197
 20
7.539982
 30
0.0
 11
-0.478136
 21
7.547761
 31
0.0
  0
LINE
  8
0
  6
CONTINUOUS
 62
     7
  5
807
 10
-0.478136
 20
7.547761
 30
0.0
 11
-0.475913
 21
7.555505
 31
0.0
  0
LINE
  8
0
  6
CONTINUOUS
 62
     7
  5
808
 10
-0.475913
 20
7.555505
 30
0.0
 11
-0.473529
 21
7.563212
 31
0.0
  0
LINE
  8
0
  6
CONTINUOUS
 62
     7
  5
809
 10
-0.473529
 20
7.563212
 30
0.0
 11
-0.470986
 21
7.570879
 31
0.0
  0
LINE
  8
0
  6
CONTINUOUS
 62
     7
  5
80A
 10
-0.470986
 20
7.570879
 30
0.0
 11
-0.468283
 21
7.578503
 31
0.0
  0
LINE
  8
0
  6
CONTINUOUS
 62
     7
  5
80B
 10
-0.468283
 20
7.578503
 30
0.0
 11
-0.465421
 21
7.586082
 31
0.0
  0
LINE
  8
0
  6
CONTINUOUS
 62
     7
  5
80C
 10
-0.465421
 20
7.586082
 30
0.0
 11
-0.462403
 21
7.593613
 31
0.0
  0
LINE
  8
0
  6
CONTINUOUS
 62
     7
  5
80D
 10
-0.462403
 20
7.593613
 30
0.0
 11
-0.459228
 21
7.601094
 31
0.0
  0
LINE
  8
0
  6
CONTINUOUS
 62
     7
  5
80E
 10
-0.459228
 20
7.601094
 30
0.0
 11
-0.455898
 21
7.608522
 31
0.0
  0
LINE
  8
0
  6
CONTINUOUS
 62
     7
  5
80F
 10
-0.455898
 20
7.608522
 30
0.0
 11
-0.452414
 21
7.615895
 31
0.0
  0
LINE
  8
0
  6
CONTINUOUS
 62
     7
  5
810
 10
-0.452414
 20
7.615895
 30
0.0
 11
-0.448777
 21
7.62321
 31
0.0
  0
LINE
  8
0
  6
CONTINUOUS
 62
     7
  5
811
 10
-0.448777
 20
7.62321
 30
0.0
 11
-0.444988
 21
7.630465
 31
0.0
  0
LINE
  8
0
  6
CONTINUOUS
 62
     7
  5
812
 10
-0.444988
 20
7.630465
 30
0.0
 11
-0.441049
 21
7.637657
 31
0.0
  0
LINE
  8
0
  6
CONTINUOUS
 62
     7
  5
813
 10
-0.441049
 20
7.637657
 30
0.0
 11
-0.43696
 21
7.644783
 31
0.0
  0
LINE
  8
0
  6
CONTINUOUS
 62
     7
  5
814
 10
-0.43696
 20
7.644783
 30
0.0
 11
-0.432724
 21
7.651843
 31
0.0
  0
LINE
  8
0
  6
CONTINUOUS
 62
     7
  5
815
 10
-0.432724
 20
7.651843
 30
0.0
 11
-0.428342
 21
7.658832
 31
0.0
  0
LINE
  8
0
  6
CONTINUOUS
 62
     7
  5
816
 10
-0.428342
 20
7.658832
 30
0.0
 11
-0.423815
 21
7.665749
 31
0.0
  0
LINE
  8
0
  6
CONTINUOUS
 62
     7
  5
817
 10
-0.423815
 20
7.665749
 30
0.0
 11
-0.419144
 21
7.672591
 31
0.0
  0
LINE
  8
0
  6
CONTINUOUS
 62
     7
  5
818
 10
-0.419144
 20
7.672591
 30
0.0
 11
-0.414332
 21
7.679357
 31
0.0
  0
LINE
  8
0
  6
CONTINUOUS
 62
     7
  5
819
 10
-0.414332
 20
7.679357
 30
0.0
 11
-0.40938
 21
7.686043
 31
0.0
  0
LINE
  8
0
  6
CONTINUOUS
 62
     7
  5
81A
 10
-0.40938
 20
7.686043
 30
0.0
 11
-0.40429
 21
7.692647
 31
0.0
  0
LINE
  8
0
  6
CONTINUOUS
 62
     7
  5
81B
 10
-0.40429
 20
7.692647
 30
0.0
 11
-0.399063
 21
7.699168
 31
0.0
  0
LINE
  8
0
  6
CONTINUOUS
 62
     7
  5
81C
 10
-0.399063
 20
7.699168
 30
0.0
 11
-0.393701
 21
7.705603
 31
0.0
  0
LINE
  8
0
  6
CONTINUOUS
 62
     7
  5
81D
 10
0.492126
 20
7.44489
 30
0.0
 11
0.490145
 21
7.40594
 31
0.0
  0
LINE
  8
0
  6
CONTINUOUS
 62
     7
  5
81E
 10
0.490145
 20
7.40594
 30
0.0
 11
0.484217
 21
7.367304
 31
0.0
  0
LINE
  8
0
  6
CONTINUOUS
 62
     7
  5
81F
 10
0.484217
 20
7.367304
 30
0.0
 11
0.474391
 21
7.329292
 31
0.0
  0
LINE
  8
0
  6
CONTINUOUS
 62
     7
  5
820
 10
0.474391
 20
7.329292
 30
0.0
 11
0.460746
 21
7.29221
 31
0.0
  0
LINE
  8
0
  6
CONTINUOUS
 62
     7
  5
821
 10
0.460746
 20
7.29221
 30
0.0
 11
0.44339
 21
7.256359
 31
0.0
  0
LINE
  8
0
  6
CONTINUOUS
 62
     7
  5
822
 10
0.44339
 20
7.256359
 30
0.0
 11
0.422465
 21
7.222025
 31
0.0
  0
LINE
  8
0
  6
CONTINUOUS
 62
     7
  5
823
 10
0.422465
 20
7.222025
 30
0.0
 11
0.398138
 21
7.189485
 31
0.0
  0
LINE
  8
0
  6
CONTINUOUS
 62
     7
  5
824
 10
0.398138
 20
7.189485
 30
0.0
 11
0.370606
 21
7.159002
 31
0.0
  0
LINE
  8
0
  6
CONTINUOUS
 62
     7
  5
825
 10
0.370606
 20
7.159002
 30
0.0
 11
0.34009
 21
7.13082
 31
0.0
  0
LINE
  8
0
  6
CONTINUOUS
 62
     7
  5
826
 10
0.34009
 20
7.13082
 30
0.0
 11
0.306836
 21
7.105168
 31
0.0
  0
LINE
  8
0
  6
CONTINUOUS
 62
     7
  5
827
 10
0.306836
 20
7.105168
 30
0.0
 11
0.271111
 21
7.08225
 31
0.0
  0
LINE
  8
0
  6
CONTINUOUS
 62
     7
  5
828
 10
0.271111
 20
7.08225
 30
0.0
 11
0.233203
 21
7.062253
 31
0.0
  0
LINE
  8
0
  6
CONTINUOUS
 62
     7
  5
829
 10
0.233203
 20
7.062253
 30
0.0
 11
0.193418
 21
7.045336
 31
0.0
  0
LINE
  8
0
  6
CONTINUOUS
 62
     7
  5
82A
 10
0.193418
 20
7.045336
 30
0.0
 11
0.152075
 21
7.031636
 31
0.0
  0
LINE
  8
0
  6
CONTINUOUS
 62
     7
  5
82B
 10
0.152075
 20
7.031636
 30
0.0
 11
0.109508
 21
7.021263
 31
0.0
  0
LINE
  8
0
  6
CONTINUOUS
 62
     7
  5
82C
 10
0.109508
 20
7.021263
 30
0.0
 11
0.06606
 21
7.014301
 31
0.0
  0
LINE
  8
0
  6
CONTINUOUS
 62
     7
  5
82D
 10
0.06606
 20
7.014301
 30
0.0
 11
0.022079
 21
7.010806
 31
0.0
  0
LINE
  8
0
  6
CONTINUOUS
 62
     7
  5
82E
 10
0.022079
 20
7.010806
 30
0.0
 11
-0.022079
 21
7.010806
 31
0.0
  0
LINE
  8
0
  6
CONTINUOUS
 62
     7
  5
82F
 10
-0.022079
 20
7.010806
 30
0.0
 11
-0.06606
 21
7.014301
 31
0.0
  0
LINE
  8
0
  6
CONTINUOUS
 62
     7
  5
830
 10
-0.06606
 20
7.014301
 30
0.0
 11
-0.109508
 21
7.021263
 31
0.0
  0
LINE
  8
0
  6
CONTINUOUS
 62
     7
  5
831
 10
-0.109508
 20
7.021263
 30
0.0
 11
-0.152075
 21
7.031636
 31
0.0
  0
LINE
  8
0
  6
CONTINUOUS
 62
     7
  5
832
 10
-0.152075
 20
7.031636
 30
0.0
 11
-0.193418
 21
7.045336
 31
0.0
  0
LINE
  8
0
  6
CONTINUOUS
 62
     7
  5
833
 10
-0.193418
 20
7.045336
 30
0.0
 11
-0.233203
 21
7.062253
 31
0.0
  0
LINE
  8
0
  6
CONTINUOUS
 62
     7
  5
834
 10
-0.233203
 20
7.062253
 30
0.0
 11
-0.271111
 21
7.08225
 31
0.0
  0
LINE
  8
0
  6
CONTINUOUS
 62
     7
  5
835
 10
-0.271111
 20
7.08225
 30
0.0
 11
-0.306836
 21
7.105168
 31
0.0
  0
LINE
  8
0
  6
CONTINUOUS
 62
     7
  5
836
 10
-0.306836
 20
7.105168
 30
0.0
 11
-0.34009
 21
7.13082
 31
0.0
  0
LINE
  8
0
  6
CONTINUOUS
 62
     7
  5
837
 10
-0.34009
 20
7.13082
 30
0.0
 11
-0.370606
 21
7.159002
 31
0.0
  0
LINE
  8
0
  6
CONTINUOUS
 62
     7
  5
838
 10
-0.370606
 20
7.159002
 30
0.0
 11
-0.398138
 21
7.189485
 31
0.0
  0
LINE
  8
0
  6
CONTINUOUS
 62
     7
  5
839
 10
-0.398138
 20
7.189485
 30
0.0
 11
-0.422465
 21
7.222025
 31
0.0
  0
LINE
  8
0
  6
CONTINUOUS
 62
     7
  5
83A
 10
-0.422465
 20
7.222025
 30
0.0
 11
-0.44339
 21
7.256359
 31
0.0
  0
LINE
  8
0
  6
CONTINUOUS
 62
     7
  5
83B
 10
-0.44339
 20
7.256359
 30
0.0
 11
-0.460746
 21
7.29221
 31
0.0
  0
LINE
  8
0
  6
CONTINUOUS
 62
     7
  5
83C
 10
-0.460746
 20
7.29221
 30
0.0
 11
-0.474391
 21
7.329292
 31
0.0
  0
LINE
  8
0
  6
CONTINUOUS
 62
     7
  5
83D
 10
-0.474391
 20
7.329292
 30
0.0
 11
-0.484217
 21
7.367304
 31
0.0
  0
LINE
  8
0
  6
CONTINUOUS
 62
     7
  5
83E
 10
-0.484217
 20
7.367304
 30
0.0
 11
-0.490145
 21
7.40594
 31
0.0
  0
LINE
  8
0
  6
CONTINUOUS
 62
     7
  5
83F
 10
-0.490145
 20
7.40594
 30
0.0
 11
-0.492126
 21
7.44489
 31
0.0
  0
LINE
  8
0
  6
CONTINUOUS
 62
     7
  5
840
 10
0.393701
 20
7.705603
 30
0.0
 11
0.399063
 21
7.699168
 31
0.0
  0
LINE
  8
0
  6
CONTINUOUS
 62
     7
  5
841
 10
0.399063
 20
7.699168
 30
0.0
 11
0.40429
 21
7.692647
 31
0.0
  0
LINE
  8
0
  6
CONTINUOUS
 62
     7
  5
842
 10
0.40429
 20
7.692647
 30
0.0
 11
0.40938
 21
7.686043
 31
0.0
  0
LINE
  8
0
  6
CONTINUOUS
 62
     7
  5
843
 10
0.40938
 20
7.686043
 30
0.0
 11
0.414332
 21
7.679357
 31
0.0
  0
LINE
  8
0
  6
CONTINUOUS
 62
     7
  5
844
 10
0.414332
 20
7.679357
 30
0.0
 11
0.419144
 21
7.672591
 31
0.0
  0
LINE
  8
0
  6
CONTINUOUS
 62
     7
  5
845
 10
0.419144
 20
7.672591
 30
0.0
 11
0.423815
 21
7.665749
 31
0.0
  0
LINE
  8
0
  6
CONTINUOUS
 62
     7
  5
846
 10
0.423815
 20
7.665749
 30
0.0
 11
0.428342
 21
7.658832
 31
0.0
  0
LINE
  8
0
  6
CONTINUOUS
 62
     7
  5
847
 10
0.428342
 20
7.658832
 30
0.0
 11
0.432724
 21
7.651843
 31
0.0
  0
LINE
  8
0
  6
CONTINUOUS
 62
     7
  5
848
 10
0.432724
 20
7.651843
 30
0.0
 11
0.43696
 21
7.644783
 31
0.0
  0
LINE
  8
0
  6
CONTINUOUS
 62
     7
  5
849
 10
0.43696
 20
7.644783
 30
0.0
 11
0.441049
 21
7.637657
 31
0.0
  0
LINE
  8
0
  6
CONTINUOUS
 62
     7
  5
84A
 10
0.441049
 20
7.637657
 30
0.0
 11
0.444988
 21
7.630465
 31
0.0
  0
LINE
  8
0
  6
CONTINUOUS
 62
     7
  5
84B
 10
0.444988
 20
7.630465
 30
0.0
 11
0.448777
 21
7.62321
 31
0.0
  0
LINE
  8
0
  6
CONTINUOUS
 62
     7
  5
84C
 10
0.448777
 20
7.62321
 30
0.0
 11
0.452414
 21
7.615895
 31
0.0
  0
LINE
  8
0
  6
CONTINUOUS
 62
     7
  5
84D
 10
0.452414
 20
7.615895
 30
0.0
 11
0.455898
 21
7.608522
 31
0.0
  0
LINE
  8
0
  6
CONTINUOUS
 62
     7
  5
84E
 10
0.455898
 20
7.608522
 30
0.0
 11
0.459228
 21
7.601094
 31
0.0
  0
LINE
  8
0
  6
CONTINUOUS
 62
     7
  5
84F
 10
0.459228
 20
7.601094
 30
0.0
 11
0.462403
 21
7.593613
 31
0.0
  0
LINE
  8
0
  6
CONTINUOUS
 62
     7
  5
850
 10
0.462403
 20
7.593613
 30
0.0
 11
0.465421
 21
7.586082
 31
0.0
  0
LINE
  8
0
  6
CONTINUOUS
 62
     7
  5
851
 10
0.465421
 20
7.586082
 30
0.0
 11
0.468283
 21
7.578503
 31
0.0
  0
LINE
  8
0
  6
CONTINUOUS
 62
     7
  5
852
 10
0.468283
 20
7.578503
 30
0.0
 11
0.470986
 21
7.570879
 31
0.0
  0
LINE
  8
0
  6
CONTINUOUS
 62
     7
  5
853
 10
0.470986
 20
7.570879
 30
0.0
 11
0.473529
 21
7.563212
 31
0.0
  0
LINE
  8
0
  6
CONTINUOUS
 62
     7
  5
854
 10
0.473529
 20
7.563212
 30
0.0
 11
0.475913
 21
7.555505
 31
0.0
  0
LINE
  8
0
  6
CONTINUOUS
 62
     7
  5
855
 10
0.475913
 20
7.555505
 30
0.0
 11
0.478136
 21
7.547761
 31
0.0
  0
LINE
  8
0
  6
CONTINUOUS
 62
     7
  5
856
 10
0.478136
 20
7.547761
 30
0.0
 11
0.480197
 21
7.539982
 31
0.0
  0
LINE
  8
0
  6
CONTINUOUS
 62
     7
  5
857
 10
0.480197
 20
7.539982
 30
0.0
 11
0.482096
 21
7.532171
 31
0.0
  0
LINE
  8
0
  6
CONTINUOUS
 62
     7
  5
858
 10
0.482096
 20
7.532171
 30
0.0
 11
0.483832
 21
7.524331
 31
0.0
  0
LINE
  8
0
  6
CONTINUOUS
 62
     7
  5
859
 10
0.483832
 20
7.524331
 30
0.0
 11
0.485404
 21
7.516464
 31
0.0
  0
LINE
  8
0
  6
CONTINUOUS
 62
     7
  5
85A
 10
0.485404
 20
7.516464
 30
0.0
 11
0.486812
 21
7.508572
 31
0.0
  0
LINE
  8
0
  6
CONTINUOUS
 62
     7
  5
85B
 10
0.486812
 20
7.508572
 30
0.0
 11
0.488056
 21
7.500659
 31
0.0
  0
LINE
  8
0
  6
CONTINUOUS
 62
     7
  5
85C
 10
0.488056
 20
7.500659
 30
0.0
 11
0.489135
 21
7.492727
 31
0.0
  0
LINE
  8
0
  6
CONTINUOUS
 62
     7
  5
85D
 10
0.489135
 20
7.492727
 30
0.0
 11
0.490048
 21
7.484779
 31
0.0
  0
LINE
  8
0
  6
CONTINUOUS
 62
     7
  5
85E
 10
0.490048
 20
7.484779
 30
0.0
 11
0.490796
 21
7.476818
 31
0.0
  0
LINE
  8
0
  6
CONTINUOUS
 62
     7
  5
85F
 10
0.490796
 20
7.476818
 30
0.0
 11
0.491378
 21
7.468845
 31
0.0
  0
LINE
  8
0
  6
CONTINUOUS
 62
     7
  5
860
 10
0.491378
 20
7.468845
 30
0.0
 11
0.491793
 21
7.460865
 31
0.0
  0
LINE
  8
0
  6
CONTINUOUS
 62
     7
  5
861
 10
0.491793
 20
7.460865
 30
0.0
 11
0.492043
 21
7.452879
 31
0.0
  0
LINE
  8
0
  6
CONTINUOUS
 62
     7
  5
862
 10
0.492043
 20
7.452879
 30
0.0
 11
0.492126
 21
7.44489
 31
0.0
  0
LINE
  8
0
  6
CONTINUOUS
 62
     7
  5
863
 10
-0.393701
 20
9.825658
 30
0.0
 11
-0.393701
 21
7.705603
 31
0.0
  0
LINE
  8
0
  6
CONTINUOUS
 62
     7
  5
864
 10
-0.393701
 20
9.905086
 30
0.0
 11
-0.393701
 21
9.825658
 31
0.0
  0
LINE
  8
0
  6
CONTINUOUS
 62
     7
  5
865
 10
-0.393701
 20
10.363872
 30
0.0
 11
-0.393701
 21
9.905086
 31
0.0
  0
LINE
  8
0
  6
CONTINUOUS
 62
     7
  5
866
 10
-0.393701
 20
10.383729
 30
0.0
 11
-0.393701
 21
10.363872
 31
0.0
  0
LINE
  8
0
  6
CONTINUOUS
 62
     7
  5
867
 10
-0.393701
 20
12.2422
 30
0.0
 11
-0.393701
 21
10.383729
 31
0.0
  0
LINE
  8
0
  6
CONTINUOUS
 62
     7
  5
868
 10
0.393701
 20
7.705603
 30
0.0
 11
0.393701
 21
9.825658
 31
0.0
  0
LINE
  8
0
  6
CONTINUOUS
 62
     7
  5
869
 10
0.393701
 20
10.383729
 30
0.0
 11
0.393701
 21
12.2422
 31
0.0
  0
LINE
  8
0
  6
CONTINUOUS
 62
     7
  5
86A
 10
0.393701
 20
10.363872
 30
0.0
 11
0.393701
 21
10.383729
 31
0.0
  0
LINE
  8
0
  6
CONTINUOUS
 62
     7
  5
86B
 10
0.393701
 20
9.905086
 30
0.0
 11
0.393701
 21
10.363872
 31
0.0
  0
LINE
  8
0
  6
CONTINUOUS
 62
     7
  5
86C
 10
0.393701
 20
9.825658
 30
0.0
 11
0.393701
 21
9.905086
 31
0.0
  0
LINE
  8
0
  6
CONTINUOUS
 62
     7
  5
86D
 10
-0.688976
 20
13.320879
 30
0.0
 11
-0.688976
 21
13.262328
 31
0.0
  0
LINE
  8
0
  6
CONTINUOUS
 62
     7
  5
86E
 10
-0.688976
 20
13.262328
 30
0.0
 11
-0.688976
 21
12.320448
 31
0.0
  0
LINE
  8
0
  6
CONTINUOUS
 62
     7
  5
86F
 10
0.688976
 20
12.320448
 30
0.0
 11
0.688976
 21
13.262328
 31
0.0
  0
LINE
  8
0
  6
CONTINUOUS
 62
     7
  5
870
 10
0.688976
 20
13.262328
 30
0.0
 11
0.688976
 21
13.320879
 31
0.0
  0
LINE
  8
0
  6
CONTINUOUS
 62
     7
  5
871
 10
-7.122047
 20
4.992126
 30
0.0
 11
-7.122047
 21
5.188976
 31
0.0
  0
LINE
  8
0
  6
CONTINUOUS
 62
     7
  5
872
 10
6.688976
 20
5.188976
 30
0.0
 11
7.074091
 21
5.188976
 31
0.0
  0
LINE
  8
0
  6
CONTINUOUS
 62
     7
  5
873
 10
7.074091
 20
4.992126
 30
0.0
 11
7.074091
 21
5.188976
 31
0.0
  0
LINE
  8
0
  6
CONTINUOUS
 62
     7
  5
874
 10
7.074091
 20
5.188976
 30
0.0
 11
7.122047
 21
5.188976
 31
0.0
  0
LINE
  8
0
  6
CONTINUOUS
 62
     7
  5
875
 10
7.122047
 20
5.188976
 30
0.0
 11
7.122047
 21
4.992126
 31
0.0
  0
LINE
  8
0
  6
CONTINUOUS
 62
     7
  5
876
 10
6.688976
 20
4.992126
 30
0.0
 11
6.688976
 21
5.070866
 31
0.0
  0
LINE
  8
0
  6
CONTINUOUS
 62
     7
  5
877
 10
-6.688976
 20
5.070866
 30
0.0
 11
6.688976
 21
5.070866
 31
0.0
  0
LINE
  8
0
  6
CONTINUOUS
 62
     7
  5
878
 10
-6.688976
 20
5.070866
 30
0.0
 11
-6.688976
 21
4.992126
 31
0.0
  0
LINE
  8
0
  6
CONTINUOUS
 62
     7
  5
879
 10
-7.122047
 20
5.188976
 30
0.0
 11
-7.074091
 21
5.188976
 31
0.0
  0
LINE
  8
0
  6
CONTINUOUS
 62
     7
  5
87A
 10
-7.074091
 20
4.992126
 30
0.0
 11
-7.074091
 21
5.188976
 31
0.0
  0
LINE
  8
0
  6
CONTINUOUS
 62
     7
  5
87B
 10
-7.074091
 20
5.188976
 30
0.0
 11
-6.688976
 21
5.188976
 31
0.0
  0
LINE
  8
0
  6
CONTINUOUS
 62
     7
  5
87C
 10
6.688976
 20
6.362205
 30
0.0
 11
6.688976
 21
5.070866
 31
0.0
  0
LINE
  8
0
  6
CONTINUOUS
 62
     7
  5
87D
 10
-6.688976
 20
6.362205
 30
0.0
 11
-6.688976
 21
5.070866
 31
0.0
  0
LINE
  8
0
  6
CONTINUOUS
 62
     7
  5
87E
 10
-6.688976
 20
6.362205
 30
0.0
 11
6.688976
 21
6.362205
 31
0.0
  0
LINE
  8
0
  6
CONTINUOUS
 62
     7
  5
87F
 10
-6.417323
 20
6.633858
 30
0.0
 11
6.417323
 21
6.633858
 31
0.0
  0
LINE
  8
0
  6
CONTINUOUS
 62
     7
  5
880
 10
-6.417323
 20
6.633858
 30
0.0
 11
-6.417323
 21
6.362205
 31
0.0
  0
LINE
  8
0
  6
CONTINUOUS
 62
     7
  5
881
 10
6.417323
 20
6.633858
 30
0.0
 11
6.417323
 21
6.362205
 31
0.0
  0
LINE
  8
0
  6
CONTINUOUS
 62
     7
  5
882
 10
-2.748031
 20
6.830709
 30
0.0
 11
2.748031
 21
6.830709
 31
0.0
  0
LINE
  8
0
  6
CONTINUOUS
 62
     7
  5
883
 10
-2.748031
 20
6.830709
 30
0.0
 11
-2.748031
 21
6.633858
 31
0.0
  0
LINE
  8
0
  6
CONTINUOUS
 62
     7
  5
884
 10
2.748031
 20
6.830709
 30
0.0
 11
2.748031
 21
6.633858
 31
0.0
  0
LINE
  8
0
  6
CONTINUOUS
 62
     7
  5
885
 10
3.238325
 20
1.656885
 30
0.0
 11
3.061417
 21
1.350472
 31
0.0
  0
LINE
  8
0
  6
CONTINUOUS
 62
     7
  5
886
 10
3.288721
 20
1.744173
 30
0.0
 11
3.238325
 21
1.656885
 31
0.0
  0
LINE
  8
0
  6
CONTINUOUS
 62
     7
  5
887
 10
5.993701
 20
1.350472
 30
0.0
 11
5.816793
 21
1.656885
 31
0.0
  0
LINE
  8
0
  6
CONTINUOUS
 62
     7
  5
888
 10
5.816793
 20
1.656885
 30
0.0
 11
5.766398
 21
1.744173
 31
0.0
  0
LINE
  8
0
  6
CONTINUOUS
 62
     7
  5
889
 10
3.288721
 20
1.744173
 30
0.0
 11
5.766398
 21
1.744173
 31
0.0
  0
LINE
  8
0
  6
CONTINUOUS
 62
     7
  5
88A
 10
3.031496
 20
1.350472
 30
0.0
 11
6.023622
 21
1.350472
 31
0.0
  0
LINE
  8
0
  6
CONTINUOUS
 62
     7
  5
88B
 10
3.031496
 20
1.350472
 30
0.0
 11
3.031496
 21
0.720472
 31
0.0
  0
LINE
  8
0
  6
CONTINUOUS
 62
     7
  5
88C
 10
6.023622
 20
1.350472
 30
0.0
 11
6.023622
 21
0.720472
 31
0.0
  0
LINE
  8
0
  6
CONTINUOUS
 62
     7
  5
88D
 10
7.988189
 20
0.720472
 30
0.0
 11
3.032496
 21
0.720472
 31
0.0
  0
CIRCLE
  8
0
  6
CONTINUOUS
 62
     7
  5
88E
 10
7.072835
 20
-6.452756
 30
0.0
 40
0.492126
  0
LINE
  8
0
  6
CONTINUOUS
 62
     7
  5
88F
 10
6.098425
 20
-5.822835
 30
0.0
 11
7.870079
 21
-5.822835
 31
0.0
  0
LINE
  8
0
  6
CONTINUOUS
 62
     7
  5
890
 10
6.098425
 20
-5.822835
 30
0.0
 11
6.098425
 21
-7.082677
 31
0.0
  0
LINE
  8
0
  6
CONTINUOUS
 62
     7
  5
891
 10
7.870079
 20
-7.082677
 30
0.0
 11
6.098425
 21
-7.082677
 31
0.0
  0
CIRCLE
  8
0
  6
CONTINUOUS
 62
     7
  5
892
 10
7.072835
 20
-5.191913
 30
0.0
 40
0.492126
  0
LINE
  8
0
  6
CONTINUOUS
 62
     7
  5
893
 10
6.098425
 20
-4.561992
 30
0.0
 11
7.870079
 21
-4.561992
 31
0.0
  0
LINE
  8
0
  6
CONTINUOUS
 62
     7
  5
894
 10
6.098425
 20
-4.561992
 30
0.0
 11
6.098425
 21
-5.821835
 31
0.0
  0
LINE
  8
0
  6
CONTINUOUS
 62
     7
  5
895
 10
7.870079
 20
-5.821835
 30
0.0
 11
6.098425
 21
-5.821835
 31
0.0
  0
CIRCLE
  8
0
  6
CONTINUOUS
 62
     7
  5
896
 10
7.072835
 20
-3.931071
 30
0.0
 40
0.492126
  0
LINE
  8
0
  6
CONTINUOUS
 62
     7
  5
897
 10
6.098425
 20
-3.30115
 30
0.0
 11
7.870079
 21
-3.30115
 31
0.0
  0
LINE
  8
0
  6
CONTINUOUS
 62
     7
  5
898
 10
6.098425
 20
-3.30115
 30
0.0
 11
6.098425
 21
-4.560992
 31
0.0
  0
LINE
  8
0
  6
CONTINUOUS
 62
     7
  5
899
 10
7.870079
 20
-4.560992
 30
0.0
 11
6.098425
 21
-4.560992
 31
0.0
  0
CIRCLE
  8
0
  6
CONTINUOUS
 62
     7
  5
89A
 10
7.072835
 20
-2.670228
 30
0.0
 40
0.492126
  0
LINE
  8
0
  6
CONTINUOUS
 62
     7
  5
89B
 10
6.098425
 20
-2.040307
 30
0.0
 11
7.870079
 21
-2.040307
 31
0.0
  0
LINE
  8
0
  6
CONTINUOUS
 62
     7
  5
89C
 10
6.098425
 20
-2.040307
 30
0.0
 11
6.098425
 21
-3.30015
 31
0.0
  0
LINE
  8
0
  6
CONTINUOUS
 62
     7
  5
89D
 10
7.870079
 20
-3.30015
 30
0.0
 11
6.098425
 21
-3.30015
 31
0.0
  0
CIRCLE
  8
0
  6
CONTINUOUS
 62
     7
  5
89E
 10
8.982283
 20
-6.452756
 30
0.0
 40
0.492126
  0
LINE
  8
0
  6
CONTINUOUS
 62
     7
  5
89F
 10
9.956693
 20
-7.082677
 30
0.0
 11
8.185039
 21
-7.082677
 31
0.0
  0
LINE
  8
0
  6
CONTINUOUS
 62
     7
  5
8A0
 10
9.956693
 20
-7.082677
 30
0.0
 11
9.956693
 21
-5.822835
 31
0.0
  0
LINE
  8
0
  6
CONTINUOUS
 62
     7
  5
8A1
 10
8.185039
 20
-5.822835
 30
0.0
 11
9.956693
 21
-5.822835
 31
0.0
  0
CIRCLE
  8
0
  6
CONTINUOUS
 62
     7
  5
8A2
 10
8.982283
 20
-5.191913
 30
0.0
 40
0.492126
  0
LINE
  8
0
  6
CONTINUOUS
 62
     7
  5
8A3
 10
9.956693
 20
-5.821835
 30
0.0
 11
8.185039
 21
-5.821835
 31
0.0
  0
LINE
  8
0
  6
CONTINUOUS
 62
     7
  5
8A4
 10
9.956693
 20
-5.821835
 30
0.0
 11
9.956693
 21
-4.561992
 31
0.0
  0
LINE
  8
0
  6
CONTINUOUS
 62
     7
  5
8A5
 10
8.185039
 20
-4.561992
 30
0.0
 11
9.956693
 21
-4.561992
 31
0.0
  0
CIRCLE
  8
0
  6
CONTINUOUS
 62
     7
  5
8A6
 10
8.982283
 20
-3.931071
 30
0.0
 40
0.492126
  0
LINE
  8
0
  6
CONTINUOUS
 62
     7
  5
8A7
 10
9.956693
 20
-4.560992
 30
0.0
 11
8.185039
 21
-4.560992
 31
0.0
  0
LINE
  8
0
  6
CONTINUOUS
 62
     7
  5
8A8
 10
9.956693
 20
-4.560992
 30
0.0
 11
9.956693
 21
-3.30115
 31
0.0
  0
LINE
  8
0
  6
CONTINUOUS
 62
     7
  5
8A9
 10
8.185039
 20
-3.30115
 30
0.0
 11
9.956693
 21
-3.30115
 31
0.0
  0
CIRCLE
  8
0
  6
CONTINUOUS
 62
     7
  5
8AA
 10
8.982283
 20
-2.670228
 30
0.0
 40
0.492126
  0
LINE
  8
0
  6
CONTINUOUS
 62
     7
  5
8AB
 10
9.956693
 20
-3.30015
 30
0.0
 11
8.185039
 21
-3.30015
 31
0.0
  0
LINE
  8
0
  6
CONTINUOUS
 62
     7
  5
8AC
 10
9.956693
 20
-3.30015
 30
0.0
 11
9.956693
 21
-2.040307
 31
0.0
  0
LINE
  8
0
  6
CONTINUOUS
 62
     7
  5
8AD
 10
8.185039
 20
-2.040307
 30
0.0
 11
9.956693
 21
-2.040307
 31
0.0
  0
LINE
  8
0
  6
CONTINUOUS
 62
     7
  5
8AE
 10
8.185039
 20
-8.53937
 30
0.0
 11
8.185039
 21
-9.090551
 31
0.0
  0
ARC
  8
0
  6
CONTINUOUS
 62
     7
  5
8AF
 10
8.5
 20
-9.090551
 30
0.0
 40
0.15748
 50
180.0
 51
270.0
  0
LINE
  8
0
  6
CONTINUOUS
 62
     7
  5
8B0
 10
8.34252
 20
-9.090551
 30
0.0
 11
8.34252
 21
-7.240157
 31
0.0
  0
LINE
  8
0
  6
CONTINUOUS
 62
     7
  5
8B1
 10
8.34252
 20
-7.240157
 30
0.0
 11
8.185039
 21
-7.240157
 31
0.0
  0
ARC
  8
0
  6
CONTINUOUS
 62
     7
  5
8B2
 10
8.5
 20
-9.090551
 30
0.0
 40
0.314961
 50
180.0
 51
270.0
  0
LINE
  8
0
  6
CONTINUOUS
 62
     7
  5
8B3
 10
8.5
 20
-9.405512
 30
0.0
 11
10.498031
 21
-9.405512
 31
0.0
  0
LINE
  8
0
  6
CONTINUOUS
 62
     7
  5
8B4
 10
10.498031
 20
-9.405512
 30
0.0
 11
10.498031
 21
-9.248031
 31
0.0
  0
LINE
  8
0
  6
CONTINUOUS
 62
     7
  5
8B5
 10
10.498031
 20
-9.248031
 30
0.0
 11
8.5
 21
-9.248031
 31
0.0
  0
LINE
  8
0
  6
CONTINUOUS
 62
     7
  5
8B6
 10
7.870079
 20
-8.53937
 30
0.0
 11
7.870079
 21
-9.090551
 31
0.0
  0
ARC
  8
0
  6
CONTINUOUS
 62
     7
  5
8B7
 10
7.555118
 20
-9.090551
 30
0.0
 40
0.15748
 50
270.0
 51
0.0
  0
LINE
  8
0
  6
CONTINUOUS
 62
     7
  5
8B8
 10
7.712598
 20
-9.090551
 30
0.0
 11
7.712598
 21
-7.240157
 31
0.0
  0
LINE
  8
0
  6
CONTINUOUS
 62
     7
  5
8B9
 10
7.712598
 20
-7.240157
 30
0.0
 11
7.870079
 21
-7.240157
 31
0.0
  0
ARC
  8
0
  6
CONTINUOUS
 62
     7
  5
8BA
 10
7.555118
 20
-9.090551
 30
0.0
 40
0.314961
 50
270.0
 51
0.0
  0
LINE
  8
0
  6
CONTINUOUS
 62
     7
  5
8BB
 10
7.555118
 20
-9.405512
 30
0.0
 11
5.557087
 21
-9.405512
 31
0.0
  0
LINE
  8
0
  6
CONTINUOUS
 62
     7
  5
8BC
 10
5.557087
 20
-9.405512
 30
0.0
 11
5.557087
 21
-9.248031
 31
0.0
  0
LINE
  8
0
  6
CONTINUOUS
 62
     7
  5
8BD
 10
5.557087
 20
-9.248031
 30
0.0
 11
7.555118
 21
-9.248031
 31
0.0
  0
LINE
  8
0
  6
CONTINUOUS
 62
     7
  5
8BE
 10
8.185039
 20
-8.53937
 30
0.0
 11
8.185039
 21
0.523622
 31
0.0
  0
LINE
  8
0
  6
CONTINUOUS
 62
     7
  5
8BF
 10
7.870079
 20
0.366142
 30
0.0
 11
7.870079
 21
-8.53937
 31
0.0
  0
LINE
  8
0
  6
CONTINUOUS
 62
     7
  5
8C0
 10
8.027559
 20
0.523622
 30
0.0
 11
8.027559
 21
0.366142
 31
0.0
  0
ARC
  8
0
  6
CONTINUOUS
 62
     7
  5
8C1
 10
7.988189
 20
0.523622
 30
0.0
 40
0.03937
 50
0.0
 51
90.0
  0
ARC
  8
0
  6
CONTINUOUS
 62
     7
  5
8C2
 10
7.988189
 20
0.523622
 30
0.0
 40
0.19685
 50
0.0
 51
90.0
  0
LINE
  8
0
  6
CONTINUOUS
 62
     7
  5
8C3
 10
3.032496
 20
0.720472
 30
0.0
 11
3.032496
 21
0.562992
 31
0.0
  0
LINE
  8
0
  6
CONTINUOUS
 62
     7
  5
8C4
 10
7.830709
 20
0.562992
 30
0.0
 11
7.988189
 21
0.562992
 31
0.0
  0
LINE
  8
0
  6
CONTINUOUS
 62
     7
  5
8C5
 10
8.027559
 20
-8.53937
 30
0.0
 11
8.185039
 21
-8.53937
 31
0.0
  0
LINE
  8
0
  6
CONTINUOUS
 62
     7
  5
8C6
 10
8.027559
 20
-8.53937
 30
0.0
 11
8.027559
 21
0.366142
 31
0.0
  0
ARC
  8
0
  6
CONTINUOUS
 62
     7
  5
8C7
 10
7.830709
 20
0.366142
 30
0.0
 40
0.03937
 50
0.0
 51
90.0
  0
LINE
  8
0
  6
CONTINUOUS
 62
     7
  5
8C8
 10
7.870079
 20
-8.53937
 30
0.0
 11
8.027559
 21
-8.53937
 31
0.0
  0
ARC
  8
0
  6
CONTINUOUS
 62
     7
  5
8C9
 10
7.830709
 20
0.366142
 30
0.0
 40
0.19685
 50
0.0
 51
90.0
  0
LINE
  8
0
  6
CONTINUOUS
 62
     7
  5
8CA
 10
7.830709
 20
0.562992
 30
0.0
 11
3.031496
 21
0.562992
 31
0.0
  0
LINE
  8
0
  6
CONTINUOUS
 62
     7
  5
8CB
 10
3.031496
 20
0.562992
 30
0.0
 11
3.031496
 21
0.405512
 31
0.0
  0
LINE
  8
0
  6
CONTINUOUS
 62
     7
  5
8CC
 10
3.031496
 20
0.405512
 30
0.0
 11
7.830709
 21
0.405512
 31
0.0
  0
LINE
  8
0
  6
CONTINUOUS
 62
     7
  5
8CD
 10
-5.816793
 20
1.656885
 30
0.0
 11
-5.993701
 21
1.350472
 31
0.0
  0
LINE
  8
0
  6
CONTINUOUS
 62
     7
  5
8CE
 10
-5.766398
 20
1.744173
 30
0.0
 11
-5.816793
 21
1.656885
 31
0.0
  0
LINE
  8
0
  6
CONTINUOUS
 62
     7
  5
8CF
 10
-3.061417
 20
1.350472
 30
0.0
 11
-3.238325
 21
1.656885
 31
0.0
  0
LINE
  8
0
  6
CONTINUOUS
 62
     7
  5
8D0
 10
-3.238325
 20
1.656885
 30
0.0
 11
-3.288721
 21
1.744173
 31
0.0
  0
LINE
  8
0
  6
CONTINUOUS
 62
     7
  5
8D1
 10
-5.766398
 20
1.744173
 30
0.0
 11
-3.288721
 21
1.744173
 31
0.0
  0
LINE
  8
0
  6
CONTINUOUS
 62
     7
  5
8D2
 10
-6.023622
 20
1.350472
 30
0.0
 11
-3.031496
 21
1.350472
 31
0.0
  0
LINE
  8
0
  6
CONTINUOUS
 62
     7
  5
8D3
 10
-6.023622
 20
1.350472
 30
0.0
 11
-6.023622
 21
0.720472
 31
0.0
  0
LINE
  8
0
  6
CONTINUOUS
 62
     7
  5
8D4
 10
-3.031496
 20
1.350472
 30
0.0
 11
-3.031496
 21
0.720472
 31
0.0
  0
CIRCLE
  8
0
  6
CONTINUOUS
 62
     7
  5
8D5
 10
-8.982283
 20
-6.452756
 30
0.0
 40
0.492126
  0
LINE
  8
0
  6
CONTINUOUS
 62
     7
  5
8D6
 10
-9.956693
 20
-5.822835
 30
0.0
 11
-8.185039
 21
-5.822835
 31
0.0
  0
LINE
  8
0
  6
CONTINUOUS
 62
     7
  5
8D7
 10
-9.956693
 20
-5.822835
 30
0.0
 11
-9.956693
 21
-7.082677
 31
0.0
  0
LINE
  8
0
  6
CONTINUOUS
 62
     7
  5
8D8
 10
-8.185039
 20
-7.082677
 30
0.0
 11
-9.956693
 21
-7.082677
 31
0.0
  0
CIRCLE
  8
0
  6
CONTINUOUS
 62
     7
  5
8D9
 10
-8.982283
 20
-5.191913
 30
0.0
 40
0.492126
  0
LINE
  8
0
  6
CONTINUOUS
 62
     7
  5
8DA
 10
-9.956693
 20
-4.561992
 30
0.0
 11
-8.185039
 21
-4.561992
 31
0.0
  0
LINE
  8
0
  6
CONTINUOUS
 62
     7
  5
8DB
 10
-9.956693
 20
-4.561992
 30
0.0
 11
-9.956693
 21
-5.821835
 31
0.0
  0
LINE
  8
0
  6
CONTINUOUS
 62
     7
  5
8DC
 10
-8.185039
 20
-5.821835
 30
0.0
 11
-9.956693
 21
-5.821835
 31
0.0
  0
CIRCLE
  8
0
  6
CONTINUOUS
 62
     7
  5
8DD
 10
-8.982283
 20
-3.931071
 30
0.0
 40
0.492126
  0
LINE
  8
0
  6
CONTINUOUS
 62
     7
  5
8DE
 10
-9.956693
 20
-3.30115
 30
0.0
 11
-8.185039
 21
-3.30115
 31
0.0
  0
LINE
  8
0
  6
CONTINUOUS
 62
     7
  5
8DF
 10
-9.956693
 20
-3.30115
 30
0.0
 11
-9.956693
 21
-4.560992
 31
0.0
  0
LINE
  8
0
  6
CONTINUOUS
 62
     7
  5
8E0
 10
-8.185039
 20
-4.560992
 30
0.0
 11
-9.956693
 21
-4.560992
 31
0.0
  0
CIRCLE
  8
0
  6
CONTINUOUS
 62
     7
  5
8E1
 10
-8.982283
 20
-2.670228
 30
0.0
 40
0.492126
  0
LINE
  8
0
  6
CONTINUOUS
 62
     7
  5
8E2
 10
-9.956693
 20
-2.040307
 30
0.0
 11
-8.185039
 21
-2.040307
 31
0.0
  0
LINE
  8
0
  6
CONTINUOUS
 62
     7
  5
8E3
 10
-9.956693
 20
-2.040307
 30
0.0
 11
-9.956693
 21
-3.30015
 31
0.0
  0
LINE
  8
0
  6
CONTINUOUS
 62
     7
  5
8E4
 10
-8.185039
 20
-3.30015
 30
0.0
 11
-9.956693
 21
-3.30015
 31
0.0
  0
CIRCLE
  8
0
  6
CONTINUOUS
 62
     7
  5
8E5
 10
-7.072835
 20
-6.452756
 30
0.0
 40
0.492126
  0
LINE
  8
0
  6
CONTINUOUS
 62
     7
  5
8E6
 10
-6.098425
 20
-7.082677
 30
0.0
 11
-7.870079
 21
-7.082677
 31
0.0
  0
LINE
  8
0
  6
CONTINUOUS
 62
     7
  5
8E7
 10
-6.098425
 20
-7.082677
 30
0.0
 11
-6.098425
 21
-5.822835
 31
0.0
  0
LINE
  8
0
  6
CONTINUOUS
 62
     7
  5
8E8
 10
-7.870079
 20
-5.822835
 30
0.0
 11
-6.098425
 21
-5.822835
 31
0.0
  0
CIRCLE
  8
0
  6
CONTINUOUS
 62
     7
  5
8E9
 10
-7.072835
 20
-5.191913
 30
0.0
 40
0.492126
  0
LINE
  8
0
  6
CONTINUOUS
 62
     7
  5
8EA
 10
-6.098425
 20
-5.821835
 30
0.0
 11
-7.870079
 21
-5.821835
 31
0.0
  0
LINE
  8
0
  6
CONTINUOUS
 62
     7
  5
8EB
 10
-6.098425
 20
-5.821835
 30
0.0
 11
-6.098425
 21
-4.561992
 31
0.0
  0
LINE
  8
0
  6
CONTINUOUS
 62
     7
  5
8EC
 10
-7.870079
 20
-4.561992
 30
0.0
 11
-6.098425
 21
-4.561992
 31
0.0
  0
CIRCLE
  8
0
  6
CONTINUOUS
 62
     7
  5
8ED
 10
-7.072835
 20
-3.931071
 30
0.0
 40
0.492126
  0
LINE
  8
0
  6
CONTINUOUS
 62
     7
  5
8EE
 10
-6.098425
 20
-4.560992
 30
0.0
 11
-7.870079
 21
-4.560992
 31
0.0
  0
LINE
  8
0
  6
CONTINUOUS
 62
     7
  5
8EF
 10
-6.098425
 20
-4.560992
 30
0.0
 11
-6.098425
 21
-3.30115
 31
0.0
  0
LINE
  8
0
  6
CONTINUOUS
 62
     7
  5
8F0
 10
-7.870079
 20
-3.30115
 30
0.0
 11
-6.098425
 21
-3.30115
 31
0.0
  0
CIRCLE
  8
0
  6
CONTINUOUS
 62
     7
  5
8F1
 10
-7.072835
 20
-2.670228
 30
0.0
 40
0.492126
  0
LINE
  8
0
  6
CONTINUOUS
 62
     7
  5
8F2
 10
-6.098425
 20
-3.30015
 30
0.0
 11
-7.870079
 21
-3.30015
 31
0.0
  0
LINE
  8
0
  6
CONTINUOUS
 62
     7
  5
8F3
 10
-6.098425
 20
-3.30015
 30
0.0
 11
-6.098425
 21
-2.040307
 31
0.0
  0
LINE
  8
0
  6
CONTINUOUS
 62
     7
  5
8F4
 10
-7.870079
 20
-2.040307
 30
0.0
 11
-6.098425
 21
-2.040307
 31
0.0
  0
LINE
  8
0
  6
CONTINUOUS
 62
     7
  5
8F5
 10
-7.870079
 20
-8.53937
 30
0.0
 11
-7.870079
 21
-9.090551
 31
0.0
  0
ARC
  8
0
  6
CONTINUOUS
 62
     7
  5
8F6
 10
-7.555118
 20
-9.090551
 30
0.0
 40
0.15748
 50
180.0
 51
270.0
  0
LINE
  8
0
  6
CONTINUOUS
 62
     7
  5
8F7
 10
-7.712598
 20
-9.090551
 30
0.0
 11
-7.712598
 21
-7.240157
 31
0.0
  0
LINE
  8
0
  6
CONTINUOUS
 62
     7
  5
8F8
 10
-7.712598
 20
-7.240157
 30
0.0
 11
-7.870079
 21
-7.240157
 31
0.0
  0
ARC
  8
0
  6
CONTINUOUS
 62
     7
  5
8F9
 10
-7.555118
 20
-9.090551
 30
0.0
 40
0.314961
 50
180.0
 51
270.0
  0
LINE
  8
0
  6
CONTINUOUS
 62
     7
  5
8FA
 10
-7.555118
 20
-9.405512
 30
0.0
 11
-5.557087
 21
-9.405512
 31
0.0
  0
LINE
  8
0
  6
CONTINUOUS
 62
     7
  5
8FB
 10
-5.557087
 20
-9.405512
 30
0.0
 11
-5.557087
 21
-9.248031
 31
0.0
  0
LINE
  8
0
  6
CONTINUOUS
 62
     7
  5
8FC
 10
-5.557087
 20
-9.248031
 30
0.0
 11
-7.555118
 21
-9.248031
 31
0.0
  0
LINE
  8
0
  6
CONTINUOUS
 62
     7
  5
8FD
 10
-8.185039
 20
-8.53937
 30
0.0
 11
-8.185039
 21
-9.090551
 31
0.0
  0
ARC
  8
0
  6
CONTINUOUS
 62
     7
  5
8FE
 10
-8.5
 20
-9.090551
 30
0.0
 40
0.15748
 50
270.0
 51
0.0
  0
LINE
  8
0
  6
CONTINUOUS
 62
     7
  5
8FF
 10
-8.34252
 20
-9.090551
 30
0.0
 11
-8.34252
 21
-7.240157
 31
0.0
  0
LINE
  8
0
  6
CONTINUOUS
 62
     7
  5
900
 10
-8.34252
 20
-7.240157
 30
0.0
 11
-8.185039
 21
-7.240157
 31
0.0
  0
ARC
  8
0
  6
CONTINUOUS
 62
     7
  5
901
 10
-8.5
 20
-9.090551
 30
0.0
 40
0.314961
 50
270.0
 51
0.0
  0
LINE
  8
0
  6
CONTINUOUS
 62
     7
  5
902
 10
-8.5
 20
-9.405512
 30
0.0
 11
-10.498031
 21
-9.405512
 31
0.0
  0
LINE
  8
0
  6
CONTINUOUS
 62
     7
  5
903
 10
-10.498031
 20
-9.405512
 30
0.0
 11
-10.498031
 21
-9.248031
 31
0.0
  0
LINE
  8
0
  6
CONTINUOUS
 62
     7
  5
904
 10
-10.498031
 20
-9.248031
 30
0.0
 11
-8.5
 21
-9.248031
 31
0.0
  0
LINE
  8
0
  6
CONTINUOUS
 62
     7
  5
905
 10
-7.870079
 20
0.366142
 30
0.0
 11
-7.870079
 21
-8.53937
 31
0.0
  0
LINE
  8
0
  6
CONTINUOUS
 62
     7
  5
906
 10
-8.185039
 20
-8.53937
 30
0.0
 11
-8.185039
 21
0.523622
 31
0.0
  0
LINE
  8
0
  6
CONTINUOUS
 62
     7
  5
907
 10
-8.027559
 20
0.523622
 30
0.0
 11
-8.027559
 21
0.366142
 31
0.0
  0
ARC
  8
0
  6
CONTINUOUS
 62
     7
  5
908
 10
-7.988189
 20
0.523622
 30
0.0
 40
0.03937
 50
90.0
 51
180.0
  0
ARC
  8
0
  6
CONTINUOUS
 62
     7
  5
909
 10
-7.988189
 20
0.523622
 30
0.0
 40
0.19685
 50
90.0
 51
180.0
  0
LINE
  8
0
  6
CONTINUOUS
 62
     7
  5
90A
 10
-7.988189
 20
0.720472
 30
0.0
 11
-3.032496
 21
0.720472
 31
0.0
  0
LINE
  8
0
  6
CONTINUOUS
 62
     7
  5
90B
 10
-3.032496
 20
0.720472
 30
0.0
 11
-3.032496
 21
0.562992
 31
0.0
  0
LINE
  8
0
  6
CONTINUOUS
 62
     7
  5
90C
 10
-7.830709
 20
0.562992
 30
0.0
 11
-7.988189
 21
0.562992
 31
0.0
  0
LINE
  8
0
  6
CONTINUOUS
 62
     7
  5
90D
 10
-8.027559
 20
-8.53937
 30
0.0
 11
-8.185039
 21
-8.53937
 31
0.0
  0
ARC
  8
0
  6
CONTINUOUS
 62
     7
  5
90E
 10
-7.830709
 20
0.366142
 30
0.0
 40
0.03937
 50
90.0
 51
180.0
  0
LINE
  8
0
  6
CONTINUOUS
 62
     7
  5
90F
 10
-7.870079
 20
-8.53937
 30
0.0
 11
-8.027559
 21
-8.53937
 31
0.0
  0
LINE
  8
0
  6
CONTINUOUS
 62
     7
  5
910
 10
-8.027559
 20
-8.53937
 30
0.0
 11
-8.027559
 21
0.366142
 31
0.0
  0
ARC
  8
0
  6
CONTINUOUS
 62
     7
  5
911
 10
-7.830709
 20
0.366142
 30
0.0
 40
0.19685
 50
90.0
 51
180.0
  0
LINE
  8
0
  6
CONTINUOUS
 62
     7
  5
912
 10
-7.830709
 20
0.562992
 30
0.0
 11
-3.031496
 21
0.562992
 31
0.0
  0
LINE
  8
0
  6
CONTINUOUS
 62
     7
  5
913
 10
-3.031496
 20
0.562992
 30
0.0
 11
-3.031496
 21
0.405512
 31
0.0
  0
LINE
  8
0
  6
CONTINUOUS
 62
     7
  5
914
 10
-3.031496
 20
0.405512
 30
0.0
 11
-7.830709
 21
0.405512
 31
0.0
  0
LINE
  8
0
  6
CONTINUOUS
 62
     7
  5
915
 10
-1.289234
 20
1.656885
 30
0.0
 11
-1.466142
 21
1.350472
 31
0.0
  0
LINE
  8
0
  6
CONTINUOUS
 62
     7
  5
916
 10
-1.238838
 20
1.744173
 30
0.0
 11
-1.289234
 21
1.656885
 31
0.0
  0
LINE
  8
0
  6
CONTINUOUS
 62
     7
  5
917
 10
1.466142
 20
1.350472
 30
0.0
 11
1.289234
 21
1.656885
 31
0.0
  0
LINE
  8
0
  6
CONTINUOUS
 62
     7
  5
918
 10
1.289234
 20
1.656885
 30
0.0
 11
1.238838
 21
1.744173
 31
0.0
  0
LINE
  8
0
  6
CONTINUOUS
 62
     7
  5
919
 10
-1.238838
 20
1.744173
 30
0.0
 11
1.238838
 21
1.744173
 31
0.0
  0
LINE
  8
0
  6
CONTINUOUS
 62
     7
  5
91A
 10
-1.496063
 20
1.350472
 30
0.0
 11
1.496063
 21
1.350472
 31
0.0
  0
LINE
  8
0
  6
CONTINUOUS
 62
     7
  5
91B
 10
0.19685
 20
0.720472
 30
0.0
 11
-0.19685
 21
0.720472
 31
0.0
  0
LINE
  8
0
  6
CONTINUOUS
 62
     7
  5
91C
 10
-1.496063
 20
1.350472
 30
0.0
 11
-1.496063
 21
0.720472
 31
0.0
  0
LINE
  8
0
  6
CONTINUOUS
 62
     7
  5
91D
 10
1.496063
 20
1.350472
 30
0.0
 11
1.496063
 21
0.720472
 31
0.0
  0
LINE
  8
0
  6
CONTINUOUS
 62
     7
  5
91E
 10
-0.19685
 20
0.720472
 30
0.0
 11
-1.495063
 21
0.720472
 31
0.0
  0
CIRCLE
  8
0
  6
CONTINUOUS
 62
     7
  5
91F
 10
-0.954724
 20
-6.452756
 30
0.0
 40
0.492126
  0
LINE
  8
0
  6
CONTINUOUS
 62
     7
  5
920
 10
-1.929134
 20
-5.822835
 30
0.0
 11
-0.15748
 21
-5.822835
 31
0.0
  0
LINE
  8
0
  6
CONTINUOUS
 62
     7
  5
921
 10
-1.929134
 20
-5.822835
 30
0.0
 11
-1.929134
 21
-7.082677
 31
0.0
  0
LINE
  8
0
  6
CONTINUOUS
 62
     7
  5
922
 10
-0.15748
 20
-7.082677
 30
0.0
 11
-1.929134
 21
-7.082677
 31
0.0
  0
CIRCLE
  8
0
  6
CONTINUOUS
 62
     7
  5
923
 10
-0.954724
 20
-5.191913
 30
0.0
 40
0.492126
  0
LINE
  8
0
  6
CONTINUOUS
 62
     7
  5
924
 10
-1.929134
 20
-4.561992
 30
0.0
 11
-0.15748
 21
-4.561992
 31
0.0
  0
LINE
  8
0
  6
CONTINUOUS
 62
     7
  5
925
 10
-1.929134
 20
-4.561992
 30
0.0
 11
-1.929134
 21
-5.821835
 31
0.0
  0
LINE
  8
0
  6
CONTINUOUS
 62
     7
  5
926
 10
-0.15748
 20
-5.821835
 30
0.0
 11
-1.929134
 21
-5.821835
 31
0.0
  0
CIRCLE
  8
0
  6
CONTINUOUS
 62
     7
  5
927
 10
-0.954724
 20
-3.931071
 30
0.0
 40
0.492126
  0
LINE
  8
0
  6
CONTINUOUS
 62
     7
  5
928
 10
-1.929134
 20
-3.30115
 30
0.0
 11
-0.15748
 21
-3.30115
 31
0.0
  0
LINE
  8
0
  6
CONTINUOUS
 62
     7
  5
929
 10
-1.929134
 20
-3.30115
 30
0.0
 11
-1.929134
 21
-4.560992
 31
0.0
  0
LINE
  8
0
  6
CONTINUOUS
 62
     7
  5
92A
 10
-0.15748
 20
-4.560992
 30
0.0
 11
-1.929134
 21
-4.560992
 31
0.0
  0
CIRCLE
  8
0
  6
CONTINUOUS
 62
     7
  5
92B
 10
-0.954724
 20
-2.670228
 30
0.0
 40
0.492126
  0
LINE
  8
0
  6
CONTINUOUS
 62
     7
  5
92C
 10
-1.929134
 20
-2.040307
 30
0.0
 11
-0.15748
 21
-2.040307
 31
0.0
  0
LINE
  8
0
  6
CONTINUOUS
 62
     7
  5
92D
 10
-1.929134
 20
-2.040307
 30
0.0
 11
-1.929134
 21
-3.30015
 31
0.0
  0
LINE
  8
0
  6
CONTINUOUS
 62
     7
  5
92E
 10
-0.15748
 20
-3.30015
 30
0.0
 11
-1.929134
 21
-3.30015
 31
0.0
  0
CIRCLE
  8
0
  6
CONTINUOUS
 62
     7
  5
92F
 10
0.954724
 20
-6.452756
 30
0.0
 40
0.492126
  0
LINE
  8
0
  6
CONTINUOUS
 62
     7
  5
930
 10
1.929134
 20
-7.082677
 30
0.0
 11
0.15748
 21
-7.082677
 31
0.0
  0
LINE
  8
0
  6
CONTINUOUS
 62
     7
  5
931
 10
1.929134
 20
-7.082677
 30
0.0
 11
1.929134
 21
-5.822835
 31
0.0
  0
LINE
  8
0
  6
CONTINUOUS
 62
     7
  5
932
 10
0.15748
 20
-5.822835
 30
0.0
 11
1.929134
 21
-5.822835
 31
0.0
  0
CIRCLE
  8
0
  6
CONTINUOUS
 62
     7
  5
933
 10
0.954724
 20
-5.191913
 30
0.0
 40
0.492126
  0
LINE
  8
0
  6
CONTINUOUS
 62
     7
  5
934
 10
1.929134
 20
-5.821835
 30
0.0
 11
0.15748
 21
-5.821835
 31
0.0
  0
LINE
  8
0
  6
CONTINUOUS
 62
     7
  5
935
 10
1.929134
 20
-5.821835
 30
0.0
 11
1.929134
 21
-4.561992
 31
0.0
  0
LINE
  8
0
  6
CONTINUOUS
 62
     7
  5
936
 10
0.15748
 20
-4.561992
 30
0.0
 11
1.929134
 21
-4.561992
 31
0.0
  0
CIRCLE
  8
0
  6
CONTINUOUS
 62
     7
  5
937
 10
0.954724
 20
-3.931071
 30
0.0
 40
0.492126
  0
LINE
  8
0
  6
CONTINUOUS
 62
     7
  5
938
 10
1.929134
 20
-4.560992
 30
0.0
 11
0.15748
 21
-4.560992
 31
0.0
  0
LINE
  8
0
  6
CONTINUOUS
 62
     7
  5
939
 10
1.929134
 20
-4.560992
 30
0.0
 11
1.929134
 21
-3.30115
 31
0.0
  0
LINE
  8
0
  6
CONTINUOUS
 62
     7
  5
93A
 10
0.15748
 20
-3.30115
 30
0.0
 11
1.929134
 21
-3.30115
 31
0.0
  0
CIRCLE
  8
0
  6
CONTINUOUS
 62
     7
  5
93B
 10
0.954724
 20
-2.670228
 30
0.0
 40
0.492126
  0
LINE
  8
0
  6
CONTINUOUS
 62
     7
  5
93C
 10
1.929134
 20
-3.30015
 30
0.0
 11
0.15748
 21
-3.30015
 31
0.0
  0
LINE
  8
0
  6
CONTINUOUS
 62
     7
  5
93D
 10
1.929134
 20
-3.30015
 30
0.0
 11
1.929134
 21
-2.040307
 31
0.0
  0
LINE
  8
0
  6
CONTINUOUS
 62
     7
  5
93E
 10
0.15748
 20
-2.040307
 30
0.0
 11
1.929134
 21
-2.040307
 31
0.0
  0
LINE
  8
0
  6
CONTINUOUS
 62
     7
  5
93F
 10
0.15748
 20
-8.53937
 30
0.0
 11
0.15748
 21
-9.090551
 31
0.0
  0
ARC
  8
0
  6
CONTINUOUS
 62
     7
  5
940
 10
0.472441
 20
-9.090551
 30
0.0
 40
0.15748
 50
180.0
 51
270.0
  0
LINE
  8
0
  6
CONTINUOUS
 62
     7
  5
941
 10
0.314961
 20
-9.090551
 30
0.0
 11
0.314961
 21
-7.240157
 31
0.0
  0
LINE
  8
0
  6
CONTINUOUS
 62
     7
  5
942
 10
0.314961
 20
-7.240157
 30
0.0
 11
0.15748
 21
-7.240157
 31
0.0
  0
ARC
  8
0
  6
CONTINUOUS
 62
     7
  5
943
 10
0.472441
 20
-9.090551
 30
0.0
 40
0.314961
 50
180.0
 51
270.0
  0
LINE
  8
0
  6
CONTINUOUS
 62
     7
  5
944
 10
0.472441
 20
-9.405512
 30
0.0
 11
2.470472
 21
-9.405512
 31
0.0
  0
LINE
  8
0
  6
CONTINUOUS
 62
     7
  5
945
 10
2.470472
 20
-9.405512
 30
0.0
 11
2.470472
 21
-9.248031
 31
0.0
  0
LINE
  8
0
  6
CONTINUOUS
 62
     7
  5
946
 10
2.470472
 20
-9.248031
 30
0.0
 11
0.472441
 21
-9.248031
 31
0.0
  0
LINE
  8
0
  6
CONTINUOUS
 62
     7
  5
947
 10
-0.15748
 20
-8.53937
 30
0.0
 11
-0.15748
 21
-9.090551
 31
0.0
  0
ARC
  8
0
  6
CONTINUOUS
 62
     7
  5
948
 10
-0.472441
 20
-9.090551
 30
0.0
 40
0.15748
 50
270.0
 51
0.0
  0
LINE
  8
0
  6
CONTINUOUS
 62
     7
  5
949
 10
-0.314961
 20
-9.090551
 30
0.0
 11
-0.314961
 21
-7.240157
 31
0.0
  0
LINE
  8
0
  6
CONTINUOUS
 62
     7
  5
94A
 10
-0.314961
 20
-7.240157
 30
0.0
 11
-0.15748
 21
-7.240157
 31
0.0
  0
ARC
  8
0
  6
CONTINUOUS
 62
     7
  5
94B
 10
-0.472441
 20
-9.090551
 30
0.0
 40
0.314961
 50
270.0
 51
0.0
  0
LINE
  8
0
  6
CONTINUOUS
 62
     7
  5
94C
 10
-0.472441
 20
-9.405512
 30
0.0
 11
-2.470472
 21
-9.405512
 31
0.0
  0
LINE
  8
0
  6
CONTINUOUS
 62
     7
  5
94D
 10
-2.470472
 20
-9.405512
 30
0.0
 11
-2.470472
 21
-9.248031
 31
0.0
  0
LINE
  8
0
  6
CONTINUOUS
 62
     7
  5
94E
 10
-2.470472
 20
-9.248031
 30
0.0
 11
-0.472441
 21
-9.248031
 31
0.0
  0
LINE
  8
0
  6
CONTINUOUS
 62
     7
  5
94F
 10
0.15748
 20
0.523622
 30
0.0
 11
0.15748
 21
-8.53937
 31
0.0
  0
LINE
  8
0
  6
CONTINUOUS
 62
     7
  5
950
 10
-0.15748
 20
0.523622
 30
0.0
 11
-0.15748
 21
-8.53937
 31
0.0
  0
ARC
  8
0
  6
CONTINUOUS
 62
     7
  5
951
 10
0.19685
 20
0.523622
 30
0.0
 40
0.03937
 50
90.0
 51
180.0
  0
ARC
  8
0
  6
CONTINUOUS
 62
     7
  5
952
 10
0.19685
 20
0.523622
 30
0.0
 40
0.19685
 50
90.0
 51
180.0
  0
LINE
  8
0
  6
CONTINUOUS
 62
     7
  5
953
 10
0.19685
 20
0.720472
 30
0.0
 11
1.495063
 21
0.720472
 31
0.0
  0
LINE
  8
0
  6
CONTINUOUS
 62
     7
  5
954
 10
1.495063
 20
0.720472
 30
0.0
 11
1.495063
 21
0.562992
 31
0.0
  0
LINE
  8
0
  6
CONTINUOUS
 62
     7
  5
955
 10
1.495063
 20
0.562992
 30
0.0
 11
0.19685
 21
0.562992
 31
0.0
  0
LINE
  8
0
  6
CONTINUOUS
 62
     7
  5
956
 10
0.15748
 20
-8.53937
 30
0.0
 11
0.0
 21
-8.53937
 31
0.0
  0
LINE
  8
0
  6
CONTINUOUS
 62
     7
  5
957
 10
0.0
 20
-8.53937
 30
0.0
 11
0.0
 21
0.523622
 31
0.0
  0
ARC
  8
0
  6
CONTINUOUS
 62
     7
  5
958
 10
-0.19685
 20
0.523622
 30
0.0
 40
0.03937
 50
0.0
 51
90.0
  0
LINE
  8
0
  6
CONTINUOUS
 62
     7
  5
959
 10
-0.15748
 20
-8.53937
 30
0.0
 11
0.0
 21
-8.53937
 31
0.0
  0
ARC
  8
0
  6
CONTINUOUS
 62
     7
  5
95A
 10
-0.19685
 20
0.523622
 30
0.0
 40
0.19685
 50
0.0
 51
90.0
  0
LINE
  8
0
  6
CONTINUOUS
 62
     7
  5
95B
 10
-1.495063
 20
0.720472
 30
0.0
 11
-1.495063
 21
0.562992
 31
0.0
  0
LINE
  8
0
  6
CONTINUOUS
 62
     7
  5
95C
 10
-1.495063
 20
0.562992
 30
0.0
 11
-0.19685
 21
0.562992
 31
0.0
  0
LINE
  8
0
  6
CONTINUOUS
 62
     7
  5
95D
 10
-0.492126
 20
7.50034
 30
0.0
 11
-0.492126
 21
7.44489
 31
0.0
  0
LINE
  8
0
  6
CONTINUOUS
 62
     7
  5
95E
 10
0.492126
 20
7.44489
 30
0.0
 11
0.492126
 21
7.50034
 31
0.0
  0
ARC
  8
0
  6
CONTINUOUS
 62
     7
  5
95F
 10
-0.629921
 20
12.320448
 30
0.0
 40
0.059055
 50
180.0
 51
264.314311
  0
ARC
  8
0
  6
CONTINUOUS
 62
     7
  5
960
 10
-0.629921
 20
13.320879
 30
0.0
 40
0.059055
 50
95.685689
 51
180.0
  0
ARC
  8
0
  6
CONTINUOUS
 62
     7
  5
961
 10
0.629921
 20
13.320879
 30
0.0
 40
0.059055
 50
0.0
 51
84.314311
  0
ARC
  8
0
  6
CONTINUOUS
 62
     7
  5
962
 10
0.629921
 20
12.320448
 30
0.0
 40
0.059055
 50
275.685689
 51
0.0
  0
ARC
  8
0
  6
CONTINUOUS
 62
     7
  5
963
 10
0.0
 20
6.993892
 30
0.0
 40
6.417323
 50
84.314311
 51
95.685689
  0
ARC
  8
0
  6
CONTINUOUS
 62
     7
  5
964
 10
0.0
 20
18.647435
 30
0.0
 40
6.417323
 50
264.314311
 51
275.685689
  0
ARC
  8
0
  6
CONTINUOUS
 62
     7
  5
965
 10
5.403543
 20
0.922244
 30
0.0
 40
0.674213
 50
270.0
 51
309.966213
  0
ARC
  8
0
  6
CONTINUOUS
 62
     7
  5
966
 10
5.403543
 20
0.922244
 30
0.0
 40
0.674213
 50
230.033787
 51
270.0
  0
ARC
  8
0
  6
CONTINUOUS
 62
     7
  5
967
 10
3.651575
 20
0.922244
 30
0.0
 40
0.674213
 50
270.0
 51
309.966213
  0
ARC
  8
0
  6
CONTINUOUS
 62
     7
  5
968
 10
3.651575
 20
0.922244
 30
0.0
 40
0.674213
 50
230.033787
 51
270.0
  0
ARC
  8
0
  6
CONTINUOUS
 62
     7
  5
969
 10
-3.651575
 20
0.922244
 30
0.0
 40
0.674213
 50
270.0
 51
309.966213
  0
ARC
  8
0
  6
CONTINUOUS
 62
     7
  5
96A
 10
-3.651575
 20
0.922244
 30
0.0
 40
0.674213
 50
230.033787
 51
270.0
  0
ARC
  8
0
  6
CONTINUOUS
 62
     7
  5
96B
 10
-5.403543
 20
0.922244
 30
0.0
 40
0.674213
 50
270.0
 51
309.966213
  0
ARC
  8
0
  6
CONTINUOUS
 62
     7
  5
96C
 10
-5.403543
 20
0.922244
 30
0.0
 40
0.674213
 50
230.033787
 51
270.0
  0
ARC
  8
0
  6
CONTINUOUS
 62
     7
  5
96D
 10
0.875984
 20
1.079724
 30
0.0
 40
0.674213
 50
270.0
 51
309.966213
  0
ARC
  8
0
  6
CONTINUOUS
 62
     7
  5
96E
 10
0.875984
 20
1.079724
 30
0.0
 40
0.674213
 50
230.033787
 51
270.0
  0
ARC
  8
0
  6
CONTINUOUS
 62
     7
  5
96F
 10
-0.875984
 20
1.079724
 30
0.0
 40
0.674213
 50
270.0
 51
309.966213
  0
ARC
  8
0
  6
CONTINUOUS
 62
     7
  5
970
 10
-0.875984
 20
1.079724
 30
0.0
 40
0.674213
 50
230.033787
 51
270.0
  0
LINE
  8
0
  6
CONTINUOUS
 62
     3
  5
971
 10
-7.677165
 20
0.0
 30
0.0
 11
-7.677165
 21
0.838583
 31
0.0
  0
LINE
  8
0
  6
CONTINUOUS
 62
     3
  5
972
 10
7.677165
 20
0.0
 30
0.0
 11
7.677165
 21
0.838583
 31
0.0
  0
LINE
  8
0
  6
CONTINUOUS
 62
     3
  5
973
 10
3.651575
 20
0.720472
 30
0.0
 11
3.651575
 21
1.350472
 31
0.0
  0
LINE
  8
0
  6
CONTINUOUS
 62
     3
  5
974
 10
5.403543
 20
0.720472
 30
0.0
 11
5.403543
 21
1.350472
 31
0.0
  0
LINE
  8
0
  6
CONTINUOUS
 62
     3
  5
975
 10
-0.875984
 20
0.720472
 30
0.0
 11
-0.875984
 21
1.350472
 31
0.0
  0
LINE
  8
0
  6
CONTINUOUS
 62
     3
  5
976
 10
0.875984
 20
0.720472
 30
0.0
 11
0.875984
 21
1.350472
 31
0.0
  0
LINE
  8
0
  6
CONTINUOUS
 62
     3
  5
977
 10
-5.403543
 20
0.720472
 30
0.0
 11
-5.403543
 21
1.350472
 31
0.0
  0
LINE
  8
0
  6
CONTINUOUS
 62
     3
  5
978
 10
-3.651575
 20
0.720472
 30
0.0
 11
-3.651575
 21
1.350472
 31
0.0
  0
ENDSEC
  0
EOF
