999
DXF file: C:\Users\sesa63760\Dev\_Creo\CAD\MCADPD0005434_3D-CAD\drw0001_1.dxf
999
Pro/ENGINEER 2019471 by Parametric Technology Corporation
  0
SECTION
  2
HEADER
  9
$ACADVER
  1
AC1024
  9
$DWGCODEPAGE
  3
ANSI_1252
  9
$EXTMAX
 10
258.2893709997
 20
365.2949675568
 30
0.0
  9
$EXTMIN
 10
0.0
 20
0.0
 30
0.0
  9
$LIMMIN
 10
0.0
 20
0.0
  9
$LIMMAX
 10
258.2893709997
 20
365.2949675568
  9
$VIEWCTR
 10
129.1446854999
 20
182.6474837784
  9
$VIEWSIZE
 40
365.2949675568
  9
$CLAYER
  8
0
  9
$LTSCALE
 40
23.8118201074
  9
$CELTYPE
  6
BYLAYER
  9
$DIMSCALE
 40
1.0
  9
$DIMASZ
 40
3.0748734643
  9
$DIMEXO
 40
1.0
  9
$DIMDLI
 40
16.4518029833
  9
$DIMEXE
 40
1.0
  9
$DIMCEN
 40
3.8964796539
  9
$DIMLFAC
 40
1.0
  9
$DIMBLK
  1
_FILLED
  9
$DIMALT
 70
0
  9
$DIMALTF
 40
0.0393700787
  9
$DIMTXT
 40
4.30482285
  9
$DIMTOL
 70
1
  9
$DIMLIM
 70
0
  9
$DIMTFAC
 40
1.0
  9
$DIMTP
 40
0.01
  9
$DIMTM
 40
0.01
  9
$DIMGAP
 40
0.625
  9
$DIMDSEP
 70
46
  9
$AUNITS
 70
0
  9
$PDMODE
 70
3
  9
$PDSIZE
 40
0.3125
  9
$HANDSEED
  5
32E
  9
$TILEMODE
 70
1
  9
$MEASUREMENT
 70
1
  9
$INSUNITS
 70
4
  0
ENDSEC
  0
SECTION
  2
CLASSES
  0
CLASS
  1
ACDBDICTIONARYWDFLT
  2
AcDbDictionaryWithDefault
  3
AutoCAD 2000
 90
0
 91
1
280
0
281
0
  0
CLASS
  1
ACDBPLACEHOLDER
  2
AcDbPlaceHolder
  3
AutoCAD 2000
 90
0
 91
1
280
0
281
0
  0
CLASS
  1
LAYOUT
  2
AcDbLayout
  3
AutoCAD 2000
 90
0
 91
0
280
0
281
0
  0
ENDSEC
  0
SECTION
  2
TABLES
  0
TABLE
  2
VPORT
  5
8
100
AcDbSymbolTable
 70
2
  0
VPORT
  5
1F4
100
AcDbSymbolTableRecord
100
AcDbViewportTableRecord
  2
*ACTIVE
 70
0
 10
0.0
 20
0.0
 11
1.0
 21
1.0
 12
129.1446854999
 22
182.6474837784
 13
0.0
 23
0.0
 14
1.0
 24
1.0
 15
0.0
 25
0.0
 16
0.0
 26
0.0
 36
1.0
 17
0.0
 27
0.0
 37
0.0
 40
365.2949675568
 41
0.7070707071
 42
50.0
 43
0.0
 44
0.0
 50
0.0
 51
0.0
 71
0
 72
100
 73
1
 74
1
 75
0
 76
0
 77
0
 78
0
  0
ENDTAB
  0
TABLE
  2
LTYPE
  5
5
100
AcDbSymbolTable
 70
6
  0
LTYPE
  5
14
100
AcDbSymbolTableRecord
100
AcDbLinetypeTableRecord
  2
BYBLOCK
 70
0
  3

 72
65
 73
0
 40
0.0
  0
LTYPE
  5
15
100
AcDbSymbolTableRecord
100
AcDbLinetypeTableRecord
  2
BYLAYER
 70
0
  3

 72
65
 73
0
 40
0.0
  0
LTYPE
  5
16
100
AcDbSymbolTableRecord
100
AcDbLinetypeTableRecord
  2
CONTINUOUS
 70
64
  3
Solid line
 72
65
 73
0
 40
0.0
  0
LTYPE
  5
1F5
100
AcDbSymbolTableRecord
100
AcDbLinetypeTableRecord
  2
CENTER
 70
64
  3
____ _ ____ _ ____ _ ____ _ ____ _ ____ _ ____
 72
65
 73
4
 40
0.6
 49
0.375
 74
0
 49
-0.075
 74
0
 49
0.075
 74
0
 49
-0.075
 74
0
  0
LTYPE
  5
1F6
100
AcDbSymbolTableRecord
100
AcDbLinetypeTableRecord
  2
HIDDEN
 70
64
  3
- - - - - - - - - - - - - - - - - - - -
 72
65
 73
2
 40
0.2
 49
0.1
 74
0
 49
-0.1
 74
0
  0
LTYPE
  5
1F7
100
AcDbSymbolTableRecord
100
AcDbLinetypeTableRecord
  2
PHANTOM
 70
64
  3
_____ _ _ _____ _ _ _____ _ _ _____
 72
65
 73
6
 40
0.8
 49
0.45
 74
0
 49
-0.05
 74
0
 49
0.1
 74
0
 49
-0.05
 74
0
 49
0.1
 74
0
 49
-0.05
 74
0
  0
LTYPE
  5
1F8
100
AcDbSymbolTableRecord
100
AcDbLinetypeTableRecord
  2
DOT
 70
64
  3
. . . . . . . . . . . . . . . . . . . .
 72
65
 73
2
 40
0.2
 49
0.1
 74
0
 49
-0.1
 74
0
  0
LTYPE
  5
1F9
100
AcDbSymbolTableRecord
100
AcDbLinetypeTableRecord
  2
DASHED
 70
64
  3
- - - - - - - - - - - - - - - - - - - -
 72
65
 73
2
 40
0.2
 49
0.1
 74
0
 49
-0.1
 74
0
  0
ENDTAB
  0
TABLE
  2
LAYER
  5
2
100
AcDbSymbolTable
 70
36
  0
LAYER
  5
10
100
AcDbSymbolTableRecord
100
AcDbLayerTableRecord
  2
0
 70
0
 62
7
  6
CONTINUOUS
370
-3
390
F
  0
LAYER
  5
1FA
100
AcDbSymbolTableRecord
100
AcDbLayerTableRecord
  2
DEFAULT_1
 70
0
 62
7
  6
CENTER
370
-3
390
F
  0
LAYER
  5
1FB
100
AcDbSymbolTableRecord
100
AcDbLayerTableRecord
  2
DEFAULT_2
 70
0
 62
7
  6
HIDDEN
370
-3
390
F
  0
LAYER
  5
1FC
100
AcDbSymbolTableRecord
100
AcDbLayerTableRecord
  2
DEFAULT_3
 70
0
 62
7
  6
PHANTOM
370
-3
390
F
  0
LAYER
  5
1FD
100
AcDbSymbolTableRecord
100
AcDbLayerTableRecord
  2
00_COMPONENTS
 70
0
 62
7
  6
CONTINUOUS
370
-3
390
F
  0
LAYER
  5
1FE
100
AcDbSymbolTableRecord
100
AcDbLayerTableRecord
  2
01_1_DEFAULT_DATUMS
 70
0
 62
7
  6
CONTINUOUS
370
-3
390
F
  0
LAYER
  5
1FF
100
AcDbSymbolTableRecord
100
AcDbLayerTableRecord
  2
01_PLANES
 70
0
 62
7
  6
CONTINUOUS
370
-3
390
F
  0
LAYER
  5
200
100
AcDbSymbolTableRecord
100
AcDbLayerTableRecord
  2
02_COORD_SYS
 70
0
 62
7
  6
CONTINUOUS
370
-3
390
F
  0
LAYER
  5
201
100
AcDbSymbolTableRecord
100
AcDbLayerTableRecord
  2
03_AXES
 70
0
 62
7
  6
CONTINUOUS
370
-3
390
F
  0
LAYER
  5
202
100
AcDbSymbolTableRecord
100
AcDbLayerTableRecord
  2
04_POINTS
 70
0
 62
7
  6
CONTINUOUS
370
-3
390
F
  0
LAYER
  5
203
100
AcDbSymbolTableRecord
100
AcDbLayerTableRecord
  2
05_CURVES
 70
0
 62
7
  6
CONTINUOUS
370
-3
390
F
  0
LAYER
  5
204
100
AcDbSymbolTableRecord
100
AcDbLayerTableRecord
  2
06_SURFS
 70
0
 62
7
  6
CONTINUOUS
370
-3
390
F
  0
LAYER
  5
205
100
AcDbSymbolTableRecord
100
AcDbLayerTableRecord
  2
07_COSMETICS
 70
0
 62
7
  6
CONTINUOUS
370
-3
390
F
  0
LAYER
  5
206
100
AcDbSymbolTableRecord
100
AcDbLayerTableRecord
  2
10_NOTES
 70
0
 62
7
  6
CONTINUOUS
370
-3
390
F
  0
LAYER
  5
207
100
AcDbSymbolTableRecord
100
AcDbLayerTableRecord
  2
11_NOTES_PUB
 70
0
 62
7
  6
CONTINUOUS
370
-3
390
F
  0
LAYER
  5
208
100
AcDbSymbolTableRecord
100
AcDbLayerTableRecord
  2
13_REF_GTOL
 70
0
 62
7
  6
CONTINUOUS
370
-3
390
F
  0
LAYER
  5
209
100
AcDbSymbolTableRecord
100
AcDbLayerTableRecord
  2
16_MISC
 70
0
 62
7
  6
CONTINUOUS
370
-3
390
F
  0
LAYER
  5
20A
100
AcDbSymbolTableRecord
100
AcDbLayerTableRecord
  2
17_NO_PRINT
 70
0
 62
7
  6
CONTINUOUS
370
-3
390
F
  0
LAYER
  5
20B
100
AcDbSymbolTableRecord
100
AcDbLayerTableRecord
  2
18_DATUM_CAMS_JOINTS
 70
0
 62
7
  6
CONTINUOUS
370
-3
390
F
  0
LAYER
  5
20C
100
AcDbSymbolTableRecord
100
AcDbLayerTableRecord
  2
19_DATUM_FUNCTIONAL
 70
0
 62
7
  6
CONTINUOUS
370
-3
390
F
  0
LAYER
  5
20D
100
AcDbSymbolTableRecord
100
AcDbLayerTableRecord
  2
20_DATUM_KINEMATIC_SCHEME
 70
0
 62
7
  6
CONTINUOUS
370
-3
390
F
  0
ENDTAB
  0
TABLE
  2
STYLE
  5
3
100
AcDbSymbolTable
 70
1
  0
STYLE
  5
11
100
AcDbSymbolTableRecord
100
AcDbTextStyleTableRecord
  2
STANDARD
 70
0
 40
0.0
 41
1.0
 50
0.0
 71
0
 42
0.2
  3
ARIAL.TTF
  4

  0
STYLE
  5
20E
100
AcDbSymbolTableRecord
100
AcDbTextStyleTableRecord
  2
TEXTSTYLE_1
 70
0
 40
0.0
 41
0.8
 50
0.0
 71
0
 42
0.2
  3
gdt
  4

  0
ENDTAB
  0
TABLE
  2
VIEW
  5
6
100
AcDbSymbolTable
 70
0
  0
ENDTAB
  0
TABLE
  2
UCS
  5
7
100
AcDbSymbolTable
 70
0
  0
ENDTAB
  0
TABLE
  2
APPID
  5
9
100
AcDbSymbolTable
 70
1
  0
APPID
  5
20F
100
AcDbSymbolTableRecord
100
AcDbRegAppTableRecord
  2
ACAD
 70
0
  0
ENDTAB
  0
TABLE
  2
BLOCK_RECORD
  5
1
100
AcDbSymbolTable
 70
0
  0
BLOCK_RECORD
  5
210
100
AcDbSymbolTableRecord
100
AcDbBlockTableRecord
  2
*Model_Space
  0
BLOCK_RECORD
  5
211
100
AcDbSymbolTableRecord
100
AcDbBlockTableRecord
  2
*Paper_Space
  0
BLOCK_RECORD
  5
212
100
AcDbSymbolTableRecord
100
AcDbBlockTableRecord
  2
_FILLED
  0
ENDTAB
  0
TABLE
  2
DIMSTYLE
  5
A
100
AcDbSymbolTable
 70
1
100
AcDbDimStyleTable
 71
0
  0
DIMSTYLE
105
213
100
AcDbSymbolTableRecord
100
AcDbDimStyleTableRecord
  2
STANDARD
 70
0
  3

  4

 40
1.0
 41
3.0748734643
 42
1.0
 43
0.38
 44
1.0
 45
0.0
 46
0.0
 47
0.01
 48
0.01
140
4.30482285
141
0.09
142
0.0
143
25.4
144
1.0
145
0.0
146
1.0
147
0.625
 71
1
 72
0
 73
0
 74
0
 75
0
 76
0
 77
1
 78
8
 79
2
170
0
171
1
172
0
173
0
174
0
175
0
176
0
177
0
178
0
270
2
179
2
271
2
272
2
273
2
274
2
275
0
280
0
281
0
282
0
283
1
284
8
285
0
286
0
287
3
288
0
340
11
278
46
341
212
342
212
343
212
344
212
  0
ENDTAB
  0
ENDSEC
  0
SECTION
  2
BLOCKS
  0
BLOCK
  5
20
100
AcDbEntity
  8
0
100
AcDbBlockBegin
  2
*Model_Space
 70
0
 10
0.0
 20
0.0
 30
0.0
  3
*Model_Space
  1

  0
ENDBLK
  5
21
100
AcDbEntity
  8
0
100
AcDbBlockEnd
  0
BLOCK
  5
1C
100
AcDbEntity
  8
0
100
AcDbBlockBegin
  2
*Paper_Space
 70
0
 10
0.0
 20
0.0
 30
0.0
  3
*Paper_Space
  1

  0
ENDBLK
  5
1D
100
AcDbEntity
  8
0
100
AcDbBlockEnd
  0
BLOCK
  5
214
100
AcDbEntity
  8
0
100
AcDbBlockBegin
  2
_FILLED
 70
64
 10
0.0
 20
0.0
  3
_FILLED
  1

  0
SOLID
  5
215
100
AcDbEntity
  8
0
  6
BYBLOCK
 62
0
100
AcDbTrace
 10
0.0
 20
0.0
 11
-1.0
 21
0.25
 12
-1.0
 22
-0.25
 13
-1.0
 23
-0.25
  0
ENDBLK
  5
216
100
AcDbEntity
  8
0
  6
BYBLOCK
 62
0
100
AcDbBlockEnd
  0
ENDSEC
  0
SECTION
  2
ENTITIES
  0
LINE
  5
217
100
AcDbEntity
  8
0
100
AcDbLine
 62
7
  6
BYLAYER
 10
29.9645416697
 20
126.0343108511
 11
29.9645387258
 21
130.5250653909
  0
LINE
  5
218
100
AcDbEntity
  8
0
100
AcDbLine
 62
7
  6
BYLAYER
 10
35.6214165269
 20
122.7683760605
 11
29.9645416697
 21
126.0343108511
  0
LINE
  5
219
100
AcDbEntity
  8
0
100
AcDbLine
 62
7
  6
BYLAYER
 10
56.1274837415
 20
111.8680305388
 11
37.0355211625
 21
122.8905309108
  0
LINE
  5
21A
100
AcDbEntity
  8
0
100
AcDbLine
 62
7
  6
BYLAYER
 10
34.9143097458
 20
128.8921424893
 11
34.9143097458
 21
123.1766255694
  0
LINE
  5
21B
100
AcDbEntity
  8
0
100
AcDbLine
 62
7
  6
BYLAYER
 10
35.6214165269
 20
129.3003953976
 11
35.6214165269
 21
122.7683760605
  0
LINE
  5
21C
100
AcDbEntity
  8
0
100
AcDbLine
 62
7
  6
BYLAYER
 10
37.0355211625
 20
122.8905309108
 11
37.0355211625
 21
123.5848048791
  0
LINE
  5
21D
100
AcDbEntity
  8
0
100
AcDbLine
 62
7
  6
BYLAYER
 10
37.0355211625
 20
154.2543307255
 11
37.0355211625
 21
159.3881889565
  0
LINE
  5
21E
100
AcDbEntity
  8
0
100
AcDbLine
 62
7
  6
BYLAYER
 10
31.5252083391
 20
130.8487968333
 11
34.9143097458
 21
128.8921424893
  0
LINE
  5
21F
100
AcDbEntity
  8
0
100
AcDbLine
 62
7
  6
BYLAYER
 10
31.7323130386
 20
131.5457195474
 11
35.6214165269
 21
129.3003953976
  0
LINE
  5
220
100
AcDbEntity
  8
0
100
AcDbLine
 62
7
  6
BYLAYER
 10
49.4099413526
 20
137.2611563981
 11
49.4099413526
 21
130.729137061
  0
LINE
  5
221
100
AcDbEntity
  8
0
100
AcDbLine
 62
7
  6
BYLAYER
 10
56.1274837415
 20
148.3656885844
 11
56.1274837415
 21
143.2318303535
  0
LINE
  5
222
100
AcDbEntity
  8
0
100
AcDbLine
 62
7
  6
BYLAYER
 10
56.1274837415
 20
117.0018887697
 11
56.1274837415
 21
111.8680305388
  0
LINE
  5
223
100
AcDbEntity
  8
0
100
AcDbLine
 62
7
  6
BYLAYER
 10
31.5252083391
 20
130.8487968333
 11
31.7323130386
 21
131.5457195474
  0
LINE
  5
224
100
AcDbEntity
  8
0
100
AcDbLine
 62
7
  6
BYLAYER
 10
45.5208378643
 20
139.5064805479
 11
49.4099413526
 21
137.2611563981
  0
LINE
  5
225
100
AcDbEntity
  8
0
100
AcDbLine
 62
7
  6
BYLAYER
 10
58.9558990904
 20
149.9986651999
 11
58.9558990904
 21
144.864806969
  0
LINE
  5
226
100
AcDbEntity
  8
0
100
AcDbLine
 62
7
  6
BYLAYER
 10
58.9558990904
 20
118.6348653852
 11
58.9558990904
 21
113.5010071542
  0
LINE
  5
227
100
AcDbEntity
  8
0
100
AcDbLine
 62
7
  6
BYLAYER
 10
37.0355211625
 20
159.3881889565
 11
56.1274837415
 21
148.3656885844
  0
LINE
  5
228
100
AcDbEntity
  8
0
100
AcDbLine
 62
7
  6
BYLAYER
 10
39.8639365114
 20
161.021165572
 11
58.9558990904
 21
149.9986651999
  0
LINE
  5
229
100
AcDbEntity
  8
0
100
AcDbLine
 62
7
  6
BYLAYER
 10
37.0355211625
 20
159.3881889565
 11
39.8639365114
 21
161.021165572
  0
LINE
  5
22A
100
AcDbEntity
  8
0
100
AcDbLine
 62
7
  6
BYLAYER
 10
202.1600316071
 20
254.3183445814
 11
199.3316171665
 21
252.6853735545
  0
LINE
  5
22B
100
AcDbEntity
  8
0
100
AcDbLine
 62
7
  6
BYLAYER
 10
205.0600421311
 20
249.2953946747
 11
202.2316292404
 21
247.6624331836
  0
LINE
  5
22C
100
AcDbEntity
  8
0
100
AcDbLine
 62
7
  6
BYLAYER
 10
205.2710380759
 20
239.9486959342
 11
205.9781419131
 21
240.356940088
  0
LINE
  5
22D
100
AcDbEntity
  8
0
100
AcDbLine
 62
7
  6
BYLAYER
 10
188.8105759878
 20
229.0019269252
 11
187.5890311176
 21
228.2966718754
  0
LINE
  5
22E
100
AcDbEntity
  8
0
100
AcDbLine
 62
7
  6
BYLAYER
 10
181.8809583831
 20
225.0011342173
 11
180.6594135129
 21
224.2958791674
  0
LINE
  5
22F
100
AcDbEntity
  8
0
100
AcDbLine
 62
7
  6
BYLAYER
 10
174.9513407785
 20
221.0003415093
 11
171.2479472544
 21
218.8621990243
  0
LINE
  5
230
100
AcDbEntity
  8
0
100
AcDbLine
 62
7
  6
BYLAYER
 10
170.4176834643
 20
216.2177885843
 11
171.4783392201
 21
216.8301548151
  0
LINE
  5
231
100
AcDbEntity
  8
0
100
AcDbLine
 62
7
  6
BYLAYER
 10
196.3828026449
 20
231.2086676493
 11
206.1264272436
 21
236.8341183549
  0
LINE
  5
232
100
AcDbEntity
  8
0
100
AcDbLine
 62
7
  6
BYLAYER
 10
56.1274837415
 20
148.3656885844
 11
58.9558990904
 21
149.9986651999
  0
LINE
  5
233
100
AcDbEntity
  8
0
100
AcDbLine
 62
7
  6
BYLAYER
 10
170.5544363441
 20
218.3271140678
 11
171.2479482245
 21
218.8621973441
  0
LINE
  5
234
100
AcDbEntity
  8
0
100
AcDbLine
 62
7
  6
BYLAYER
 10
171.2438962654
 20
214.1335096497
 11
58.9558990904
 21
149.3043912316
  0
LINE
  5
235
100
AcDbEntity
  8
0
100
AcDbLine
 62
7
  6
BYLAYER
 10
29.9645387258
 20
130.5250653909
 11
45.5208378643
 21
139.5064805479
  0
LINE
  5
236
100
AcDbEntity
  8
0
100
AcDbLine
 62
7
  6
BYLAYER
 10
29.9645416697
 20
129.9477197493
 11
31.5252083391
 21
130.8487968333
  0
LINE
  5
237
100
AcDbEntity
  8
0
100
AcDbLine
 62
7
  6
BYLAYER
 10
56.1274837415
 20
143.2318303535
 11
58.9558990904
 21
144.864806969
  0
LINE
  5
238
100
AcDbEntity
  8
0
100
AcDbLine
 62
7
  6
BYLAYER
 10
176.9007704007
 20
210.8675814971
 11
61.8078404617
 21
144.4190440593
  0
LINE
  5
239
100
AcDbEntity
  8
0
100
AcDbLine
 62
7
  6
BYLAYER
 10
34.9143097458
 20
128.8921424893
 11
49.4099413526
 21
137.2611563981
  0
LINE
  5
23A
100
AcDbEntity
  8
0
100
AcDbLine
 62
7
  6
BYLAYER
 10
221.4317091774
 20
236.5775126379
 11
227.1601237875
 21
239.8848524786
  0
LINE
  5
23B
100
AcDbEntity
  8
0
100
AcDbLine
 62
7
  6
BYLAYER
 10
56.9933323845
 20
140.0554190639
 11
59.8217477334
 21
141.6883956794
  0
LINE
  5
23C
100
AcDbEntity
  8
0
100
AcDbLine
 62
7
  6
BYLAYER
 10
201.2074804222
 20
223.164860831
 11
195.5506497245
 21
219.8989076
  0
LINE
  5
23D
100
AcDbEntity
  8
0
100
AcDbLine
 62
7
  6
BYLAYER
 10
194.2778628175
 20
219.1640681231
 11
188.6210321198
 21
215.8981148921
  0
LINE
  5
23E
100
AcDbEntity
  8
0
100
AcDbLine
 62
7
  6
BYLAYER
 10
187.3482452128
 20
215.1632754151
 11
181.6914145151
 21
211.8973221841
  0
LINE
  5
23F
100
AcDbEntity
  8
0
100
AcDbLine
 62
7
  6
BYLAYER
 10
206.8684277706
 20
223.0818838293
 11
201.8126353346
 21
220.1629381291
  0
LINE
  5
240
100
AcDbEntity
  8
0
100
AcDbLine
 62
7
  6
BYLAYER
 10
195.2062581833
 20
216.2310484745
 11
194.6222543587
 21
215.8938757218
  0
LINE
  5
241
100
AcDbEntity
  8
0
100
AcDbLine
 62
7
  6
BYLAYER
 10
188.2766405786
 20
212.2302557665
 11
187.692636754
 21
211.8930830138
  0
LINE
  5
242
100
AcDbEntity
  8
0
100
AcDbLine
 62
7
  6
BYLAYER
 10
201.5518719634
 20
219.8946684297
 11
206.9703766955
 21
223.0230249216
  0
LINE
  5
243
100
AcDbEntity
  8
0
100
AcDbLine
 62
7
  6
BYLAYER
 10
207.6759323527
 20
222.205621613
 11
206.9703766955
 21
221.7982712959
  0
LINE
  5
244
100
AcDbEntity
  8
0
100
AcDbLine
 62
7
  6
BYLAYER
 10
176.900766735
 20
204.3355600437
 11
64.0755771665
 21
139.1962953039
  0
LINE
  5
245
100
AcDbEntity
  8
0
100
AcDbLine
 62
7
  6
BYLAYER
 10
35.6214165269
 20
122.7683760605
 11
49.4099413526
 21
130.729137061
  0
LINE
  5
246
100
AcDbEntity
  8
0
100
AcDbLine
 62
7
  6
BYLAYER
 10
187.692636754
 20
209.4435757625
 11
188.2766405786
 21
209.7807485151
  0
LINE
  5
247
100
AcDbEntity
  8
0
100
AcDbLine
 62
7
  6
BYLAYER
 10
178.2926482088
 20
202.5778681201
 11
179.3533039647
 21
203.1902343509
  0
LINE
  5
248
100
AcDbEntity
  8
0
100
AcDbLine
 62
7
  6
BYLAYER
 10
207.0278373015
 20
219.168038248
 11
214.0013919881
 21
223.1941978906
  0
LINE
  5
249
100
AcDbEntity
  8
0
100
AcDbLine
 62
7
  6
BYLAYER
 10
181.6914145151
 20
202.5097634059
 11
187.3482452128
 21
205.7757166369
  0
LINE
  5
24A
100
AcDbEntity
  8
0
100
AcDbLine
 62
7
  6
BYLAYER
 10
188.6210321198
 20
206.5105561139
 11
206.9703766955
 21
217.1044919068
  0
LINE
  5
24B
100
AcDbEntity
  8
0
100
AcDbLine
 62
7
  6
BYLAYER
 10
206.2768657852
 20
216.5694069504
 11
187.9275212095
 21
205.9754711574
  0
LINE
  5
24C
100
AcDbEntity
  8
0
100
AcDbLine
 62
7
  6
BYLAYER
 10
186.6547343025
 20
205.2406316804
 11
180.9979036048
 21
201.9746784495
  0
LINE
  5
24D
100
AcDbEntity
  8
0
100
AcDbLine
 62
7
  6
BYLAYER
 10
181.6914145151
 20
202.5097634059
 11
180.9979026347
 21
201.9746801297
  0
LINE
  5
24E
100
AcDbEntity
  8
0
100
AcDbLine
 62
7
  6
BYLAYER
 10
186.6547333324
 20
205.2406333607
 11
187.3482452128
 21
205.7757166369
  0
LINE
  5
24F
100
AcDbEntity
  8
0
100
AcDbLine
 62
7
  6
BYLAYER
 10
188.6210321198
 20
206.5105561139
 11
187.9275202394
 21
205.9754728376
  0
LINE
  5
250
100
AcDbEntity
  8
0
100
AcDbLine
 62
7
  6
BYLAYER
 10
216.2709888302
 20
220.896108619
 11
216.9780926674
 21
221.3043527729
  0
LINE
  5
251
100
AcDbEntity
  8
0
100
AcDbLine
 62
7
  6
BYLAYER
 10
206.2768535027
 20
216.5694282186
 11
206.9703766955
 21
217.1044919068
  0
LINE
  5
252
100
AcDbEntity
  8
0
100
AcDbLine
 62
7
  6
BYLAYER
 10
56.9933323845
 20
119.1785267829
 11
59.8217477334
 21
120.8115033984
  0
LINE
  5
253
100
AcDbEntity
  8
0
100
AcDbLine
 62
7
  6
BYLAYER
 10
58.9558990904
 20
118.6348653852
 11
56.1274837415
 21
117.0018887697
  0
LINE
  5
254
100
AcDbEntity
  8
0
100
AcDbLine
 62
7
  6
BYLAYER
 10
224.3316132479
 20
209.3841011038
 11
227.1598588929
 21
211.0169797413
  0
LINE
  5
255
100
AcDbEntity
  8
0
100
AcDbLine
 62
7
  6
BYLAYER
 10
56.1274837415
 20
111.8680305388
 11
58.9558990904
 21
113.5010071542
  0
LINE
  5
256
100
AcDbEntity
  8
0
100
AcDbLine
 62
7
  6
BYLAYER
 10
170.3953572637
 20
214.6234027879
 11
170.3953572637
 21
213.643608353
  0
LINE
  5
257
100
AcDbEntity
  8
0
100
AcDbLine
 62
7
  6
BYLAYER
 10
170.5544168762
 20
216.9751462089
 11
170.5544363441
 21
218.3271140678
  0
LINE
  5
258
100
AcDbEntity
  8
0
100
AcDbLine
 62
7
  6
BYLAYER
 10
171.1024640449
 20
214.215153279
 11
171.1024640449
 21
214.0518542065
  0
LINE
  5
259
100
AcDbEntity
  8
0
100
AcDbLine
 62
7
  6
BYLAYER
 10
176.0522277333
 20
203.8456587469
 11
176.900766735
 21
203.3557656087
  0
LINE
  5
25A
100
AcDbEntity
  8
0
100
AcDbLine
 62
7
  6
BYLAYER
 10
176.7593406241
 20
204.2539081279
 11
176.9007637911
 21
204.1722592715
  0
LINE
  5
25B
100
AcDbEntity
  8
0
100
AcDbLine
 62
7
  6
BYLAYER
 10
174.9513407785
 20
201.8451351382
 11
174.9513407785
 21
202.5061569488
  0
LINE
  5
25C
100
AcDbEntity
  8
0
100
AcDbLine
 62
7
  6
BYLAYER
 10
174.9513407785
 20
219.6699750592
 11
174.9513407785
 21
222.2576955665
  0
LINE
  5
25D
100
AcDbEntity
  8
0
100
AcDbLine
 62
7
  6
BYLAYER
 10
176.900766735
 20
203.3557656087
 11
176.900766735
 21
210.8675878463
  0
LINE
  5
25E
100
AcDbEntity
  8
0
100
AcDbLine
 62
7
  6
BYLAYER
 10
177.2490996162
 20
223.4445778768
 11
177.2490996162
 21
222.6280754597
  0
LINE
  5
25F
100
AcDbEntity
  8
0
100
AcDbLine
 62
7
  6
BYLAYER
 10
181.6914309744
 20
203.8616878531
 11
181.6914145151
 21
202.5097634059
  0
LINE
  5
260
100
AcDbEntity
  8
0
100
AcDbLine
 62
7
  6
BYLAYER
 10
181.6914145151
 20
211.8973221841
 11
181.691448135
 21
210.545208078
  0
LINE
  5
261
100
AcDbEntity
  8
0
100
AcDbLine
 62
7
  6
BYLAYER
 10
187.692636754
 20
209.4435757625
 11
187.629043088
 21
209.1679761046
  0
LINE
  5
262
100
AcDbEntity
  8
0
100
AcDbLine
 62
7
  6
BYLAYER
 10
176.900766735
 20
210.8675878463
 11
170.3953572637
 21
214.6234027879
  0
LINE
  5
263
100
AcDbEntity
  8
0
100
AcDbLine
 62
7
  6
BYLAYER
 10
181.8809583831
 20
223.7976635868
 11
181.8809583831
 21
226.2584882744
  0
LINE
  5
264
100
AcDbEntity
  8
0
100
AcDbLine
 62
7
  6
BYLAYER
 10
182.9513407785
 20
201.8451351382
 11
182.9513407785
 21
203.1024891954
  0
LINE
  5
265
100
AcDbEntity
  8
0
100
AcDbLine
 62
7
  6
BYLAYER
 10
182.9513407785
 20
219.6699750592
 11
182.9513407785
 21
222.2576955665
  0
LINE
  5
266
100
AcDbEntity
  8
0
100
AcDbLine
 62
7
  6
BYLAYER
 10
187.3482452128
 20
207.1278158644
 11
187.3482452128
 21
205.7757166369
  0
LINE
  5
267
100
AcDbEntity
  8
0
100
AcDbLine
 62
7
  6
BYLAYER
 10
187.3482452128
 20
213.8111761876
 11
187.3482452128
 21
215.1632754151
  0
LINE
  5
268
100
AcDbEntity
  8
0
100
AcDbLine
 62
7
  6
BYLAYER
 10
188.6210321198
 20
207.8626553413
 11
188.6210321198
 21
206.5105561139
  0
LINE
  5
269
100
AcDbEntity
  8
0
100
AcDbLine
 62
7
  6
BYLAYER
 10
188.6210321198
 20
214.5460156646
 11
188.6210321198
 21
215.8981148921
  0
LINE
  5
26A
100
AcDbEntity
  8
0
100
AcDbLine
 62
7
  6
BYLAYER
 10
188.8105759878
 20
227.7984562947
 11
188.8105759878
 21
230.2592809824
  0
LINE
  5
26B
100
AcDbEntity
  8
0
100
AcDbLine
 62
7
  6
BYLAYER
 10
189.8809583831
 20
205.8459278462
 11
189.8809583831
 21
207.1032819033
  0
LINE
  5
26C
100
AcDbEntity
  8
0
100
AcDbLine
 62
7
  6
BYLAYER
 10
189.8809583831
 20
223.6707677671
 11
189.8809583831
 21
226.2584882744
  0
LINE
  5
26D
100
AcDbEntity
  8
0
100
AcDbLine
 62
7
  6
BYLAYER
 10
180.3866667949
 20
220.8166620927
 11
176.541995779
 21
223.0363337229
  0
LINE
  5
26E
100
AcDbEntity
  8
0
100
AcDbLine
 62
7
  6
BYLAYER
 10
177.2490996162
 20
223.4445778768
 11
181.1995263224
 21
221.1638495516
  0
LINE
  5
26F
100
AcDbEntity
  8
0
100
AcDbLine
 62
7
  6
BYLAYER
 10
194.2778628175
 20
217.8119688956
 11
194.2778628175
 21
219.1640681231
  0
LINE
  5
270
100
AcDbEntity
  8
0
100
AcDbLine
 62
7
  6
BYLAYER
 10
195.5506497245
 20
218.5468083726
 11
195.5506497245
 21
219.8989076
  0
LINE
  5
271
100
AcDbEntity
  8
0
100
AcDbLine
 62
7
  6
BYLAYER
 10
196.8105759878
 20
227.6715604751
 11
196.8105759878
 21
230.2592809824
  0
LINE
  5
272
100
AcDbEntity
  8
0
100
AcDbLine
 62
7
  6
BYLAYER
 10
187.5028296781
 20
212.5694336968
 11
187.692636754
 21
211.8930830138
  0
LINE
  5
273
100
AcDbEntity
  8
0
100
AcDbLine
 62
7
  6
BYLAYER
 10
201.2074804222
 20
221.8127616035
 11
201.2074804222
 21
223.164860831
  0
LINE
  5
274
100
AcDbEntity
  8
0
100
AcDbLine
 62
7
  6
BYLAYER
 10
206.9703766955
 20
223.0230249216
 11
206.8684277706
 21
223.0818838293
  0
LINE
  5
275
100
AcDbEntity
  8
0
100
AcDbLine
 62
7
  6
BYLAYER
 10
194.4324472828
 20
216.5702264047
 11
194.6222543587
 21
215.8938757218
  0
LINE
  5
276
100
AcDbEntity
  8
0
100
AcDbLine
 62
7
  6
BYLAYER
 10
206.9703766955
 20
223.0230249216
 11
206.9703766955
 21
221.7982712959
  0
LINE
  5
277
100
AcDbEntity
  8
0
100
AcDbLine
 62
7
  6
BYLAYER
 10
206.9703766955
 20
218.4565911343
 11
206.9703766955
 21
217.1044919068
  0
LINE
  5
278
100
AcDbEntity
  8
0
100
AcDbLine
 62
7
  6
BYLAYER
 10
207.6759323527
 20
222.2012133101
 11
207.6759323527
 21
222.205621613
  0
LINE
  5
279
100
AcDbEntity
  8
0
100
AcDbLine
 62
7
  6
BYLAYER
 10
201.3620738188
 20
220.5709805638
 11
201.5518719634
 21
219.8946684297
  0
LINE
  5
27A
100
AcDbEntity
  8
0
100
AcDbLine
 62
7
  6
BYLAYER
 10
216.0745900907
 20
247.5278123589
 11
214.660340604
 21
248.344353027
  0
LINE
  5
27B
100
AcDbEntity
  8
0
100
AcDbLine
 62
7
  6
BYLAYER
 10
199.3316171665
 20
252.6853735545
 11
202.2316292404
 21
247.6624331836
  0
LINE
  5
27C
100
AcDbEntity
  8
0
100
AcDbLine
 62
7
  6
BYLAYER
 10
205.0600492947
 20
249.2953988106
 11
202.1600342541
 21
254.3183461096
  0
LINE
  5
27D
100
AcDbEntity
  8
0
100
AcDbLine
 62
7
  6
BYLAYER
 10
205.5287761626
 20
249.4400856624
 11
203.6178211275
 21
252.7499375698
  0
LINE
  5
27E
100
AcDbEntity
  8
0
100
AcDbLine
 62
7
  6
BYLAYER
 10
232.3376886006
 20
224.0950095596
 11
232.3377003774
 21
222.4619133639
  0
ARC
  5
27F
100
AcDbEntity
  8
0
100
AcDbCircle
 62
7
  6
BYLAYER
 10
120.0210338313
 20
176.5106925056
 40
113.1408253011
100
AcDbArc
 50
42.3644450599
 51
43.4488124615
  0
ARC
  5
280
100
AcDbEntity
  8
0
100
AcDbCircle
 62
7
  6
BYLAYER
 10
207.6368195722
 20
222.4540577412
 40
24.7008748674
100
AcDbArc
 50
0.0182314091
 51
3.6574769037
  0
ARC
  5
281
100
AcDbEntity
  8
0
100
AcDbCircle
 62
7
  6
BYLAYER
 10
48.3991780329
 20
131.1757969339
 40
17.3449504608
100
AcDbArc
 50
358.0865385371
 51
0.0083115426
  0
ARC
  5
282
100
AcDbEntity
  8
0
100
AcDbCircle
 62
7
  6
BYLAYER
 10
189.6567650064
 20
218.0527221792
 40
12.3499595994
100
AcDbArc
 50
17.8957328223
 51
20.3512773349
  0
ARC
  5
283
100
AcDbEntity
  8
0
100
AcDbCircle
 62
7
  6
BYLAYER
 10
205.5137165928
 20
230.2985779796
 40
10.5141136109
100
AcDbArc
 50
59.0930733651
 51
59.9984894572
  0
ARC
  5
284
100
AcDbEntity
  8
0
100
AcDbCircle
 62
7
  6
BYLAYER
 10
206.3454530804
 20
230.9223516028
 40
10.265143287
100
AcDbArc
 50
59.9994034019
 51
60.6782693536
  0
ARC
  5
285
100
AcDbEntity
  8
0
100
AcDbCircle
 62
7
  6
BYLAYER
 10
205.3991327138
 20
230.1000842806
 40
10.036199355
100
AcDbArc
 50
59.093073365
 51
59.9984894573
  0
ARC
  5
286
100
AcDbEntity
  8
0
100
AcDbCircle
 62
7
  6
BYLAYER
 10
178.5458016913
 20
214.5749831033
 40
9.0128261825
100
AcDbArc
 50
59.9975904091
 51
61.1345752115
  0
ARC
  5
287
100
AcDbEntity
  8
0
100
AcDbCircle
 62
7
  6
BYLAYER
 10
185.475419296
 20
218.5757758113
 40
9.0128261825
100
AcDbArc
 50
59.9975904091
 51
61.1345752115
  0
ARC
  5
288
100
AcDbEntity
  8
0
100
AcDbCircle
 62
7
  6
BYLAYER
 10
161.886342342
 20
217.2725198914
 40
8.6810707108
100
AcDbArc
 50
353.1005423633
 51
353.3225925133
  0
ARC
  5
289
100
AcDbEntity
  8
0
100
AcDbCircle
 62
7
  6
BYLAYER
 10
55.0707784554
 20
126.8220163951
 40
7.6776583614
100
AcDbArc
 50
321.1487740452
 51
326.8197406943
  0
ARC
  5
28A
100
AcDbEntity
  8
0
100
AcDbCircle
 62
7
  6
BYLAYER
 10
170.5708043025
 20
209.2739916095
 40
7.5679322504
100
AcDbArc
 50
58.7363806848
 51
59.9965432445
  0
ARC
  5
28B
100
AcDbEntity
  8
0
100
AcDbCircle
 62
7
  6
BYLAYER
 10
170.344254312
 20
208.8814727583
 40
6.6069249781
100
AcDbArc
 50
58.7363806846
 51
59.9965432438
  0
ARC
  5
28C
100
AcDbEntity
  8
0
100
AcDbCircle
 62
7
  6
BYLAYER
 10
57.9193580069
 20
127.5819639663
 40
6.362900745
100
AcDbArc
 50
300.0112179767
 51
306.6722153053
  0
ARC
  5
28D
100
AcDbEntity
  8
0
100
AcDbCircle
 62
7
  6
BYLAYER
 10
192.9886900072
 20
231.5911197845
 40
6.0154278564
100
AcDbArc
 50
237.9759504679
 51
240.0130272881
  0
ARC
  5
28E
100
AcDbEntity
  8
0
100
AcDbCircle
 62
7
  6
BYLAYER
 10
182.667343632
 20
210.6388892512
 40
5.3083251769
100
AcDbArc
 50
347.8626436957
 51
349.4715131488
  0
ARC
  5
28F
100
AcDbEntity
  8
0
100
AcDbCircle
 62
7
  6
BYLAYER
 10
182.8674799451
 20
210.5959243674
 40
5.1036290138
100
AcDbArc
 50
346.374341457
 51
347.8617971842
  0
ARC
  5
290
100
AcDbEntity
  8
0
100
AcDbCircle
 62
7
  6
BYLAYER
 10
179.0348146737
 20
207.2194358432
 40
4.9096807661
100
AcDbArc
 50
257.9006106901
 51
260.6361414894
  0
ARC
  5
291
100
AcDbEntity
  8
0
100
AcDbCircle
 62
7
  6
BYLAYER
 10
183.1316184818
 20
210.5312555756
 40
4.8316900347
100
AcDbArc
 50
342.9882661059
 51
346.381737125
  0
ARC
  5
292
100
AcDbEntity
  8
0
100
AcDbCircle
 62
7
  6
BYLAYER
 10
178.9886448887
 20
206.9490479856
 40
4.6353841019
100
AcDbArc
 50
260.6554423388
 51
262.1187496338
  0
ARC
  5
293
100
AcDbEntity
  8
0
100
AcDbCircle
 62
7
  6
BYLAYER
 10
207.1511462773
 20
236.663909307
 40
3.7857121832
100
AcDbArc
 50
108.2085565618
 51
110.9799857349
  0
ARC
  5
294
100
AcDbEntity
  8
0
100
AcDbCircle
 62
7
  6
BYLAYER
 10
179.2360182041
 20
224.355228055
 40
3.7655728288
100
AcDbArc
 50
288.3567811853
 51
291.5802873019
  0
ARC
  5
295
100
AcDbEntity
  8
0
100
AcDbCircle
 62
7
  6
BYLAYER
 10
207.120739566
 20
236.7421153642
 40
3.7018038998
100
AcDbArc
 50
110.9739513039
 51
119.9783031427
  0
ARC
  5
296
100
AcDbEntity
  8
0
100
AcDbCircle
 62
7
  6
BYLAYER
 10
186.2500993136
 20
208.9185149403
 40
3.388894325
100
AcDbArc
 50
287.2789830551
 51
289.3447020334
  0
ARC
  5
297
100
AcDbEntity
  8
0
100
AcDbCircle
 62
7
  6
BYLAYER
 10
186.2911550211
 20
208.8106056186
 40
3.2734789003
100
AcDbArc
 50
289.2923192411
 51
299.9924292147
  0
ARC
  5
298
100
AcDbEntity
  8
0
100
AcDbCircle
 62
7
  6
BYLAYER
 10
192.1475378257
 20
226.5489319624
 40
2.846325389
100
AcDbArc
 50
118.8681025595
 51
119.7526554512
  0
ARC
  5
299
100
AcDbEntity
  8
0
100
AcDbCircle
 62
7
  6
BYLAYER
 10
185.2179202212
 20
222.5481392542
 40
2.8463253893
100
AcDbArc
 50
118.8681025595
 51
119.752655451
  0
ARC
  5
29A
100
AcDbEntity
  8
0
100
AcDbCircle
 62
7
  6
BYLAYER
 10
171.353842033
 20
212.9636508429
 40
2.2862339827
100
AcDbArc
 50
118.4530415057
 51
118.9180227139
  0
ARC
  5
29B
100
AcDbEntity
  8
0
100
AcDbCircle
 62
7
  6
BYLAYER
 10
177.0240827035
 20
222.0487094432
 40
1.0230350875
100
AcDbArc
 50
165.5253805899
 51
172.0332876452
  0
ARC
  5
29C
100
AcDbEntity
  8
0
100
AcDbCircle
 62
7
  6
BYLAYER
 10
180.9004027106
 20
222.2588316916
 40
1.0009210214
100
AcDbArc
 50
348.4216491759
 51
359.9349646584
  0
ARC
  5
29D
100
AcDbEntity
  8
0
100
AcDbCircle
 62
7
  6
BYLAYER
 10
180.9010998381
 20
222.0522836965
 40
1.0002742207
100
AcDbArc
 50
4.3844103904
 51
11.1241447113
  0
ARC
  5
29E
100
AcDbEntity
  8
0
100
AcDbCircle
 62
7
  6
BYLAYER
 10
176.9974848458
 20
222.2583911795
 40
0.996126619
100
AcDbArc
 50
180.0400106182
 51
191.2256392201
  0
SPLINE
  5
29F
100
AcDbEntity
  8
0
100
AcDbSpline
 62
7
  6
BYLAYER
 70
0
 71
3
 72
9
 73
5
 74
0
 42
0.0000001
 43
0.0000001
 44
0.0000000001
 40
0.0
 40
0.0
 40
0.0
 40
0.0
 40
0.2629398861
 40
1.0
 40
1.0
 40
1.0
 40
1.0
 10
187.3482452128
 20
213.8111761875
 30
0.0
 10
187.3482452128
 20
213.7013472281
 30
0.0
 10
187.3635923179
 20
213.2836258508
 30
0.0
 10
187.4325256668
 20
212.8691414282
 30
0.0
 10
187.5027897784
 20
212.5693996763
 30
0.0
  0
SPLINE
  5
2A0
100
AcDbEntity
  8
0
100
AcDbSpline
 62
7
  6
BYLAYER
 70
0
 71
3
 72
9
 73
5
 74
0
 42
0.0000001
 43
0.0000001
 44
0.0000000001
 40
0.0
 40
0.0
 40
0.0
 40
0.0
 40
0.2629398861
 40
1.0
 40
1.0
 40
1.0
 40
1.0
 10
194.2778628175
 20
217.8119688955
 30
0.0
 10
194.2778628175
 20
217.7021399361
 30
0.0
 10
194.2932099226
 20
217.2844185587
 30
0.0
 10
194.3621432715
 20
216.8699341362
 30
0.0
 10
194.4324073831
 20
216.5701923843
 30
0.0
  0
SPLINE
  5
2A1
100
AcDbEntity
  8
0
100
AcDbSpline
 62
7
  6
BYLAYER
 70
0
 71
3
 72
9
 73
5
 74
0
 42
0.0000001
 43
0.0000001
 44
0.0000000001
 40
0.0
 40
0.0
 40
0.0
 40
0.0
 40
0.2629402143
 40
1.0
 40
1.0
 40
1.0
 40
1.0
 10
201.2074804222
 20
221.8127616035
 30
0.0
 10
201.2074804222
 20
221.7029290505
 30
0.0
 10
201.2228285133
 20
221.2851945202
 30
0.0
 10
201.2917660662
 20
220.8706972838
 30
0.0
 10
201.3620340074
 20
220.5709466185
 30
0.0
  0
SPLINE
  5
2A2
100
AcDbEntity
  8
0
100
AcDbSpline
 62
7
  6
BYLAYER
 70
0
 71
3
 72
11
 73
7
 74
0
 42
0.0000001
 43
0.0000001
 44
0.0000000001
 40
0.0
 40
0.0
 40
0.0
 40
0.0
 40
0.2177788926
 40
0.4509229168
 40
0.7102586199
 40
1.0
 40
1.0
 40
1.0
 40
1.0
 10
182.9309760744
 20
226.2584882753
 30
0.0
 10
182.9309561404
 20
226.1461285184
 30
0.0
 10
182.9725075422
 20
225.9119236118
 30
0.0
 10
183.1500328198
 20
225.585632776
 30
0.0
 10
183.4306813513
 20
225.2906310863
 30
0.0
 10
183.6655411624
 20
225.1289106156
 30
0.0
 10
183.7950020634
 20
225.0541680205
 30
0.0
  0
SPLINE
  5
2A3
100
AcDbEntity
  8
0
100
AcDbSpline
 62
7
  6
BYLAYER
 70
0
 71
3
 72
10
 73
6
 74
0
 42
0.0000001
 43
0.0000001
 44
0.0000000001
 40
0.0
 40
0.0
 40
0.0
 40
0.0
 40
0.2380205787
 40
0.4859541238
 40
1.0
 40
1.0
 40
1.0
 40
1.0
 10
206.9703766955
 20
218.4565911343
 30
0.0
 10
206.9703766955
 20
218.6203837569
 30
0.0
 10
206.9883925795
 20
218.9548298845
 30
0.0
 10
207.0730236871
 20
219.638027637
 30
0.0
 10
207.1753183199
 20
220.152975379
 30
0.0
 10
207.2521051228
 20
220.4982786599
 30
0.0
  0
SPLINE
  5
2A4
100
AcDbEntity
  8
0
100
AcDbSpline
 62
7
  6
BYLAYER
 70
0
 71
3
 72
11
 73
7
 74
0
 42
0.0000001
 43
0.0000001
 44
0.0000000001
 40
0.0
 40
0.0
 40
0.0
 40
0.0
 40
0.2686197626
 40
0.5212752529
 40
0.7631741457
 40
1.0
 40
1.0
 40
1.0
 40
1.0
 10
168.5022438989
 20
212.5558848529
 30
0.0
 10
168.5210010382
 20
212.9406224553
 30
0.0
 10
168.6192551427
 20
213.6867204143
 30
0.0
 10
168.9865968032
 20
214.7277192181
 30
0.0
 10
169.5800201092
 20
215.6079932177
 30
0.0
 10
170.1235783462
 20
216.0479879288
 30
0.0
 10
170.4176834643
 20
216.2177885843
 30
0.0
  0
SPLINE
  5
2A5
100
AcDbEntity
  8
0
100
AcDbSpline
 62
7
  6
BYLAYER
 70
0
 71
3
 72
11
 73
7
 74
0
 42
0.0000001
 43
0.0000001
 44
0.0000000001
 40
0.0
 40
0.0
 40
0.0
 40
0.0
 40
0.2370329468
 40
0.4790696234
 40
0.7316217272
 40
1.0
 40
1.0
 40
1.0
 40
1.0
 10
178.2926482088
 20
202.5778681201
 30
0.0
 10
178.0015548919
 20
202.4098063183
 30
0.0
 10
177.3561427781
 20
202.1607458215
 30
0.0
 10
176.3090518406
 20
202.0831337595
 30
0.0
 10
175.2350668143
 20
202.2765953901
 30
0.0
 10
174.5461138929
 20
202.5565693345
 30
0.0
 10
174.2064448944
 20
202.7282139088
 30
0.0
  0
SPLINE
  5
2A6
100
AcDbEntity
  8
0
100
AcDbSpline
 62
7
  6
BYLAYER
 70
0
 71
3
 72
9
 73
5
 74
0
 42
0.0000001
 43
0.0000001
 44
0.0000000001
 40
0.0
 40
0.0
 40
0.0
 40
0.0
 40
0.481409679
 40
1.0
 40
1.0
 40
1.0
 40
1.0
 10
211.8316692089
 20
210.6222080792
 30
0.0
 10
210.6591319936
 20
211.2991574414
 30
0.0
 10
208.341620119
 20
212.9143233328
 30
0.0
 10
206.2702257545
 20
214.828798132
 30
0.0
 10
205.259214342
 20
215.8800097569
 30
0.0
  0
SPLINE
  5
2A7
100
AcDbEntity
  8
0
100
AcDbSpline
 62
7
  6
BYLAYER
 70
0
 71
3
 72
16
 73
12
 74
0
 42
0.0000001
 43
0.0000001
 44
0.0000000001
 40
0.0
 40
0.0
 40
0.0
 40
0.0
 40
0.1567686775
 40
0.3057057142
 40
0.4452153735
 40
0.574310044
 40
0.6928149343
 40
0.8016067106
 40
0.9028063745
 40
0.9516870031
 40
1.0
 40
1.0
 40
1.0
 40
1.0
 10
195.7228858283
 20
231.9278807424
 30
0.0
 10
195.3634917691
 20
233.0536051644
 30
0.0
 10
194.7640002507
 20
235.2831607911
 30
0.0
 10
194.2298664516
 20
238.6028085906
 30
0.0
 10
194.0918052796
 20
241.7552653371
 30
0.0
 10
194.3545042391
 20
244.6715334782
 30
0.0
 10
195.0162222265
 20
247.2889956824
 30
0.0
 10
196.0686090535
 20
249.5489039347
 30
0.0
 10
197.2774459299
 20
251.1070660788
 30
0.0
 10
198.405186051
 20
252.0945164696
 30
0.0
 10
199.0162327914
 20
252.5032810945
 30
0.0
 10
199.3316171665
 20
252.6853735545
 30
0.0
  0
SPLINE
  5
2A8
100
AcDbEntity
  8
0
100
AcDbSpline
 62
7
  6
BYLAYER
 70
0
 71
3
 72
9
 73
5
 74
0
 42
0.0000001
 43
0.0000001
 44
0.0000000001
 40
0.0
 40
0.0
 40
0.0
 40
0.0
 40
0.2461136566
 40
1.0
 40
1.0
 40
1.0
 40
1.0
 10
228.5307504001
 20
238.3667766089
 30
0.0
 10
228.4216239164
 20
238.4942471093
 30
0.0
 10
227.9743143467
 20
239.0088261482
 30
0.0
 10
227.5135992332
 20
239.511698836
 30
0.0
 10
227.160115192
 20
239.8848587229
 30
0.0
  0
SPLINE
  5
2A9
100
AcDbEntity
  8
0
100
AcDbSpline
 62
7
  6
BYLAYER
 70
0
 71
3
 72
11
 73
7
 74
0
 42
0.0000001
 43
0.0000001
 44
0.0000000001
 40
0.0
 40
0.0
 40
0.0
 40
0.0
 40
0.2660601798
 40
0.525355262
 40
0.7716832557
 40
1.0
 40
1.0
 40
1.0
 40
1.0
 10
224.6713695617
 20
238.4545523128
 30
0.0
 10
224.1112987042
 20
239.4242551423
 30
0.0
 10
222.8967987248
 20
241.2786775899
 30
0.0
 10
220.8123773795
 20
243.779312407
 30
0.0
 10
218.5505309536
 20
245.8951689196
 30
0.0
 10
216.9068034187
 20
247.0473199389
 30
0.0
 10
216.0745900905
 20
247.527812359
 30
0.0
  0
SPLINE
  5
2AA
100
AcDbEntity
  8
0
100
AcDbSpline
 62
7
  6
BYLAYER
 70
0
 71
3
 72
10
 73
6
 74
0
 42
0.0000001
 43
0.0000001
 44
0.0000000001
 40
0.0
 40
0.0
 40
0.0
 40
0.0
 40
0.5139834648
 40
0.7619847259
 40
1.0
 40
1.0
 40
1.0
 40
1.0
 10
187.6296697514
 20
209.1681248366
 30
0.0
 10
187.55297725
 20
208.8230914274
 30
0.0
 10
187.4507524284
 20
208.3084931507
 30
0.0
 10
187.3661844211
 20
207.6257569778
 30
0.0
 10
187.3482452128
 20
207.2914932542
 30
0.0
 10
187.3482452128
 20
207.1278158644
 30
0.0
  0
SPLINE
  5
2AB
100
AcDbEntity
  8
0
100
AcDbSpline
 62
7
  6
BYLAYER
 70
0
 71
3
 72
11
 73
7
 74
0
 42
0.0000001
 43
0.0000001
 44
0.0000000001
 40
0.0
 40
0.0
 40
0.0
 40
0.0
 40
0.2177720698
 40
0.4509304349
 40
0.710227344
 40
1.0
 40
1.0
 40
1.0
 40
1.0
 10
174.9513703165
 20
201.8451351342
 30
0.0
 10
174.9513668357
 20
201.6927869975
 30
0.0
 10
175.0076313543
 20
201.3752049306
 30
0.0
 10
175.2483941456
 20
200.9328138425
 30
0.0
 10
175.6288918243
 20
200.5327729082
 30
0.0
 10
175.9473654759
 20
200.3135158163
 30
0.0
 10
176.1229254296
 20
200.2121585228
 30
0.0
  0
SPLINE
  5
2AC
100
AcDbEntity
  8
0
100
AcDbSpline
 62
7
  6
BYLAYER
 70
0
 71
3
 72
11
 73
7
 74
0
 42
0.0000001
 43
0.0000001
 44
0.0000000001
 40
0.0
 40
0.0
 40
0.0
 40
0.0
 40
0.2238598821
 40
0.4597411181
 40
0.716761701
 40
1.0
 40
1.0
 40
1.0
 40
1.0
 10
180.9979022603
 20
201.9746807782
 30
0.0
 10
180.7212917681
 20
201.8149524324
 30
0.0
 10
180.1003302525
 20
201.5714625387
 30
0.0
 10
179.0706701356
 20
201.4774790798
 30
0.0
 10
177.9669705788
 20
201.6433752526
 30
0.0
 10
177.2375796689
 20
201.9071098099
 30
0.0
 10
176.8692632105
 20
202.0734600848
 30
0.0
  0
SPLINE
  5
2AD
100
AcDbEntity
  8
0
100
AcDbSpline
 62
7
  6
BYLAYER
 70
0
 71
3
 72
11
 73
7
 74
0
 42
0.0000001
 43
0.0000001
 44
0.0000000001
 40
0.0
 40
0.0
 40
0.0
 40
0.0
 40
0.2187704408
 40
0.4549347518
 40
0.7147365528
 40
1.0
 40
1.0
 40
1.0
 40
1.0
 10
176.0204159824
 20
222.0644719252
 30
0.0
 10
176.0396152516
 20
221.9675284106
 30
0.0
 10
176.1094710712
 20
221.7710705905
 30
0.0
 10
176.2923564936
 20
221.5016855998
 30
0.0
 10
176.5485691935
 20
221.2559612056
 30
0.0
 10
176.7537846272
 20
221.1178060477
 30
0.0
 10
176.8653844587
 20
221.0533753126
 30
0.0
  0
SPLINE
  5
2AE
100
AcDbEntity
  8
0
100
AcDbSpline
 62
7
  6
BYLAYER
 70
0
 71
3
 72
17
 73
13
 74
0
 42
0.0000001
 43
0.0000001
 44
0.0000000001
 40
0.0
 40
0.0
 40
0.0
 40
0.0
 40
0.0428577246
 40
0.0874869852
 40
0.1353211383
 40
0.1872843315
 40
0.3045492906
 40
0.4382181134
 40
0.5825634005
 40
0.7297198633
 40
0.8713076695
 40
1.0
 40
1.0
 40
1.0
 40
1.0
 10
174.9513685217
 20
222.2576955665
 30
0.0
 10
174.9513694471
 20
222.3715598469
 30
0.0
 10
174.9817957396
 20
222.6049877407
 30
0.0
 10
175.1156736829
 20
222.9420311646
 30
0.0
 10
175.3329120708
 20
223.2615659096
 30
0.0
 10
175.7418399801
 20
223.671998984
 30
0.0
 10
176.4386800487
 20
224.0961382728
 30
0.0
 10
177.4405822949
 20
224.430823927
 30
0.0
 10
178.5649466738
 20
224.5888246001
 30
0.0
 10
179.7206016873
 20
224.5568100225
 30
0.0
 10
180.8132388649
 20
224.3382316174
 30
0.0
 10
181.4836522124
 20
224.0616239895
 30
0.0
 10
181.7797561273
 20
223.890672182
 30
0.0
  0
SPLINE
  5
2AF
100
AcDbEntity
  8
0
100
AcDbSpline
 62
7
  6
BYLAYER
 70
0
 71
3
 72
11
 73
7
 74
0
 42
0.0000001
 43
0.0000001
 44
0.0000000001
 40
0.0
 40
0.0
 40
0.0
 40
0.0
 40
0.2578750494
 40
0.5145124582
 40
0.763766846
 40
1.0
 40
1.0
 40
1.0
 40
1.0
 10
201.2074804222
 20
223.164860831
 30
0.0
 10
200.9461560318
 20
223.7291002879
 30
0.0
 10
200.3609262098
 20
224.8264276583
 30
0.0
 10
199.3193352001
 20
226.3497261587
 30
0.0
 10
198.1461331131
 20
227.7060746718
 30
0.0
 10
197.2743350537
 20
228.4934545848
 30
0.0
 10
196.8249537769
 20
228.8435072594
 30
0.0
  0
SPLINE
  5
2B0
100
AcDbEntity
  8
0
100
AcDbSpline
 62
7
  6
BYLAYER
 70
0
 71
3
 72
11
 73
7
 74
0
 42
0.0000001
 43
0.0000001
 44
0.0000000001
 40
0.0
 40
0.0
 40
0.0
 40
0.0
 40
0.2897753499
 40
0.5490692759
 40
0.7822277341
 40
1.0
 40
1.0
 40
1.0
 40
1.0
 10
195.6389913367
 20
231.8922575979
 30
0.0
 10
195.8145530596
 20
231.7908992829
 30
0.0
 10
196.1330278265
 20
231.5716429972
 30
0.0
 10
196.5135231577
 20
231.1716004853
 30
0.0
 10
196.7542904163
 20
230.7292124946
 30
0.0
 10
196.8105494828
 20
230.4116293752
 30
0.0
 10
196.8105482446
 20
230.2592809823
 30
0.0
  0
SPLINE
  5
2B1
100
AcDbEntity
  8
0
100
AcDbSpline
 62
7
  6
BYLAYER
 70
0
 71
3
 72
17
 73
13
 74
0
 42
0.0000001
 43
0.0000001
 44
0.0000000001
 40
0.0
 40
0.0
 40
0.0
 40
0.0
 40
0.1286923866
 40
0.2702770654
 40
0.4174340389
 40
0.5617798359
 40
0.6954508257
 40
0.8127132279
 40
0.8646789755
 40
0.912511046
 40
0.9571404529
 40
1.0
 40
1.0
 40
1.0
 40
1.0
 10
190.7246196681
 20
229.0549607284
 30
0.0
 10
190.9429961629
 20
228.9288838526
 30
0.0
 10
191.4374179468
 20
228.7248823324
 30
0.0
 10
192.2432348883
 20
228.5636952728
 30
0.0
 10
193.0955257857
 20
228.5400841721
 30
0.0
 10
193.9247455216
 20
228.6565987578
 30
0.0
 10
194.6636733729
 20
228.9033976212
 30
0.0
 10
195.1775381787
 20
229.2162651925
 30
0.0
 10
195.4791894017
 20
229.5188952087
 30
0.0
 10
195.6393360666
 20
229.754596228
 30
0.0
 10
195.7381253004
 20
230.0031420595
 30
0.0
 10
195.7605433978
 20
230.1753025965
 30
0.0
 10
195.7605582966
 20
230.2592809814
 30
0.0
  0
SPLINE
  5
2B2
100
AcDbEntity
  8
0
100
AcDbSpline
 62
7
  6
BYLAYER
 70
0
 71
3
 72
17
 73
13
 74
0
 42
0.0000001
 43
0.0000001
 44
0.0000000001
 40
0.0
 40
0.0
 40
0.0
 40
0.0
 40
0.0428577246
 40
0.0874869852
 40
0.1353211383
 40
0.1872843315
 40
0.3045492906
 40
0.4382181134
 40
0.5825634005
 40
0.7297198633
 40
0.8713076695
 40
1.0
 40
1.0
 40
1.0
 40
1.0
 10
181.8809861264
 20
226.2584882745
 30
0.0
 10
181.8809870518
 20
226.3723525549
 30
0.0
 10
181.9114133443
 20
226.6057804487
 30
0.0
 10
182.0452912876
 20
226.9428238726
 30
0.0
 10
182.2625296755
 20
227.2623586175
 30
0.0
 10
182.6714575848
 20
227.6727916919
 30
0.0
 10
183.3682976534
 20
228.0969309807
 30
0.0
 10
184.3701998996
 20
228.431616635
 30
0.0
 10
185.4945642785
 20
228.5896173081
 30
0.0
 10
186.650219292
 20
228.5576027305
 30
0.0
 10
187.7428564696
 20
228.3390243254
 30
0.0
 10
188.4132698171
 20
228.0624166975
 30
0.0
 10
188.709373732
 20
227.8914648899
 30
0.0
  0
SPLINE
  5
2B3
100
AcDbEntity
  8
0
100
AcDbSpline
 62
7
  6
BYLAYER
 70
0
 71
3
 72
11
 73
7
 74
0
 42
0.0000001
 43
0.0000001
 44
0.0000000001
 40
0.0
 40
0.0
 40
0.0
 40
0.0
 40
0.2578750494
 40
0.5145124582
 40
0.763766846
 40
1.0
 40
1.0
 40
1.0
 40
1.0
 10
194.2778628175
 20
219.1640681231
 30
0.0
 10
194.0165384271
 20
219.7283075799
 30
0.0
 10
193.4313086051
 20
220.8256349504
 30
0.0
 10
192.3897175954
 20
222.3489334508
 30
0.0
 10
191.2165155084
 20
223.7052819639
 30
0.0
 10
190.344717449
 20
224.4926618769
 30
0.0
 10
189.8953361722
 20
224.8427145515
 30
0.0
  0
SPLINE
  5
2B4
100
AcDbEntity
  8
0
100
AcDbSpline
 62
7
  6
BYLAYER
 70
0
 71
3
 72
11
 73
7
 74
0
 42
0.0000001
 43
0.0000001
 44
0.0000000001
 40
0.0
 40
0.0
 40
0.0
 40
0.0
 40
0.2177788926
 40
0.4509229168
 40
0.7102586199
 40
1.0
 40
1.0
 40
1.0
 40
1.0
 10
189.8605936791
 20
230.2592809833
 30
0.0
 10
189.8605737451
 20
230.1469212263
 30
0.0
 10
189.9021251469
 20
229.9127163197
 30
0.0
 10
190.0796504244
 20
229.5864254839
 30
0.0
 10
190.360298956
 20
229.2914237942
 30
0.0
 10
190.5951587671
 20
229.1297033236
 30
0.0
 10
190.7246196681
 20
229.0549607284
 30
0.0
  0
SPLINE
  5
2B5
100
AcDbEntity
  8
0
100
AcDbSpline
 62
7
  6
BYLAYER
 70
0
 71
3
 72
11
 73
7
 74
0
 42
0.0000001
 43
0.0000001
 44
0.0000000001
 40
0.0
 40
0.0
 40
0.0
 40
0.0
 40
0.2578750494
 40
0.5145124582
 40
0.763766846
 40
1.0
 40
1.0
 40
1.0
 40
1.0
 10
187.3482452128
 20
215.1632754151
 30
0.0
 10
187.0869208224
 20
215.727514872
 30
0.0
 10
186.5016910004
 20
216.8248422425
 30
0.0
 10
185.4600999907
 20
218.3481407428
 30
0.0
 10
184.2868979037
 20
219.7044892559
 30
0.0
 10
183.4150998443
 20
220.491869169
 30
0.0
 10
182.9657185675
 20
220.8419218435
 30
0.0
  0
SPLINE
  5
2B6
100
AcDbEntity
  8
0
100
AcDbSpline
 62
7
  6
BYLAYER
 70
0
 71
3
 72
11
 73
7
 74
0
 42
0.0000001
 43
0.0000001
 44
0.0000000001
 40
0.0
 40
0.0
 40
0.0
 40
0.0
 40
0.2897753499
 40
0.5490692759
 40
0.7822277341
 40
1.0
 40
1.0
 40
1.0
 40
1.0
 10
181.7797561273
 20
223.890672182
 30
0.0
 10
181.9553178502
 20
223.789313867
 30
0.0
 10
182.2737926171
 20
223.5700575813
 30
0.0
 10
182.6542879483
 20
223.1700150694
 30
0.0
 10
182.8950552069
 20
222.7276270787
 30
0.0
 10
182.9513142734
 20
222.4100439593
 30
0.0
 10
182.9513130352
 20
222.2576955664
 30
0.0
  0
SPLINE
  5
2B7
100
AcDbEntity
  8
0
100
AcDbSpline
 62
7
  6
BYLAYER
 70
0
 71
3
 72
11
 73
7
 74
0
 42
0.0000001
 43
0.0000001
 44
0.0000000001
 40
0.0
 40
0.0
 40
0.0
 40
0.0
 40
0.2309628961
 40
0.4859877877
 40
0.7484502365
 40
1.0
 40
1.0
 40
1.0
 40
1.0
 10
176.8653844587
 20
221.0533753126
 30
0.0
 10
177.109123497
 20
220.9126556967
 30
0.0
 10
177.6663528931
 20
220.69214537
 30
0.0
 10
178.5706884794
 20
220.5394832297
 30
0.0
 10
179.5127052247
 20
220.5558891256
 30
0.0
 10
180.131009301
 20
220.6846752652
 30
0.0
 10
180.4219221048
 20
220.7812707711
 30
0.0
  0
SPLINE
  5
2B8
100
AcDbEntity
  8
0
100
AcDbSpline
 62
7
  6
BYLAYER
 70
0
 71
3
 72
9
 73
5
 74
0
 42
0.0000001
 43
0.0000001
 44
0.0000000001
 40
0.0
 40
0.0
 40
0.0
 40
0.0
 40
0.2636290913
 40
1.0
 40
1.0
 40
1.0
 40
1.0
 10
180.6210133625
 20
220.8536102661
 30
0.0
 10
180.6811039265
 20
220.8774230342
 30
0.0
 10
180.9064547554
 20
220.9739138267
 30
0.0
 10
181.121522041
 20
221.0960945576
 30
0.0
 10
181.2672270066
 20
221.2027072778
 30
0.0
  0
SPLINE
  5
2B9
100
AcDbEntity
  8
0
100
AcDbSpline
 62
7
  6
BYLAYER
 70
0
 71
3
 72
10
 73
6
 74
0
 42
0.0000001
 43
0.0000001
 44
0.0000000001
 40
0.0
 40
0.0
 40
0.0
 40
0.0
 40
0.5352213109
 40
0.77447448
 40
1.0
 40
1.0
 40
1.0
 40
1.0
 10
181.2672270066
 20
221.2027072778
 30
0.0
 10
181.4217884159
 20
221.3158002819
 30
0.0
 10
181.6286922544
 20
221.509738771
 30
0.0
 10
181.8117772185
 20
221.8194514191
 30
0.0
 10
181.8647944791
 20
221.9788741428
 30
0.0
 10
181.8809561471
 20
222.0579390606
 30
0.0
  0
SPLINE
  5
2BA
100
AcDbEntity
  8
0
100
AcDbSpline
 62
7
  6
BYLAYER
 70
0
 71
3
 72
17
 73
13
 74
0
 42
0.0000001
 43
0.0000001
 44
0.0000000001
 40
0.0
 40
0.0
 40
0.0
 40
0.0
 40
0.0428577246
 40
0.0874869852
 40
0.1353211383
 40
0.1872843315
 40
0.3045492906
 40
0.4382181134
 40
0.5825634005
 40
0.7297198633
 40
0.8713076695
 40
1.0
 40
1.0
 40
1.0
 40
1.0
 10
188.8106037311
 20
230.2592809824
 30
0.0
 10
188.8106046565
 20
230.3731452628
 30
0.0
 10
188.841030949
 20
230.6065731566
 30
0.0
 10
188.9749088923
 20
230.9436165805
 30
0.0
 10
189.1921472802
 20
231.2631513255
 30
0.0
 10
189.6010751895
 20
231.6735843998
 30
0.0
 10
190.2979152581
 20
232.0977236887
 30
0.0
 10
191.2998175043
 20
232.4324093429
 30
0.0
 10
192.4241818832
 20
232.590410016
 30
0.0
 10
193.5798368967
 20
232.5583954384
 30
0.0
 10
194.6724740743
 20
232.3398170333
 30
0.0
 10
195.3428874218
 20
232.0632094054
 30
0.0
 10
195.6389913367
 20
231.8922575979
 30
0.0
  0
SPLINE
  5
2BB
100
AcDbEntity
  8
0
100
AcDbSpline
 62
7
  6
BYLAYER
 70
0
 71
3
 72
14
 73
10
 74
0
 42
0.0000001
 43
0.0000001
 44
0.0000000001
 40
0.0
 40
0.0
 40
0.0
 40
0.0
 40
0.1080470805
 40
0.218131082
 40
0.3321056529
 40
0.451502393
 40
0.5774623396
 40
0.7107280327
 40
1.0
 40
1.0
 40
1.0
 40
1.0
 10
227.1598979877
 20
211.017023984
 30
0.0
 10
227.5698009133
 20
211.2536647355
 30
0.0
 10
228.3578658222
 20
211.8036071323
 30
0.0
 10
229.3991943419
 20
212.8283871257
 30
0.0
 10
230.2947458082
 20
214.0447247185
 30
0.0
 10
231.0362275587
 20
215.4388546991
 30
0.0
 10
231.617986024
 20
216.9967724487
 30
0.0
 10
232.1897967435
 20
219.3346898918
 30
0.0
 10
232.3377246791
 20
221.194744294
 30
0.0
 10
232.3376931891
 20
222.4619175129
 30
0.0
  0
SPLINE
  5
2BC
100
AcDbEntity
  8
0
100
AcDbSpline
 62
7
  6
BYLAYER
 70
0
 71
3
 72
14
 73
10
 74
0
 42
0.0000001
 43
0.0000001
 44
0.0000000001
 40
0.0
 40
0.0
 40
0.0
 40
0.0
 40
0.1080479399
 40
0.2181332065
 40
0.3321070132
 40
0.4515036571
 40
0.5774645198
 40
0.7107220819
 40
1.0
 40
1.0
 40
1.0
 40
1.0
 10
224.3315991199
 20
209.3841256031
 30
0.0
 10
223.9217124012
 20
209.1474935235
 30
0.0
 10
223.0514836558
 20
208.7399239967
 30
0.0
 10
221.6433674057
 20
208.3505862055
 30
0.0
 10
220.1422925193
 20
208.1831550051
 30
0.0
 10
218.5642682868
 20
208.2380236386
 30
0.0
 10
216.924300491
 20
208.5131422363
 30
0.0
 10
214.6137940659
 20
209.1867974244
 30
0.0
 10
212.9290508644
 20
209.988648818
 30
0.0
 10
211.8316692089
 20
210.6222080792
 30
0.0
  0
SPLINE
  5
2BD
100
AcDbEntity
  8
0
100
AcDbSpline
 62
7
  6
BYLAYER
 70
0
 71
3
 72
11
 73
7
 74
0
 42
0.0000001
 43
0.0000001
 44
0.0000000001
 40
0.0
 40
0.0
 40
0.0
 40
0.0
 40
0.2291742808
 40
0.4749565652
 40
0.7334757149
 40
1.0
 40
1.0
 40
1.0
 40
1.0
 10
232.3376804482
 20
224.0950142588
 30
0.0
 10
232.3376569388
 20
225.2328704738
 30
0.0
 10
232.153434167
 20
227.5929715131
 30
0.0
 10
231.4083867031
 20
231.1658602186
 30
0.0
 10
230.2068939138
 20
234.8072989943
 30
0.0
 10
229.1338515039
 20
237.1889068676
 30
0.0
 10
228.5307220936
 20
238.3667683505
 30
0.0
  0
SPLINE
  5
2BE
100
AcDbEntity
  8
0
100
AcDbSpline
 62
7
  6
BYLAYER
 70
0
 71
3
 72
14
 73
10
 74
0
 42
0.0000001
 43
0.0000001
 44
0.0000000001
 40
0.0
 40
0.0
 40
0.0
 40
0.0
 40
0.2892757255
 40
0.4225336154
 40
0.5484958479
 40
0.6678933921
 40
0.7818625687
 40
0.8919604056
 40
1.0
 40
1.0
 40
1.0
 40
1.0
 10
214.6599929448
 20
248.3445543247
 30
0.0
 10
213.8172032593
 20
248.8311281688
 30
0.0
 10
212.5233146908
 20
249.4469548523
 30
0.0
 10
210.7488296825
 20
249.9643086312
 30
0.0
 10
209.4893175646
 20
250.1756273197
 30
0.0
 10
208.2773938132
 20
250.2177308559
 30
0.0
 10
207.1245211513
 20
250.0891741295
 30
0.0
 10
206.0431110697
 20
249.7900595557
 30
0.0
 10
205.3747302338
 20
249.4770988369
 30
0.0
 10
205.0599665604
 20
249.2953647494
 30
0.0
  0
SPLINE
  5
2BF
100
AcDbEntity
  8
0
100
AcDbSpline
 62
7
  6
BYLAYER
 70
0
 71
3
 72
12
 73
8
 74
0
 42
0.0000001
 43
0.0000001
 44
0.0000000001
 40
0.0
 40
0.0
 40
0.0
 40
0.0
 40
0.1128290517
 40
0.2269160987
 40
0.4637075369
 40
0.7196733955
 40
1.0
 40
1.0
 40
1.0
 40
1.0
 10
216.2709888302
 20
220.896108619
 30
0.0
 10
216.0832510774
 20
220.7877188239
 30
0.0
 10
215.6870509751
 20
220.6003224356
 30
0.0
 10
214.8281452377
 20
220.3518282414
 30
0.0
 10
213.6459985203
 20
220.2940878809
 30
0.0
 10
212.1813605232
 20
220.6064063096
 30
0.0
 10
211.2327313331
 20
221.0261458026
 30
0.0
 10
210.7592175133
 20
221.2827994648
 30
0.0
  0
SPLINE
  5
2C0
100
AcDbEntity
  8
0
100
AcDbSpline
 62
7
  6
BYLAYER
 70
0
 71
3
 72
12
 73
8
 74
0
 42
0.0000001
 43
0.0000001
 44
0.0000000001
 40
0.0
 40
0.0
 40
0.0
 40
0.0
 40
0.2798845382
 40
0.5357632344
 40
0.7727330085
 40
0.8869775724
 40
1.0
 40
1.0
 40
1.0
 40
1.0
 10
202.8519553367
 20
235.0466766218
 30
0.0
 10
202.869707212
 20
235.5781179593
 30
0.0
 10
202.9857688145
 20
236.5962234717
 30
0.0
 10
203.4501973252
 20
238.0015282483
 30
0.0
 10
204.0884697327
 20
238.9827695323
 30
0.0
 10
204.728013574
 20
239.5946140869
 30
0.0
 10
205.0850802374
 20
239.8413337669
 30
0.0
 10
205.2710380759
 20
239.9486959342
 30
0.0
  0
SPLINE
  5
2C1
100
AcDbEntity
  8
0
100
AcDbSpline
 62
7
  6
BYLAYER
 70
0
 71
3
 72
9
 73
5
 74
0
 42
0.0000001
 43
0.0000001
 44
0.0000000001
 40
0.0
 40
0.0
 40
0.0
 40
0.0
 40
0.2561335445
 40
1.0
 40
1.0
 40
1.0
 40
1.0
 10
170.5085256798
 20
216.2630927395
 30
0.0
 10
170.5156125217
 20
216.323631266
 30
0.0
 10
170.5407352796
 20
216.5602494803
 30
0.0
 10
170.5544363441
 20
216.7982998946
 30
0.0
 10
170.5544363441
 20
216.9753172726
 30
0.0
  0
SPLINE
  5
2C2
100
AcDbEntity
  8
0
100
AcDbSpline
 62
7
  6
BYLAYER
 70
0
 71
3
 72
17
 73
13
 74
0
 42
0.0000001
 43
0.0000001
 44
0.0000000001
 40
0.0
 40
0.0
 40
0.0
 40
0.0
 40
0.1286923866
 40
0.2702770654
 40
0.4174340389
 40
0.5617798359
 40
0.6954508257
 40
0.8127132279
 40
0.8646789755
 40
0.912511046
 40
0.9571404529
 40
1.0
 40
1.0
 40
1.0
 40
1.0
 10
183.7950020634
 20
225.0541680205
 30
0.0
 10
184.0133785582
 20
224.9280911447
 30
0.0
 10
184.5078003421
 20
224.7240896245
 30
0.0
 10
185.3136172836
 20
224.5629025649
 30
0.0
 10
186.165908181
 20
224.5392914642
 30
0.0
 10
186.9951279169
 20
224.6558060498
 30
0.0
 10
187.7340557682
 20
224.9026049133
 30
0.0
 10
188.247920574
 20
225.2154724846
 30
0.0
 10
188.549571797
 20
225.5181025007
 30
0.0
 10
188.7097184619
 20
225.75380352
 30
0.0
 10
188.8085076957
 20
226.0023493516
 30
0.0
 10
188.8309257931
 20
226.1745098886
 30
0.0
 10
188.8309406919
 20
226.2584882735
 30
0.0
  0
SPLINE
  5
2C3
100
AcDbEntity
  8
0
100
AcDbSpline
 62
7
  6
BYLAYER
 70
0
 71
3
 72
11
 73
7
 74
0
 42
0.0000001
 43
0.0000001
 44
0.0000000001
 40
0.0
 40
0.0
 40
0.0
 40
0.0
 40
0.2897753499
 40
0.5490692759
 40
0.7822277341
 40
1.0
 40
1.0
 40
1.0
 40
1.0
 10
188.709373732
 20
227.8914648899
 30
0.0
 10
188.8849354549
 20
227.790106575
 30
0.0
 10
189.2034102218
 20
227.5708502893
 30
0.0
 10
189.583905553
 20
227.1708077773
 30
0.0
 10
189.8246728116
 20
226.7284197867
 30
0.0
 10
189.8809318781
 20
226.4108366673
 30
0.0
 10
189.8809306399
 20
226.2584882744
 30
0.0
  0
SPLINE
  5
2C4
100
AcDbEntity
  8
0
100
AcDbSpline
 62
7
  6
BYLAYER
 70
0
 71
3
 72
16
 73
12
 74
0
 42
0.0000001
 43
0.0000001
 44
0.0000000001
 40
0.0
 40
0.0
 40
0.0
 40
0.0
 40
0.1432119614
 40
0.2912919884
 40
0.4380167058
 40
0.5773504066
 40
0.7042844139
 40
0.815863775
 40
0.9125215206
 40
0.9569247811
 40
1.0
 40
1.0
 40
1.0
 40
1.0
 10
184.1383170697
 20
203.7672413168
 30
0.0
 10
184.450776317
 20
203.6799326368
 30
0.0
 10
185.1022293848
 20
203.5562856163
 30
0.0
 10
186.0968692743
 20
203.5158861572
 30
0.0
 10
187.078714956
 20
203.6173938343
 30
0.0
 10
187.9879010166
 20
203.8546221018
 30
0.0
 10
188.7705255018
 20
204.214531883
 30
0.0
 10
189.3814340116
 20
204.6776657322
 30
0.0
 10
189.7245882025
 20
205.1516781484
 30
0.0
 10
189.8588348203
 20
205.5495255633
 30
0.0
 10
189.8809266156
 20
205.7483465384
 30
0.0
 10
189.8809288451
 20
205.8459278502
 30
0.0
  0
SPLINE
  5
2C5
100
AcDbEntity
  8
0
100
AcDbSpline
 62
7
  6
BYLAYER
 70
0
 71
3
 72
17
 73
13
 74
0
 42
0.0000001
 43
0.0000001
 44
0.0000000001
 40
0.0
 40
0.0
 40
0.0
 40
0.0
 40
0.1286905327
 40
0.2702754164
 40
0.4174303188
 40
0.5617777073
 40
0.6954492275
 40
0.8127150303
 40
0.8646781196
 40
0.9125120433
 40
0.9571415839
 40
1.0
 40
1.0
 40
1.0
 40
1.0
 10
176.1229254296
 20
200.2121585228
 30
0.0
 10
176.4190252075
 20
200.0412091037
 30
0.0
 10
177.0894261776
 20
199.7646053438
 30
0.0
 10
178.1820452842
 20
199.546023211
 30
0.0
 10
179.3376939596
 20
199.5140020478
 30
0.0
 10
180.4620673266
 20
199.6719997986
 30
0.0
 10
181.4639864124
 20
200.0066836702
 30
0.0
 10
182.160834933
 20
200.4308261804
 30
0.0
 10
182.569766058
 20
200.8412589405
 30
0.0
 10
182.7869999564
 20
201.1607955625
 30
0.0
 10
182.9208883779
 20
201.4978375802
 30
0.0
 10
182.9513086389
 20
201.7312690249
 30
0.0
 10
182.9513112404
 20
201.8451351423
 30
0.0
  0
SPLINE
  5
2C6
100
AcDbEntity
  8
0
100
AcDbSpline
 62
7
  6
BYLAYER
 70
0
 71
3
 72
11
 73
7
 74
0
 42
0.0000001
 43
0.0000001
 44
0.0000000001
 40
0.0
 40
0.0
 40
0.0
 40
0.0
 40
0.2897753499
 40
0.5490692759
 40
0.7822277341
 40
1.0
 40
1.0
 40
1.0
 40
1.0
 10
189.982160639
 20
228.6263043669
 30
0.0
 10
189.8065989161
 20
228.7276626818
 30
0.0
 10
189.4881241492
 20
228.9469189675
 30
0.0
 10
189.107628818
 20
229.3469614795
 30
0.0
 10
188.8668615593
 20
229.7893494701
 30
0.0
 10
188.8106024929
 20
230.1069325895
 30
0.0
 10
188.8106037311
 20
230.2592809824
 30
0.0
  0
SPLINE
  5
2C7
100
AcDbEntity
  8
0
100
AcDbSpline
 62
7
  6
BYLAYER
 70
0
 71
3
 72
17
 73
13
 74
0
 42
0.0000001
 43
0.0000001
 44
0.0000000001
 40
0.0
 40
0.0
 40
0.0
 40
0.0
 40
0.1286923866
 40
0.2702770654
 40
0.4174340389
 40
0.5617798359
 40
0.6954508257
 40
0.8127132279
 40
0.8646789755
 40
0.912511046
 40
0.9571404529
 40
1.0
 40
1.0
 40
1.0
 40
1.0
 10
194.8965323076
 20
231.4636012363
 30
0.0
 10
194.6781558128
 20
231.5896781121
 30
0.0
 10
194.1837340289
 20
231.7936796323
 30
0.0
 10
193.3779170874
 20
231.9548666919
 30
0.0
 10
192.52562619
 20
231.9784777926
 30
0.0
 10
191.6964064541
 20
231.8619632069
 30
0.0
 10
190.9574786028
 20
231.6151643435
 30
0.0
 10
190.443613797
 20
231.3022967722
 30
0.0
 10
190.141962574
 20
230.9996667561
 30
0.0
 10
189.9818159091
 20
230.7639657368
 30
0.0
 10
189.8830266753
 20
230.5154199052
 30
0.0
 10
189.8606085779
 20
230.3432593682
 30
0.0
 10
189.8605936791
 20
230.2592809833
 30
0.0
  0
SPLINE
  5
2C8
100
AcDbEntity
  8
0
100
AcDbSpline
 62
7
  6
BYLAYER
 70
0
 71
3
 72
11
 73
7
 74
0
 42
0.0000001
 43
0.0000001
 44
0.0000000001
 40
0.0
 40
0.0
 40
0.0
 40
0.0
 40
0.2605269151
 40
0.5224409666
 40
0.772661717
 40
1.0
 40
1.0
 40
1.0
 40
1.0
 10
195.5506497245
 20
218.5468083726
 30
0.0
 10
195.2784739302
 20
219.3086781009
 30
0.0
 10
194.6007329865
 20
220.7919134102
 30
0.0
 10
193.2696344375
 20
222.7999413447
 30
0.0
 10
191.7009734414
 20
224.4908886922
 30
0.0
 10
190.4969905891
 20
225.3798273447
 30
0.0
 10
189.8806702447
 20
225.724117571
 30
0.0
  0
SPLINE
  5
2C9
100
AcDbEntity
  8
0
100
AcDbSpline
 62
7
  6
BYLAYER
 70
0
 71
3
 72
12
 73
8
 74
0
 42
0.0000001
 43
0.0000001
 44
0.0000000001
 40
0.0
 40
0.0
 40
0.0
 40
0.0
 40
0.2888092454
 40
0.5475690449
 40
0.7808995494
 40
0.8914390933
 40
1.0
 40
1.0
 40
1.0
 40
1.0
 10
211.3724289134
 20
239.8723616964
 30
0.0
 10
210.897784756
 20
240.1389436527
 30
0.0
 10
209.9543972153
 20
240.5744309298
 30
0.0
 10
208.5082754276
 20
240.9078299743
 30
0.0
 10
207.355262235
 20
240.8678697998
 30
0.0
 10
206.5312047396
 20
240.6359052161
 30
0.0
 10
206.1553673472
 20
240.4592345035
 30
0.0
 10
205.9781554319
 20
240.3569166731
 30
0.0
  0
SPLINE
  5
2CA
100
AcDbEntity
  8
0
100
AcDbSpline
 62
7
  6
BYLAYER
 70
0
 71
3
 72
11
 73
7
 74
0
 42
0.0000001
 43
0.0000001
 44
0.0000000001
 40
0.0
 40
0.0
 40
0.0
 40
0.0
 40
0.227708746
 40
0.4756750536
 40
0.7361820116
 40
1.0
 40
1.0
 40
1.0
 40
1.0
 10
189.982160639
 20
226.3809227198
 30
0.0
 10
190.5516365078
 20
226.0521431116
 30
0.0
 10
191.6698016241
 20
225.2386458314
 30
0.0
 10
193.1686728765
 20
223.7206921379
 30
0.0
 10
194.4987644223
 20
221.9219774558
 30
0.0
 10
195.2304771249
 20
220.5902093701
 30
0.0
 10
195.5506497245
 20
219.8989076
 30
0.0
  0
SPLINE
  5
2CB
100
AcDbEntity
  8
0
100
AcDbSpline
 62
7
  6
BYLAYER
 70
0
 71
3
 72
11
 73
7
 74
0
 42
0.0000001
 43
0.0000001
 44
0.0000000001
 40
0.0
 40
0.0
 40
0.0
 40
0.0
 40
0.227708746
 40
0.4756750536
 40
0.7361820116
 40
1.0
 40
1.0
 40
1.0
 40
1.0
 10
176.1229254296
 20
218.3793373039
 30
0.0
 10
176.6924012984
 20
218.0505576957
 30
0.0
 10
177.8105664147
 20
217.2370604155
 30
0.0
 10
179.3094376671
 20
215.719106722
 30
0.0
 10
180.6395292129
 20
213.9203920399
 30
0.0
 10
181.3712419156
 20
212.5886239542
 30
0.0
 10
181.6914145151
 20
211.8973221841
 30
0.0
  0
SPLINE
  5
2CC
100
AcDbEntity
  8
0
100
AcDbSpline
 62
7
  6
BYLAYER
 70
0
 71
3
 72
17
 73
13
 74
0
 42
0.0000001
 43
0.0000001
 44
0.0000000001
 40
0.0
 40
0.0
 40
0.0
 40
0.0
 40
0.0428577246
 40
0.0874869852
 40
0.1353211383
 40
0.1872843315
 40
0.3045492906
 40
0.4382181134
 40
0.5825634005
 40
0.7297198633
 40
0.8713076695
 40
1.0
 40
1.0
 40
1.0
 40
1.0
 10
189.8809306399
 20
226.2584882744
 30
0.0
 10
189.8809297145
 20
226.144623994
 30
0.0
 10
189.850503422
 20
225.9111961002
 30
0.0
 10
189.7166254787
 20
225.5741526763
 30
0.0
 10
189.4993870908
 20
225.2546179313
 30
0.0
 10
189.0904591815
 20
224.844184857
 30
0.0
 10
188.3936191128
 20
224.4200455681
 30
0.0
 10
187.3917168667
 20
224.0853599139
 30
0.0
 10
186.2673524878
 20
223.9273592408
 30
0.0
 10
185.1116974743
 20
223.9593738184
 30
0.0
 10
184.0190602967
 20
224.1779522235
 30
0.0
 10
183.3486469492
 20
224.4545598514
 30
0.0
 10
183.0525430343
 20
224.6255116589
 30
0.0
  0
SPLINE
  5
2CD
100
AcDbEntity
  8
0
100
AcDbSpline
 62
7
  6
BYLAYER
 70
0
 71
3
 72
9
 73
5
 74
0
 42
0.0000001
 43
0.0000001
 44
0.0000000001
 40
0.0
 40
0.0
 40
0.0
 40
0.0
 40
0.2287631123
 40
1.0
 40
1.0
 40
1.0
 40
1.0
 10
194.6222543587
 20
215.8938757218
 30
0.0
 10
194.6311277352
 20
215.9149109958
 30
0.0
 10
194.6780266677
 20
216.003498351
 30
0.0
 10
194.7530861536
 20
216.0747373025
 30
0.0
 10
194.8158732163
 20
216.1192559607
 30
0.0
  0
SPLINE
  5
2CE
100
AcDbEntity
  8
0
100
AcDbSpline
 62
7
  6
BYLAYER
 70
0
 71
3
 72
9
 73
5
 74
0
 42
0.0000001
 43
0.0000001
 44
0.0000000001
 40
0.0
 40
0.0
 40
0.0
 40
0.0
 40
0.2367794718
 40
1.0
 40
1.0
 40
1.0
 40
1.0
 10
194.8158732163
 20
216.1192559607
 30
0.0
 10
194.8449400984
 20
216.1329206658
 30
0.0
 10
194.9703138289
 20
216.1850224019
 30
0.0
 10
195.1037374247
 20
216.2166328121
 30
0.0
 10
195.2062581833
 20
216.2310484745
 30
0.0
  0
SPLINE
  5
2CF
100
AcDbEntity
  8
0
100
AcDbSpline
 62
7
  6
BYLAYER
 70
0
 71
3
 72
17
 73
13
 74
0
 42
0.0000001
 43
0.0000001
 44
0.0000000001
 40
0.0
 40
0.0
 40
0.0
 40
0.0
 40
0.1052099541
 40
0.1589762265
 40
0.2138611029
 40
0.2703982052
 40
0.329158731
 40
0.4544483904
 40
0.5903552025
 40
0.7324817734
 40
0.872758681
 40
1.0
 40
1.0
 40
1.0
 40
1.0
 10
189.880959448
 20
223.6707468966
 30
0.0
 10
189.8809590728
 20
223.378672832
 30
0.0
 10
189.7929311104
 20
222.9313039175
 30
0.0
 10
189.5129492998
 20
222.4046182142
 30
0.0
 10
189.2195419984
 20
222.0478695308
 30
0.0
 10
188.8502383186
 20
221.7483445868
 30
0.0
 10
188.2573626104
 20
221.4327585361
 30
0.0
 10
187.3752099984
 20
221.2353273898
 30
0.0
 10
186.2490193969
 20
221.2733741996
 30
0.0
 10
185.1078991987
 20
221.5106125396
 30
0.0
 10
184.0308032404
 20
221.8823170397
 30
0.0
 10
183.3584556685
 20
222.2035152657
 30
0.0
 10
183.0525430343
 20
222.3801300118
 30
0.0
  0
SPLINE
  5
2D0
100
AcDbEntity
  8
0
100
AcDbSpline
 62
7
  6
BYLAYER
 70
0
 71
3
 72
10
 73
6
 74
0
 42
0.0000001
 43
0.0000001
 44
0.0000000001
 40
0.0
 40
0.0
 40
0.0
 40
0.0
 40
0.5144471357
 40
0.7625586609
 40
1.0
 40
1.0
 40
1.0
 40
1.0
 10
188.2766405786
 20
212.2302557665
 30
0.0
 10
188.368454417
 20
212.6218447415
 30
0.0
 10
188.4928514808
 20
213.2056783051
 30
0.0
 10
188.5980377729
 20
213.9807321226
 30
0.0
 10
188.6210321198
 20
214.3603776725
 30
0.0
 10
188.6210321198
 20
214.5460156646
 30
0.0
  0
SPLINE
  5
2D1
100
AcDbEntity
  8
0
100
AcDbSpline
 62
7
  6
BYLAYER
 70
0
 71
3
 72
18
 73
14
 74
0
 42
0.0000001
 43
0.0000001
 44
0.0000000001
 40
0.0
 40
0.0
 40
0.0
 40
0.0
 40
0.1550722935
 40
0.3062031114
 40
0.4497857578
 40
0.5828580853
 40
0.7035254546
 40
0.7591160695
 40
0.8116591717
 40
0.8614645311
 40
0.9090081372
 40
0.9549288892
 40
1.0
 40
1.0
 40
1.0
 40
1.0
 10
224.3317212513
 20
238.2518832606
 30
0.0
 10
225.1459387548
 20
236.8416255689
 30
0.0
 10
226.5988094679
 20
233.9639453023
 30
0.0
 10
228.2330853951
 20
229.5212510788
 30
0.0
 10
229.2534697078
 20
225.1327561955
 30
0.0
 10
229.6210464624
 20
220.9616920369
 30
0.0
 10
229.3614600771
 20
217.7019797874
 30
0.0
 10
228.7896242428
 20
215.363612544
 30
0.0
 10
228.2078634391
 20
213.8058394255
 30
0.0
 10
227.4663858406
 20
212.4117321692
 30
0.0
 10
226.5708469786
 20
211.1954398099
 30
0.0
 10
225.5295389925
 20
210.1706888408
 30
0.0
 10
224.7414921881
 20
209.6207613483
 30
0.0
 10
224.3315991199
 20
209.3841256031
 30
0.0
  0
SPLINE
  5
2D2
100
AcDbEntity
  8
0
100
AcDbSpline
 62
7
  6
BYLAYER
 70
0
 71
3
 72
11
 73
7
 74
0
 42
0.0000001
 43
0.0000001
 44
0.0000000001
 40
0.0
 40
0.0
 40
0.0
 40
0.0
 40
0.2605269151
 40
0.5224409666
 40
0.772661717
 40
1.0
 40
1.0
 40
1.0
 40
1.0
 10
188.6210321198
 20
214.5460156646
 30
0.0
 10
188.3488563255
 20
215.307885393
 30
0.0
 10
187.6711153818
 20
216.7911207023
 30
0.0
 10
186.3400168328
 20
218.7991486368
 30
0.0
 10
184.7713558367
 20
220.4900959843
 30
0.0
 10
183.5673729844
 20
221.3790346368
 30
0.0
 10
182.95105264
 20
221.7233248631
 30
0.0
  0
SPLINE
  5
2D3
100
AcDbEntity
  8
0
100
AcDbSpline
 62
7
  6
BYLAYER
 70
0
 71
3
 72
18
 73
14
 74
0
 42
0.0000001
 43
0.0000001
 44
0.0000000001
 40
0.0
 40
0.0
 40
0.0
 40
0.0
 40
0.0450656076
 40
0.0909948714
 40
0.1385358118
 40
0.1883411935
 40
0.2408849173
 40
0.2964749872
 40
0.4171417666
 40
0.5502129133
 40
0.6937962688
 40
0.8449264615
 40
1.0
 40
1.0
 40
1.0
 40
1.0
 10
202.2316292404
 20
247.6624331836
 30
0.0
 10
202.5463780013
 20
247.8441586611
 30
0.0
 10
203.2147755709
 20
248.1570959936
 30
0.0
 10
204.2961779977
 20
248.4562492319
 30
0.0
 10
205.449070028
 20
248.5848145187
 30
0.0
 10
206.6609999694
 20
248.5426544078
 30
0.0
 10
207.9204703508
 20
248.3313973513
 30
0.0
 10
209.6953064245
 20
247.8138283619
 30
0.0
 10
211.9630082364
 20
246.7347691441
 30
0.0
 10
214.5960553493
 20
244.8886597609
 30
0.0
 10
217.1230134994
 20
242.5248354761
 30
0.0
 10
219.4503311004
 20
239.7319140189
 30
0.0
 10
220.8063912827
 20
237.660588735
 30
0.0
 10
221.4317091774
 20
236.5775126379
 30
0.0
  0
SPLINE
  5
2D4
100
AcDbEntity
  8
0
100
AcDbSpline
 62
7
  6
BYLAYER
 70
0
 71
3
 72
11
 73
7
 74
0
 42
0.0000001
 43
0.0000001
 44
0.0000000001
 40
0.0
 40
0.0
 40
0.0
 40
0.0
 40
0.227708746
 40
0.4756750536
 40
0.7361820116
 40
1.0
 40
1.0
 40
1.0
 40
1.0
 10
183.0525430343
 20
222.3801300118
 30
0.0
 10
183.6220189031
 20
222.0513504037
 30
0.0
 10
184.7401840194
 20
221.2378531234
 30
0.0
 10
186.2390552718
 20
219.71989943
 30
0.0
 10
187.5691468176
 20
217.9211847478
 30
0.0
 10
188.3008595202
 20
216.5894166622
 30
0.0
 10
188.6210321198
 20
215.8981148921
 30
0.0
  0
SPLINE
  5
2D5
100
AcDbEntity
  8
0
100
AcDbSpline
 62
7
  6
BYLAYER
 70
0
 71
3
 72
9
 73
5
 74
0
 42
0.0000001
 43
0.0000001
 44
0.0000000001
 40
0.0
 40
0.0
 40
0.0
 40
0.0
 40
0.2570127475
 40
1.0
 40
1.0
 40
1.0
 40
1.0
 10
194.4005108054
 20
217.8416332992
 30
0.0
 10
194.4475976323
 20
217.6972346467
 30
0.0
 10
194.6201435815
 20
217.1320263435
 30
0.0
 10
194.7494765375
 20
216.5532591366
 30
0.0
 10
194.8159164089
 20
216.1192458654
 30
0.0
  0
SPLINE
  5
2D6
100
AcDbEntity
  8
0
100
AcDbSpline
 62
7
  6
BYLAYER
 70
0
 71
3
 72
11
 73
7
 74
0
 42
0.0000001
 43
0.0000001
 44
0.0000000001
 40
0.0
 40
0.0
 40
0.0
 40
0.0
 40
0.2177788926
 40
0.4509229168
 40
0.7102586199
 40
1.0
 40
1.0
 40
1.0
 40
1.0
 10
195.7605582966
 20
230.2592809814
 30
0.0
 10
195.7605782305
 20
230.3716407384
 30
0.0
 10
195.7190268288
 20
230.605845645
 30
0.0
 10
195.5415015512
 20
230.9321364808
 30
0.0
 10
195.2608530197
 20
231.2271381705
 30
0.0
 10
195.0259932086
 20
231.3888586412
 30
0.0
 10
194.8965323076
 20
231.4636012363
 30
0.0
  0
SPLINE
  5
2D7
100
AcDbEntity
  8
0
100
AcDbSpline
 62
7
  6
BYLAYER
 70
0
 71
3
 72
9
 73
5
 74
0
 42
0.0000001
 43
0.0000001
 44
0.0000000001
 40
0.0
 40
0.0
 40
0.0
 40
0.0
 40
0.2568855663
 40
1.0
 40
1.0
 40
1.0
 40
1.0
 10
215.2903393285
 20
220.5398607674
 30
0.0
 10
215.3833032901
 20
220.5366324603
 30
0.0
 10
215.7454184921
 20
220.533664133
 30
0.0
 10
216.1081975987
 20
220.5709368745
 30
0.0
 10
216.3720687706
 20
220.6236596077
 30
0.0
  0
SPLINE
  5
2D8
100
AcDbEntity
  8
0
100
AcDbSpline
 62
7
  6
BYLAYER
 70
0
 71
3
 72
23
 73
19
 74
0
 42
0.0000001
 43
0.0000001
 44
0.0000000001
 40
0.0
 40
0.0
 40
0.0
 40
0.0
 40
0.0441711438
 40
0.0878809899
 40
0.1332754623
 40
0.1821259713
 40
0.2082555928
 40
0.2356137356
 40
0.2940863224
 40
0.357505846
 40
0.4253524678
 40
0.4967942481
 40
0.5707801726
 40
0.721386827
 40
0.7956372461
 40
0.8675052213
 40
0.9359170256
 40
1.0
 40
1.0
 40
1.0
 40
1.0
 10
216.3720687706
 20
220.6236596077
 30
0.0
 10
216.7218723113
 20
220.6935520429
 30
0.0
 10
217.4043847603
 20
220.922765606
 30
0.0
 10
218.3005817886
 20
221.5430625185
 30
0.0
 10
219.0204355493
 20
222.4094919286
 30
0.0
 10
219.4498561584
 20
223.2907857956
 30
0.0
 10
219.6992603931
 20
224.0796291515
 30
0.0
 10
219.8918451748
 20
224.9642599515
 30
0.0
 10
219.9965607852
 20
226.1702988846
 30
0.0
 10
219.9150623253
 20
227.7044573971
 30
0.0
 10
219.6320935274
 20
229.3203971109
 30
0.0
 10
219.1548344537
 20
230.9785844185
 30
0.0
 10
218.2704858023
 20
233.2026591847
 30
0.0
 10
217.0687391615
 20
235.3145724681
 30
0.0
 10
215.6066523011
 20
237.2164570933
 30
0.0
 10
214.4201080072
 20
238.483242661
 30
0.0
 10
213.1691332227
 20
239.5644536163
 30
0.0
 10
212.2798587129
 20
240.1657898275
 30
0.0
 10
211.8316692089
 20
240.4245463044
 30
0.0
  0
SPLINE
  5
2D9
100
AcDbEntity
  8
0
100
AcDbSpline
 62
7
  6
BYLAYER
 70
0
 71
3
 72
9
 73
5
 74
0
 42
0.0000001
 43
0.0000001
 44
0.0000000001
 40
0.0
 40
0.0
 40
0.0
 40
0.0
 40
0.2287631123
 40
1.0
 40
1.0
 40
1.0
 40
1.0
 10
187.692636754
 20
211.8930830138
 30
0.0
 10
187.7015101305
 20
211.9141182878
 30
0.0
 10
187.748409063
 20
212.0027056431
 30
0.0
 10
187.8234685489
 20
212.0739445945
 30
0.0
 10
187.8862556116
 20
212.1184632528
 30
0.0
  0
SPLINE
  5
2DA
100
AcDbEntity
  8
0
100
AcDbSpline
 62
7
  6
BYLAYER
 70
0
 71
3
 72
9
 73
5
 74
0
 42
0.0000001
 43
0.0000001
 44
0.0000000001
 40
0.0
 40
0.0
 40
0.0
 40
0.0
 40
0.2367794718
 40
1.0
 40
1.0
 40
1.0
 40
1.0
 10
187.8862556116
 20
212.1184632528
 30
0.0
 10
187.9153224937
 20
212.1321279579
 30
0.0
 10
188.0406962242
 20
212.184229694
 30
0.0
 10
188.17411982
 20
212.2158401041
 30
0.0
 10
188.2766405786
 20
212.2302557665
 30
0.0
  0
SPLINE
  5
2DB
100
AcDbEntity
  8
0
100
AcDbSpline
 62
7
  6
BYLAYER
 70
0
 71
3
 72
11
 73
7
 74
0
 42
0.0000001
 43
0.0000001
 44
0.0000000001
 40
0.0
 40
0.0
 40
0.0
 40
0.0
 40
0.2378949647
 40
0.499886552
 40
0.7619261925
 40
1.0
 40
1.0
 40
1.0
 40
1.0
 10
190.7733463763
 20
229.0415542925
 30
0.0
 10
191.0657262769
 20
229.2027572726
 30
0.0
 10
191.7376969291
 20
229.4383082942
 30
0.0
 10
192.8085440887
 20
229.5517964134
 30
0.0
 10
193.8797571841
 20
229.4391687149
 30
0.0
 10
194.5521876726
 20
229.2040598478
 30
0.0
 10
194.8450001796
 20
229.0431222529
 30
0.0
  0
SPLINE
  5
2DC
100
AcDbEntity
  8
0
100
AcDbSpline
 62
7
  6
BYLAYER
 70
0
 71
3
 72
14
 73
10
 74
0
 42
0.0000001
 43
0.0000001
 44
0.0000000001
 40
0.0
 40
0.0
 40
0.0
 40
0.0
 40
0.2928224522
 40
0.4248873218
 40
0.5482753405
 40
0.6647120552
 40
0.7767175706
 40
0.8873867353
 40
1.0
 40
1.0
 40
1.0
 40
1.0
 10
211.8316692089
 20
240.4245463044
 30
0.0
 10
211.2102641209
 20
240.783306583
 30
0.0
 10
210.2497290394
 20
241.2200684817
 30
0.0
 10
208.9327746687
 20
241.5065296143
 30
0.0
 10
208.0183209763
 20
241.5565717424
 30
0.0
 10
207.1579427767
 20
241.4462212693
 30
0.0
 10
206.3659723926
 20
241.1750642128
 30
0.0
 10
205.6576066337
 20
240.746967973
 30
0.0
 10
205.2563707964
 20
240.3683360045
 30
0.0
 10
205.0750191106
 20
240.1603486509
 30
0.0
  0
SPLINE
  5
2DD
100
AcDbEntity
  8
0
100
AcDbSpline
 62
7
  6
BYLAYER
 70
0
 71
3
 72
9
 73
5
 74
0
 42
0.0000001
 43
0.0000001
 44
0.0000000001
 40
0.0
 40
0.0
 40
0.0
 40
0.0
 40
0.2424371691
 40
1.0
 40
1.0
 40
1.0
 40
1.0
 10
205.0750191106
 20
240.1603486509
 30
0.0
 10
205.0038211401
 20
240.0786936202
 30
0.0
 10
204.7229877214
 20
239.7307543719
 30
0.0
 10
204.4947172388
 20
239.3415638317
 30
0.0
 10
204.3509706066
 20
239.0350725024
 30
0.0
  0
SPLINE
  5
2DE
100
AcDbEntity
  8
0
100
AcDbSpline
 62
7
  6
BYLAYER
 70
0
 71
3
 72
9
 73
5
 74
0
 42
0.0000001
 43
0.0000001
 44
0.0000000001
 40
0.0
 40
0.0
 40
0.0
 40
0.0
 40
0.2469752106
 40
1.0
 40
1.0
 40
1.0
 40
1.0
 10
181.6914145151
 20
210.545677921
 30
0.0
 10
181.6914145151
 20
210.5223396326
 30
0.0
 10
181.6906815216
 20
210.4278436323
 30
0.0
 10
181.6871706674
 20
210.3333768119
 30
0.0
 10
181.6832350931
 20
210.2623275355
 30
0.0
  0
SPLINE
  5
2DF
100
AcDbEntity
  8
0
100
AcDbSpline
 62
7
  6
BYLAYER
 70
0
 71
3
 72
10
 73
6
 74
0
 42
0.0000001
 43
0.0000001
 44
0.0000000001
 40
0.0
 40
0.0
 40
0.0
 40
0.0
 40
0.5144471357
 40
0.7625586609
 40
1.0
 40
1.0
 40
1.0
 40
1.0
 10
195.2062581833
 20
216.2310484745
 30
0.0
 10
195.2980720217
 20
216.6226374495
 30
0.0
 10
195.4224690855
 20
217.2064710131
 30
0.0
 10
195.5276553776
 20
217.9815248305
 30
0.0
 10
195.5506497245
 20
218.3611703804
 30
0.0
 10
195.5506497245
 20
218.5468083726
 30
0.0
  0
SPLINE
  5
2E0
100
AcDbEntity
  8
0
100
AcDbSpline
 62
7
  6
BYLAYER
 70
0
 71
3
 72
17
 73
13
 74
0
 42
0.0000001
 43
0.0000001
 44
0.0000000001
 40
0.0
 40
0.0
 40
0.0
 40
0.0
 40
0.0428577246
 40
0.0874869852
 40
0.1353211383
 40
0.1872843315
 40
0.3045492906
 40
0.4382181134
 40
0.5825634005
 40
0.7297198633
 40
0.8713076695
 40
1.0
 40
1.0
 40
1.0
 40
1.0
 10
196.8105482446
 20
230.2592809823
 30
0.0
 10
196.8105473192
 20
230.1454167019
 30
0.0
 10
196.7801210267
 20
229.9119888081
 30
0.0
 10
196.6462430834
 20
229.5749453842
 30
0.0
 10
196.4290046955
 20
229.2554106393
 30
0.0
 10
196.0200767862
 20
228.8449775649
 30
0.0
 10
195.3232367175
 20
228.4208382761
 30
0.0
 10
194.3213344714
 20
228.0861526218
 30
0.0
 10
193.1969700925
 20
227.9281519487
 30
0.0
 10
192.0413150789
 20
227.9601665263
 30
0.0
 10
190.9486779014
 20
228.1787449314
 30
0.0
 10
190.2782645539
 20
228.4553525593
 30
0.0
 10
189.982160639
 20
228.6263043669
 30
0.0
  0
SPLINE
  5
2E1
100
AcDbEntity
  8
0
100
AcDbSpline
 62
7
  6
BYLAYER
 70
0
 71
3
 72
13
 73
9
 74
0
 42
0.0000001
 43
0.0000001
 44
0.0000000001
 40
0.0
 40
0.0
 40
0.0
 40
0.0
 40
0.3307654275
 40
0.6033714972
 40
0.7181385651
 40
0.82037383
 40
0.9129391216
 40
1.0
 40
1.0
 40
1.0
 40
1.0
 10
176.1229254296
 20
218.3793373039
 30
0.0
 10
175.9499528025
 20
218.4792008375
 30
0.0
 10
175.6423868057
 20
218.6756601045
 30
0.0
 10
175.3098204319
 20
218.9582372574
 30
0.0
 10
175.1210360224
 20
219.186813388
 30
0.0
 10
175.02418982
 20
219.3477344837
 30
0.0
 10
174.9648890025
 20
219.5085264963
 30
0.0
 10
174.9513395848
 20
219.6173744081
 30
0.0
 10
174.9513397075
 20
219.669945528
 30
0.0
  0
SPLINE
  5
2E2
100
AcDbEntity
  8
0
100
AcDbSpline
 62
7
  6
BYLAYER
 70
0
 71
3
 72
17
 73
13
 74
0
 42
0.0000001
 43
0.0000001
 44
0.0000000001
 40
0.0
 40
0.0
 40
0.0
 40
0.0
 40
0.1052104257
 40
0.1589773946
 40
0.2138625815
 40
0.2703998586
 40
0.3291606039
 40
0.4544518522
 40
0.5903600893
 40
0.7324860953
 40
0.8727607427
 40
1.0
 40
1.0
 40
1.0
 40
1.0
 10
196.8105769396
 20
227.6715404105
 30
0.0
 10
196.8105765942
 20
227.3794650392
 30
0.0
 10
196.7225487002
 20
226.9320923404
 30
0.0
 10
196.4425613666
 20
226.4054047928
 30
0.0
 10
196.1491517176
 20
226.0486540936
 30
0.0
 10
195.779846398
 20
225.7491276143
 30
0.0
 10
195.1869622411
 20
225.4335455554
 30
0.0
 10
194.3047999674
 20
225.2361160516
 30
0.0
 10
193.178602978
 20
225.2741764458
 30
0.0
 10
192.0374866883
 20
225.5114128937
 30
0.0
 10
190.9604063612
 20
225.8831210479
 30
0.0
 10
190.2880683139
 20
226.2043108368
 30
0.0
 10
189.982160639
 20
226.3809227198
 30
0.0
  0
SPLINE
  5
2E3
100
AcDbEntity
  8
0
100
AcDbSpline
 62
7
  6
BYLAYER
 70
0
 71
3
 72
11
 73
7
 74
0
 42
0.0000001
 43
0.0000001
 44
0.0000000001
 40
0.0
 40
0.0
 40
0.0
 40
0.0
 40
0.2897753499
 40
0.5490692759
 40
0.7822277341
 40
1.0
 40
1.0
 40
1.0
 40
1.0
 10
176.1229254296
 20
220.624718951
 30
0.0
 10
175.9473637067
 20
220.7260772659
 30
0.0
 10
175.6288889398
 20
220.9453335516
 30
0.0
 10
175.2483936086
 20
221.3453760636
 30
0.0
 10
175.00762635
 20
221.7877640542
 30
0.0
 10
174.9513672835
 20
222.1053471736
 30
0.0
 10
174.9513685217
 20
222.2576955665
 30
0.0
  0
SPLINE
  5
2E4
100
AcDbEntity
  8
0
100
AcDbSpline
 62
7
  6
BYLAYER
 70
0
 71
3
 72
15
 73
11
 74
0
 42
0.0000001
 43
0.0000001
 44
0.0000000001
 40
0.0
 40
0.0
 40
0.0
 40
0.0
 40
0.1180022366
 40
0.246335502
 40
0.3812302444
 40
0.5181986553
 40
0.6525200929
 40
0.7797589915
 40
0.8962991969
 40
1.0
 40
1.0
 40
1.0
 40
1.0
 10
181.0372970982
 20
223.4620158204
 30
0.0
 10
180.8701075986
 20
223.5585405394
 30
0.0
 10
180.5000005512
 20
223.7243600952
 30
0.0
 10
179.8956519444
 20
223.886558284
 30
0.0
 10
179.2438547231
 20
223.9670536581
 30
0.0
 10
178.5774853392
 20
223.9617559795
 30
0.0
 10
177.9298562951
 20
223.8709672739
 30
0.0
 10
177.3331389989
 20
223.6990381107
 30
0.0
 10
176.8169970776
 20
223.4545422109
 30
0.0
 10
176.525364248
 20
223.2364665652
 30
0.0
 10
176.4046450656
 20
223.1172615005
 30
0.0
  0
SPLINE
  5
2E5
100
AcDbEntity
  8
0
100
AcDbSpline
 62
7
  6
BYLAYER
 70
0
 71
3
 72
10
 73
6
 74
0
 42
0.0000001
 43
0.0000001
 44
0.0000000001
 40
0.0
 40
0.0
 40
0.0
 40
0.0
 40
0.5268429431
 40
0.7673306446
 40
1.0
 40
1.0
 40
1.0
 40
1.0
 10
176.4046450656
 20
223.1172615005
 30
0.0
 10
176.2832291466
 20
222.997368438
 30
0.0
 10
176.1280752179
 20
222.7941541798
 30
0.0
 10
176.0193164141
 20
222.486874464
 30
0.0
 10
176.001371839
 20
222.3330528362
 30
0.0
 10
176.0013584697
 20
222.2576955674
 30
0.0
  0
SPLINE
  5
2E6
100
AcDbEntity
  8
0
100
AcDbSpline
 62
7
  6
BYLAYER
 70
0
 71
3
 72
10
 73
6
 74
0
 42
0.0000001
 43
0.0000001
 44
0.0000000001
 40
0.0
 40
0.0
 40
0.0
 40
0.0
 40
0.2391506309
 40
0.4884422238
 40
1.0
 40
1.0
 40
1.0
 40
1.0
 10
181.6832350931
 20
210.2623275355
 30
0.0
 10
181.6676204771
 20
209.980435462
 30
0.0
 10
181.5962884172
 20
209.4069743251
 30
0.0
 10
181.3662601002
 20
208.2487386724
 30
0.0
 10
181.1373272096
 20
207.3796520435
 30
0.0
 10
180.9843106776
 20
206.7954503311
 30
0.0
  0
SPLINE
  5
2E7
100
AcDbEntity
  8
0
100
AcDbSpline
 62
7
  6
BYLAYER
 70
0
 71
3
 72
11
 73
7
 74
0
 42
0.0000001
 43
0.0000001
 44
0.0000000001
 40
0.0
 40
0.0
 40
0.0
 40
0.0
 40
0.2469860497
 40
0.5096734894
 40
0.7671925158
 40
1.0
 40
1.0
 40
1.0
 40
1.0
 10
177.2490996162
 20
223.4445778768
 30
0.0
 10
177.5464785953
 20
223.5658799102
 30
0.0
 10
178.1946648115
 20
223.7342468431
 30
0.0
 10
179.1970950242
 20
223.7840846667
 30
0.0
 10
180.1718517245
 20
223.6407416305
 30
0.0
 10
180.7751235121
 20
223.4092527824
 30
0.0
 10
181.0372970982
 20
223.2578902161
 30
0.0
  0
SPLINE
  5
2E8
100
AcDbEntity
  8
0
100
AcDbSpline
 62
7
  6
BYLAYER
 70
0
 71
3
 72
11
 73
7
 74
0
 42
0.0000001
 43
0.0000001
 44
0.0000000001
 40
0.0
 40
0.0
 40
0.0
 40
0.0
 40
0.2853309466
 40
0.5451069515
 40
0.7812427824
 40
1.0
 40
1.0
 40
1.0
 40
1.0
 10
181.0372970982
 20
223.2578902161
 30
0.0
 10
181.1490503377
 20
223.1933709128
 30
0.0
 10
181.3545123067
 20
223.055037967
 30
0.0
 10
181.6109278852
 20
222.8089173643
 30
0.0
 10
181.793786503
 20
222.5390994116
 30
0.0
 10
181.8635161093
 20
222.3423507258
 30
0.0
 10
181.8825803538
 20
222.2452720741
 30
0.0
  0
SPLINE
  5
2E9
100
AcDbEntity
  8
0
100
AcDbSpline
 62
7
  6
BYLAYER
 70
0
 71
3
 72
9
 73
5
 74
0
 42
0.0000001
 43
0.0000001
 44
0.0000000001
 40
0.0
 40
0.0
 40
0.0
 40
0.0
 40
0.4793987071
 40
1.0
 40
1.0
 40
1.0
 40
1.0
 10
180.9843106774
 20
206.7953853215
 30
0.0
 10
180.9843026349
 20
207.2964006421
 30
0.0
 10
180.8798536452
 20
208.3424121398
 30
0.0
 10
180.6149043759
 20
209.3573439575
 30
0.0
 10
180.4429009589
 20
209.873515707
 30
0.0
  0
SPLINE
  5
2EA
100
AcDbEntity
  8
0
100
AcDbSpline
 62
7
  6
BYLAYER
 70
0
 71
3
 72
9
 73
5
 74
0
 42
0.0000001
 43
0.0000001
 44
0.0000000001
 40
0.0
 40
0.0
 40
0.0
 40
0.0
 40
0.2659945921
 40
1.0
 40
1.0
 40
1.0
 40
1.0
 10
207.6774743849
 20
222.1969643433
 30
0.0
 10
207.6773458219
 20
222.0391997982
 30
0.0
 10
207.6576866267
 20
221.4466053721
 30
0.0
 10
207.5579082668
 20
220.854064931
 30
0.0
 10
207.4253999991
 20
220.4393735251
 30
0.0
  0
SPLINE
  5
2EB
100
AcDbEntity
  8
0
100
AcDbSpline
 62
7
  6
BYLAYER
 70
0
 71
3
 72
9
 73
5
 74
0
 42
0.0000001
 43
0.0000001
 44
0.0000000001
 40
0.0
 40
0.0
 40
0.0
 40
0.0
 40
0.2563583742
 40
1.0
 40
1.0
 40
1.0
 40
1.0
 10
207.4253999991
 20
220.4393735251
 30
0.0
 10
207.4092275303
 20
220.3887609561
 30
0.0
 10
207.3426609461
 20
220.192472945
 30
0.0
 10
207.2617341515
 20
220.0009639991
 30
0.0
 10
207.192987335
 20
219.8630156307
 30
0.0
  0
SPLINE
  5
2EC
100
AcDbEntity
  8
0
100
AcDbSpline
 62
7
  6
BYLAYER
 70
0
 71
3
 72
11
 73
7
 74
0
 42
0.0000001
 43
0.0000001
 44
0.0000000001
 40
0.0
 40
0.0
 40
0.0
 40
0.0
 40
0.25880233
 40
0.5204761002
 40
0.7714617406
 40
1.0
 40
1.0
 40
1.0
 40
1.0
 10
180.4429009589
 20
209.873515707
 30
0.0
 10
180.2131039222
 20
210.5631225795
 30
0.0
 10
179.6271044721
 20
211.9110379652
 30
0.0
 10
178.4536290943
 20
213.7432374241
 30
0.0
 10
177.053725299
 20
215.2966390308
 30
0.0
 10
175.9717137678
 20
216.1192138814
 30
0.0
 10
175.4158215923
 20
216.440151118
 30
0.0
  0
SPLINE
  5
2ED
100
AcDbEntity
  8
0
100
AcDbSpline
 62
7
  6
BYLAYER
 70
0
 71
3
 72
11
 73
7
 74
0
 42
0.0000001
 43
0.0000001
 44
0.0000000001
 40
0.0
 40
0.0
 40
0.0
 40
0.0
 40
0.2623292586
 40
0.5195246874
 40
0.7668036763
 40
1.0
 40
1.0
 40
1.0
 40
1.0
 10
224.2600448017
 20
238.2104471408
 30
0.0
 10
223.7118163598
 20
239.159996416
 30
0.0
 10
222.5326344217
 20
240.9883568974
 30
0.0
 10
220.5307526542
 20
243.4983198932
 30
0.0
 10
218.3591108679
 20
245.6952941767
 30
0.0
 10
216.7849257684
 20
246.9525003397
 30
0.0
 10
215.9828122736
 20
247.5062324398
 30
0.0
  0
SPLINE
  5
2EE
100
AcDbEntity
  8
0
100
AcDbSpline
 62
7
  6
BYLAYER
 70
0
 71
3
 72
9
 73
5
 74
0
 42
0.0000001
 43
0.0000001
 44
0.0000000001
 40
0.0
 40
0.0
 40
0.0
 40
0.0
 40
0.2544157037
 40
1.0
 40
1.0
 40
1.0
 40
1.0
 10
215.9828122736
 20
247.5062324398
 30
0.0
 10
215.8734979285
 20
247.5816966505
 30
0.0
 10
215.4410039595
 20
247.8741896904
 30
0.0
 10
214.997117412
 20
248.1499198261
 30
0.0
 10
214.6599929448
 20
248.3445543247
 30
0.0
  0
SPLINE
  5
2EF
100
AcDbEntity
  8
0
100
AcDbSpline
 62
7
  6
BYLAYER
 70
0
 71
3
 72
11
 73
7
 74
0
 42
0.0000001
 43
0.0000001
 44
0.0000000001
 40
0.0
 40
0.0
 40
0.0
 40
0.0
 40
0.2378949647
 40
0.499886552
 40
0.7619261925
 40
1.0
 40
1.0
 40
1.0
 40
1.0
 10
183.8437287716
 20
225.0407615846
 30
0.0
 10
184.1361086722
 20
225.2019645646
 30
0.0
 10
184.8080793244
 20
225.4375155863
 30
0.0
 10
185.878926484
 20
225.5510037055
 30
0.0
 10
186.9501395794
 20
225.438376007
 30
0.0
 10
187.6225700679
 20
225.2032671398
 30
0.0
 10
187.915382575
 20
225.0423295449
 30
0.0
  0
SPLINE
  5
2F0
100
AcDbEntity
  8
0
100
AcDbSpline
 62
7
  6
BYLAYER
 70
0
 71
3
 72
12
 73
8
 74
0
 42
0.0000001
 43
0.0000001
 44
0.0000000001
 40
0.0
 40
0.0
 40
0.0
 40
0.0
 40
0.2895875123
 40
0.5486274513
 40
0.7816344221
 40
0.8918370094
 40
1.0
 40
1.0
 40
1.0
 40
1.0
 10
175.4158215923
 20
216.440151118
 30
0.0
 10
175.0701454683
 20
216.6397228063
 30
0.0
 10
174.3826790491
 20
216.966806906
 30
0.0
 10
173.3267536732
 20
217.222071529
 30
0.0
 10
172.4836060555
 20
217.19968251
 30
0.0
 10
171.8816105754
 20
217.0330569903
 30
0.0
 10
171.6074617591
 20
216.9046788428
 30
0.0
 10
171.4783498122
 20
216.8301364689
 30
0.0
  0
SPLINE
  5
2F1
100
AcDbEntity
  8
0
100
AcDbSpline
 62
7
  6
BYLAYER
 70
0
 71
3
 72
11
 73
7
 74
0
 42
0.0000001
 43
0.0000001
 44
0.0000000001
 40
0.0
 40
0.0
 40
0.0
 40
0.0
 40
0.2321291698
 40
0.4792137263
 40
0.7368655959
 40
1.0
 40
1.0
 40
1.0
 40
1.0
 10
232.2873846178
 20
224.0297677864
 30
0.0
 10
232.2055615077
 20
225.3268421171
 30
0.0
 10
231.8392497485
 20
227.9942140357
 30
0.0
 10
230.7810857379
 20
231.9906143148
 30
0.0
 10
229.2272668494
 20
236.0077183791
 30
0.0
 10
227.8966394468
 20
238.6089310139
 30
0.0
 10
227.1600116246
 20
239.8847963813
 30
0.0
  0
SPLINE
  5
2F2
100
AcDbEntity
  8
0
100
AcDbSpline
 62
7
  6
BYLAYER
 70
0
 71
3
 72
11
 73
7
 74
0
 42
0.0000001
 43
0.0000001
 44
0.0000000001
 40
0.0
 40
0.0
 40
0.0
 40
0.0
 40
0.2177788926
 40
0.4509229168
 40
0.7102586199
 40
1.0
 40
1.0
 40
1.0
 40
1.0
 10
188.8309406919
 20
226.2584882735
 30
0.0
 10
188.8309606259
 20
226.3708480305
 30
0.0
 10
188.7894092241
 20
226.6050529371
 30
0.0
 10
188.6118839465
 20
226.9313437729
 30
0.0
 10
188.331235415
 20
227.2263454626
 30
0.0
 10
188.0963756039
 20
227.3880659332
 30
0.0
 10
187.9669147029
 20
227.4628085283
 30
0.0
  0
SPLINE
  5
2F3
100
AcDbEntity
  8
0
100
AcDbSpline
 62
7
  6
BYLAYER
 70
0
 71
3
 72
12
 73
8
 74
0
 42
0.0000001
 43
0.0000001
 44
0.0000000001
 40
0.0
 40
0.0
 40
0.0
 40
0.0
 40
0.2895877024
 40
0.5486278852
 40
0.7816350537
 40
0.8918376671
 40
1.0
 40
1.0
 40
1.0
 40
1.0
 10
210.0639096158
 20
236.4441146577
 30
0.0
 10
209.7182332587
 20
236.6436864805
 30
0.0
 10
209.0307661733
 20
236.9707705666
 30
0.0
 10
207.974840147
 20
237.2260360339
 30
0.0
 10
207.1316913136
 20
237.2036454108
 30
0.0
 10
206.5296976377
 20
237.0370176199
 30
0.0
 10
206.2555472202
 20
236.9086450127
 30
0.0
 10
206.1264358688
 20
236.8341034154
 30
0.0
  0
SPLINE
  5
2F4
100
AcDbEntity
  8
0
100
AcDbSpline
 62
7
  6
BYLAYER
 70
0
 71
3
 72
19
 73
15
 74
0
 42
0.0000001
 43
0.0000001
 44
0.0000000001
 40
0.0
 40
0.0
 40
0.0
 40
0.0
 40
0.1545240745
 40
0.309971783
 40
0.458797219
 40
0.594487305
 40
0.6561158627
 40
0.7132498985
 40
0.7660758545
 40
0.8151872259
 40
0.8616236048
 40
0.9068151185
 40
0.9524272699
 40
1.0
 40
1.0
 40
1.0
 40
1.0
 10
181.691448135
 20
210.545208078
 30
0.0
 10
181.4232881298
 20
211.2958553211
 30
0.0
 10
180.7571316276
 20
212.7583099114
 30
0.0
 10
179.4512215115
 20
214.743180636
 30
0.0
 10
177.9108548675
 20
216.4235924887
 30
0.0
 10
176.4738866794
 20
217.5078280398
 30
0.0
 10
175.299052685
 20
218.1004653371
 30
0.0
 10
174.45905218
 20
218.3894728584
 30
0.0
 10
173.6467402739
 20
218.5311830694
 30
0.0
 10
172.8763127821
 20
218.5209123326
 30
0.0
 10
172.1629940979
 20
218.3559406007
 30
0.0
 10
171.5231071287
 20
218.0374354689
 30
0.0
 10
170.9729627612
 20
217.5727398651
 30
0.0
 10
170.6819160047
 20
217.1848278268
 30
0.0
 10
170.5544168762
 20
216.9751462089
 30
0.0
  0
SPLINE
  5
2F5
100
AcDbEntity
  8
0
100
AcDbSpline
 62
7
  6
BYLAYER
 70
0
 71
3
 72
9
 73
5
 74
0
 42
0.0000001
 43
0.0000001
 44
0.0000000001
 40
0.0
 40
0.0
 40
0.0
 40
0.0
 40
0.5205575383
 40
1.0
 40
1.0
 40
1.0
 40
1.0
 10
188.6210321198
 20
207.8626553415
 30
0.0
 10
188.6210321198
 20
208.2018233182
 30
0.0
 10
188.5460479747
 20
208.8542236693
 30
0.0
 10
188.3722531085
 20
209.4833611793
 30
0.0
 10
188.2766405786
 20
209.7807485151
 30
0.0
  0
SPLINE
  5
2F6
100
AcDbEntity
  8
0
100
AcDbSpline
 62
7
  6
BYLAYER
 70
0
 71
3
 72
20
 73
16
 74
0
 42
0.0000001
 43
0.0000001
 44
0.0000000001
 40
0.0
 40
0.0
 40
0.0
 40
0.0
 40
0.0428327377
 40
0.0874337227
 40
0.1352371199
 40
0.1871688918
 40
0.2436399857
 40
0.3046237031
 40
0.3697495122
 40
0.438386902
 40
0.5826406916
 40
0.7297013021
 40
0.8712004556
 40
0.9375844132
 40
1.0
 40
1.0
 40
1.0
 40
1.0
 10
216.9780791487
 20
221.3043761878
 30
0.0
 10
217.2492721037
 20
221.4609563746
 30
0.0
 10
217.7633685992
 20
221.8544173104
 30
0.0
 10
218.3820328125
 20
222.6367069944
 30
0.0
 10
218.8443281344
 20
223.593416736
 30
0.0
 10
219.1436504294
 20
224.701194475
 30
0.0
 10
219.2769146497
 20
225.936679307
 30
0.0
 10
219.2428547978
 20
227.2744451403
 30
0.0
 10
219.0429383564
 20
228.6870127373
 30
0.0
 10
218.552995548
 20
230.6625783447
 30
0.0
 10
217.5607402704
 20
233.1164664046
 30
0.0
 10
215.8967731329
 20
235.8234116515
 30
0.0
 10
214.172606053
 20
237.7848310878
 30
0.0
 10
212.6584873171
 20
239.0593174911
 30
0.0
 10
211.8733044644
 20
239.5840167591
 30
0.0
 10
211.4781172903
 20
239.8121730189
 30
0.0
  0
SPLINE
  5
2F7
100
AcDbEntity
  8
0
100
AcDbSpline
 62
7
  6
BYLAYER
 70
0
 71
3
 72
12
 73
8
 74
0
 42
0.0000001
 43
0.0000001
 44
0.0000000001
 40
0.0
 40
0.0
 40
0.0
 40
0.0
 40
0.1081629261
 40
0.2183655018
 40
0.4513725156
 40
0.7104123012
 40
1.0
 40
1.0
 40
1.0
 40
1.0
 10
170.4176931504
 20
216.2177718072
 30
0.0
 10
170.5468057836
 20
216.2923128122
 30
0.0
 10
170.8209542355
 20
216.4206911496
 30
0.0
 10
171.4229502323
 20
216.5873149656
 30
0.0
 10
172.2660973329
 20
216.6097052839
 30
0.0
 10
173.3220230463
 20
216.3544407408
 30
0.0
 10
174.0094894925
 20
216.0273567025
 30
0.0
 10
174.3551658364
 20
215.8277848872
 30
0.0
  0
SPLINE
  5
2F8
100
AcDbEntity
  8
0
100
AcDbSpline
 62
7
  6
BYLAYER
 70
0
 71
3
 72
11
 73
7
 74
0
 42
0.0000001
 43
0.0000001
 44
0.0000000001
 40
0.0
 40
0.0
 40
0.0
 40
0.0
 40
0.2188985802
 40
0.4552573872
 40
0.7149019339
 40
1.0
 40
1.0
 40
1.0
 40
1.0
 10
205.968199109
 20
240.2600534547
 30
0.0
 10
206.3157179181
 20
240.3743983581
 30
0.0
 10
207.0758963246
 20
240.5072985
 30
0.0
 10
208.2768355886
 20
240.4135034189
 30
0.0
 10
209.5369565783
 20
240.0445291172
 30
0.0
 10
210.3583614122
 20
239.6421682422
 30
0.0
 10
210.7710134531
 20
239.403928865
 30
0.0
  0
SPLINE
  5
2F9
100
AcDbEntity
  8
0
100
AcDbSpline
 62
7
  6
BYLAYER
 70
0
 71
3
 72
18
 73
14
 74
0
 42
0.0000001
 43
0.0000001
 44
0.0000000001
 40
0.0
 40
0.0
 40
0.0
 40
0.0
 40
0.1404505943
 40
0.2666580773
 40
0.3253703522
 40
0.381852772
 40
0.4368887558
 40
0.4913739123
 40
0.5462488567
 40
0.6024239794
 40
0.721476433
 40
0.8533841262
 40
1.0
 40
1.0
 40
1.0
 40
1.0
 10
203.0150611966
 20
235.154851341
 30
0.0
 10
203.048950723
 20
235.6397237428
 30
0.0
 10
203.1889264489
 20
236.5580600721
 30
0.0
 10
203.5963714376
 20
237.6206273927
 30
0.0
 10
204.0485859557
 20
238.3261331607
 30
0.0
 10
204.4366080629
 20
238.7724137423
 30
0.0
 10
204.8780634898
 20
239.1438291313
 30
0.0
 10
205.3689174982
 20
239.43640238
 30
0.0
 10
205.9042538509
 20
239.6472300854
 30
0.0
 10
206.6845007935
 20
239.8202656307
 30
0.0
 10
207.7620328715
 20
239.8117027719
 30
0.0
 10
209.103868729
 20
239.4650374094
 30
0.0
 10
209.9780452222
 20
239.0452469664
 30
0.0
 10
210.4174615345
 20
238.7915555795
 30
0.0
  0
SPLINE
  5
2FA
100
AcDbEntity
  8
0
100
AcDbSpline
 62
7
  6
BYLAYER
 70
0
 71
3
 72
10
 73
6
 74
0
 42
0.0000001
 43
0.0000001
 44
0.0000000001
 40
0.0
 40
0.0
 40
0.0
 40
0.0
 40
0.4771501702
 40
0.7288723743
 40
1.0
 40
1.0
 40
1.0
 40
1.0
 10
180.9843106776
 20
206.7954503311
 30
0.0
 10
181.1539443432
 20
206.3437173824
 30
0.0
 10
181.4130399277
 20
205.6517968267
 30
0.0
 10
181.6423584124
 20
204.6650058345
 30
0.0
 10
181.6914145151
 20
204.1356513944
 30
0.0
 10
181.6914145151
 20
203.8614650387
 30
0.0
  0
SPLINE
  5
2FB
100
AcDbEntity
  8
0
100
AcDbSpline
 62
7
  6
BYLAYER
 70
0
 71
3
 72
11
 73
7
 74
0
 42
0.0000001
 43
0.0000001
 44
0.0000000001
 40
0.0
 40
0.0
 40
0.0
 40
0.0
 40
0.2640562436
 40
0.5092093506
 40
0.7493934828
 40
1.0
 40
1.0
 40
1.0
 40
1.0
 10
178.3530391593
 20
202.3574479237
 30
0.0
 10
178.6915589442
 20
202.310613388
 30
0.0
 10
179.359015995
 20
202.2932354216
 30
0.0
 10
180.310577144
 20
202.5475463545
 30
0.0
 10
181.1193726605
 20
203.0804653765
 30
0.0
 10
181.5229212547
 20
203.5845610556
 30
0.0
 10
181.6914309744
 20
203.8616878531
 30
0.0
  0
SPLINE
  5
2FC
100
AcDbEntity
  8
0
100
AcDbSpline
 62
7
  6
BYLAYER
 70
0
 71
3
 72
12
 73
8
 74
0
 42
0.0000001
 43
0.0000001
 44
0.0000000001
 40
0.0
 40
0.0
 40
0.0
 40
0.0
 40
0.1081620919
 40
0.2183639185
 40
0.4513701657
 40
0.7104107549
 40
1.0
 40
1.0
 40
1.0
 40
1.0
 10
179.3532933756
 20
203.1902526917
 30
0.0
 10
179.4824103982
 20
203.2647979996
 30
0.0
 10
179.730673907
 20
203.4380353331
 30
0.0
 10
180.1759904628
 20
203.8760867625
 30
0.0
 10
180.616965481
 20
204.5951190965
 30
0.0
 10
180.9238569837
 20
205.6372675881
 30
0.0
 10
180.9843170851
 20
206.3962137708
 30
0.0
 10
180.9843106774
 20
206.7953853215
 30
0.0
  0
SPLINE
  5
2FD
100
AcDbEntity
  8
0
100
AcDbSpline
 62
7
  6
BYLAYER
 70
0
 71
3
 72
9
 73
5
 74
0
 42
0.0000001
 43
0.0000001
 44
0.0000000001
 40
0.0
 40
0.0
 40
0.0
 40
0.0
 40
0.2481323278
 40
1.0
 40
1.0
 40
1.0
 40
1.0
 10
207.2521051228
 20
220.4982786599
 30
0.0
 10
207.2836140824
 20
220.6399715906
 30
0.0
 10
207.4163027385
 20
221.2097477196
 30
0.0
 10
207.564451157
 20
221.7757435561
 30
0.0
 10
207.6759323527
 20
222.2012133101
 30
0.0
  0
SPLINE
  5
2FE
100
AcDbEntity
  8
0
100
AcDbSpline
 62
7
  6
BYLAYER
 70
0
 71
3
 72
18
 73
14
 74
0
 42
0.0000001
 43
0.0000001
 44
0.0000000001
 40
0.0
 40
0.0
 40
0.0
 40
0.0
 40
0.0428490801
 40
0.0874673162
 40
0.1352890018
 40
0.1872400256
 40
0.2437318921
 40
0.3047385937
 40
0.4383746893
 40
0.5826826851
 40
0.7297991563
 40
0.8713504326
 40
1.0
 40
1.0
 40
1.0
 40
1.0
 10
214.0013877055
 20
223.1942053079
 30
0.0
 10
214.1955302239
 20
223.3063157998
 30
0.0
 10
214.5635950228
 20
223.5879753293
 30
0.0
 10
215.0064787163
 20
224.1480523657
 30
0.0
 10
215.3374292947
 20
224.8329746216
 30
0.0
 10
215.5517136079
 20
225.6260272382
 30
0.0
 10
215.6471831458
 20
226.5105491787
 30
0.0
 10
215.6134050253
 20
227.8271647886
 30
0.0
 10
215.256076698
 20
229.5786593418
 30
0.0
 10
214.4189117777
 20
231.6499405688
 30
0.0
 10
213.2266846524
 20
233.5892363549
 30
0.0
 10
211.7783724379
 20
235.2368132658
 30
0.0
 10
210.6468330335
 20
236.1075712792
 30
0.0
 10
210.0639096158
 20
236.4441146577
 30
0.0
  0
SPLINE
  5
2FF
100
AcDbEntity
  8
0
100
AcDbSpline
 62
7
  6
BYLAYER
 70
0
 71
3
 72
11
 73
7
 74
0
 42
0.0000001
 43
0.0000001
 44
0.0000000001
 40
0.0
 40
0.0
 40
0.0
 40
0.0
 40
0.2177788926
 40
0.4509229168
 40
0.7102586199
 40
1.0
 40
1.0
 40
1.0
 40
1.0
 10
181.9013230872
 20
222.2576955656
 30
0.0
 10
181.9013430212
 20
222.3700553225
 30
0.0
 10
181.8597916194
 20
222.6042602291
 30
0.0
 10
181.6822663418
 20
222.9305510649
 30
0.0
 10
181.4016178103
 20
223.2255527547
 30
0.0
 10
181.1667579992
 20
223.3872732253
 30
0.0
 10
181.0372970982
 20
223.4620158204
 30
0.0
  0
SPLINE
  5
300
100
AcDbEntity
  8
0
100
AcDbSpline
 62
7
  6
BYLAYER
 70
0
 71
3
 72
9
 73
5
 74
0
 42
0.0000001
 43
0.0000001
 44
0.0000000001
 40
0.0
 40
0.0
 40
0.0
 40
0.0
 40
0.2562052305
 40
1.0
 40
1.0
 40
1.0
 40
1.0
 10
187.7518972408
 20
209.1176598835
 30
0.0
 10
187.7366925944
 20
209.0680796812
 30
0.0
 10
187.6740803694
 20
208.87558987
 30
0.0
 10
187.5980368641
 20
208.6873843795
 30
0.0
 10
187.5333718921
 20
208.5514255034
 30
0.0
  0
SPLINE
  5
301
100
AcDbEntity
  8
0
100
AcDbSpline
 62
7
  6
BYLAYER
 70
0
 71
3
 72
26
 73
22
 74
0
 42
0.0000001
 43
0.0000001
 44
0.0000000001
 40
0.0
 40
0.0
 40
0.0
 40
0.0
 40
0.0670224575
 40
0.1390660336
 40
0.2147223518
 40
0.2922777845
 40
0.3698824266
 40
0.4456774828
 40
0.5179427378
 40
0.5852448675
 40
0.6466144538
 40
0.701766236
 40
0.7513645506
 40
0.7746757569
 40
0.7973831369
 40
0.8198727093
 40
0.8425489901
 40
0.8658012644
 40
0.8899719279
 40
0.9419786698
 40
1.0
 40
1.0
 40
1.0
 40
1.0
 10
210.5541761507
 20
238.7111715903
 30
0.0
 10
211.0462799233
 20
238.4165967576
 30
0.0
 10
212.0170415034
 20
237.7192502236
 30
0.0
 10
213.3542389229
 20
236.4525153327
 30
0.0
 10
214.58773549
 20
234.965578774
 30
0.0
 10
215.6736577986
 20
233.3109969447
 30
0.0
 10
216.5738906513
 20
231.5471154433
 30
0.0
 10
217.2565866987
 20
229.7362001457
 30
0.0
 10
217.6976765862
 20
227.9418147863
 30
0.0
 10
217.8815381451
 20
226.2261916423
 30
0.0
 10
217.8002046257
 20
224.6472134364
 30
0.0
 10
217.4533925689
 20
223.257832826
 30
0.0
 10
216.9318548928
 20
222.276847891
 30
0.0
 10
216.3924707108
 20
221.6575341324
 30
0.0
 10
215.9403451609
 20
221.2802342223
 30
0.0
 10
215.4368762892
 20
220.985315648
 30
0.0
 10
214.8874062333
 20
220.775754197
 30
0.0
 10
214.2976654457
 20
220.6534309554
 30
0.0
 10
213.4453347914
 20
220.6065212326
 30
0.0
 10
212.2978676749
 20
220.7848124348
 30
0.0
 10
211.4153367026
 20
221.1310884841
 30
0.0
 10
210.9696824492
 20
221.3499769744
 30
0.0
  0
SPLINE
  5
302
100
AcDbEntity
  8
0
100
AcDbSpline
 62
7
  6
BYLAYER
 70
0
 71
3
 72
9
 73
5
 74
0
 42
0.0000001
 43
0.0000001
 44
0.0000000001
 40
0.0
 40
0.0
 40
0.0
 40
0.0
 40
0.4690372723
 40
1.0
 40
1.0
 40
1.0
 40
1.0
 10
176.0335203277
 20
222.3044182034
 30
0.0
 10
176.0687432309
 20
222.441047644
 30
0.0
 10
176.2047151188
 20
222.7177599512
 30
0.0
 10
176.4183144551
 20
222.9352641776
 30
0.0
 10
176.541995779
 20
223.0363337229
 30
0.0
  0
SPLINE
  5
303
100
AcDbEntity
  8
0
100
AcDbSpline
 62
7
  6
BYLAYER
 70
0
 71
3
 72
9
 73
5
 74
0
 42
0.0000001
 43
0.0000001
 44
0.0000000001
 40
0.0
 40
0.0
 40
0.0
 40
0.0
 40
0.489163811
 40
1.0
 40
1.0
 40
1.0
 40
1.0
 10
187.3712616733
 20
206.6682544696
 30
0.0
 10
187.6239668967
 20
206.7991328652
 30
0.0
 10
188.1035957939
 20
207.1445086994
 30
0.0
 10
188.4666200528
 20
207.6087234443
 30
0.0
 10
188.6210321198
 20
207.8626553413
 30
0.0
  0
SPLINE
  5
304
100
AcDbEntity
  8
0
100
AcDbSpline
 62
7
  6
BYLAYER
 70
0
 71
3
 72
17
 73
13
 74
0
 42
0.0000001
 43
0.0000001
 44
0.0000000001
 40
0.0
 40
0.0
 40
0.0
 40
0.0
 40
0.0428577246
 40
0.0874869852
 40
0.1353211383
 40
0.1872843315
 40
0.3045492906
 40
0.4382181134
 40
0.5825634005
 40
0.7297198633
 40
0.8713076695
 40
1.0
 40
1.0
 40
1.0
 40
1.0
 10
182.9513130352
 20
222.2576955664
 30
0.0
 10
182.9513121098
 20
222.143831286
 30
0.0
 10
182.9208858173
 20
221.9104033922
 30
0.0
 10
182.787007874
 20
221.5733599684
 30
0.0
 10
182.5697694861
 20
221.2538252234
 30
0.0
 10
182.1608415768
 20
220.843392149
 30
0.0
 10
181.4640015082
 20
220.4192528602
 30
0.0
 10
180.462099262
 20
220.0845672059
 30
0.0
 10
179.3377348831
 20
219.9265665328
 30
0.0
 10
178.1820798696
 20
219.9585811104
 30
0.0
 10
177.089442692
 20
220.1771595156
 30
0.0
 10
176.4190293445
 20
220.4537671435
 30
0.0
 10
176.1229254296
 20
220.624718951
 30
0.0
  0
SPLINE
  5
305
100
AcDbEntity
  8
0
100
AcDbSpline
 62
7
  6
BYLAYER
 70
0
 71
3
 72
17
 73
13
 74
0
 42
0.0000001
 43
0.0000001
 44
0.0000000001
 40
0.0
 40
0.0
 40
0.0
 40
0.0
 40
0.1286923866
 40
0.2702770654
 40
0.4174340389
 40
0.5617798359
 40
0.6954508257
 40
0.8127132279
 40
0.8646789755
 40
0.912511046
 40
0.9571404529
 40
1.0
 40
1.0
 40
1.0
 40
1.0
 10
187.9669147029
 20
227.4628085283
 30
0.0
 10
187.7485382081
 20
227.5888854042
 30
0.0
 10
187.2541164242
 20
227.7928869244
 30
0.0
 10
186.4482994827
 20
227.954073984
 30
0.0
 10
185.5960085853
 20
227.9776850847
 30
0.0
 10
184.7667888494
 20
227.861170499
 30
0.0
 10
184.0278609981
 20
227.6143716356
 30
0.0
 10
183.5139961923
 20
227.3015040643
 30
0.0
 10
183.2123449693
 20
226.9988740481
 30
0.0
 10
183.0521983044
 20
226.7631730288
 30
0.0
 10
182.9534090706
 20
226.5146271973
 30
0.0
 10
182.9309909732
 20
226.3424666603
 30
0.0
 10
182.9309760744
 20
226.2584882753
 30
0.0
  0
SPLINE
  5
306
100
AcDbEntity
  8
0
100
AcDbSpline
 62
7
  6
BYLAYER
 70
0
 71
3
 72
17
 73
13
 74
0
 42
0.0000001
 43
0.0000001
 44
0.0000000001
 40
0.0
 40
0.0
 40
0.0
 40
0.0
 40
0.1052099541
 40
0.1589762265
 40
0.2138611029
 40
0.2703982052
 40
0.329158731
 40
0.4544483904
 40
0.5903552025
 40
0.7324817734
 40
0.872758681
 40
1.0
 40
1.0
 40
1.0
 40
1.0
 10
182.9513418434
 20
219.6699541887
 30
0.0
 10
182.9513414681
 20
219.3778801241
 30
0.0
 10
182.8633135057
 20
218.9305112096
 30
0.0
 10
182.5833316951
 20
218.4038255062
 30
0.0
 10
182.2899243937
 20
218.0470768229
 30
0.0
 10
181.9206207139
 20
217.7475518788
 30
0.0
 10
181.3277450057
 20
217.4319658282
 30
0.0
 10
180.4455923937
 20
217.2345346819
 30
0.0
 10
179.3194017922
 20
217.2725814917
 30
0.0
 10
178.178281594
 20
217.5098198317
 30
0.0
 10
177.1011856357
 20
217.8815243317
 30
0.0
 10
176.4288380638
 20
218.2027225577
 30
0.0
 10
176.1229254296
 20
218.3793373039
 30
0.0
  0
SPLINE
  5
307
100
AcDbEntity
  8
0
100
AcDbSpline
 62
7
  6
BYLAYER
 70
0
 71
3
 72
11
 73
7
 74
0
 42
0.0000001
 43
0.0000001
 44
0.0000000001
 40
0.0
 40
0.0
 40
0.0
 40
0.0
 40
0.2897753499
 40
0.5490692759
 40
0.7822277341
 40
1.0
 40
1.0
 40
1.0
 40
1.0
 10
183.0525430343
 20
224.6255116589
 30
0.0
 10
182.8769813114
 20
224.7268699739
 30
0.0
 10
182.5585065445
 20
224.9461262596
 30
0.0
 10
182.1780112133
 20
225.3461687715
 30
0.0
 10
181.9372439546
 20
225.7885567622
 30
0.0
 10
181.8809848882
 20
226.1061398816
 30
0.0
 10
181.8809861264
 20
226.2584882745
 30
0.0
  0
SPLINE
  5
308
100
AcDbEntity
  8
0
100
AcDbSpline
 62
7
  6
BYLAYER
 70
0
 71
3
 72
22
 73
18
 74
0
 42
0.0000001
 43
0.0000001
 44
0.0000000001
 40
0.0
 40
0.0
 40
0.0
 40
0.0
 40
0.0461849202
 40
0.0904229931
 40
0.1350666763
 40
0.1823633289
 40
0.2339591744
 40
0.2907210862
 40
0.3528094624
 40
0.4198309613
 40
0.4909847095
 40
0.5651824721
 40
0.7173260986
 40
0.7926707585
 40
0.865660184
 40
0.9350998304
 40
1.0
 40
1.0
 40
1.0
 40
1.0
 10
213.1558381545
 20
222.5741186425
 30
0.0
 10
213.4361207623
 20
222.5810694414
 30
0.0
 10
213.9868831286
 20
222.6601824714
 30
0.0
 10
214.7440160866
 20
223.0033179041
 30
0.0
 10
215.3742803229
 20
223.5557583933
 30
0.0
 10
215.8561440638
 20
224.2927653568
 30
0.0
 10
216.1810330252
 20
225.1873793805
 30
0.0
 10
216.3452621627
 20
226.2141054082
 30
0.0
 10
216.3473476059
 20
227.3463220948
 30
0.0
 10
216.1884363258
 20
228.5546748394
 30
0.0
 10
215.8731647837
 20
229.8075591846
 30
0.0
 10
215.250835471
 20
231.5054191699
 30
0.0
 10
214.3696092618
 20
233.1264707177
 30
0.0
 10
213.2777284545
 20
234.5902767294
 30
0.0
 10
212.3830523839
 20
235.5671002076
 30
0.0
 10
211.4351560433
 20
236.3989030726
 30
0.0
 10
210.7586610269
 20
236.8595007807
 30
0.0
 10
210.4174615345
 20
237.0564879431
 30
0.0
  0
SPLINE
  5
309
100
AcDbEntity
  8
0
100
AcDbSpline
 62
7
  6
BYLAYER
 70
0
 71
3
 72
15
 73
11
 74
0
 42
0.0000001
 43
0.0000001
 44
0.0000000001
 40
0.0
 40
0.0
 40
0.0
 40
0.0
 40
0.1519032222
 40
0.2924373546
 40
0.4220298409
 40
0.5423892733
 40
0.6563399655
 40
0.7677604492
 40
0.8809808
 40
1.0
 40
1.0
 40
1.0
 40
1.0
 10
210.4174615345
 20
237.0564879431
 30
0.0
 10
210.1500808197
 20
237.2108567785
 30
0.0
 10
209.6171567679
 20
237.4784242362
 30
0.0
 10
208.8013041093
 20
237.7534608128
 30
0.0
 10
208.0135524135
 20
237.8804530159
 30
0.0
 10
207.2689691453
 20
237.8548114058
 30
0.0
 10
206.5832838924
 20
237.6737217873
 30
0.0
 10
205.9738952454
 20
237.3389910066
 30
0.0
 10
205.4571353279
 20
236.8595501018
 30
0.0
 10
205.1903398678
 20
236.4650649001
 30
0.0
 10
205.0747252985
 20
236.2525751593
 30
0.0
  0
SPLINE
  5
30A
100
AcDbEntity
  8
0
100
AcDbSpline
 62
7
  6
BYLAYER
 70
0
 71
3
 72
12
 73
8
 74
0
 42
0.0000001
 43
0.0000001
 44
0.0000000001
 40
0.0
 40
0.0
 40
0.0
 40
0.0
 40
0.1081701604
 40
0.2183647252
 40
0.4513729605
 40
0.7104122171
 40
1.0
 40
1.0
 40
1.0
 40
1.0
 10
171.2479485989
 20
218.8621966956
 30
0.0
 10
171.4078050103
 20
218.954505559
 30
0.0
 10
171.7472548261
 20
219.1133922911
 30
0.0
 10
172.4925677244
 20
219.3197210588
 30
0.0
 10
173.5364607907
 20
219.347422482
 30
0.0
 10
174.8437931116
 20
219.0313819382
 30
0.0
 10
175.6949451352
 20
218.6264262522
 30
0.0
 10
176.1229254296
 20
218.3793373039
 30
0.0
  0
SPLINE
  5
30B
100
AcDbEntity
  8
0
100
AcDbSpline
 62
7
  6
BYLAYER
 70
0
 71
3
 72
9
 73
5
 74
0
 42
0.0000001
 43
0.0000001
 44
0.0000000001
 40
0.0
 40
0.0
 40
0.0
 40
0.0
 40
0.2568913275
 40
1.0
 40
1.0
 40
1.0
 40
1.0
 10
201.409200117
 20
221.8476887243
 30
0.0
 10
201.454776711
 20
221.7064275997
 30
0.0
 10
201.6219631047
 20
221.1533363901
 30
0.0
 10
201.7476258292
 20
220.5873556312
 30
0.0
 10
201.8126353346
 20
220.1629381291
 30
0.0
  0
SPLINE
  5
30C
100
AcDbEntity
  8
0
100
AcDbSpline
 62
7
  6
BYLAYER
 70
0
 71
3
 72
9
 73
5
 74
0
 42
0.0000001
 43
0.0000001
 44
0.0000000001
 40
0.0
 40
0.0
 40
0.0
 40
0.0
 40
0.2237486379
 40
1.0
 40
1.0
 40
1.0
 40
1.0
 10
201.5518719634
 20
219.8946684297
 30
0.0
 10
201.5628308397
 20
219.9206476007
 30
0.0
 10
201.6245263409
 20
220.0315292858
 30
0.0
 10
201.7279202551
 20
220.1140281471
 30
0.0
 10
201.8126353346
 20
220.1629381291
 30
0.0
  0
SPLINE
  5
30D
100
AcDbEntity
  8
0
100
AcDbSpline
 62
7
  6
BYLAYER
 70
0
 71
3
 72
18
 73
14
 74
0
 42
0.0000001
 43
0.0000001
 44
0.0000000001
 40
0.0
 40
0.0
 40
0.0
 40
0.0
 40
0.1298917813
 40
0.2720593473
 40
0.4192028452
 40
0.5631178615
 40
0.6961743425
 40
0.7568960209
 40
0.8131425724
 40
0.8649072266
 40
0.9126101862
 40
0.9571709568
 40
1.0
 40
1.0
 40
1.0
 40
1.0
 10
174.4983829737
 20
215.7429733167
 30
0.0
 10
175.0731899993
 20
215.3940395232
 30
0.0
 10
176.1848431344
 20
214.5079446761
 30
0.0
 10
177.6036604559
 20
212.8528611475
 30
0.0
 10
178.7647258004
 20
210.9215147316
 30
0.0
 10
179.5736830675
 20
208.8697765402
 30
0.0
 10
179.9123423427
 20
207.1405501965
 30
0.0
 10
179.9358487163
 20
205.8433812612
 30
0.0
 10
179.8355058919
 20
204.9726117723
 30
0.0
 10
179.6190134809
 20
204.1921517572
 30
0.0
 10
179.2885502436
 20
203.5180929727
 30
0.0
 10
178.8488143786
 20
202.9665857001
 30
0.0
 10
178.484645008
 20
202.6887567372
 30
0.0
 10
178.2926398672
 20
202.5778825674
 30
0.0
  0
SPLINE
  5
30E
100
AcDbEntity
  8
0
100
AcDbSpline
 62
7
  6
BYLAYER
 70
0
 71
3
 72
20
 73
16
 74
0
 42
0.0000001
 43
0.0000001
 44
0.0000000001
 40
0.0
 40
0.0
 40
0.0
 40
0.0
 40
0.0629088695
 40
0.1296840592
 40
0.271627546
 40
0.4187100043
 40
0.5626837803
 40
0.6311189683
 40
0.696031165
 40
0.7568109632
 40
0.8131062672
 40
0.864904148
 40
0.9126220905
 40
0.9571817477
 40
1.0
 40
1.0
 40
1.0
 40
1.0
 10
210.9142382891
 20
239.3197170668
 30
0.0
 10
211.3058863144
 20
239.0852753536
 30
0.0
 10
212.0829351283
 20
238.5500449161
 30
0.0
 10
213.5779876337
 20
237.2615104611
 30
0.0
 10
215.2754823502
 20
235.2953432901
 30
0.0
 10
216.9083698364
 20
232.5961764689
 30
0.0
 10
217.8769369976
 20
230.1580757579
 30
0.0
 10
218.3506947031
 20
228.1995773398
 30
0.0
 10
218.5407044141
 20
226.8010674351
 30
0.0
 10
218.5672809472
 20
225.4775620024
 30
0.0
 10
218.4291218445
 20
224.2558331587
 30
0.0
 10
218.1275655814
 20
223.1606620558
 30
0.0
 10
217.6657388782
 20
222.2148311505
 30
0.0
 10
217.0502238152
 20
221.4411186115
 30
0.0
 10
216.5400351464
 20
221.0514690924
 30
0.0
 10
216.2709751586
 20
220.8961322993
 30
0.0
  0
SPLINE
  5
30F
100
AcDbEntity
  8
0
100
AcDbSpline
 62
7
  6
BYLAYER
 70
0
 71
3
 72
9
 73
5
 74
0
 42
0.0000001
 43
0.0000001
 44
0.0000000001
 40
0.0
 40
0.0
 40
0.0
 40
0.0
 40
0.2570127475
 40
1.0
 40
1.0
 40
1.0
 40
1.0
 10
187.4708932007
 20
213.8408405912
 30
0.0
 10
187.5179800276
 20
213.6964419387
 30
0.0
 10
187.6905259768
 20
213.1312336355
 30
0.0
 10
187.8198589328
 20
212.5524664287
 30
0.0
 10
187.8862988042
 20
212.1184531574
 30
0.0
  0
SPLINE
  5
310
100
AcDbEntity
  8
0
100
AcDbSpline
 62
7
  6
BYLAYER
 70
0
 71
3
 72
23
 73
19
 74
0
 42
0.0000001
 43
0.0000001
 44
0.0000000001
 40
0.0
 40
0.0
 40
0.0
 40
0.0
 40
0.0669597918
 40
0.1387163835
 40
0.2139859302
 40
0.2912387221
 40
0.3688021582
 40
0.4449841173
 40
0.5181838409
 40
0.5870171976
 40
0.650453126
 40
0.7079827812
 40
0.7598276684
 40
0.8071558904
 40
0.8521480961
 40
0.8976350541
 40
0.9463027929
 40
1.0
 40
1.0
 40
1.0
 40
1.0
 10
173.7730928333
 20
214.5289964689
 30
0.0
 10
174.0795155489
 20
214.3429840581
 30
0.0
 10
174.6843102083
 20
213.9070054334
 30
0.0
 10
175.5212994953
 20
213.1211034052
 30
0.0
 10
176.2979680334
 20
212.202191785
 30
0.0
 10
176.9892363529
 20
211.1799976385
 30
0.0
 10
177.5729477984
 20
210.0872549428
 30
0.0
 10
178.0303272062
 20
208.959161451
 30
0.0
 10
178.3466690002
 20
207.8318608133
 30
0.0
 10
178.5117823914
 20
206.7411553093
 30
0.0
 10
178.5200009182
 20
205.7210743603
 30
0.0
 10
178.3696253053
 20
204.8027355896
 30
0.0
 10
178.0616762255
 20
204.0142315761
 30
0.0
 10
177.5992215759
 20
203.3832831261
 30
0.0
 10
176.9932791509
 20
202.9406940615
 30
0.0
 10
176.2717688168
 20
202.7112715977
 30
0.0
 10
175.4711038933
 20
202.6995544127
 30
0.0
 10
174.9323982341
 20
202.8244914971
 30
0.0
 10
174.6595576438
 20
202.9150057955
 30
0.0
  0
SPLINE
  5
311
100
AcDbEntity
  8
0
100
AcDbSpline
 62
7
  6
BYLAYER
 70
0
 71
3
 72
11
 73
7
 74
0
 42
0.0000001
 43
0.0000001
 44
0.0000000001
 40
0.0
 40
0.0
 40
0.0
 40
0.0
 40
0.2781811647
 40
0.5335976718
 40
0.7714659894
 40
1.0
 40
1.0
 40
1.0
 40
1.0
 10
168.8734062781
 20
212.8017346261
 30
0.0
 10
168.9176378033
 20
213.0429706116
 30
0.0
 10
169.0382855359
 20
213.5005401324
 30
0.0
 10
169.3356653567
 20
214.117636029
 30
0.0
 10
169.737212315
 20
214.6190509683
 30
0.0
 10
170.0719525063
 20
214.8673896756
 30
0.0
 10
170.2483158913
 20
214.9648199447
 30
0.0
  0
SPLINE
  5
312
100
AcDbEntity
  8
0
100
AcDbSpline
 62
7
  6
BYLAYER
 70
0
 71
3
 72
11
 73
7
 74
0
 42
0.0000001
 43
0.0000001
 44
0.0000000001
 40
0.0
 40
0.0
 40
0.0
 40
0.0
 40
0.2177520496
 40
0.4513510123
 40
0.7107278122
 40
1.0
 40
1.0
 40
1.0
 40
1.0
 10
170.264592512
 20
214.973725793
 30
0.0
 10
170.4908862927
 20
215.0963533174
 30
0.0
 10
171.007253852
 20
215.270210583
 30
0.0
 10
171.858082056
 20
215.2797049333
 30
0.0
 10
172.7631014725
 20
215.0553603042
 30
0.0
 10
173.351948226
 20
214.7739958153
 30
0.0
 10
173.6480619993
 20
214.6030383161
 30
0.0
  0
SPLINE
  5
313
100
AcDbEntity
  8
0
100
AcDbSpline
 62
7
  6
BYLAYER
 70
0
 71
3
 72
11
 73
7
 74
0
 42
0.0000001
 43
0.0000001
 44
0.0000000001
 40
0.0
 40
0.0
 40
0.0
 40
0.0
 40
0.2176907916
 40
0.4508868986
 40
0.7106214304
 40
1.0
 40
1.0
 40
1.0
 40
1.0
 10
51.2705680666
 20
147.3066227369
 30
0.0
 10
51.3233456578
 20
147.337040459
 30
0.0
 10
51.4221005592
 20
147.4200330576
 30
0.0
 10
51.5273398143
 20
147.5919723252
 30
0.0
 10
51.5895338604
 20
147.8038948559
 30
0.0
 10
51.6019815006
 20
147.9580449713
 30
0.0
 10
51.6019815006
 20
148.0390207117
 30
0.0
  0
SPLINE
  5
314
100
AcDbEntity
  8
0
100
AcDbSpline
 62
7
  6
BYLAYER
 70
0
 71
3
 72
11
 73
7
 74
0
 42
0.0000001
 43
0.0000001
 44
0.0000000001
 40
0.0
 40
0.0
 40
0.0
 40
0.0
 40
0.2279647346
 40
0.4774558632
 40
0.7386569753
 40
1.0
 40
1.0
 40
1.0
 40
1.0
 10
65.7441283112
 20
131.1783130581
 30
0.0
 10
65.7441283112
 20
132.6071704171
 30
0.0
 10
65.3919163437
 20
135.6031627631
 30
0.0
 10
64.0464578937
 20
140.0526072424
 30
0.0
 10
61.9432968237
 20
144.4303199433
 30
0.0
 10
60.0970625293
 20
147.1534746224
 30
0.0
 10
59.0738725931
 20
148.4326741887
 30
0.0
  0
SPLINE
  5
315
100
AcDbEntity
  8
0
100
AcDbSpline
 62
7
  6
BYLAYER
 70
0
 71
3
 72
9
 73
5
 74
0
 42
0.0000001
 43
0.0000001
 44
0.0000000001
 40
0.0
 40
0.0
 40
0.0
 40
0.0
 40
0.5254133702
 40
1.0
 40
1.0
 40
1.0
 40
1.0
 10
55.029234987
 20
152.5566275683
 30
0.0
 10
54.172527991
 20
153.2557873588
 30
0.0
 10
52.4461714449
 20
154.4753372734
 30
0.0
 10
50.5282596071
 20
155.3800971805
 30
0.0
 10
49.5820134408
 20
155.6998760224
 30
0.0
  0
SPLINE
  5
316
100
AcDbEntity
  8
0
100
AcDbSpline
 62
7
  6
BYLAYER
 70
0
 71
3
 72
11
 73
7
 74
0
 42
0.0000001
 43
0.0000001
 44
0.0000000001
 40
0.0
 40
0.0
 40
0.0
 40
0.0
 40
0.2176907916
 40
0.4508868986
 40
0.7106214304
 40
1.0
 40
1.0
 40
1.0
 40
1.0
 10
47.3814645783
 20
118.9331062444
 30
0.0
 10
47.4342421695
 20
118.9635239665
 30
0.0
 10
47.5329970709
 20
119.0465165651
 30
0.0
 10
47.638236326
 20
119.2184558327
 30
0.0
 10
47.7004303721
 20
119.4303783634
 30
0.0
 10
47.7128780123
 20
119.5845284788
 30
0.0
 10
47.7128780123
 20
119.6655042192
 30
0.0
  0
SPLINE
  5
317
100
AcDbEntity
  8
0
100
AcDbSpline
 62
7
  6
BYLAYER
 70
0
 71
3
 72
11
 73
7
 74
0
 42
0.0000001
 43
0.0000001
 44
0.0000000001
 40
0.0
 40
0.0
 40
0.0
 40
0.0
 40
0.2198619336
 40
0.4539319575
 40
0.7123542149
 40
1.0
 40
1.0
 40
1.0
 40
1.0
 10
61.8089897607
 20
122.4803996434
 30
0.0
 10
62.4050180935
 20
122.8245084148
 30
0.0
 10
63.5233403674
 20
123.7472750517
 30
0.0
 10
64.7448202466
 20
125.6467340946
 30
0.0
 10
65.5121167715
 20
127.9871027518
 30
0.0
 10
65.7042594833
 20
129.6967429375
 30
0.0
 10
65.734456926
 20
130.5966491222
 30
0.0
  0
SPLINE
  5
318
100
AcDbEntity
  8
0
100
AcDbSpline
 62
7
  6
BYLAYER
 70
0
 71
3
 72
11
 73
7
 74
0
 42
0.0000001
 43
0.0000001
 44
0.0000000001
 40
0.0
 40
0.0
 40
0.0
 40
0.0
 40
0.2871341907
 40
0.5468539641
 40
0.7819576552
 40
1.0
 40
1.0
 40
1.0
 40
1.0
 10
58.9558990904
 20
118.6348653852
 30
0.0
 10
58.9558990904
 20
118.8666730312
 30
0.0
 10
58.9883011861
 20
119.3093411717
 30
0.0
 10
59.1504943213
 20
119.9240007248
 30
0.0
 10
59.4228657328
 20
120.4376169259
 30
0.0
 10
59.6811007182
 20
120.7056518504
 30
0.0
 10
59.8217477334
 20
120.8115033984
 30
0.0
  0
SPLINE
  5
319
100
AcDbEntity
  8
0
100
AcDbSpline
 62
7
  6
BYLAYER
 70
0
 71
3
 72
9
 73
5
 74
0
 42
0.0000001
 43
0.0000001
 44
0.0000000001
 40
0.0
 40
0.0
 40
0.0
 40
0.0
 40
0.2465245291
 40
1.0
 40
1.0
 40
1.0
 40
1.0
 10
59.8217477334
 20
120.8115033984
 30
0.0
 10
59.9343932319
 20
120.8962808846
 30
0.0
 10
60.380209892
 20
121.2547970303
 30
0.0
 10
60.7795591118
 20
121.670326899
 30
0.0
 10
61.0499655113
 20
122.0058187179
 30
0.0
  0
SPLINE
  5
31A
100
AcDbEntity
  8
0
100
AcDbSpline
 62
7
  6
BYLAYER
 70
0
 71
3
 72
10
 73
6
 74
0
 42
0.0000001
 43
0.0000001
 44
0.0000000001
 40
0.0
 40
0.0
 40
0.0
 40
0.0
 40
0.4638154599
 40
0.7226951901
 40
1.0
 40
1.0
 40
1.0
 40
1.0
 10
61.4966170497
 20
122.6202267436
 30
0.0
 10
62.0874616336
 20
123.5218008046
 30
0.0
 10
62.7278654253
 20
125.1174829519
 30
0.0
 10
63.1327728467
 20
127.4073920808
 30
0.0
 10
63.1985574412
 20
128.6559215908
 30
0.0
 10
63.1985574412
 20
129.30039165
 30
0.0
  0
SPLINE
  5
31B
100
AcDbEntity
  8
0
100
AcDbSpline
 62
7
  6
BYLAYER
 70
0
 71
3
 72
10
 73
6
 74
0
 42
0.0000001
 43
0.0000001
 44
0.0000000001
 40
0.0
 40
0.0
 40
0.0
 40
0.0
 40
0.2291545024
 40
0.4752105815
 40
1.0
 40
1.0
 40
1.0
 40
1.0
 10
63.1985574412
 20
129.30039165
 30
0.0
 10
63.1985574412
 20
130.2889990912
 30
0.0
 10
63.0344603724
 20
132.3412264072
 30
0.0
 10
62.1331710864
 20
136.5677536459
 30
0.0
 10
60.8730525594
 20
139.6832643635
 30
0.0
 10
59.8217477334
 20
141.6883956794
 30
0.0
  0
SPLINE
  5
31C
100
AcDbEntity
  8
0
100
AcDbSpline
 62
7
  6
BYLAYER
 70
0
 71
3
 72
9
 73
5
 74
0
 42
0.0000001
 43
0.0000001
 44
0.0000000001
 40
0.0
 40
0.0
 40
0.0
 40
0.0
 40
0.5253352928
 40
1.0
 40
1.0
 40
1.0
 40
1.0
 10
59.8217477334
 20
141.6883956794
 30
0.0
 10
59.5521807881
 20
142.2025349759
 30
0.0
 10
59.1346872761
 20
143.2345311816
 30
0.0
 10
58.9558990904
 20
144.3402787077
 30
0.0
 10
58.9558990904
 20
144.864806969
 30
0.0
  0
SPLINE
  5
31D
100
AcDbEntity
  8
0
100
AcDbSpline
 62
7
  6
BYLAYER
 70
0
 71
3
 72
9
 73
5
 74
0
 42
0.0000001
 43
0.0000001
 44
0.0000000001
 40
0.0
 40
0.0
 40
0.0
 40
0.0
 40
0.5237588129
 40
1.0
 40
1.0
 40
1.0
 40
1.0
 10
35.0593594999
 20
133.5345653918
 30
0.0
 10
34.3471248971
 20
135.1966734403
 30
0.0
 10
33.2464282643
 20
138.4889446962
 30
0.0
 10
32.7928628117
 20
141.9445781182
 30
0.0
 10
32.7928628117
 20
143.5888044608
 30
0.0
  0
SPLINE
  5
31E
100
AcDbEntity
  8
0
100
AcDbSpline
 62
7
  6
BYLAYER
 70
0
 71
3
 72
11
 73
7
 74
0
 42
0.0000001
 43
0.0000001
 44
0.0000000001
 40
0.0
 40
0.0
 40
0.0
 40
0.0
 40
0.2872109635
 40
0.5468468174
 40
0.7819126679
 40
1.0
 40
1.0
 40
1.0
 40
1.0
 10
32.7928628117
 20
143.5888044608
 30
0.0
 10
32.7928628117
 20
144.4931063683
 30
0.0
 10
32.9186923941
 20
146.2196247151
 30
0.0
 10
33.5522823204
 20
148.6163221344
 30
0.0
 10
34.61342142
 20
150.6197769887
 30
0.0
 10
35.6210296972
 20
151.6647817666
 30
0.0
 10
36.1696725195
 20
152.0776927123
 30
0.0
  0
SPLINE
  5
31F
100
AcDbEntity
  8
0
100
AcDbSpline
 62
7
  6
BYLAYER
 70
0
 71
3
 72
11
 73
7
 74
0
 42
0.0000001
 43
0.0000001
 44
0.0000000001
 40
0.0
 40
0.0
 40
0.0
 40
0.0
 40
0.2180423448
 40
0.4531460359
 40
0.7128658093
 40
1.0
 40
1.0
 40
1.0
 40
1.0
 10
36.1696725195
 20
152.0776927123
 30
0.0
 10
36.3103195347
 20
152.1835442603
 30
0.0
 10
36.5685545201
 20
152.4515791848
 30
0.0
 10
36.8409259316
 20
152.965195386
 30
0.0
 10
37.0031190668
 20
153.579854939
 30
0.0
 10
37.0355211625
 20
154.0225230795
 30
0.0
 10
37.0355211625
 20
154.2543307255
 30
0.0
  0
SPLINE
  5
320
100
AcDbEntity
  8
0
100
AcDbSpline
 62
7
  6
BYLAYER
 70
0
 71
3
 72
15
 73
11
 74
0
 42
0.0000001
 43
0.0000001
 44
0.0000000001
 40
0.0
 40
0.0
 40
0.0
 40
0.0
 40
0.1287972074
 40
0.2706054898
 40
0.4178799053
 40
0.562375555
 40
0.6961915357
 40
0.8135903033
 40
0.913065596
 40
1.0
 40
1.0
 40
1.0
 40
1.0
 10
47.7128780123
 20
119.6655042192
 30
0.0
 10
47.7128780123
 20
119.8022290298
 30
0.0
 10
47.6745426594
 20
120.0898049652
 30
0.0
 10
47.5318635108
 20
120.5120422279
 30
0.0
 10
47.3116757242
 20
120.9187484409
 30
0.0
 10
47.0322463184
 20
121.2765570381
 30
0.0
 10
46.7156289738
 20
121.5569228223
 30
0.0
 10
46.3854658958
 20
121.7372982407
 30
0.0
 10
46.0622233402
 20
121.8021054916
 30
0.0
 10
45.8614967765
 20
121.7503545354
 30
0.0
 10
45.7815403257
 20
121.7042726085
 30
0.0
  0
SPLINE
  5
321
100
AcDbEntity
  8
0
100
AcDbSpline
 62
7
  6
BYLAYER
 70
0
 71
3
 72
15
 73
11
 74
0
 42
0.0000001
 43
0.0000001
 44
0.0000000001
 40
0.0
 40
0.0
 40
0.0
 40
0.0
 40
0.1287972074
 40
0.2706054898
 40
0.4178799053
 40
0.562375555
 40
0.6961915357
 40
0.8135903033
 40
0.913065596
 40
1.0
 40
1.0
 40
1.0
 40
1.0
 10
51.6019815006
 20
148.0390207117
 30
0.0
 10
51.6019815006
 20
148.1757455223
 30
0.0
 10
51.5636461477
 20
148.4633214577
 30
0.0
 10
51.4209669991
 20
148.8855587204
 30
0.0
 10
51.2007792125
 20
149.2922649334
 30
0.0
 10
50.9213498067
 20
149.6500735306
 30
0.0
 10
50.6047324621
 20
149.9304393148
 30
0.0
 10
50.2745693841
 20
150.1108147332
 30
0.0
 10
49.9513268285
 20
150.1756219841
 30
0.0
 10
49.7506002648
 20
150.1238710279
 30
0.0
 10
49.670643814
 20
150.077789101
 30
0.0
  0
SPLINE
  5
322
100
AcDbEntity
  8
0
100
AcDbSpline
 62
7
  6
BYLAYER
 70
0
 71
3
 72
11
 73
7
 74
0
 42
0.0000001
 43
0.0000001
 44
0.0000000001
 40
0.0
 40
0.0
 40
0.0
 40
0.0
 40
0.2629727618
 40
0.5237561613
 40
0.7722502587
 40
1.0
 40
1.0
 40
1.0
 40
1.0
 10
59.0995252907
 20
147.0711269887
 30
0.0
 10
60.0163576408
 20
145.8297981837
 30
0.0
 10
61.665530097
 20
143.2219647472
 30
0.0
 10
63.5383866417
 20
139.0788964211
 30
0.0
 10
64.7287949049
 20
134.9043772367
 30
0.0
 10
65.037024474
 20
132.1065735758
 30
0.0
 10
65.037024474
 20
130.7700689042
 30
0.0
  0
SPLINE
  5
323
100
AcDbEntity
  8
0
100
AcDbSpline
 62
7
  6
BYLAYER
 70
0
 71
3
 72
11
 73
7
 74
0
 42
0.0000001
 43
0.0000001
 44
0.0000000001
 40
0.0
 40
0.0
 40
0.0
 40
0.0
 40
0.2873227868
 40
0.5469735946
 40
0.7819479681
 40
1.0
 40
1.0
 40
1.0
 40
1.0
 10
65.037024474
 20
130.7700689042
 30
0.0
 10
65.037024474
 20
129.8853840899
 30
0.0
 10
64.9134027237
 20
128.1965482663
 30
0.0
 10
64.2909336107
 20
125.8531999885
 30
0.0
 10
63.2479472595
 20
123.8968085416
 30
0.0
 10
62.258065658
 20
122.879417532
 30
0.0
 10
61.7195131024
 20
122.4785016962
 30
0.0
  0
SPLINE
  5
324
100
AcDbEntity
  8
0
100
AcDbSpline
 62
7
  6
BYLAYER
 70
0
 71
3
 72
11
 73
7
 74
0
 42
0.0000001
 43
0.0000001
 44
0.0000000001
 40
0.0
 40
0.0
 40
0.0
 40
0.0
 40
0.2176907916
 40
0.4508868986
 40
0.7106214304
 40
1.0
 40
1.0
 40
1.0
 40
1.0
 10
49.670643814
 20
150.077789101
 30
0.0
 10
49.6178662229
 20
150.0473713789
 30
0.0
 10
49.5191113214
 20
149.9643787803
 30
0.0
 10
49.4138720664
 20
149.7924395127
 30
0.0
 10
49.3516780203
 20
149.580516982
 30
0.0
 10
49.3392303801
 20
149.4263668666
 30
0.0
 10
49.3392303801
 20
149.3453911262
 30
0.0
  0
SPLINE
  5
325
100
AcDbEntity
  8
0
100
AcDbSpline
 62
7
  6
BYLAYER
 70
0
 71
3
 72
9
 73
5
 74
0
 42
0.0000001
 43
0.0000001
 44
0.0000000001
 40
0.0
 40
0.0
 40
0.0
 40
0.0
 40
0.4746647072
 40
1.0
 40
1.0
 40
1.0
 40
1.0
 10
56.1274837415
 20
143.2318303535
 30
0.0
 10
56.1274837415
 20
142.7073020922
 30
0.0
 10
56.3062719273
 20
141.6015545661
 30
0.0
 10
56.7237654393
 20
140.5695583605
 30
0.0
 10
56.9933323845
 20
140.0554190639
 30
0.0
  0
SPLINE
  5
326
100
AcDbEntity
  8
0
100
AcDbSpline
 62
7
  6
BYLAYER
 70
0
 71
3
 72
10
 73
6
 74
0
 42
0.0000001
 43
0.0000001
 44
0.0000000001
 40
0.0
 40
0.0
 40
0.0
 40
0.0
 40
0.5247894185
 40
0.7708454976
 40
1.0
 40
1.0
 40
1.0
 40
1.0
 10
56.9933323845
 20
140.0554190639
 30
0.0
 10
58.0446372105
 20
138.050287748
 30
0.0
 10
59.3047557376
 20
134.9347770304
 30
0.0
 10
60.2060450236
 20
130.7082497918
 30
0.0
 10
60.3701420924
 20
128.6560224757
 30
0.0
 10
60.3701420924
 20
127.6674150345
 30
0.0
  0
SPLINE
  5
327
100
AcDbEntity
  8
0
100
AcDbSpline
 62
7
  6
BYLAYER
 70
0
 71
3
 72
11
 73
7
 74
0
 42
0.0000001
 43
0.0000001
 44
0.0000000001
 40
0.0
 40
0.0
 40
0.0
 40
0.0
 40
0.2872109635
 40
0.5468468174
 40
0.7819126679
 40
1.0
 40
1.0
 40
1.0
 40
1.0
 10
60.3701420924
 20
127.6674150345
 30
0.0
 10
60.3701420924
 20
126.7631131269
 30
0.0
 10
60.24431251
 20
125.0365947802
 30
0.0
 10
59.6107225837
 20
122.6398973609
 30
0.0
 10
58.549583484
 20
120.6364425065
 30
0.0
 10
57.5419752068
 20
119.5914377286
 30
0.0
 10
56.9933323845
 20
119.1785267829
 30
0.0
  0
SPLINE
  5
328
100
AcDbEntity
  8
0
100
AcDbSpline
 62
7
  6
BYLAYER
 70
0
 71
3
 72
11
 73
7
 74
0
 42
0.0000001
 43
0.0000001
 44
0.0000000001
 40
0.0
 40
0.0
 40
0.0
 40
0.0
 40
0.2180423448
 40
0.4531460359
 40
0.7128658093
 40
1.0
 40
1.0
 40
1.0
 40
1.0
 10
56.9933323845
 20
119.1785267829
 30
0.0
 10
56.8526853694
 20
119.0726752349
 30
0.0
 10
56.5944503839
 20
118.8046403104
 30
0.0
 10
56.3220789725
 20
118.2910241093
 30
0.0
 10
56.1598858372
 20
117.6763645562
 30
0.0
 10
56.1274837415
 20
117.2336964157
 30
0.0
 10
56.1274837415
 20
117.0018887697
 30
0.0
  0
SPLINE
  5
329
100
AcDbEntity
  8
0
100
AcDbSpline
 62
7
  6
BYLAYER
 70
0
 71
3
 72
15
 73
11
 74
0
 42
0.0000001
 43
0.0000001
 44
0.0000000001
 40
0.0
 40
0.0
 40
0.0
 40
0.0
 40
0.1287972074
 40
0.2706054898
 40
0.4178799053
 40
0.562375555
 40
0.6961915357
 40
0.8135903033
 40
0.913065596
 40
1.0
 40
1.0
 40
1.0
 40
1.0
 10
45.4501268918
 20
120.9718746337
 30
0.0
 10
45.4501268918
 20
120.8351498231
 30
0.0
 10
45.4884622446
 20
120.5475738877
 30
0.0
 10
45.6311413932
 20
120.125336625
 30
0.0
 10
45.8513291798
 20
119.718630412
 30
0.0
 10
46.1307585857
 20
119.3608218148
 30
0.0
 10
46.4473759303
 20
119.0804560306
 30
0.0
 10
46.7775390083
 20
118.9000806122
 30
0.0
 10
47.1007815639
 20
118.8352733612
 30
0.0
 10
47.3015081275
 20
118.8870243175
 30
0.0
 10
47.3814645783
 20
118.9331062444
 30
0.0
  0
SPLINE
  5
32A
100
AcDbEntity
  8
0
100
AcDbSpline
 62
7
  6
BYLAYER
 70
0
 71
3
 72
15
 73
11
 74
0
 42
0.0000001
 43
0.0000001
 44
0.0000000001
 40
0.0
 40
0.0
 40
0.0
 40
0.0
 40
0.1287972074
 40
0.2706054898
 40
0.4178799053
 40
0.562375555
 40
0.6961915357
 40
0.8135903033
 40
0.913065596
 40
1.0
 40
1.0
 40
1.0
 40
1.0
 10
49.3392303801
 20
149.3453911262
 30
0.0
 10
49.3392303801
 20
149.2086663156
 30
0.0
 10
49.3775657329
 20
148.9210903802
 30
0.0
 10
49.5202448815
 20
148.4988531175
 30
0.0
 10
49.7404326681
 20
148.0921469045
 30
0.0
 10
50.019862074
 20
147.7343383073
 30
0.0
 10
50.3364794186
 20
147.4539725231
 30
0.0
 10
50.6666424966
 20
147.2735971047
 30
0.0
 10
50.9898850522
 20
147.2087898537
 30
0.0
 10
51.1906116158
 20
147.26054081
 30
0.0
 10
51.2705680666
 20
147.3066227369
 30
0.0
  0
SPLINE
  5
32B
100
AcDbEntity
  8
0
100
AcDbSpline
 62
7
  6
BYLAYER
 70
0
 71
3
 72
11
 73
7
 74
0
 42
0.0000001
 43
0.0000001
 44
0.0000000001
 40
0.0
 40
0.0
 40
0.0
 40
0.0
 40
0.2176907916
 40
0.4508868986
 40
0.7106214304
 40
1.0
 40
1.0
 40
1.0
 40
1.0
 10
45.7815403257
 20
121.7042726085
 30
0.0
 10
45.7287627346
 20
121.6738548864
 30
0.0
 10
45.6300078331
 20
121.5908622878
 30
0.0
 10
45.5247685781
 20
121.4189230202
 30
0.0
 10
45.462574532
 20
121.2070004895
 30
0.0
 10
45.4501268918
 20
121.0528503741
 30
0.0
 10
45.4501268918
 20
120.9718746337
 30
0.0
  0
ENDSEC
  0
SECTION
  2
OBJECTS
  0
DICTIONARY
  5
C
100
AcDbDictionary
280
0
281
1
  3
ACAD_GROUP
350
D
  3
ACAD_MLINESTYLE
350
17
  3
ACAD_LAYOUT
350
1A
  3
ACAD_PLOTSETTINGS
350
19
  3
ACAD_PLOTSTYLENAME
350
E
  0
DICTIONARY
  5
D
102
{ACAD_REACTORS
330
C
102
}
100
AcDbDictionary
280
0
281
1
  0
ACDBDICTIONARYWDFLT
  5
E
102
{ACAD_REACTORS
330
C
102
}
100
AcDbDictionary
281
1
  3
Normal
350
F
100
AcDbDictionaryWithDefault
340
F
  0
DICTIONARY
  5
17
102
{ACAD_REACTORS
330
C
102
}
100
AcDbDictionary
280
0
281
1
  3
Standard
350
18
  0
DICTIONARY
  5
19
102
{ACAD_REACTORS
330
C
102
}
100
AcDbDictionary
281
1
  0
DICTIONARY
  5
1A
102
{ACAD_REACTORS
330
C
102
}
100
AcDbDictionary
281
1
  3
Model
350
32C
  3
Layout1
350
32D
  0
ACDBPLACEHOLDER
  5
F
102
{ACAD_REACTORS
330
E
102
}
  0
MLINESTYLE
  5
18
102
{ACAD_REACTORS
330
17
102
}
100
AcDbMlineStyle
  2
STANDARD
 70
0
  3

 62
256
 51
90.0
 52
90.0
 71
2
 49
0.5
 62
256
  6
BYLAYER
 49
-0.5
 62
256
  6
BYLAYER
  0
LAYOUT
  5
32C
102
{ACAD_REACTORS
330
1A
102
}
100
AcDbPlotSettings
  1

  2
none_device
  4

  6

 40
0.0
 41
0.0
 42
0.0
 43
0.0
 44
210.0
 45
297.0
 46
0.0
 47
0.0
 48
0.0
 49
0.0
140
0.0
141
0.0
142
1.0
143
1.0
 70
1024
 72
1
 73
0
 74
0
  7

 75
0
147
1.0
148
0.0
149
0.0
100
AcDbLayout
  1
Model
 70
0
 71
0
 10
0.0
 20
0.0
 11
210.0
 21
297.0
 12
0.0
 22
0.0
 32
0.0
 14
0.0
 24
0.0
 34
0.0
 15
0.0
 25
0.0
 35
0.0
146
0.0
 13
0.0
 23
0.0
 33
0.0
 16
1.0
 26
0.0
 36
0.0
 17
0.0
 27
1.0
 37
0.0
 76
0
330
210
345
0
346
0
  0
LAYOUT
  5
32D
102
{ACAD_REACTORS
330
1A
102
}
100
AcDbPlotSettings
  1

  2
none_device
  4

  6

 40
0.0
 41
0.0
 42
0.0
 43
0.0
 44
210.0
 45
297.0
 46
0.0
 47
0.0
 48
0.0
 49
0.0
140
0.0
141
0.0
142
1.0
143
1.0
 70
0
 72
1
 73
0
 74
0
  7

 75
0
147
1.0
148
0.0
149
0.0
100
AcDbLayout
  1
Layout1
 70
0
 71
1
 10
0.0
 20
0.0
 11
210.0
 21
297.0
 12
0.0
 22
0.0
 32
0.0
 14
0.0
 24
0.0
 34
0.0
 15
0.0
 25
0.0
 35
0.0
146
0.0
 13
0.0
 23
0.0
 33
0.0
 16
1.0
 26
0.0
 36
0.0
 17
0.0
 27
1.0
 37
0.0
 76
0
330
211
345
0
346
0
  0
ENDSEC
  0
EOF
