999
DXF file: C:\Users\sesa63760\Dev\_Creo\CAD\MCADID0001493_3D-CAD\drw0001_1.dxf
999
Pro/ENGINEER 2019471 by Parametric Technology Corporation
  0
SECTION
  2
HEADER
  9
$ACADVER
  1
AC1024
  9
$DWGCODEPAGE
  3
ANSI_1252
  9
$EXTMAX
 10
273.3292398908
 20
386.5656392742
 30
0.0
  9
$EXTMIN
 10
0.0
 20
0.0
 30
0.0
  9
$LIMMIN
 10
0.0
 20
0.0
  9
$LIMMAX
 10
273.3292398908
 20
386.5656392742
  9
$VIEWCTR
 10
136.6646199454
 20
193.2828196371
  9
$VIEWSIZE
 40
386.5656392742
  9
$CLAYER
  8
0
  9
$LTSCALE
 40
25.1983527823
  9
$CELTYPE
  6
BYLAYER
  9
$DIMSCALE
 40
1.0
  9
$DIMASZ
 40
3.2539195225
  9
$DIMEXO
 40
1.0
  9
$DIMDLI
 40
17.4097710132
  9
$DIMEXE
 40
1.0
  9
$DIMCEN
 40
4.1233668189
  9
$DIMLFAC
 40
1.0
  9
$DIMBLK
  1
_FILLED
  9
$DIMALT
 70
0
  9
$DIMALTF
 40
0.0393700787
  9
$DIMTXT
 40
4.5554873315
  9
$DIMTOL
 70
1
  9
$DIMLIM
 70
0
  9
$DIMTFAC
 40
1.0
  9
$DIMTP
 40
0.01
  9
$DIMTM
 40
0.01
  9
$DIMGAP
 40
0.625
  9
$DIMDSEP
 70
46
  9
$AUNITS
 70
0
  9
$PDMODE
 70
3
  9
$PDSIZE
 40
0.3125
  9
$HANDSEED
  5
3EF
  9
$TILEMODE
 70
1
  9
$MEASUREMENT
 70
1
  9
$INSUNITS
 70
4
  0
ENDSEC
  0
SECTION
  2
CLASSES
  0
CLASS
  1
ACDBDICTIONARYWDFLT
  2
AcDbDictionaryWithDefault
  3
AutoCAD 2000
 90
0
 91
1
280
0
281
0
  0
CLASS
  1
ACDBPLACEHOLDER
  2
AcDbPlaceHolder
  3
AutoCAD 2000
 90
0
 91
1
280
0
281
0
  0
CLASS
  1
LAYOUT
  2
AcDbLayout
  3
AutoCAD 2000
 90
0
 91
0
280
0
281
0
  0
ENDSEC
  0
SECTION
  2
TABLES
  0
TABLE
  2
VPORT
  5
8
100
AcDbSymbolTable
 70
2
  0
VPORT
  5
1F4
100
AcDbSymbolTableRecord
100
AcDbViewportTableRecord
  2
*ACTIVE
 70
0
 10
0.0
 20
0.0
 11
1.0
 21
1.0
 12
136.6646199454
 22
193.2828196371
 13
0.0
 23
0.0
 14
1.0
 24
1.0
 15
0.0
 25
0.0
 16
0.0
 26
0.0
 36
1.0
 17
0.0
 27
0.0
 37
0.0
 40
386.5656392742
 41
0.7070707071
 42
50.0
 43
0.0
 44
0.0
 50
0.0
 51
0.0
 71
0
 72
100
 73
1
 74
1
 75
0
 76
0
 77
0
 78
0
  0
ENDTAB
  0
TABLE
  2
LTYPE
  5
5
100
AcDbSymbolTable
 70
6
  0
LTYPE
  5
14
100
AcDbSymbolTableRecord
100
AcDbLinetypeTableRecord
  2
BYBLOCK
 70
0
  3

 72
65
 73
0
 40
0.0
  0
LTYPE
  5
15
100
AcDbSymbolTableRecord
100
AcDbLinetypeTableRecord
  2
BYLAYER
 70
0
  3

 72
65
 73
0
 40
0.0
  0
LTYPE
  5
16
100
AcDbSymbolTableRecord
100
AcDbLinetypeTableRecord
  2
CONTINUOUS
 70
64
  3
Solid line
 72
65
 73
0
 40
0.0
  0
LTYPE
  5
1F5
100
AcDbSymbolTableRecord
100
AcDbLinetypeTableRecord
  2
CENTER
 70
64
  3
____ _ ____ _ ____ _ ____ _ ____ _ ____ _ ____
 72
65
 73
4
 40
0.6
 49
0.375
 74
0
 49
-0.075
 74
0
 49
0.075
 74
0
 49
-0.075
 74
0
  0
LTYPE
  5
1F6
100
AcDbSymbolTableRecord
100
AcDbLinetypeTableRecord
  2
HIDDEN
 70
64
  3
- - - - - - - - - - - - - - - - - - - -
 72
65
 73
2
 40
0.2
 49
0.1
 74
0
 49
-0.1
 74
0
  0
LTYPE
  5
1F7
100
AcDbSymbolTableRecord
100
AcDbLinetypeTableRecord
  2
PHANTOM
 70
64
  3
_____ _ _ _____ _ _ _____ _ _ _____
 72
65
 73
6
 40
0.8
 49
0.45
 74
0
 49
-0.05
 74
0
 49
0.1
 74
0
 49
-0.05
 74
0
 49
0.1
 74
0
 49
-0.05
 74
0
  0
LTYPE
  5
1F8
100
AcDbSymbolTableRecord
100
AcDbLinetypeTableRecord
  2
DOT
 70
64
  3
. . . . . . . . . . . . . . . . . . . .
 72
65
 73
2
 40
0.2
 49
0.1
 74
0
 49
-0.1
 74
0
  0
LTYPE
  5
1F9
100
AcDbSymbolTableRecord
100
AcDbLinetypeTableRecord
  2
DASHED
 70
64
  3
- - - - - - - - - - - - - - - - - - - -
 72
65
 73
2
 40
0.2
 49
0.1
 74
0
 49
-0.1
 74
0
  0
ENDTAB
  0
TABLE
  2
LAYER
  5
2
100
AcDbSymbolTable
 70
36
  0
LAYER
  5
10
100
AcDbSymbolTableRecord
100
AcDbLayerTableRecord
  2
0
 70
0
 62
7
  6
CONTINUOUS
370
-3
390
F
  0
LAYER
  5
1FA
100
AcDbSymbolTableRecord
100
AcDbLayerTableRecord
  2
DEFAULT_1
 70
0
 62
7
  6
CENTER
370
-3
390
F
  0
LAYER
  5
1FB
100
AcDbSymbolTableRecord
100
AcDbLayerTableRecord
  2
DEFAULT_2
 70
0
 62
8
  6
HIDDEN
370
-3
390
F
  0
LAYER
  5
1FC
100
AcDbSymbolTableRecord
100
AcDbLayerTableRecord
  2
DEFAULT_3
 70
0
 62
7
  6
PHANTOM
370
-3
390
F
  0
LAYER
  5
1FD
100
AcDbSymbolTableRecord
100
AcDbLayerTableRecord
  2
00_COMPONENTS
 70
0
 62
7
  6
CONTINUOUS
370
-3
390
F
  0
LAYER
  5
1FE
100
AcDbSymbolTableRecord
100
AcDbLayerTableRecord
  2
01_1_DEFAULT_DATUMS
 70
0
 62
7
  6
CONTINUOUS
370
-3
390
F
  0
LAYER
  5
1FF
100
AcDbSymbolTableRecord
100
AcDbLayerTableRecord
  2
01_PLANES
 70
0
 62
7
  6
CONTINUOUS
370
-3
390
F
  0
LAYER
  5
200
100
AcDbSymbolTableRecord
100
AcDbLayerTableRecord
  2
02_COORD_SYS
 70
0
 62
7
  6
CONTINUOUS
370
-3
390
F
  0
LAYER
  5
201
100
AcDbSymbolTableRecord
100
AcDbLayerTableRecord
  2
03_AXES
 70
0
 62
7
  6
CONTINUOUS
370
-3
390
F
  0
LAYER
  5
202
100
AcDbSymbolTableRecord
100
AcDbLayerTableRecord
  2
04_POINTS
 70
0
 62
7
  6
CONTINUOUS
370
-3
390
F
  0
LAYER
  5
203
100
AcDbSymbolTableRecord
100
AcDbLayerTableRecord
  2
05_CURVES
 70
0
 62
7
  6
CONTINUOUS
370
-3
390
F
  0
LAYER
  5
204
100
AcDbSymbolTableRecord
100
AcDbLayerTableRecord
  2
06_SURFS
 70
0
 62
7
  6
CONTINUOUS
370
-3
390
F
  0
LAYER
  5
205
100
AcDbSymbolTableRecord
100
AcDbLayerTableRecord
  2
07_COSMETICS
 70
0
 62
7
  6
CONTINUOUS
370
-3
390
F
  0
LAYER
  5
206
100
AcDbSymbolTableRecord
100
AcDbLayerTableRecord
  2
10_NOTES
 70
0
 62
7
  6
CONTINUOUS
370
-3
390
F
  0
LAYER
  5
207
100
AcDbSymbolTableRecord
100
AcDbLayerTableRecord
  2
11_NOTES_PUB
 70
0
 62
7
  6
CONTINUOUS
370
-3
390
F
  0
LAYER
  5
208
100
AcDbSymbolTableRecord
100
AcDbLayerTableRecord
  2
13_REF_GTOL
 70
0
 62
7
  6
CONTINUOUS
370
-3
390
F
  0
LAYER
  5
209
100
AcDbSymbolTableRecord
100
AcDbLayerTableRecord
  2
16_MISC
 70
0
 62
7
  6
CONTINUOUS
370
-3
390
F
  0
LAYER
  5
20A
100
AcDbSymbolTableRecord
100
AcDbLayerTableRecord
  2
17_NO_PRINT
 70
0
 62
7
  6
CONTINUOUS
370
-3
390
F
  0
LAYER
  5
20B
100
AcDbSymbolTableRecord
100
AcDbLayerTableRecord
  2
18_DATUM_CAMS_JOINTS
 70
0
 62
7
  6
CONTINUOUS
370
-3
390
F
  0
LAYER
  5
20C
100
AcDbSymbolTableRecord
100
AcDbLayerTableRecord
  2
19_DATUM_FUNCTIONAL
 70
0
 62
7
  6
CONTINUOUS
370
-3
390
F
  0
LAYER
  5
20D
100
AcDbSymbolTableRecord
100
AcDbLayerTableRecord
  2
20_DATUM_KINEMATIC_SCHEME
 70
0
 62
7
  6
CONTINUOUS
370
-3
390
F
  0
LAYER
  5
20E
100
AcDbSymbolTableRecord
100
AcDbLayerTableRecord
  2
_1
 70
0
 62
7
  6
CONTINUOUS
370
-3
390
F
  0
ENDTAB
  0
TABLE
  2
STYLE
  5
3
100
AcDbSymbolTable
 70
1
  0
STYLE
  5
11
100
AcDbSymbolTableRecord
100
AcDbTextStyleTableRecord
  2
STANDARD
 70
0
 40
0.0
 41
0.8
 50
0.0
 71
0
 42
0.2
  3
txt
  4

  0
STYLE
  5
20F
100
AcDbSymbolTableRecord
100
AcDbTextStyleTableRecord
  2
TEXTSTYLE_1
 70
0
 40
0.0
 41
0.8
 50
0.0
 71
0
 42
0.2
  3
gdt
  4

  0
ENDTAB
  0
TABLE
  2
VIEW
  5
6
100
AcDbSymbolTable
 70
0
  0
ENDTAB
  0
TABLE
  2
UCS
  5
7
100
AcDbSymbolTable
 70
0
  0
ENDTAB
  0
TABLE
  2
APPID
  5
9
100
AcDbSymbolTable
 70
1
  0
APPID
  5
210
100
AcDbSymbolTableRecord
100
AcDbRegAppTableRecord
  2
ACAD
 70
0
  0
ENDTAB
  0
TABLE
  2
BLOCK_RECORD
  5
1
100
AcDbSymbolTable
 70
0
  0
BLOCK_RECORD
  5
211
100
AcDbSymbolTableRecord
100
AcDbBlockTableRecord
  2
*Model_Space
  0
BLOCK_RECORD
  5
212
100
AcDbSymbolTableRecord
100
AcDbBlockTableRecord
  2
*Paper_Space
  0
BLOCK_RECORD
  5
213
100
AcDbSymbolTableRecord
100
AcDbBlockTableRecord
  2
_FILLED
  0
ENDTAB
  0
TABLE
  2
DIMSTYLE
  5
A
100
AcDbSymbolTable
 70
1
100
AcDbDimStyleTable
 71
0
  0
DIMSTYLE
105
214
100
AcDbSymbolTableRecord
100
AcDbDimStyleTableRecord
  2
STANDARD
 70
0
  3

  4

 40
1.0
 41
3.2539195225
 42
1.0
 43
0.38
 44
1.0
 45
0.0
 46
0.0
 47
0.01
 48
0.01
140
4.5554873315
141
0.09
142
0.0
143
25.4
144
1.0
145
0.0
146
1.0
147
0.625
 71
1
 72
0
 73
0
 74
0
 75
0
 76
0
 77
1
 78
8
 79
2
170
0
171
1
172
0
173
0
174
0
175
0
176
0
177
0
178
0
270
2
179
2
271
2
272
2
273
2
274
2
275
0
280
0
281
0
282
0
283
1
284
8
285
0
286
0
287
3
288
0
340
11
278
46
341
213
342
213
343
213
344
213
  0
ENDTAB
  0
ENDSEC
  0
SECTION
  2
BLOCKS
  0
BLOCK
  5
20
100
AcDbEntity
  8
0
100
AcDbBlockBegin
  2
*Model_Space
 70
0
 10
0.0
 20
0.0
 30
0.0
  3
*Model_Space
  1

  0
ENDBLK
  5
21
100
AcDbEntity
  8
0
100
AcDbBlockEnd
  0
BLOCK
  5
1C
100
AcDbEntity
  8
0
100
AcDbBlockBegin
  2
*Paper_Space
 70
0
 10
0.0
 20
0.0
 30
0.0
  3
*Paper_Space
  1

  0
ENDBLK
  5
1D
100
AcDbEntity
  8
0
100
AcDbBlockEnd
  0
BLOCK
  5
215
100
AcDbEntity
  8
0
100
AcDbBlockBegin
  2
_FILLED
 70
64
 10
0.0
 20
0.0
  3
_FILLED
  1

  0
SOLID
  5
216
100
AcDbEntity
  8
0
  6
BYBLOCK
 62
0
100
AcDbTrace
 10
0.0
 20
0.0
 11
-1.0
 21
0.25
 12
-1.0
 22
-0.25
 13
-1.0
 23
-0.25
  0
ENDBLK
  5
217
100
AcDbEntity
  8
0
  6
BYBLOCK
 62
0
100
AcDbBlockEnd
  0
ENDSEC
  0
SECTION
  2
ENTITIES
  0
LINE
  5
218
100
AcDbEntity
  8
_1
100
AcDbLine
 62
7
  6
CONTINUOUS
 10
96.7323027564
 20
89.185539867
 11
69.7844060755
 21
104.7435633002
  0
LINE
  5
219
100
AcDbEntity
  8
_1
100
AcDbLine
 62
7
  6
CONTINUOUS
 10
60.8437102509
 20
109.9053596659
 11
38.811521103
 21
122.6253622364
  0
LINE
  5
21A
100
AcDbEntity
  8
_1
100
AcDbLine
 62
7
  6
CONTINUOUS
 10
32.5155067427
 20
158.34567844
 11
32.7857922729
 21
134.3483275399
  0
LINE
  5
21B
100
AcDbEntity
  8
_1
100
AcDbLine
 62
7
  6
CONTINUOUS
 10
32.8016033676
 20
200.8959278645
 11
32.4445826982
 21
169.6100241967
  0
LINE
  5
21C
100
AcDbEntity
  8
_1
100
AcDbLine
 62
7
  6
CONTINUOUS
 10
42.1445891388
 20
143.4647879898
 11
42.1445891388
 21
141.2276755244
  0
LINE
  5
21D
100
AcDbEntity
  8
_1
100
AcDbLine
 62
7
  6
CONTINUOUS
 10
47.2659183143
 20
139.8018900495
 11
47.2659183143
 21
142.2400657263
  0
LINE
  5
21E
100
AcDbEntity
  8
_1
100
AcDbLine
 62
7
  6
CONTINUOUS
 10
64.2364104074
 20
152.0379254192
 11
64.2364104074
 21
149.5997497424
  0
LINE
  5
21F
100
AcDbEntity
  8
_1
100
AcDbLine
 62
7
  6
CONTINUOUS
 10
65.1150812319
 20
153.2626476828
 11
65.1150812319
 21
151.0255352173
  0
LINE
  5
220
100
AcDbEntity
  8
_1
100
AcDbLine
 62
7
  6
CONTINUOUS
 10
67.1358464646
 20
191.2298901495
 11
67.1358464646
 21
191.3115403912
  0
LINE
  5
221
100
AcDbEntity
  8
_1
100
AcDbLine
 62
7
  6
CONTINUOUS
 10
69.282294546
 20
194.1284772577
 11
69.282294546
 21
194.7816791914
  0
LINE
  5
222
100
AcDbEntity
  8
_1
100
AcDbLine
 62
7
  6
CONTINUOUS
 10
69.782294546
 20
191.5156695228
 11
69.782294546
 21
191.1074183143
  0
LINE
  5
223
100
AcDbEntity
  8
_1
100
AcDbLine
 62
7
  6
CONTINUOUS
 10
69.8785474403
 20
192.1195626112
 11
69.8785474403
 21
192.8647588701
  0
LINE
  5
224
100
AcDbEntity
  8
_1
100
AcDbLine
 62
7
  6
CONTINUOUS
 10
69.8785474403
 20
196.1204244551
 11
69.8785474403
 21
198.7332321899
  0
LINE
  5
225
100
AcDbEntity
  8
_1
100
AcDbLine
 62
7
  6
CONTINUOUS
 10
69.982294546
 20
194.7816791914
 11
69.982294546
 21
195.5165313668
  0
LINE
  5
226
100
AcDbEntity
  8
_1
100
AcDbLine
 62
7
  6
CONTINUOUS
 10
70.9245684107
 20
189.8657704179
 11
70.9245684107
 21
192.1555259557
  0
LINE
  5
227
100
AcDbEntity
  8
_1
100
AcDbLine
 62
7
  6
CONTINUOUS
 10
70.9245684107
 20
193.8666322618
 11
70.9245684107
 21
196.4794399967
  0
LINE
  5
228
100
AcDbEntity
  8
_1
100
AcDbLine
 62
7
  6
CONTINUOUS
 10
71.782294546
 20
198.1293391016
 11
71.782294546
 21
201.3136985284
  0
LINE
  5
229
100
AcDbEntity
  8
_1
100
AcDbLine
 62
7
  6
CONTINUOUS
 10
74.8283155163
 20
189.2618773296
 11
74.8283155163
 21
191.6266183326
  0
LINE
  5
22A
100
AcDbEntity
  8
_1
100
AcDbLine
 62
7
  6
CONTINUOUS
 10
74.8283155163
 20
193.2627391735
 11
74.8283155163
 21
195.8755469083
  0
LINE
  5
22B
100
AcDbEntity
  8
_1
100
AcDbLine
 62
7
  6
CONTINUOUS
 10
75.782294546
 20
198.1293391016
 11
75.782294546
 21
201.3136985284
  0
LINE
  5
22C
100
AcDbEntity
  8
_1
100
AcDbLine
 62
7
  6
CONTINUOUS
 10
77.582294546
 20
194.7816791914
 11
77.582294546
 21
194.8527402166
  0
LINE
  5
22D
100
AcDbEntity
  8
_1
100
AcDbLine
 62
7
  6
CONTINUOUS
 10
77.6860416517
 20
190.9117764345
 11
77.6860416517
 21
192.8637195534
  0
LINE
  5
22E
100
AcDbEntity
  8
_1
100
AcDbLine
 62
7
  6
CONTINUOUS
 10
77.6860416517
 20
194.9126382784
 11
77.6860416517
 21
197.5254460132
  0
LINE
  5
22F
100
AcDbEntity
  8
_1
100
AcDbLine
 62
7
  6
CONTINUOUS
 10
77.782294546
 20
191.5156695228
 11
77.782294546
 21
191.1074183143
  0
LINE
  5
230
100
AcDbEntity
  8
_1
100
AcDbLine
 62
7
  6
CONTINUOUS
 10
78.282294546
 20
194.1284772577
 11
78.282294546
 21
194.7816791914
  0
LINE
  5
231
100
AcDbEntity
  8
_1
100
AcDbLine
 62
7
  6
CONTINUOUS
 10
79.0856145406
 20
188.3722048679
 11
79.0856145406
 21
188.4538551096
  0
LINE
  5
232
100
AcDbEntity
  8
_1
100
AcDbLine
 62
7
  6
CONTINUOUS
 10
70.0185347645
 20
195.8188030274
 11
69.9823007253
 21
195.5165313663
  0
LINE
  5
233
100
AcDbEntity
  8
_1
100
AcDbLine
 62
7
  6
CONTINUOUS
 10
43.0467861763
 20
209.5954901674
 11
34.5615401297
 21
204.696560321
  0
LINE
  5
234
100
AcDbEntity
  8
_1
100
AcDbLine
 62
7
  6
CONTINUOUS
 10
38.811521103
 20
204.2756039494
 11
47.2967671495
 21
209.1745337958
  0
LINE
  5
235
100
AcDbEntity
  8
_1
100
AcDbLine
 62
7
  6
CONTINUOUS
 10
208.2614322153
 20
293.3974728444
 11
185.3798904518
 21
282.4984802783
  0
LINE
  5
236
100
AcDbEntity
  8
_1
100
AcDbLine
 62
7
  6
CONTINUOUS
 10
70.9245684107
 20
189.8657704179
 11
69.8785474403
 21
192.1195626112
  0
LINE
  5
237
100
AcDbEntity
  8
_1
100
AcDbLine
 62
7
  6
CONTINUOUS
 10
70.9245684107
 20
193.8666322618
 11
69.8785474403
 21
196.1204244551
  0
LINE
  5
238
100
AcDbEntity
  8
_1
100
AcDbLine
 62
7
  6
CONTINUOUS
 10
69.8785474403
 20
198.7332321899
 11
70.9245684107
 21
196.4794399967
  0
LINE
  5
239
100
AcDbEntity
  8
_1
100
AcDbLine
 62
7
  6
CONTINUOUS
 10
182.9658625547
 20
279.377306372
 11
181.9052067989
 21
278.7649401412
  0
LINE
  5
23A
100
AcDbEntity
  8
_1
100
AcDbLine
 62
7
  6
CONTINUOUS
 10
54.420690001
 20
205.0616280662
 11
138.547608949
 21
253.6320374406
  0
LINE
  5
23B
100
AcDbEntity
  8
_1
100
AcDbLine
 62
7
  6
CONTINUOUS
 10
169.6648382307
 20
271.5974709037
 11
181.9922707323
 21
278.7146748929
  0
LINE
  5
23C
100
AcDbEntity
  8
_1
100
AcDbLine
 62
7
  6
CONTINUOUS
 10
183.2864605406
 20
279.461871267
 11
185.364016111
 21
280.661341375
  0
LINE
  5
23D
100
AcDbEntity
  8
_1
100
AcDbLine
 62
7
  6
CONTINUOUS
 10
182.905202322
 20
278.6658915831
 11
183.9658580778
 21
279.2782578139
  0
LINE
  5
23E
100
AcDbEntity
  8
_1
100
AcDbLine
 62
7
  6
CONTINUOUS
 10
55.0064717197
 20
204.7234344842
 11
138.522702607
 21
252.9412650471
  0
LINE
  5
23F
100
AcDbEntity
  8
_1
100
AcDbLine
 62
7
  6
CONTINUOUS
 10
169.6648382307
 20
270.9210781075
 11
182.9922662554
 21
278.6156263349
  0
LINE
  5
240
100
AcDbEntity
  8
_1
100
AcDbLine
 62
7
  6
CONTINUOUS
 10
184.0529220112
 20
279.2279925657
 11
185.364016111
 21
279.9849485788
  0
LINE
  5
241
100
AcDbEntity
  8
_1
100
AcDbLine
 62
7
  6
CONTINUOUS
 10
219.7415286382
 20
298.6170761409
 11
211.2838350162
 21
293.7340535993
  0
LINE
  5
242
100
AcDbEntity
  8
_1
100
AcDbLine
 62
7
  6
CONTINUOUS
 10
77.6860416517
 20
197.5254460132
 11
76.6400206813
 21
199.7792382065
  0
LINE
  5
243
100
AcDbEntity
  8
_1
100
AcDbLine
 62
7
  6
CONTINUOUS
 10
92.1670355291
 20
196.0063719562
 11
92.1670355291
 21
195.9247217145
  0
LINE
  5
244
100
AcDbEntity
  8
_1
100
AcDbLine
 62
7
  6
CONTINUOUS
 10
92.7528160788
 20
196.7412032235
 11
92.7528160788
 21
196.8228534652
  0
LINE
  5
245
100
AcDbEntity
  8
_1
100
AcDbLine
 62
7
  6
CONTINUOUS
 10
41.5471548253
 20
186.4379854365
 11
44.0220182555
 21
187.866839975
  0
LINE
  5
246
100
AcDbEntity
  8
_1
100
AcDbLine
 62
7
  6
CONTINUOUS
 10
69.8785474403
 20
198.7332321899
 11
71.782294546
 21
199.832354533
  0
LINE
  5
247
100
AcDbEntity
  8
_1
100
AcDbLine
 62
7
  6
CONTINUOUS
 10
38.811521103
 20
204.2756039494
 11
96.7323027564
 21
170.83578158
  0
LINE
  5
248
100
AcDbEntity
  8
_1
100
AcDbLine
 62
7
  6
CONTINUOUS
 10
103.127398187
 20
126.3185341822
 11
102.7422204918
 21
160.5166072428
  0
LINE
  5
249
100
AcDbEntity
  8
_1
100
AcDbLine
 62
7
  6
CONTINUOUS
 10
102.7422204918
 20
92.5652159519
 11
103.127398187
 21
126.3185341822
  0
LINE
  5
24A
100
AcDbEntity
  8
_1
100
AcDbLine
 62
7
  6
CONTINUOUS
 10
69.1860783886
 20
194.1692256729
 11
69.282294546
 21
194.2247757657
  0
LINE
  5
24B
100
AcDbEntity
  8
_1
100
AcDbLine
 62
7
  6
CONTINUOUS
 10
77.1182461112
 20
198.7488375062
 11
82.267499377
 21
201.7217425195
  0
LINE
  5
24C
100
AcDbEntity
  8
_1
100
AcDbLine
 62
7
  6
CONTINUOUS
 10
171.9283030297
 20
252.0175071846
 11
157.7862262854
 21
243.8526241072
  0
LINE
  5
24D
100
AcDbEntity
  8
_1
100
AcDbLine
 62
7
  6
CONTINUOUS
 10
77.6860416517
 20
197.5254460132
 11
74.8283155163
 21
195.8755469083
  0
LINE
  5
24E
100
AcDbEntity
  8
_1
100
AcDbLine
 62
7
  6
CONTINUOUS
 10
77.6860416517
 20
194.9126382784
 11
74.8283155163
 21
193.2627391735
  0
LINE
  5
24F
100
AcDbEntity
  8
_1
100
AcDbLine
 62
7
  6
CONTINUOUS
 10
171.9283030297
 20
248.2615960658
 11
157.7862262854
 21
240.0967129884
  0
LINE
  5
250
100
AcDbEntity
  8
_1
100
AcDbLine
 62
7
  6
CONTINUOUS
 10
47.2967671495
 20
209.1745337958
 11
55.0064717197
 21
204.7234344842
  0
LINE
  5
251
100
AcDbEntity
  8
_1
100
AcDbLine
 62
7
  6
CONTINUOUS
 10
97.5078442328
 20
180.1858107381
 11
105.2175488029
 21
175.7347114264
  0
LINE
  5
252
100
AcDbEntity
  8
_1
100
AcDbLine
 62
7
  6
CONTINUOUS
 10
111.2274665383
 20
165.4155370893
 11
111.4747212905
 21
143.4629780907
  0
LINE
  5
253
100
AcDbEntity
  8
_1
100
AcDbLine
 62
7
  6
CONTINUOUS
 10
111.4747212905
 20
119.1312060603
 11
111.2274665383
 21
97.4641457983
  0
LINE
  5
254
100
AcDbEntity
  8
_1
100
AcDbLine
 62
7
  6
CONTINUOUS
 10
74.8283155163
 20
189.2618773296
 11
77.6860416517
 21
190.9117764345
  0
LINE
  5
255
100
AcDbEntity
  8
_1
100
AcDbLine
 62
7
  6
CONTINUOUS
 10
231.241477154
 20
278.6984621296
 11
224.276594736
 21
274.6773093937
  0
LINE
  5
256
100
AcDbEntity
  8
_1
100
AcDbLine
 62
7
  6
CONTINUOUS
 10
92.1670355291
 20
196.0063719562
 11
79.0856145406
 21
188.4538551096
  0
LINE
  5
257
100
AcDbEntity
  8
_1
100
AcDbLine
 62
7
  6
CONTINUOUS
 10
92.1670355291
 20
195.9247217145
 11
79.0856145406
 21
188.3722048679
  0
LINE
  5
258
100
AcDbEntity
  8
_1
100
AcDbLine
 62
7
  6
CONTINUOUS
 10
53.4790829201
 20
173.1196169464
 11
55.6003944317
 21
174.344349408
  0
LINE
  5
259
100
AcDbEntity
  8
_1
100
AcDbLine
 62
7
  6
CONTINUOUS
 10
85.0959265017
 20
201.7217493182
 11
92.1670237532
 21
197.639341773
  0
LINE
  5
25A
100
AcDbEntity
  8
_1
100
AcDbLine
 62
7
  6
CONTINUOUS
 10
129.3873737487
 20
264.6886249961
 11
129.3873737487
 21
276.9253189275
  0
LINE
  5
25B
100
AcDbEntity
  8
_1
100
AcDbLine
 62
7
  6
CONTINUOUS
 10
220.8645396285
 20
260.9964395094
 11
209.2635522631
 21
253.8139355118
  0
LINE
  5
25C
100
AcDbEntity
  8
_1
100
AcDbLine
 62
7
  6
CONTINUOUS
 10
223.6921644822
 20
261.9786994095
 11
222.3467670962
 21
261.2019385032
  0
LINE
  5
25D
100
AcDbEntity
  8
_1
100
AcDbLine
 62
7
  6
CONTINUOUS
 10
215.6274809101
 20
255.3652091033
 11
201.4854041658
 21
247.2003260259
  0
LINE
  5
25E
100
AcDbEntity
  8
_1
100
AcDbLine
 62
7
  6
CONTINUOUS
 10
225.1565973951
 20
259.5797189232
 11
225.2071033872
 21
259.6088783973
  0
LINE
  5
25F
100
AcDbEntity
  8
_1
100
AcDbLine
 62
7
  6
CONTINUOUS
 10
215.6274809101
 20
251.6092979845
 11
201.4854041658
 21
243.4444149071
  0
LINE
  5
260
100
AcDbEntity
  8
_1
100
AcDbLine
 62
7
  6
CONTINUOUS
 10
216.3345876913
 20
251.6092996842
 11
201.4854071098
 21
243.0361724529
  0
LINE
  5
261
100
AcDbEntity
  8
_1
100
AcDbLine
 62
7
  6
CONTINUOUS
 10
216.3345876913
 20
251.2010484756
 11
201.4854071098
 21
242.6279212443
  0
LINE
  5
262
100
AcDbEntity
  8
_1
100
AcDbLine
 62
7
  6
CONTINUOUS
 10
230.0898137104
 20
256.731589589
 11
226.5542945243
 21
254.6903688196
  0
LINE
  5
263
100
AcDbEntity
  8
_1
100
AcDbLine
 62
7
  6
CONTINUOUS
 10
225.4936387685
 20
254.0780025888
 11
97.5078442328
 21
180.1858107381
  0
LINE
  5
264
100
AcDbEntity
  8
_1
100
AcDbLine
 62
7
  6
CONTINUOUS
 10
226.6413584577
 20
254.6401035714
 11
225.5807027018
 21
254.0277373406
  0
LINE
  5
265
100
AcDbEntity
  8
_1
100
AcDbLine
 62
7
  6
CONTINUOUS
 10
74.8283155163
 20
189.2618773296
 11
70.9245684107
 21
189.8657704179
  0
LINE
  5
266
100
AcDbEntity
  8
_1
100
AcDbLine
 62
7
  6
CONTINUOUS
 10
74.8283155163
 20
193.2627391735
 11
70.9245684107
 21
193.8666322618
  0
LINE
  5
267
100
AcDbEntity
  8
_1
100
AcDbLine
 62
7
  6
CONTINUOUS
 10
138.522702607
 20
249.4862503423
 11
138.522702607
 21
253.2421614611
  0
LINE
  5
268
100
AcDbEntity
  8
_1
100
AcDbLine
 62
7
  6
CONTINUOUS
 10
138.772702607
 20
253.2421614611
 11
138.772702607
 21
254.7954836452
  0
LINE
  5
269
100
AcDbEntity
  8
_1
100
AcDbLine
 62
7
  6
CONTINUOUS
 10
139.4013910954
 20
248.2615178807
 11
139.4013910954
 21
252.0174289995
  0
LINE
  5
26A
100
AcDbEntity
  8
_1
100
AcDbLine
 62
7
  6
CONTINUOUS
 10
185.3799529507
 20
282.4962696043
 11
185.3640161671
 21
282.4712825616
  0
LINE
  5
26B
100
AcDbEntity
  8
_1
100
AcDbLine
 62
7
  6
CONTINUOUS
 10
100.3176745317
 20
178.5635911581
 11
226.9077370591
 21
251.6499615683
  0
LINE
  5
26C
100
AcDbEntity
  8
_1
100
AcDbLine
 62
7
  6
CONTINUOUS
 10
228.0364116623
 20
252.3015982645
 11
231.503912001
 21
254.3035485685
  0
LINE
  5
26D
100
AcDbEntity
  8
_1
100
AcDbLine
 62
7
  6
CONTINUOUS
 10
226.9948009925
 20
251.5996963201
 11
228.0554567483
 21
252.2120625509
  0
LINE
  5
26E
100
AcDbEntity
  8
_1
100
AcDbLine
 62
7
  6
CONTINUOUS
 10
43.0232599634
 20
144.6895102534
 11
59.9937520565
 21
154.4873699463
  0
LINE
  5
26F
100
AcDbEntity
  8
_1
100
AcDbLine
 62
7
  6
CONTINUOUS
 10
63.7290370321
 20
155.3660696754
 11
62.8917427869
 21
154.8826605031
  0
LINE
  5
270
100
AcDbEntity
  8
_1
100
AcDbLine
 62
7
  6
CONTINUOUS
 10
42.1445891388
 20
142.9043572603
 11
34.7377797063
 21
138.6280593667
  0
LINE
  5
271
100
AcDbEntity
  8
_1
100
AcDbLine
 62
7
  6
CONTINUOUS
 10
105.2175488029
 20
175.7347114264
 11
96.7323027564
 21
170.83578158
  0
LINE
  5
272
100
AcDbEntity
  8
_1
100
AcDbLine
 62
7
  6
CONTINUOUS
 10
64.2364104074
 20
152.0379254192
 11
47.2659183143
 21
142.2400657263
  0
LINE
  5
273
100
AcDbEntity
  8
_1
100
AcDbLine
 62
7
  6
CONTINUOUS
 10
231.5732200456
 20
248.1500209821
 11
228.1236398099
 21
246.1584167927
  0
LINE
  5
274
100
AcDbEntity
  8
_1
100
AcDbLine
 62
7
  6
CONTINUOUS
 10
226.9770451038
 20
245.496433982
 11
105.6346820515
 21
175.4398061913
  0
LINE
  5
275
100
AcDbEntity
  8
_1
100
AcDbLine
 62
7
  6
CONTINUOUS
 10
228.124764793
 20
246.0585349646
 11
227.0641090371
 21
245.4461687337
  0
LINE
  5
276
100
AcDbEntity
  8
_1
100
AcDbLine
 62
7
  6
CONTINUOUS
 10
64.2364104074
 20
149.5997497424
 11
47.2659183143
 21
139.8018900495
  0
LINE
  5
277
100
AcDbEntity
  8
_1
100
AcDbLine
 62
7
  6
CONTINUOUS
 10
70.9245684107
 20
196.4794399967
 11
74.8283155163
 21
195.8755469083
  0
LINE
  5
278
100
AcDbEntity
  8
_1
100
AcDbLine
 62
7
  6
CONTINUOUS
 10
76.6400206813
 20
199.7792382065
 11
75.782294546
 21
199.9119247948
  0
LINE
  5
279
100
AcDbEntity
  8
_1
100
AcDbLine
 62
7
  6
CONTINUOUS
 10
145.7653845097
 20
264.5892478041
 11
145.7653845097
 21
250.4661860021
  0
LINE
  5
27A
100
AcDbEntity
  8
_1
100
AcDbLine
 62
7
  6
CONTINUOUS
 10
102.7422204918
 20
160.5166072428
 11
111.2274665383
 21
165.4155370893
  0
LINE
  5
27B
100
AcDbEntity
  8
_1
100
AcDbLine
 62
7
  6
CONTINUOUS
 10
111.2334616213
 20
164.8832625405
 11
232.9869628392
 21
235.1772596448
  0
LINE
  5
27C
100
AcDbEntity
  8
_1
100
AcDbLine
 62
7
  6
CONTINUOUS
 10
234.047618595
 20
235.7896258756
 11
237.583137781
 21
237.830846645
  0
LINE
  5
27D
100
AcDbEntity
  8
_1
100
AcDbLine
 62
7
  6
CONTINUOUS
 10
233.0740267725
 20
235.1269943966
 11
234.1346825284
 21
235.7393606274
  0
LINE
  5
27E
100
AcDbEntity
  8
_1
100
AcDbLine
 62
7
  6
CONTINUOUS
 10
152.91489711
 20
245.0773463707
 11
152.91489711
 21
246.710351205
  0
LINE
  5
27F
100
AcDbEntity
  8
_1
100
AcDbLine
 62
7
  6
CONTINUOUS
 10
153.5435855983
 20
243.8526139091
 11
153.5435855983
 21
240.0967027903
  0
LINE
  5
280
100
AcDbEntity
  8
_1
100
AcDbLine
 62
7
  6
CONTINUOUS
 10
153.7364814645
 20
248.1989121532
 11
153.7364814645
 21
247.9492943627
  0
LINE
  5
281
100
AcDbEntity
  8
_1
100
AcDbLine
 62
7
  6
CONTINUOUS
 10
157.5932936196
 20
247.9821673908
 11
157.5932936196
 21
248.1976417946
  0
LINE
  5
282
100
AcDbEntity
  8
_1
100
AcDbLine
 62
7
  6
CONTINUOUS
 10
157.7862262854
 20
240.0967129884
 11
157.7862262854
 21
243.8526241072
  0
LINE
  5
283
100
AcDbEntity
  8
_1
100
AcDbLine
 62
7
  6
CONTINUOUS
 10
158.41489711
 20
245.0773463707
 11
158.41489711
 21
246.710351205
  0
LINE
  5
284
100
AcDbEntity
  8
_1
100
AcDbLine
 62
7
  6
CONTINUOUS
 10
73.2289945017
 20
138.9115624487
 11
44.2377371759
 21
122.1735521399
  0
LINE
  5
285
100
AcDbEntity
  8
_1
100
AcDbLine
 62
7
  6
CONTINUOUS
 10
242.3209466915
 20
236.3763609374
 11
111.2803475423
 21
160.7204873485
  0
LINE
  5
286
100
AcDbEntity
  8
_1
100
AcDbLine
 62
7
  6
CONTINUOUS
 10
111.3126766993
 20
157.8501371566
 11
243.6292950225
 21
234.2427163616
  0
LINE
  5
287
100
AcDbEntity
  8
_1
100
AcDbLine
 62
7
  6
CONTINUOUS
 10
169.6648382307
 20
256.1816041563
 11
169.6648382307
 21
279.1257073304
  0
LINE
  5
288
100
AcDbEntity
  8
_1
100
AcDbLine
 62
7
  6
CONTINUOUS
 10
111.4747212905
 20
143.4629780907
 11
239.4605158262
 21
217.3551699415
  0
LINE
  5
289
100
AcDbEntity
  8
_1
100
AcDbLine
 62
7
  6
CONTINUOUS
 10
240.521171582
 20
217.9675361723
 11
245.5468658099
 21
220.8691047676
  0
LINE
  5
28A
100
AcDbEntity
  8
_1
100
AcDbLine
 62
7
  6
CONTINUOUS
 10
239.4605341759
 20
217.3535407661
 11
240.5211899317
 21
217.9659069969
  0
LINE
  5
28B
100
AcDbEntity
  8
_1
100
AcDbLine
 62
7
  6
CONTINUOUS
 10
171.9283030297
 20
252.0175071846
 11
171.9283030297
 21
248.2615960658
  0
LINE
  5
28C
100
AcDbEntity
  8
_1
100
AcDbLine
 62
7
  6
CONTINUOUS
 10
172.5569738543
 20
253.2422294482
 11
172.5569738543
 21
254.8752342824
  0
LINE
  5
28D
100
AcDbEntity
  8
_1
100
AcDbLine
 62
7
  6
CONTINUOUS
 10
172.8069738543
 20
249.4863183294
 11
172.8069738543
 21
253.2422294482
  0
LINE
  5
28E
100
AcDbEntity
  8
_1
100
AcDbLine
 62
7
  6
CONTINUOUS
 10
83.4789486137
 20
121.1580151777
 11
85.6002601253
 21
122.3827476393
  0
LINE
  5
28F
100
AcDbEntity
  8
_1
100
AcDbLine
 62
7
  6
CONTINUOUS
 10
103.127398187
 20
126.3185341822
 11
245.8652855854
 21
208.7277999782
  0
LINE
  5
290
100
AcDbEntity
  8
_1
100
AcDbLine
 62
7
  6
CONTINUOUS
 10
181.5147737063
 20
252.4256993528
 11
181.5147737063
 21
252.8339505614
  0
LINE
  5
291
100
AcDbEntity
  8
_1
100
AcDbLine
 62
7
  6
CONTINUOUS
 10
182.2218804874
 20
252.8339522611
 11
182.2218804874
 21
256.5898633799
  0
LINE
  5
292
100
AcDbEntity
  8
_1
100
AcDbLine
 62
7
  6
CONTINUOUS
 10
182.3934621946
 20
251.2009668912
 11
182.3934621946
 21
251.6092180998
  0
LINE
  5
293
100
AcDbEntity
  8
_1
100
AcDbLine
 62
7
  6
CONTINUOUS
 10
182.4718804874
 20
256.5898633799
 11
182.4718804874
 21
258.2228682141
  0
LINE
  5
294
100
AcDbEntity
  8
_1
100
AcDbLine
 62
7
  6
CONTINUOUS
 10
183.1005689758
 20
251.6092197994
 11
183.1005689758
 21
255.3651309182
  0
LINE
  5
295
100
AcDbEntity
  8
_1
100
AcDbLine
 62
7
  6
CONTINUOUS
 10
185.364016111
 20
259.529306075
 11
185.364016111
 21
282.4733357985
  0
LINE
  5
296
100
AcDbEntity
  8
_1
100
AcDbLine
 62
7
  6
CONTINUOUS
 10
240.5211899317
 20
193.6373721293
 11
239.4605341759
 21
193.0250058985
  0
LINE
  5
297
100
AcDbEntity
  8
_1
100
AcDbLine
 62
7
  6
CONTINUOUS
 10
245.5468658099
 20
196.5373327371
 11
240.521171582
 21
193.6357641418
  0
LINE
  5
298
100
AcDbEntity
  8
_1
100
AcDbLine
 62
7
  6
CONTINUOUS
 10
239.4605158262
 20
193.023397911
 11
111.4747212905
 21
119.1312060603
  0
LINE
  5
299
100
AcDbEntity
  8
_1
100
AcDbLine
 62
7
  6
CONTINUOUS
 10
202.1416069548
 20
249.9128914594
 11
202.1140749904
 21
249.9076696326
  0
LINE
  5
29A
100
AcDbEntity
  8
_1
100
AcDbLine
 62
7
  6
CONTINUOUS
 10
158.4424280395
 20
246.5652464381
 11
158.41489711
 21
246.5600229565
  0
LINE
  5
29B
100
AcDbEntity
  8
_1
100
AcDbLine
 62
7
  6
CONTINUOUS
 10
202.1663650843
 20
249.8533804977
 11
202.1380285317
 21
249.8494719851
  0
LINE
  5
29C
100
AcDbEntity
  8
_1
100
AcDbLine
 62
7
  6
CONTINUOUS
 10
158.467208546
 20
246.5056824962
 11
158.438872138
 21
246.5017739489
  0
LINE
  5
29D
100
AcDbEntity
  8
_1
100
AcDbLine
 62
7
  6
CONTINUOUS
 10
153.5435855983
 20
240.0967027903
 11
139.4013910954
 21
248.2615178807
  0
LINE
  5
29E
100
AcDbEntity
  8
_1
100
AcDbLine
 62
7
  6
CONTINUOUS
 10
153.5435855983
 20
243.8526139091
 11
139.4013910954
 21
252.0174289995
  0
LINE
  5
29F
100
AcDbEntity
  8
_1
100
AcDbLine
 62
7
  6
CONTINUOUS
 10
196.6140749904
 20
248.4250482895
 11
196.6140749904
 21
250.0580531237
  0
LINE
  5
2A0
100
AcDbEntity
  8
_1
100
AcDbLine
 62
7
  6
CONTINUOUS
 10
197.2427634787
 20
247.2003158278
 11
197.2427634787
 21
243.444404709
  0
LINE
  5
2A1
100
AcDbEntity
  8
_1
100
AcDbLine
 62
7
  6
CONTINUOUS
 10
197.2427664227
 20
243.0361622548
 11
197.2427664227
 21
242.6279110463
  0
LINE
  5
2A2
100
AcDbEntity
  8
_1
100
AcDbLine
 62
7
  6
CONTINUOUS
 10
197.4356593449
 20
251.5476232974
 11
197.4356593449
 21
251.3298889111
  0
LINE
  5
2A3
100
AcDbEntity
  8
_1
100
AcDbLine
 62
7
  6
CONTINUOUS
 10
89.0469421735
 20
104.1654493028
 11
91.5218056038
 21
105.5943038413
  0
LINE
  5
2A4
100
AcDbEntity
  8
_1
100
AcDbLine
 62
7
  6
CONTINUOUS
 10
245.2016311182
 20
192.9425619669
 11
243.8191499881
 21
192.1443908787
  0
LINE
  5
2A5
100
AcDbEntity
  8
_1
100
AcDbLine
 62
7
  6
CONTINUOUS
 10
243.7590899552
 20
191.5839989978
 11
244.8010968615
 21
192.1855983746
  0
LINE
  5
2A6
100
AcDbEntity
  8
_1
100
AcDbLine
 62
7
  6
CONTINUOUS
 10
111.3471606935
 20
107.9530057742
 11
242.594749092
 21
183.7283839486
  0
LINE
  5
2A7
100
AcDbEntity
  8
_1
100
AcDbLine
 62
7
  6
CONTINUOUS
 10
111.3428938494
 20
107.5791000425
 11
242.2116970646
 21
183.1357877948
  0
LINE
  5
2A8
100
AcDbEntity
  8
_1
100
AcDbLine
 62
7
  6
CONTINUOUS
 10
111.3416944467
 20
107.4739957719
 11
226.5123342445
 21
173.9673987498
  0
LINE
  5
2A9
100
AcDbEntity
  8
_1
100
AcDbLine
 62
7
  6
CONTINUOUS
 10
227.8703706136
 20
174.7514567329
 11
232.1209152742
 21
177.2054951882
  0
LINE
  5
2AA
100
AcDbEntity
  8
_1
100
AcDbLine
 62
7
  6
CONTINUOUS
 10
227.6602997797
 20
174.5510433361
 11
226.5996440238
 21
173.9386771052
  0
LINE
  5
2AB
100
AcDbEntity
  8
_1
100
AcDbLine
 62
7
  6
CONTINUOUS
 10
152.8909450348
 20
246.5017537114
 11
152.862605985
 21
246.5056623936
  0
LINE
  5
2AC
100
AcDbEntity
  8
_1
100
AcDbLine
 62
7
  6
CONTINUOUS
 10
152.91489711
 20
246.559950438
 11
152.8873627023
 21
246.5651725815
  0
LINE
  5
2AD
100
AcDbEntity
  8
_1
100
AcDbLine
 62
7
  6
CONTINUOUS
 10
206.117017025
 20
219.6639817977
 11
209.7455807855
 21
217.5690769269
  0
LINE
  5
2AE
100
AcDbEntity
  8
_1
100
AcDbLine
 62
7
  6
CONTINUOUS
 10
145.7653845097
 20
250.4661860021
 11
132.7994593239
 21
258.4936281379
  0
LINE
  5
2AF
100
AcDbEntity
  8
_1
100
AcDbLine
 62
7
  6
CONTINUOUS
 10
200.037791245
 20
236.1366837212
 11
200.1070992896
 21
229.9831561349
  0
LINE
  5
2B0
100
AcDbEntity
  8
_1
100
AcDbLine
 62
7
  6
CONTINUOUS
 10
201.2924715
 20
251.2926371577
 11
201.2924715
 21
251.5472460645
  0
LINE
  5
2B1
100
AcDbEntity
  8
_1
100
AcDbLine
 62
7
  6
CONTINUOUS
 10
201.4854071098
 20
242.6279212443
 11
201.4854071098
 21
243.0361724529
  0
LINE
  5
2B2
100
AcDbEntity
  8
_1
100
AcDbLine
 62
7
  6
CONTINUOUS
 10
201.4854041658
 20
243.4444149071
 11
201.4854041658
 21
247.2003260259
  0
LINE
  5
2B3
100
AcDbEntity
  8
_1
100
AcDbLine
 62
7
  6
CONTINUOUS
 10
202.1140749904
 20
248.4250482895
 11
202.1140749904
 21
250.0580531237
  0
LINE
  5
2B4
100
AcDbEntity
  8
_1
100
AcDbLine
 62
7
  6
CONTINUOUS
 10
209.2635522631
 20
253.8139355118
 11
209.2635522631
 21
267.9369973137
  0
LINE
  5
2B5
100
AcDbEntity
  8
_1
100
AcDbLine
 62
7
  6
CONTINUOUS
 10
111.2274665383
 20
97.4641457983
 11
102.7422204918
 21
92.5652159519
  0
LINE
  5
2B6
100
AcDbEntity
  8
_1
100
AcDbLine
 62
7
  6
CONTINUOUS
 10
196.5901007956
 20
249.8494596015
 11
196.5617618922
 21
249.8533683193
  0
LINE
  5
2B7
100
AcDbEntity
  8
_1
100
AcDbLine
 62
7
  6
CONTINUOUS
 10
196.6140749904
 20
249.907709213
 11
196.5865416463
 21
249.9129330601
  0
LINE
  5
2B8
100
AcDbEntity
  8
_1
100
AcDbLine
 62
7
  6
CONTINUOUS
 10
121.6659022714
 20
276.5753154046
 11
129.3873737487
 21
272.1174226197
  0
LINE
  5
2B9
100
AcDbEntity
  8
_1
100
AcDbLine
 62
7
  6
CONTINUOUS
 10
172.7463744357
 20
253.5046635677
 11
198.6236929543
 21
238.5647247417
  0
LINE
  5
2BA
100
AcDbEntity
  8
_1
100
AcDbLine
 62
7
  6
CONTINUOUS
 10
212.5905700121
 20
201.8418920943
 11
212.7284929552
 21
189.5963780322
  0
LINE
  5
2BB
100
AcDbEntity
  8
_1
100
AcDbLine
 62
7
  6
CONTINUOUS
 10
215.6274809101
 20
255.3652091033
 11
215.6274809101
 21
251.6092979845
  0
LINE
  5
2BC
100
AcDbEntity
  8
_1
100
AcDbLine
 62
7
  6
CONTINUOUS
 10
216.2561517347
 20
256.5899313669
 11
216.2561517347
 21
258.1432543944
  0
LINE
  5
2BD
100
AcDbEntity
  8
_1
100
AcDbLine
 62
7
  6
CONTINUOUS
 10
216.3345876913
 20
251.6092996842
 11
216.3345876913
 21
251.2010484756
  0
LINE
  5
2BE
100
AcDbEntity
  8
_1
100
AcDbLine
 62
7
  6
CONTINUOUS
 10
216.5061517347
 20
252.8340202481
 11
216.5061517347
 21
256.5899313669
  0
LINE
  5
2BF
100
AcDbEntity
  8
_1
100
AcDbLine
 62
7
  6
CONTINUOUS
 10
217.2132585158
 20
252.4257707392
 11
217.2132585158
 21
252.8340219478
  0
LINE
  5
2C0
100
AcDbEntity
  8
_1
100
AcDbLine
 62
7
  6
CONTINUOUS
 10
212.7284929552
 20
189.5963780322
 11
212.5905700121
 21
177.5101200639
  0
LINE
  5
2C1
100
AcDbEntity
  8
_1
100
AcDbLine
 62
7
  6
CONTINUOUS
 10
211.128628336
 20
165.5615191013
 11
210.7454172249
 21
164.9691980138
  0
LINE
  5
2C2
100
AcDbEntity
  8
_1
100
AcDbLine
 62
7
  6
CONTINUOUS
 10
109.4675297762
 20
93.6635133418
 11
100.9822837296
 21
88.7645834954
  0
LINE
  5
2C3
100
AcDbEntity
  8
_1
100
AcDbLine
 62
7
  6
CONTINUOUS
 10
197.2427664227
 20
242.6279110463
 11
182.3934621946
 21
251.2009668912
  0
LINE
  5
2C4
100
AcDbEntity
  8
_1
100
AcDbLine
 62
7
  6
CONTINUOUS
 10
197.2427664227
 20
243.0361622548
 11
182.3934621946
 21
251.6092180998
  0
LINE
  5
2C5
100
AcDbEntity
  8
_1
100
AcDbLine
 62
7
  6
CONTINUOUS
 10
197.2427634787
 20
243.444404709
 11
183.1005689758
 21
251.6092197994
  0
LINE
  5
2C6
100
AcDbEntity
  8
_1
100
AcDbLine
 62
7
  6
CONTINUOUS
 10
197.2427634787
 20
247.2003158278
 11
183.1005689758
 21
255.3651309182
  0
LINE
  5
2C7
100
AcDbEntity
  8
_1
100
AcDbLine
 62
7
  6
CONTINUOUS
 10
169.6469868582
 20
279.1517898507
 11
169.6630056012
 21
279.1266463593
  0
LINE
  5
2C8
100
AcDbEntity
  8
_1
100
AcDbLine
 62
7
  6
CONTINUOUS
 10
226.9077370591
 20
251.6499615683
 11
226.9770451038
 21
245.496433982
  0
LINE
  5
2C9
100
AcDbEntity
  8
_1
100
AcDbLine
 62
7
  6
CONTINUOUS
 10
227.0641090371
 20
245.4461687337
 11
226.9948009925
 21
251.5996963201
  0
LINE
  5
2CA
100
AcDbEntity
  8
_1
100
AcDbLine
 62
7
  6
CONTINUOUS
 10
228.0554567483
 20
252.2120625509
 11
228.124764793
 21
246.0585349646
  0
LINE
  5
2CB
100
AcDbEntity
  8
_1
100
AcDbLine
 62
7
  6
CONTINUOUS
 10
224.276594736
 20
279.4093420456
 11
224.276594736
 21
267.1914527709
  0
LINE
  5
2CC
100
AcDbEntity
  8
_1
100
AcDbLine
 62
7
  6
CONTINUOUS
 10
145.3529902459
 20
290.7233533246
 11
169.6489669421
 21
279.1508467766
  0
LINE
  5
2CD
100
AcDbEntity
  8
_1
100
AcDbLine
 62
7
  6
CONTINUOUS
 10
232.9869628392
 20
235.1772596448
 11
236.6155265996
 21
233.0823547741
  0
LINE
  5
2CE
100
AcDbEntity
  8
_1
100
AcDbLine
 62
7
  6
CONTINUOUS
 10
237.6761823554
 20
233.6947210049
 11
234.047618595
 21
235.7896258756
  0
LINE
  5
2CF
100
AcDbEntity
  8
_1
100
AcDbLine
 62
7
  6
CONTINUOUS
 10
133.1657071506
 20
296.4940123434
 11
142.6027333341
 21
291.0456659941
  0
LINE
  5
2D0
100
AcDbEntity
  8
_1
100
AcDbLine
 62
7
  6
CONTINUOUS
 10
231.503912001
 20
254.3035485685
 11
231.5732200456
 21
248.1500209821
  0
LINE
  5
2D1
100
AcDbEntity
  8
_1
100
AcDbLine
 62
7
  6
CONTINUOUS
 10
239.4605158262
 20
217.3551699415
 11
239.5984387693
 21
205.1096558794
  0
LINE
  5
2D2
100
AcDbEntity
  8
_1
100
AcDbLine
 62
7
  6
CONTINUOUS
 10
239.5984387693
 20
205.1096558794
 11
239.4605158262
 21
193.023397911
  0
LINE
  5
2D3
100
AcDbEntity
  8
_1
100
AcDbLine
 62
7
  6
CONTINUOUS
 10
182.905202322
 20
278.6658915831
 11
185.364016111
 21
277.246326895
  0
LINE
  5
2D4
100
AcDbEntity
  8
_1
100
AcDbLine
 62
7
  6
CONTINUOUS
 10
217.3158502856
 20
258.7993441597
 11
225.5807027018
 21
254.0277373406
  0
LINE
  5
2D5
100
AcDbEntity
  8
_1
100
AcDbLine
 62
7
  6
CONTINUOUS
 10
183.9658580778
 20
279.2782578139
 11
185.364016111
 21
278.4710491586
  0
LINE
  5
2D6
100
AcDbEntity
  8
_1
100
AcDbLine
 62
7
  6
CONTINUOUS
 10
218.3394668178
 20
259.4330945125
 11
226.6413584577
 21
254.6401035714
  0
LINE
  5
2D7
100
AcDbEntity
  8
_1
100
AcDbLine
 62
7
  6
CONTINUOUS
 10
222.3467670962
 20
261.2019385032
 11
230.0898137104
 21
256.731589589
  0
LINE
  5
2D8
100
AcDbEntity
  8
_1
100
AcDbLine
 62
7
  6
CONTINUOUS
 10
225.2071033872
 20
259.6088783973
 11
225.2147318692
 21
259.5463870661
  0
LINE
  5
2D9
100
AcDbEntity
  8
_1
100
AcDbLine
 62
7
  6
CONTINUOUS
 10
240.6590945251
 20
205.7220221102
 11
240.521171582
 21
217.9675361723
  0
LINE
  5
2DA
100
AcDbEntity
  8
_1
100
AcDbLine
 62
7
  6
CONTINUOUS
 10
240.521171582
 20
193.6357641418
 11
240.6590945251
 21
205.7220221102
  0
ARC
  5
2DB
100
AcDbEntity
  8
_1
100
AcDbCircle
 62
7
  6
CONTINUOUS
 10
36.5186952999
 20
-32.4139383159
 40
348.8566076666
100
AcDbArc
 50
57.5519891583
 51
57.7689160002
  0
ARC
  5
2DC
100
AcDbEntity
  8
_1
100
AcDbCircle
 62
7
  6
CONTINUOUS
 10
163.9112514129
 20
199.233339171
 40
80.2217267491
100
AcDbArc
 50
354.3546022499
 51
354.9303348626
  0
ARC
  5
2DD
100
AcDbEntity
  8
_1
100
AcDbCircle
 62
7
  6
CONTINUOUS
 10
168.0017067801
 20
202.1706535869
 40
77.7495079905
100
AcDbArc
 50
353.1834933388
 51
355.8450080255
  0
ARC
  5
2DE
100
AcDbEntity
  8
_1
100
AcDbCircle
 62
7
  6
CONTINUOUS
 10
214.5920045942
 20
231.4971562047
 40
14.6935302306
100
AcDbArc
 50
209.177985441
 51
211.2548595117
  0
ARC
  5
2DF
100
AcDbEntity
  8
_1
100
AcDbCircle
 62
7
  6
CONTINUOUS
 10
214.4647203115
 20
231.4284867748
 40
14.5489192599
100
AcDbArc
 50
202.854896397
 51
209.1862486268
  0
ARC
  5
2E0
100
AcDbEntity
  8
_1
100
AcDbCircle
 62
7
  6
CONTINUOUS
 10
214.3222386448
 20
231.3219579724
 40
14.3720184718
100
AcDbArc
 50
211.2157730142
 51
217.6185180159
  0
ARC
  5
2E1
100
AcDbEntity
  8
_1
100
AcDbCircle
 62
7
  6
CONTINUOUS
 10
240.1563688455
 20
248.2499993097
 40
8.5837310644
100
AcDbArc
 50
180.6673631431
 51
184.6494947408
  0
ARC
  5
2E2
100
AcDbEntity
  8
_1
100
AcDbCircle
 62
7
  6
CONTINUOUS
 10
237.0988211457
 20
242.0979772237
 40
8.0494454046
100
AcDbArc
 50
239.3598616047
 51
239.9994109261
  0
ARC
  5
2E3
100
AcDbEntity
  8
_1
100
AcDbCircle
 62
7
  6
CONTINUOUS
 10
196.6376025047
 20
235.7850051995
 40
3.4480814632
100
AcDbArc
 50
25.0681791602
 51
35.3634953415
  0
ARC
  5
2E4
100
AcDbEntity
  8
_1
100
AcDbCircle
 62
7
  6
CONTINUOUS
 10
207.7655450395
 20
214.7935890778
 40
3.4406749223
100
AcDbArc
 50
32.6185823634
 51
34.3572856871
  0
ARC
  5
2E5
100
AcDbEntity
  8
_1
100
AcDbCircle
 62
7
  6
CONTINUOUS
 10
71.8318121024
 20
194.133942994
 40
2.7530333478
100
AcDbArc
 50
134.9209345664
 51
135.2047915935
  0
ARC
  5
2E6
100
AcDbEntity
  8
_1
100
AcDbCircle
 62
7
  6
CONTINUOUS
 10
185.95157051
 20
257.5750301267
 40
2.4328648431
100
AcDbArc
 50
299.9572954796
 51
303.5458790014
  0
ARC
  5
2E7
100
AcDbEntity
  8
_1
100
AcDbCircle
 62
7
  6
CONTINUOUS
 10
225.0352737558
 20
251.5773275196
 40
1.9596549071
100
AcDbArc
 50
0.6540262199
 51
2.3897071839
  0
ARC
  5
2E8
100
AcDbEntity
  8
_1
100
AcDbCircle
 62
7
  6
CONTINUOUS
 10
225.5788616942
 20
253.0021260332
 40
1.949777657
100
AcDbArc
 50
57.4110005413
 51
59.9815393311
  0
ARC
  5
2E9
100
AcDbEntity
  8
_1
100
AcDbCircle
 62
7
  6
CONTINUOUS
 10
183.1610734108
 20
277.6848720758
 40
1.7823060266
100
AcDbArc
 50
59.9741763405
 51
63.4526613467
  0
ARC
  5
2EA
100
AcDbEntity
  8
_1
100
AcDbCircle
 62
7
  6
CONTINUOUS
 10
76.2498517276
 20
191.5677469998
 40
1.5399252073
100
AcDbArc
 50
336.7046489351
 51
339.5857281835
  0
ARC
  5
2EB
100
AcDbEntity
  8
_1
100
AcDbCircle
 62
7
  6
CONTINUOUS
 10
76.3000545563
 20
191.5490180022
 40
1.4863425836
100
AcDbArc
 50
339.5873357344
 51
343.4886108231
  0
ARC
  5
2EC
100
AcDbEntity
  8
_1
100
AcDbCircle
 62
7
  6
CONTINUOUS
 10
230.9620062414
 20
248.6653348628
 40
1.3334733556
100
AcDbArc
 50
299.9900853322
 51
302.5373728156
  0
ARC
  5
2ED
100
AcDbEntity
  8
_1
100
AcDbCircle
 62
7
  6
CONTINUOUS
 10
183.3312993562
 20
278.6559256822
 40
0.8150196865
100
AcDbArc
 50
93.3559196353
 51
94.7805499599
  0
ARC
  5
2EE
100
AcDbEntity
  8
_1
100
AcDbCircle
 62
7
  6
CONTINUOUS
 10
182.3389177762
 20
278.0935154518
 40
0.8049259112
100
AcDbArc
 50
144.0751677377
 51
146.1292236753
  0
ARC
  5
2EF
100
AcDbEntity
  8
_1
100
AcDbCircle
 62
7
  6
CONTINUOUS
 10
226.0896656374
 20
174.6310022162
 40
0.791397352
100
AcDbArc
 50
322.3426067226
 51
325.5989268495
  0
ARC
  5
2F0
100
AcDbEntity
  8
_1
100
AcDbCircle
 62
7
  6
CONTINUOUS
 10
226.2563343296
 20
174.5396465293
 40
0.6923173352
100
AcDbArc
 50
285.6745641096
 51
292.6322555663
  0
ARC
  5
2F1
100
AcDbEntity
  8
_1
100
AcDbCircle
 62
7
  6
CONTINUOUS
 10
199.3015937186
 20
159.0423378795
 40
0.6797829444
100
AcDbArc
 50
300.0866759175
 51
311.6872009742
  0
ARC
  5
2F2
100
AcDbEntity
  8
_1
100
AcDbCircle
 62
7
  6
CONTINUOUS
 10
226.2651220307
 20
174.5177834072
 40
0.6687562399
100
AcDbArc
 50
292.6581521054
 51
300.012968371
  0
ARC
  5
2F3
100
AcDbEntity
  8
_1
100
AcDbCircle
 62
7
  6
CONTINUOUS
 10
226.1777239183
 20
174.5462675957
 40
0.668594329
100
AcDbArc
 50
300.0297015025
 51
303.9475470972
  0
ARC
  5
2F4
100
AcDbEntity
  8
_1
100
AcDbCircle
 62
7
  6
CONTINUOUS
 10
183.2993030113
 20
278.7996291074
 40
0.6669935049
100
AcDbArc
 50
114.2081920199
 51
119.9939243523
  0
ARC
  5
2F5
100
AcDbEntity
  8
_1
100
AcDbCircle
 62
7
  6
CONTINUOUS
 10
182.2386464253
 20
278.1872648925
 40
0.6669913407
100
AcDbArc
 50
114.20829161
 51
119.9939491545
  0
SPLINE
  5
2F6
100
AcDbEntity
  8
_1
100
AcDbSpline
 62
7
  6
CONTINUOUS
 70
0
 71
3
 72
14
 73
10
 74
0
 42
0.0000001
 43
0.0000001
 44
0.0000000001
 40
0.0
 40
0.0
 40
0.0
 40
0.0
 40
0.2892819322
 40
0.4225440756
 40
0.5484954465
 40
0.6678957228
 40
0.7818683223
 40
0.8919512866
 40
1.0
 40
1.0
 40
1.0
 40
1.0
 10
70.9538791971
 20
189.4744416988
 30
0.0
 10
70.77829516
 20
189.5758128965
 30
0.0
 10
70.5324004701
 20
189.7451092338
 30
0.0
 10
70.2542034104
 20
190.0113602027
 30
0.0
 10
70.0848982925
 20
190.2166012024
 30
0.0
 10
69.9510306763
 20
190.4308501285
 30
0.0
 10
69.8541553394
 20
190.6522459876
 30
0.0
 10
69.7954462794
 20
190.8785036023
 30
0.0
 10
69.782306831
 20
191.0316914529
 30
0.0
 10
69.7823018498
 20
191.1074183622
 30
0.0
  0
SPLINE
  5
2F7
100
AcDbEntity
  8
_1
100
AcDbSpline
 62
7
  6
CONTINUOUS
 70
0
 71
3
 72
11
 73
7
 74
0
 42
0.0000001
 43
0.0000001
 44
0.0000000001
 40
0.0
 40
0.0
 40
0.0
 40
0.0
 40
0.2177657973
 40
0.4509436549
 40
0.7101971727
 40
1.0
 40
1.0
 40
1.0
 40
1.0
 10
75.7822922117
 20
201.3136985286
 30
0.0
 10
75.7822929661
 20
201.3898710988
 30
0.0
 10
75.754176916
 20
201.5486731083
 30
0.0
 10
75.633763985
 20
201.76984365
 30
0.0
 10
75.4435377228
 20
201.9698866792
 30
0.0
 10
75.284292139
 20
202.0795024496
 30
0.0
 10
75.1965022204
 20
202.1301868361
 30
0.0
  0
SPLINE
  5
2F8
100
AcDbEntity
  8
_1
100
AcDbSpline
 62
7
  6
CONTINUOUS
 70
0
 71
3
 72
9
 73
5
 74
0
 42
0.0000001
 43
0.0000001
 44
0.0000000001
 40
0.0
 40
0.0
 40
0.0
 40
0.0
 40
0.5070326609
 40
1.0
 40
1.0
 40
1.0
 40
1.0
 10
69.9003492121
 20
192.0725877756
 30
0.0
 10
69.8621113004
 20
191.9837457487
 30
0.0
 10
69.8027680867
 20
191.8009834476
 30
0.0
 10
69.7822958965
 20
191.6097078955
 30
0.0
 10
69.7822954127
 20
191.5156695196
 30
0.0
  0
SPLINE
  5
2F9
100
AcDbEntity
  8
_1
100
AcDbSpline
 62
7
  6
CONTINUOUS
 70
0
 71
3
 72
11
 73
7
 74
0
 42
0.0000001
 43
0.0000001
 44
0.0000000001
 40
0.0
 40
0.0
 40
0.0
 40
0.0
 40
0.2331968035
 40
0.4737140674
 40
0.7278153233
 40
1.0
 40
1.0
 40
1.0
 40
1.0
 10
78.28229257
 20
194.7816791913
 30
0.0
 10
78.2822925153
 20
194.892633658
 30
0.0
 10
78.2568630813
 20
195.1187651159
 30
0.0
 10
78.1442378077
 20
195.4487552533
 30
0.0
 10
77.9600627666
 20
195.7660683405
 30
0.0
 10
77.7981943498
 20
195.9587496276
 30
0.0
 10
77.707998348
 20
196.0516806492
 30
0.0
  0
SPLINE
  5
2FA
100
AcDbEntity
  8
_1
100
AcDbSpline
 62
7
  6
CONTINUOUS
 70
0
 71
3
 72
23
 73
19
 74
0
 42
0.0000001
 43
0.0000001
 44
0.0000000001
 40
0.0
 40
0.0
 40
0.0
 40
0.0
 40
0.0428143749
 40
0.0873963259
 40
0.135179265
 40
0.1870885821
 40
0.2435352494
 40
0.3044927504
 40
0.3695907036
 40
0.4381987302
 40
0.509496451
 40
0.5825323776
 40
0.6562761072
 40
0.7296648159
 40
0.8016523107
 40
0.8712553359
 40
0.9376070879
 40
1.0
 40
1.0
 40
1.0
 40
1.0
 10
78.2822924905
 20
194.1284772577
 30
0.0
 10
78.2822927449
 20
194.000372225
 30
0.0
 10
78.2480407863
 20
193.7377596838
 30
0.0
 10
78.0974264358
 20
193.3585732448
 30
0.0
 10
77.853033975
 20
192.9991115264
 30
0.0
 10
77.5217936469
 20
192.6664851605
 30
0.0
 10
77.1113460126
 20
192.3665697113
 30
0.0
 10
76.630430058
 20
192.1050064246
 30
0.0
 10
76.0891175828
 20
191.8869325315
 30
0.0
 10
75.4987805607
 20
191.7167987421
 30
0.0
 10
74.8718979568
 20
191.5981532715
 30
0.0
 10
74.2217858382
 20
191.5335015694
 30
0.0
 10
73.5622990066
 20
191.5242217114
 30
0.0
 10
72.9075040841
 20
191.5705061997
 30
0.0
 10
72.2713746276
 20
191.6713760478
 30
0.0
 10
71.6673909001
 20
191.8246962883
 30
0.0
 10
71.1084824391
 20
192.0272091764
 30
0.0
 10
70.7620030447
 20
192.1980371298
 30
0.0
 10
70.6003272785
 20
192.2913785652
 30
0.0
  0
SPLINE
  5
2FB
100
AcDbEntity
  8
_1
100
AcDbSpline
 62
7
  6
CONTINUOUS
 70
0
 71
3
 72
22
 73
18
 74
0
 42
0.0000001
 43
0.0000001
 44
0.0000000001
 40
0.0
 40
0.0
 40
0.0
 40
0.0
 40
0.0428201543
 40
0.087407965
 40
0.1351971275
 40
0.1871131556
 40
0.2435671473
 40
0.3045326649
 40
0.3696393265
 40
0.4382566183
 40
0.5095639526
 40
0.5826096166
 40
0.7296277049
 40
0.8016252943
 40
0.8712367363
 40
0.93759993
 40
1.0
 40
1.0
 40
1.0
 40
1.0
 10
77.7822872422
 20
191.1074182663
 30
0.0
 10
77.7822947324
 20
190.9935470452
 30
0.0
 10
77.7518360583
 20
190.7601140664
 30
0.0
 10
77.617961131
 20
190.4230606108
 30
0.0
 10
77.4007246372
 20
190.1035392768
 30
0.0
 10
77.1062924133
 20
189.8078709178
 30
0.0
 10
76.7414529706
 20
189.5412780355
 30
0.0
 10
76.3139750354
 20
189.3087761045
 30
0.0
 10
75.8328059403
 20
189.1149309118
 30
0.0
 10
75.3080739395
 20
188.9637056548
 30
0.0
 10
74.7507955316
 20
188.8582285421
 30
0.0
 10
73.9790557879
 20
188.7815395763
 30
0.0
 10
73.198131634
 20
188.803044743
 30
0.0
 10
72.4392965297
 20
188.9233177572
 30
0.0
 10
71.9023724723
 20
189.0596140714
 30
0.0
 10
71.405576645
 20
189.2396268282
 30
0.0
 10
71.0975881803
 20
189.3914731557
 30
0.0
 10
70.9538791971
 20
189.4744416988
 30
0.0
  0
SPLINE
  5
2FC
100
AcDbEntity
  8
_1
100
AcDbSpline
 62
7
  6
CONTINUOUS
 70
0
 71
3
 72
9
 73
5
 74
0
 42
0.0000001
 43
0.0000001
 44
0.0000000001
 40
0.0
 40
0.0
 40
0.0
 40
0.0
 40
0.4945065743
 40
1.0
 40
1.0
 40
1.0
 40
1.0
 10
77.7822936792
 20
191.515669526
 30
0.0
 10
77.7822941026
 20
191.5979624112
 30
0.0
 10
77.7667080625
 20
191.7647240271
 30
0.0
 10
77.7211865263
 20
191.9257904154
 30
0.0
 10
77.6916354597
 20
192.0045503011
 30
0.0
  0
SPLINE
  5
2FD
100
AcDbEntity
  8
_1
100
AcDbSpline
 62
7
  6
CONTINUOUS
 70
0
 71
3
 72
14
 73
10
 74
0
 42
0.0000001
 43
0.0000001
 44
0.0000000001
 40
0.0
 40
0.0
 40
0.0
 40
0.0
 40
0.2892813038
 40
0.4225408191
 40
0.548495483
 40
0.6678950441
 40
0.7818677054
 40
0.8919510845
 40
1.0
 40
1.0
 40
1.0
 40
1.0
 10
70.6003272785
 20
192.2913785652
 30
0.0
 10
70.4027956154
 20
192.4054209441
 30
0.0
 10
70.1261665476
 20
192.5958786496
 30
0.0
 10
69.8131942094
 20
192.8954099342
 30
0.0
 10
69.6227227041
 20
193.1263041882
 30
0.0
 10
69.4721260934
 20
193.3673384556
 30
0.0
 10
69.3631285409
 20
193.6164046178
 30
0.0
 10
69.2971042105
 20
193.8709495358
 30
0.0
 10
69.2822967707
 20
194.0432843035
 30
0.0
 10
69.2822966015
 20
194.1284772576
 30
0.0
  0
SPLINE
  5
2FE
100
AcDbEntity
  8
_1
100
AcDbSpline
 62
7
  6
CONTINUOUS
 70
0
 71
3
 72
11
 73
7
 74
0
 42
0.0000001
 43
0.0000001
 44
0.0000000001
 40
0.0
 40
0.0
 40
0.0
 40
0.0
 40
0.2728477547
 40
0.5270968933
 40
0.7673378612
 40
1.0
 40
1.0
 40
1.0
 40
1.0
 10
69.8781779784
 20
196.0736610983
 30
0.0
 10
69.7847433354
 20
195.9795555458
 30
0.0
 10
69.6169838648
 20
195.7842283843
 30
0.0
 10
69.4257813321
 20
195.4615258245
 30
0.0
 10
69.3087403717
 20
195.1253853429
 30
0.0
 10
69.2822964663
 20
194.8947596282
 30
0.0
 10
69.282296522
 20
194.7816791914
 30
0.0
  0
SPLINE
  5
2FF
100
AcDbEntity
  8
_1
100
AcDbSpline
 62
7
  6
CONTINUOUS
 70
0
 71
3
 72
18
 73
14
 74
0
 42
0.0000001
 43
0.0000001
 44
0.0000000001
 40
0.0
 40
0.0
 40
0.0
 40
0.0
 40
0.1286527037
 40
0.2702036702
 40
0.417319971
 40
0.5616308743
 40
0.6952660153
 40
0.7562723759
 40
0.8127643809
 40
0.8647143231
 40
0.9125344095
 40
0.9571516596
 40
1.0
 40
1.0
 40
1.0
 40
1.0
 10
75.1965022204
 20
202.1301868361
 30
0.0
 10
75.0484563948
 20
202.2156591998
 30
0.0
 10
74.7132499255
 20
202.353953468
 30
0.0
 10
74.1669667866
 20
202.4632815146
 30
0.0
 10
73.5890431159
 20
202.4792279983
 30
0.0
 10
73.0271738696
 20
202.400356842
 30
0.0
 10
72.5965783827
 20
202.2565215211
 30
0.0
 10
72.3027107087
 20
202.0967718392
 30
0.0
 10
72.1202861841
 20
201.9634650622
 30
0.0
 10
71.9730765149
 20
201.8156317483
 30
0.0
 10
71.8644647318
 20
201.6558708033
 30
0.0
 10
71.7975255814
 20
201.4873479544
 30
0.0
 10
71.7822974442
 20
201.3706333763
 30
0.0
 10
71.7822968803
 20
201.3136985282
 30
0.0
  0
SPLINE
  5
300
100
AcDbEntity
  8
_1
100
AcDbSpline
 62
7
  6
CONTINUOUS
 70
0
 71
3
 72
11
 73
7
 74
0
 42
0.0000001
 43
0.0000001
 44
0.0000000001
 40
0.0
 40
0.0
 40
0.0
 40
0.0
 40
0.2247303504
 40
0.461016026
 40
0.7177544961
 40
1.0
 40
1.0
 40
1.0
 40
1.0
 10
69.9823008422
 20
195.5165313663
 30
0.0
 10
69.9822854476
 20
195.3948441054
 30
0.0
 10
70.0192907826
 20
195.143916465
 30
0.0
 10
70.1806326593
 20
194.7858167786
 30
0.0
 10
70.4400186703
 20
194.4516755646
 30
0.0
 10
70.66179406
 20
194.2592512153
 30
0.0
 10
70.7845810864
 20
194.1682536896
 30
0.0
  0
SPLINE
  5
301
100
AcDbEntity
  8
_1
100
AcDbSpline
 62
7
  6
CONTINUOUS
 70
0
 71
3
 72
9
 73
5
 74
0
 42
0.0000001
 43
0.0000001
 44
0.0000000001
 40
0.0
 40
0.0
 40
0.0
 40
0.0
 40
0.5035635153
 40
1.0
 40
1.0
 40
1.0
 40
1.0
 10
77.7251052168
 20
191.126590623
 30
0.0
 10
77.7438920634
 20
191.1900510703
 30
0.0
 10
77.7725909494
 20
191.3188173331
 30
0.0
 10
77.7822933436
 20
191.4504233423
 30
0.0
 10
77.7822936792
 20
191.515669526
 30
0.0
  0
SPLINE
  5
302
100
AcDbEntity
  8
_1
100
AcDbSpline
 62
7
  6
CONTINUOUS
 70
0
 71
3
 72
13
 73
9
 74
0
 42
0.0000001
 43
0.0000001
 44
0.0000000001
 40
0.0
 40
0.0
 40
0.0
 40
0.0
 40
0.1086270023
 40
0.2192165978
 40
0.3335483467
 40
0.4531151387
 40
0.7116281951
 40
1.0
 40
1.0
 40
1.0
 40
1.0
 10
69.7822954127
 20
191.5156695196
 30
0.0
 10
69.7822950322
 20
191.4417125532
 30
0.0
 10
69.7948419094
 20
191.2921765827
 30
0.0
 10
69.8507936559
 20
191.0711330387
 30
0.0
 10
69.9432401889
 20
190.8546041939
 30
0.0
 10
70.1181093765
 20
190.5674146206
 30
0.0
 10
70.4290606697
 20
190.2307499696
 30
0.0
 10
70.73432233
 20
190.013608039
 30
0.0
 10
70.9027666388
 20
189.9127452535
 30
0.0
  0
SPLINE
  5
303
100
AcDbEntity
  8
_1
100
AcDbSpline
 62
7
  6
CONTINUOUS
 70
0
 71
3
 72
16
 73
12
 74
0
 42
0.0000001
 43
0.0000001
 44
0.0000000001
 40
0.0
 40
0.0
 40
0.0
 40
0.0
 40
0.1183342752
 40
0.2470780132
 40
0.3823913695
 40
0.5196565693
 40
0.6540396526
 40
0.7810277744
 40
0.8406205321
 40
0.8971182514
 40
1.0
 40
1.0
 40
1.0
 40
1.0
 10
70.6003272785
 20
192.9445804989
 30
0.0
 10
70.8582009281
 20
192.795700446
 30
0.0
 10
71.4295140392
 20
192.5404722326
 30
0.0
 10
72.362541887
 20
192.2925260433
 30
0.0
 10
73.368354651
 20
192.1719282499
 30
0.0
 10
74.3952834125
 20
192.1850195143
 30
0.0
 10
75.390718564
 20
192.3310764511
 30
0.0
 10
76.1682867209
 20
192.5622127755
 30
0.0
 10
76.728381541
 20
192.8102392428
 30
0.0
 10
77.2095686362
 20
193.0792381059
 30
0.0
 10
77.5302927454
 20
193.3281351556
 30
0.0
 10
77.710365639
 20
193.5141286579
 30
0.0
  0
SPLINE
  5
304
100
AcDbEntity
  8
_1
100
AcDbSpline
 62
7
  6
CONTINUOUS
 70
0
 71
3
 72
11
 73
7
 74
0
 42
0.0000001
 43
0.0000001
 44
0.0000000001
 40
0.0
 40
0.0
 40
0.0
 40
0.0
 40
0.2721200954
 40
0.5261981554
 40
0.766747647
 40
1.0
 40
1.0
 40
1.0
 40
1.0
 10
77.710365639
 20
193.5141286579
 30
0.0
 10
77.80021087
 20
193.6069279063
 30
0.0
 10
77.961438129
 20
193.7993090489
 30
0.0
 10
78.1448300817
 20
194.1160294247
 30
0.0
 10
78.2569762804
 20
194.4453293631
 30
0.0
 10
78.2822926245
 20
194.6709623299
 30
0.0
 10
78.28229257
 20
194.7816791913
 30
0.0
  0
SPLINE
  5
305
100
AcDbEntity
  8
_1
100
AcDbSpline
 62
7
  6
CONTINUOUS
 70
0
 71
3
 72
13
 73
9
 74
0
 42
0.0000001
 43
0.0000001
 44
0.0000000001
 40
0.0
 40
0.0
 40
0.0
 40
0.0
 40
0.2894118164
 40
0.548292509
 40
0.6677465593
 40
0.7817704764
 40
0.8919028914
 40
1.0
 40
1.0
 40
1.0
 40
1.0
 10
71.0952999646
 20
193.2303514066
 30
0.0
 10
70.9284951946
 20
193.3266540068
 30
0.0
 10
70.6260221081
 20
193.5347575579
 30
0.0
 10
70.3167636354
 20
193.860202818
 30
0.0
 10
70.1425955628
 20
194.1389342746
 30
0.0
 10
70.0505618187
 20
194.3492671001
 30
0.0
 10
69.9947887571
 20
194.5642100609
 30
0.0
 10
69.9823061412
 20
194.7097387719
 30
0.0
 10
69.9823014322
 20
194.7816792295
 30
0.0
  0
SPLINE
  5
306
100
AcDbEntity
  8
_1
100
AcDbSpline
 62
7
  6
CONTINUOUS
 70
0
 71
3
 72
11
 73
7
 74
0
 42
0.0000001
 43
0.0000001
 44
0.0000000001
 40
0.0
 40
0.0
 40
0.0
 40
0.0
 40
0.2847422559
 40
0.5483652312
 40
0.7869851736
 40
1.0
 40
1.0
 40
1.0
 40
1.0
 10
75.2107604639
 20
193.4835425489
 30
0.0
 10
75.4384605433
 20
193.5368716671
 30
0.0
 10
75.8713589007
 20
193.6666221162
 30
0.0
 10
76.4600699491
 20
193.9396652889
 30
0.0
 10
76.9461604202
 20
194.2750888926
 30
0.0
 10
77.2030165563
 20
194.5486860877
 30
0.0
 10
77.3035967041
 20
194.691834903
 30
0.0
  0
SPLINE
  5
307
100
AcDbEntity
  8
_1
100
AcDbSpline
 62
7
  6
CONTINUOUS
 70
0
 71
3
 72
11
 73
7
 74
0
 42
0.0000001
 43
0.0000001
 44
0.0000000001
 40
0.0
 40
0.0
 40
0.0
 40
0.0
 40
0.2177657973
 40
0.4509436549
 40
0.7101971727
 40
1.0
 40
1.0
 40
1.0
 40
1.0
 10
71.7822968803
 20
201.3136985282
 30
0.0
 10
71.7822961258
 20
201.2375259579
 30
0.0
 10
71.8104121759
 20
201.0787239485
 30
0.0
 10
71.930825107
 20
200.8575534068
 30
0.0
 10
72.1210513691
 20
200.6575103776
 30
0.0
 10
72.280296953
 20
200.5478946071
 30
0.0
 10
72.3680868715
 20
200.4972102207
 30
0.0
  0
SPLINE
  5
308
100
AcDbEntity
  8
_1
100
AcDbSpline
 62
7
  6
CONTINUOUS
 70
0
 71
3
 72
11
 73
7
 74
0
 42
0.0000001
 43
0.0000001
 44
0.0000000001
 40
0.0
 40
0.0
 40
0.0
 40
0.0
 40
0.2339751685
 40
0.482714959
 40
0.7402831502
 40
1.0
 40
1.0
 40
1.0
 40
1.0
 10
71.4470006824
 20
193.7858142095
 30
0.0
 10
71.654711958
 20
193.6923937842
 30
0.0
 10
72.0989426801
 20
193.5335490487
 30
0.0
 10
72.8050884509
 20
193.3815285659
 30
0.0
 10
73.5491666129
 20
193.3123035768
 30
0.0
 10
74.0538847836
 20
193.3233177192
 30
0.0
 10
74.3058832446
 20
193.3435572259
 30
0.0
  0
SPLINE
  5
309
100
AcDbEntity
  8
_1
100
AcDbSpline
 62
7
  6
CONTINUOUS
 70
0
 71
3
 72
12
 73
8
 74
0
 42
0.0000001
 43
0.0000001
 44
0.0000000001
 40
0.0
 40
0.0
 40
0.0
 40
0.0
 40
0.1493797379
 40
0.2937617012
 40
0.4318484109
 40
0.5626393423
 40
1.0
 40
1.0
 40
1.0
 40
1.0
 10
74.8878778912
 20
189.2962654775
 30
0.0
 10
75.0475476057
 20
189.322777569
 30
0.0
 10
75.3597735605
 20
189.3868494012
 30
0.0
 10
75.8093500817
 20
189.5176594031
 30
0.0
 10
76.2279281753
 20
189.6806538086
 30
0.0
 10
76.9081199176
 20
190.0232410461
 30
0.0
 10
77.4151850753
 20
190.4532123
 30
0.0
 10
77.6264792768
 20
190.8773882866
 30
0.0
  0
SPLINE
  5
30A
100
AcDbEntity
  8
_1
100
AcDbSpline
 62
7
  6
CONTINUOUS
 70
0
 71
3
 72
18
 73
14
 74
0
 42
0.0000001
 43
0.0000001
 44
0.0000000001
 40
0.0
 40
0.0
 40
0.0
 40
0.0
 40
0.1286527037
 40
0.2702036702
 40
0.417319971
 40
0.5616308743
 40
0.6952660153
 40
0.7562723759
 40
0.8127643809
 40
0.8647143231
 40
0.9125344095
 40
0.9571516596
 40
1.0
 40
1.0
 40
1.0
 40
1.0
 10
72.3680868715
 20
200.4972102207
 30
0.0
 10
72.5161326972
 20
200.411737857
 30
0.0
 10
72.8513391664
 20
200.2734435888
 30
0.0
 10
73.3976223054
 20
200.1641155422
 30
0.0
 10
73.9755459761
 20
200.1481690585
 30
0.0
 10
74.5374152223
 20
200.2270402148
 30
0.0
 10
74.9680107092
 20
200.3708755357
 30
0.0
 10
75.2618783833
 20
200.5306252175
 30
0.0
 10
75.4443029079
 20
200.6639319946
 30
0.0
 10
75.5915125771
 20
200.8117653085
 30
0.0
 10
75.7001243602
 20
200.9715262535
 30
0.0
 10
75.7670635105
 20
201.1400491024
 30
0.0
 10
75.7822916478
 20
201.2567636805
 30
0.0
 10
75.7822922117
 20
201.3136985286
 30
0.0
  0
SPLINE
  5
30B
100
AcDbEntity
  8
_1
100
AcDbSpline
 62
7
  6
CONTINUOUS
 70
0
 71
3
 72
21
 73
17
 74
0
 42
0.0000001
 43
0.0000001
 44
0.0000000001
 40
0.0
 40
0.0
 40
0.0
 40
0.0
 40
0.0428262072
 40
0.0874203487
 40
0.1352162762
 40
0.1871396346
 40
0.2436015761
 40
0.3045756719
 40
0.369691505
 40
0.4383184967
 40
0.5825503365
 40
0.7295892305
 40
0.8015971468
 40
0.8712185377
 40
0.9375911279
 40
1.0
 40
1.0
 40
1.0
 40
1.0
 10
77.5822876597
 20
194.7816791533
 30
0.0
 10
77.5822947407
 20
194.6735015278
 30
0.0
 10
77.5533589468
 20
194.4517402142
 30
0.0
 10
77.4261778714
 20
194.1315394231
 30
0.0
 10
77.219803151
 20
193.8279941508
 30
0.0
 10
76.9400928884
 20
193.5471095739
 30
0.0
 10
76.5934950083
 20
193.2938454222
 30
0.0
 10
76.1873943281
 20
193.0729731996
 30
0.0
 10
75.7302719373
 20
192.8888017327
 30
0.0
 10
75.054590299
 20
192.6941553605
 30
0.0
 10
74.1492946962
 20
192.5671792306
 30
0.0
 10
73.2274259313
 20
192.5925165662
 30
0.0
 10
72.5064315503
 20
192.706784948
 30
0.0
 10
71.9963723279
 20
192.8362648347
 30
0.0
 10
71.5244113257
 20
193.0072774326
 30
0.0
 10
71.231823414
 20
193.1515313395
 30
0.0
 10
71.0952999646
 20
193.2303514066
 30
0.0
  0
SPLINE
  5
30C
100
AcDbEntity
  8
_1
100
AcDbSpline
 62
7
  6
CONTINUOUS
 70
0
 71
3
 72
11
 73
7
 74
0
 42
0.0000001
 43
0.0000001
 44
0.0000000001
 40
0.0
 40
0.0
 40
0.0
 40
0.0
 40
0.2898015624
 40
0.5490532197
 40
0.7822320533
 40
1.0
 40
1.0
 40
1.0
 40
1.0
 10
72.3680868715
 20
197.3128507938
 30
0.0
 10
72.2802973191
 20
197.3635349689
 30
0.0
 10
72.1210523737
 20
197.4731497847
 30
0.0
 10
71.9308265398
 20
197.6731922912
 30
0.0
 10
71.8104125886
 20
197.8943624962
 30
0.0
 10
71.7822948512
 20
198.0531657632
 30
0.0
 10
71.7822966404
 20
198.1293391001
 30
0.0
  0
SPLINE
  5
30D
100
AcDbEntity
  8
_1
100
AcDbSpline
 62
7
  6
CONTINUOUS
 70
0
 71
3
 72
14
 73
10
 74
0
 42
0.0000001
 43
0.0000001
 44
0.0000000001
 40
0.0
 40
0.0
 40
0.0
 40
0.0
 40
0.1080475483
 40
0.2181297703
 40
0.3321015138
 40
0.4515005468
 40
0.5774548005
 40
0.7107149345
 40
1.0
 40
1.0
 40
1.0
 40
1.0
 10
69.282296522
 20
194.7816791914
 30
0.0
 10
69.282296564
 20
194.6964873163
 30
0.0
 10
69.2971035825
 20
194.5241545117
 30
0.0
 10
69.3631269585
 20
194.2696122056
 30
0.0
 10
69.4721223668
 20
194.0205473803
 30
0.0
 10
69.6227174259
 20
193.7795138552
 30
0.0
 10
69.8131877119
 20
193.5486189551
 30
0.0
 10
70.126161118
 20
193.2490842142
 30
0.0
 10
70.4027930493
 20
193.0586243593
 30
0.0
 10
70.6003272785
 20
192.9445804989
 30
0.0
  0
SPLINE
  5
30E
100
AcDbEntity
  8
_1
100
AcDbSpline
 62
7
  6
CONTINUOUS
 70
0
 71
3
 72
11
 73
7
 74
0
 42
0.0000001
 43
0.0000001
 44
0.0000000001
 40
0.0
 40
0.0
 40
0.0
 40
0.0
 40
0.228884809
 40
0.4782972487
 40
0.7389453917
 40
1.0
 40
1.0
 40
1.0
 40
1.0
 10
71.0059325574
 20
189.8531837302
 30
0.0
 10
71.2621697653
 20
189.7105485455
 30
0.0
 10
71.831547357
 20
189.4720236239
 30
0.0
 10
72.7576264731
 20
189.2585723535
 30
0.0
 10
73.7460907921
 20
189.1823495232
 30
0.0
 10
74.415862024
 20
189.2269630238
 30
0.0
 10
74.7469513696
 20
189.2744640173
 30
0.0
  0
SPLINE
  5
30F
100
AcDbEntity
  8
_1
100
AcDbSpline
 62
7
  6
CONTINUOUS
 70
0
 71
3
 72
18
 73
14
 74
0
 42
0.0000001
 43
0.0000001
 44
0.0000000001
 40
0.0
 40
0.0
 40
0.0
 40
0.0
 40
0.0428486301
 40
0.0874664382
 40
0.1352871767
 40
0.1872376839
 40
0.2437299832
 40
0.3047362326
 40
0.4383697246
 40
0.5826780692
 40
0.729793452
 40
0.8713453769
 40
1.0
 40
1.0
 40
1.0
 40
1.0
 10
75.7822924516
 20
198.1293391031
 30
0.0
 10
75.7822911143
 20
198.0724038696
 30
0.0
 10
75.7670642289
 20
197.9556880721
 30
0.0
 10
75.7001225373
 20
197.7871638029
 30
0.0
 10
75.5915089244
 20
197.6274013863
 30
0.0
 10
75.4442969763
 20
197.4795673979
 30
0.0
 10
75.2618708532
 20
197.3462611578
 30
0.0
 10
74.9680042563
 20
197.1865136075
 30
0.0
 10
74.5374140232
 20
197.0426811397
 30
0.0
 10
73.9755517247
 20
196.9638103038
 30
0.0
 10
73.3976314153
 20
196.9797554857
 30
0.0
 10
72.8513453224
 20
197.0890820247
 30
0.0
 10
72.516134907
 20
197.2273771544
 30
0.0
 10
72.3680868715
 20
197.3128507938
 30
0.0
  0
SPLINE
  5
310
100
AcDbEntity
  8
_1
100
AcDbSpline
 62
7
  6
CONTINUOUS
 70
0
 71
3
 72
16
 73
12
 74
0
 42
0.0000001
 43
0.0000001
 44
0.0000000001
 40
0.0
 40
0.0
 40
0.0
 40
0.0
 40
0.1177924577
 40
0.2458368837
 40
0.380459786
 40
0.5172316403
 40
0.6514925293
 40
0.7788527188
 40
0.8388274144
 40
0.8958297154
 40
1.0
 40
1.0
 40
1.0
 40
1.0
 10
209.2635522631
 20
253.8139355118
 30
0.0
 10
208.4753066723
 20
253.3588444242
 30
0.0
 10
206.7314491242
 20
252.576110369
 30
0.0
 10
203.8839997183
 20
251.8075235759
 30
0.0
 10
200.8122757807
 20
251.4213962171
 30
0.0
 10
197.6690094702
 20
251.4373835853
 30
0.0
 10
194.6100777898
 20
251.8544689337
 30
0.0
 10
192.2087228927
 20
252.5325745403
 30
0.0
 10
190.4664577799
 20
253.2665097005
 30
0.0
 10
188.9563903587
 20
254.0680881588
 30
0.0
 10
187.9402175384
 20
254.811804031
 30
0.0
 10
187.3601117619
 20
255.3698230167
 30
0.0
  0
SPLINE
  5
311
100
AcDbEntity
  8
_1
100
AcDbSpline
 62
7
  6
CONTINUOUS
 70
0
 71
3
 72
11
 73
7
 74
0
 42
0.0000001
 43
0.0000001
 44
0.0000000001
 40
0.0
 40
0.0
 40
0.0
 40
0.0
 40
0.274201297
 40
0.5287762501
 40
0.7684440553
 40
1.0
 40
1.0
 40
1.0
 40
1.0
 10
187.3601117619
 20
255.3698230167
 30
0.0
 10
187.0482047469
 20
255.6698545681
 30
0.0
 10
186.4876302693
 20
256.2940443608
 30
0.0
 10
185.846354605
 20
257.332161211
 30
0.0
 10
185.4530369465
 20
258.4173600015
 30
0.0
 10
185.3640219537
 20
259.1638282591
 30
0.0
 10
185.3640222515
 20
259.5293060747
 30
0.0
  0
SPLINE
  5
312
100
AcDbEntity
  8
_1
100
AcDbSpline
 62
7
  6
CONTINUOUS
 70
0
 71
3
 72
9
 73
5
 74
0
 42
0.0000001
 43
0.0000001
 44
0.0000000001
 40
0.0
 40
0.0
 40
0.0
 40
0.0
 40
0.5137302264
 40
1.0
 40
1.0
 40
1.0
 40
1.0
 10
182.4015743604
 20
257.1802926137
 30
0.0
 10
182.3448010802
 20
257.0898887135
 30
0.0
 10
182.2543459305
 20
256.8997690976
 30
0.0
 10
182.2219025385
 20
256.6909095179
 30
0.0
 10
182.2219025398
 20
256.5898633799
 30
0.0
  0
SPLINE
  5
313
100
AcDbEntity
  8
_1
100
AcDbSpline
 62
7
  6
CONTINUOUS
 70
0
 71
3
 72
11
 73
7
 74
0
 42
0.0000001
 43
0.0000001
 44
0.0000000001
 40
0.0
 40
0.0
 40
0.0
 40
0.0
 40
0.2897781767
 40
0.5490726313
 40
0.7822276909
 40
1.0
 40
1.0
 40
1.0
 40
1.0
 10
183.1005689758
 20
251.6092197994
 30
0.0
 10
182.9688966149
 20
251.6852391527
 30
0.0
 10
182.7300410981
 20
251.8496842526
 30
0.0
 10
182.44466974
 20
252.1497158313
 30
0.0
 10
182.2641002261
 20
252.4815070242
 30
0.0
 10
182.2219025413
 20
252.7196911309
 30
0.0
 10
182.2219025398
 20
252.8339522611
 30
0.0
  0
SPLINE
  5
314
100
AcDbEntity
  8
_1
100
AcDbSpline
 62
7
  6
CONTINUOUS
 70
0
 71
3
 72
13
 73
9
 74
0
 42
0.0000001
 43
0.0000001
 44
0.0000000001
 40
0.0
 40
0.0
 40
0.0
 40
0.0
 40
0.1142483233
 40
0.2375469957
 40
0.4999994774
 40
0.7624522452
 40
0.8857512516
 40
1.0
 40
1.0
 40
1.0
 40
1.0
 10
201.4854041658
 20
243.4444149071
 30
0.0
 10
201.3401937409
 20
243.3605781296
 30
0.0
 10
201.0226093107
 20
243.2126834312
 30
0.0
 10
200.3187805273
 20
242.9989213286
 30
0.0
 10
199.3640871455
 20
242.8950803873
 30
0.0
 10
198.4093928456
 20
242.9989169145
 30
0.0
 10
197.7055614247
 20
243.2126755548
 30
0.0
 10
197.3879750485
 20
243.3605686668
 30
0.0
 10
197.2427634787
 20
243.444404709
 30
0.0
  0
SPLINE
  5
315
100
AcDbEntity
  8
_1
100
AcDbSpline
 62
7
  6
CONTINUOUS
 70
0
 71
3
 72
22
 73
18
 74
0
 42
0.0000001
 43
0.0000001
 44
0.0000000001
 40
0.0
 40
0.0
 40
0.0
 40
0.0
 40
0.0428209825
 40
0.0874095336
 40
0.1351992501
 40
0.1871156165
 40
0.2435697304
 40
0.3045351824
 40
0.3696416312
 40
0.4382586126
 40
0.5095655772
 40
0.5826108588
 40
0.7296281233
 40
0.8016254721
 40
0.8712367537
 40
0.9375998667
 40
1.0
 40
1.0
 40
1.0
 40
1.0
 10
219.7415391985
 20
298.6170580984
 30
0.0
 10
220.0250546283
 20
298.7807696262
 30
0.0
 10
220.6500586429
 20
299.0404989172
 30
0.0
 10
221.6817258883
 20
299.1916990811
 30
0.0
 10
222.789572371
 20
299.1101412474
 30
0.0
 10
223.9489961288
 20
298.8020909351
 30
0.0
 10
225.1372351151
 20
298.2769425938
 30
0.0
 10
226.330633999
 20
297.5468291804
 30
0.0
 10
227.5049630503
 20
296.6274643041
 30
0.0
 10
228.635795239
 20
295.5383679871
 30
0.0
 10
229.6995057357
 20
294.3024721508
 30
0.0
 10
230.999824397
 20
292.4912220974
 30
0.0
 10
232.0688548768
 20
290.5159456866
 30
0.0
 10
232.8602124679
 20
288.4536855278
 30
0.0
 10
233.292678069
 20
286.9209086296
 30
0.0
 10
233.5586109414
 20
285.4252000785
 30
0.0
 10
233.6232647353
 20
284.4400799592
 30
0.0
 10
233.6232647353
 20
283.9630004582
 30
0.0
  0
SPLINE
  5
316
100
AcDbEntity
  8
_1
100
AcDbSpline
 62
7
  6
CONTINUOUS
 70
0
 71
3
 72
12
 73
8
 74
0
 42
0.0000001
 43
0.0000001
 44
0.0000000001
 40
0.0
 40
0.0
 40
0.0
 40
0.0
 40
0.1182388074
 40
0.2363329245
 40
0.4766788567
 40
0.7291892445
 40
1.0
 40
1.0
 40
1.0
 40
1.0
 10
202.1140749904
 20
250.0580531237
 30
0.0
 10
202.1140749904
 20
250.1390695899
 30
0.0
 10
202.0982032639
 20
250.301461461
 30
0.0
 10
202.0046749935
 20
250.6161209376
 30
0.0
 10
201.7778999322
 20
250.9780686706
 30
0.0
 10
201.3786371726
 20
251.3245578942
 30
0.0
 10
201.0594812549
 20
251.4941578411
 30
0.0
 10
200.8885821969
 20
251.5664433933
 30
0.0
  0
SPLINE
  5
317
100
AcDbEntity
  8
_1
100
AcDbSpline
 62
7
  6
CONTINUOUS
 70
0
 71
3
 72
9
 73
5
 74
0
 42
0.0000001
 43
0.0000001
 44
0.0000000001
 40
0.0
 40
0.0
 40
0.0
 40
0.0
 40
0.2552683965
 40
1.0
 40
1.0
 40
1.0
 40
1.0
 10
197.8850016473
 20
251.585213917
 30
0.0
 10
197.8532597923
 20
251.5723632625
 30
0.0
 10
197.7297361175
 20
251.5200290602
 30
0.0
 10
197.6096008475
 20
251.4595611516
 30
0.0
 10
197.523079228
 20
251.4096081695
 30
0.0
  0
SPLINE
  5
318
100
AcDbEntity
  8
_1
100
AcDbSpline
 62
7
  6
CONTINUOUS
 70
0
 71
3
 72
11
 73
7
 74
0
 42
0.0000001
 43
0.0000001
 44
0.0000000001
 40
0.0
 40
0.0
 40
0.0
 40
0.0
 40
0.2652883108
 40
0.5168487599
 40
0.7600871689
 40
1.0
 40
1.0
 40
1.0
 40
1.0
 10
197.523079228
 20
251.4096081695
 30
0.0
 10
197.3926952773
 20
251.3343314098
 30
0.0
 10
197.150364465
 20
251.1653406591
 30
0.0
 10
196.8549980224
 20
250.8453655103
 30
0.0
 10
196.6602518337
 20
250.4702977488
 30
0.0
 10
196.6140749904
 20
250.194206438
 30
0.0
 10
196.6140749904
 20
250.0580531237
 30
0.0
  0
SPLINE
  5
319
100
AcDbEntity
  8
_1
100
AcDbSpline
 62
7
  6
CONTINUOUS
 70
0
 71
3
 72
13
 73
9
 74
0
 42
0.0000001
 43
0.0000001
 44
0.0000000001
 40
0.0
 40
0.0
 40
0.0
 40
0.0
 40
0.2894099011
 40
0.5482900628
 40
0.6677443279
 40
0.7817687558
 40
0.8919019448
 40
1.0
 40
1.0
 40
1.0
 40
1.0
 10
233.6232647353
 20
283.9630004582
 30
0.0
 10
233.6232647353
 20
283.3800968469
 30
0.0
 10
233.5355286514
 20
282.2724420086
 30
0.0
 10
233.1505130215
 20
280.969446033
 30
0.0
 10
232.6835178583
 20
280.0911949774
 30
0.0
 10
232.2715085211
 20
279.5317088085
 30
0.0
 10
231.7925474137
 20
279.0602821324
 30
0.0
 10
231.4300120514
 20
278.8073527825
 30
0.0
 10
231.2414665937
 20
278.698480172
 30
0.0
  0
SPLINE
  5
31A
100
AcDbEntity
  8
_1
100
AcDbSpline
 62
7
  6
CONTINUOUS
 70
0
 71
3
 72
9
 73
5
 74
0
 42
0.0000001
 43
0.0000001
 44
0.0000000001
 40
0.0
 40
0.0
 40
0.0
 40
0.0
 40
0.5186694468
 40
1.0
 40
1.0
 40
1.0
 40
1.0
 10
185.3671419418
 20
260.01948118
 30
0.0
 10
185.0121773838
 20
260.0312330698
 30
0.0
 10
184.3229798024
 20
259.9727492106
 30
0.0
 10
183.6663195236
 20
259.7392181339
 30
0.0
 10
183.3808847251
 20
259.5744232599
 30
0.0
  0
SPLINE
  5
31B
100
AcDbEntity
  8
_1
100
AcDbSpline
 62
7
  6
CONTINUOUS
 70
0
 71
3
 72
11
 73
7
 74
0
 42
0.0000001
 43
0.0000001
 44
0.0000000001
 40
0.0
 40
0.0
 40
0.0
 40
0.0
 40
0.2652883108
 40
0.5168487599
 40
0.7600871689
 40
1.0
 40
1.0
 40
1.0
 40
1.0
 10
183.3808847251
 20
259.5744232599
 30
0.0
 10
183.2505007744
 20
259.4991465002
 30
0.0
 10
183.0081699621
 20
259.3301557495
 30
0.0
 10
182.7128035194
 20
259.0101806007
 30
0.0
 10
182.5180573308
 20
258.6351128392
 30
0.0
 10
182.4718804874
 20
258.3590215285
 30
0.0
 10
182.4718804874
 20
258.2228682141
 30
0.0
  0
SPLINE
  5
31C
100
AcDbEntity
  8
_1
100
AcDbSpline
 62
7
  6
CONTINUOUS
 70
0
 71
3
 72
9
 73
5
 74
0
 42
0.0000001
 43
0.0000001
 44
0.0000000001
 40
0.0
 40
0.0
 40
0.0
 40
0.0
 40
0.48626979
 40
1.0
 40
1.0
 40
1.0
 40
1.0
 10
216.5061296823
 20
256.5899313669
 30
0.0
 10
216.506129681
 20
256.69097742
 30
0.0
 10
216.4736863572
 20
256.8998368176
 30
0.0
 10
216.3832313435
 20
257.0899562911
 30
0.0
 10
216.326458154
 20
257.1803601339
 30
0.0
  0
SPLINE
  5
31D
100
AcDbEntity
  8
_1
100
AcDbSpline
 62
7
  6
CONTINUOUS
 70
0
 71
3
 72
11
 73
7
 74
0
 42
0.0000001
 43
0.0000001
 44
0.0000000001
 40
0.0
 40
0.0
 40
0.0
 40
0.0
 40
0.2177727701
 40
0.4509280213
 40
0.7102223029
 40
1.0
 40
1.0
 40
1.0
 40
1.0
 10
216.5061296823
 20
252.8340202481
 30
0.0
 10
216.5061296838
 20
252.719760348
 30
0.0
 10
216.4639329625
 20
252.4815789895
 30
0.0
 10
216.2833673549
 20
252.1497910091
 30
0.0
 10
215.9980017925
 20
251.8497616543
 30
0.0
 10
215.7591508087
 20
251.6853171822
 30
0.0
 10
215.6274809101
 20
251.6092979845
 30
0.0
  0
SPLINE
  5
31E
100
AcDbEntity
  8
_1
100
AcDbSpline
 62
7
  6
CONTINUOUS
 70
0
 71
3
 72
9
 73
5
 74
0
 42
0.0000001
 43
0.0000001
 44
0.0000000001
 40
0.0
 40
0.0
 40
0.0
 40
0.0
 40
0.2547179658
 40
1.0
 40
1.0
 40
1.0
 40
1.0
 10
183.6308836059
 20
259.5496611204
 30
0.0
 10
183.6176152292
 20
259.5420006652
 30
0.0
 10
183.5658561696
 20
259.5113577716
 30
0.0
 10
183.5154504394
 20
259.4784152629
 30
0.0
 10
183.4788556172
 20
259.4525241036
 30
0.0
  0
SPLINE
  5
31F
100
AcDbEntity
  8
_1
100
AcDbSpline
 62
7
  6
CONTINUOUS
 70
0
 71
3
 72
19
 73
15
 74
0
 42
0.0000001
 43
0.0000001
 44
0.0000000001
 40
0.0
 40
0.0
 40
0.0
 40
0.0
 40
0.0587602322
 40
0.1122165376
 40
0.161297994
 40
0.2076810979
 40
0.2536092251
 40
0.3014523915
 40
0.3531299491
 40
0.4098236905
 40
0.5390553386
 40
0.686597076
 40
0.8438688494
 40
1.0
 40
1.0
 40
1.0
 40
1.0
 10
183.4788556172
 20
259.4525241036
 30
0.0
 10
183.4048128079
 20
259.4001381634
 30
0.0
 10
183.2704164438
 20
259.2893233383
 30
0.0
 10
183.1102947541
 20
259.0964158821
 30
0.0
 10
183.0061412187
 20
258.8888492015
 30
0.0
 10
182.9625767363
 20
258.6720523265
 30
0.0
 10
182.9825315343
 20
258.4536258121
 30
0.0
 10
183.0646022245
 20
258.2418910598
 30
0.0
 10
183.2043910613
 20
258.042979506
 30
0.0
 10
183.4728247566
 20
257.7901576577
 30
0.0
 10
183.9315099022
 20
257.5397917616
 30
0.0
 10
184.582098951
 20
257.3626040891
 30
0.0
 10
185.2957042708
 20
257.3104708637
 30
0.0
 10
185.7800073175
 20
257.3643374496
 30
0.0
 10
186.0154944872
 20
257.4155892979
 30
0.0
  0
SPLINE
  5
320
100
AcDbEntity
  8
_1
100
AcDbSpline
 62
7
  6
CONTINUOUS
 70
0
 71
3
 72
10
 73
6
 74
0
 42
0.0000001
 43
0.0000001
 44
0.0000000001
 40
0.0
 40
0.0
 40
0.0
 40
0.0
 40
0.5246615395
 40
0.7718802283
 40
1.0
 40
1.0
 40
1.0
 40
1.0
 10
185.3672368882
 20
259.9274117634
 30
0.0
 10
185.0533891512
 20
259.9391445018
 30
0.0
 10
184.586291229
 20
259.9016183302
 30
0.0
 10
184.0094715036
 20
259.736829024
 30
0.0
 10
183.7491434325
 20
259.6179380555
 30
0.0
 10
183.6308836059
 20
259.5496611204
 30
0.0
  0
SPLINE
  5
321
100
AcDbEntity
  8
_1
100
AcDbSpline
 62
7
  6
CONTINUOUS
 70
0
 71
3
 72
11
 73
7
 74
0
 42
0.0000001
 43
0.0000001
 44
0.0000000001
 40
0.0
 40
0.0
 40
0.0
 40
0.0
 40
0.2177718384
 40
0.4509299156
 40
0.7102268825
 40
1.0
 40
1.0
 40
1.0
 40
1.0
 10
202.1140547812
 20
248.4250482893
 30
0.0
 10
202.1140574123
 20
248.3203104228
 30
0.0
 10
202.0753749997
 20
248.1019762175
 30
0.0
 10
201.9098566934
 20
247.7978346978
 30
0.0
 10
201.6482685643
 20
247.5228091438
 30
0.0
 10
201.4293223181
 20
247.3720694262
 30
0.0
 10
201.3086267345
 20
247.3023862145
 30
0.0
  0
SPLINE
  5
322
100
AcDbEntity
  8
_1
100
AcDbSpline
 62
7
  6
CONTINUOUS
 70
0
 71
3
 72
17
 73
13
 74
0
 42
0.0000001
 43
0.0000001
 44
0.0000000001
 40
0.0
 40
0.0
 40
0.0
 40
0.0
 40
0.1286914424
 40
0.270275894
 40
0.4174292768
 40
0.5617752962
 40
0.6954478949
 40
0.8127150858
 40
0.8646785489
 40
0.9125125227
 40
0.9571418263
 40
1.0
 40
1.0
 40
1.0
 40
1.0
 10
201.3086267345
 20
247.3023862145
 30
0.0
 10
201.1050568557
 20
247.1848557917
 30
0.0
 10
200.6441546109
 20
246.9946871893
 30
0.0
 10
199.8929784917
 20
246.8444109624
 30
0.0
 10
199.0984735877
 20
246.8223933399
 30
0.0
 10
198.3254672441
 20
246.9310141174
 30
0.0
 10
197.636642487
 20
247.1611071265
 30
0.0
 10
197.1575516839
 20
247.452707071
 30
0.0
 10
196.8764081298
 20
247.734882841
 30
0.0
 10
196.727059041
 20
247.9545652324
 30
0.0
 10
196.6350107929
 20
248.1862817395
 30
0.0
 10
196.6140971661
 20
248.3467655113
 30
0.0
 10
196.6140951996
 20
248.4250482896
 30
0.0
  0
SPLINE
  5
323
100
AcDbEntity
  8
_1
100
AcDbSpline
 62
7
  6
CONTINUOUS
 70
0
 71
3
 72
11
 73
7
 74
0
 42
0.0000001
 43
0.0000001
 44
0.0000000001
 40
0.0
 40
0.0
 40
0.0
 40
0.0
 40
0.2344594735
 40
0.4940332579
 40
0.756825234
 40
1.0
 40
1.0
 40
1.0
 40
1.0
 10
215.4507034788
 20
255.467269292
 30
0.0
 10
215.1933524316
 20
255.3186884825
 30
0.0
 10
214.5984736147
 20
255.0956842003
 30
0.0
 10
213.6410343116
 20
254.9702128621
 30
0.0
 10
212.6669935975
 20
255.0421334
 30
0.0
 10
212.0451255634
 20
255.2289143824
 30
0.0
 10
211.7663630612
 20
255.3603840878
 30
0.0
  0
SPLINE
  5
324
100
AcDbEntity
  8
_1
100
AcDbSpline
 62
7
  6
CONTINUOUS
 70
0
 71
3
 72
11
 73
7
 74
0
 42
0.0000001
 43
0.0000001
 44
0.0000000001
 40
0.0
 40
0.0
 40
0.0
 40
0.0
 40
0.2897730581
 40
0.5490651526
 40
0.7822233799
 40
1.0
 40
1.0
 40
1.0
 40
1.0
 10
201.3086267345
 20
248.9353910488
 30
0.0
 10
201.429322588
 20
249.0050744163
 30
0.0
 10
201.6482691296
 20
249.1558113655
 30
0.0
 10
201.9098539748
 20
249.4308366362
 30
0.0
 10
202.0753828353
 20
249.7349744459
 30
0.0
 10
202.1140601324
 20
249.9533127017
 30
0.0
 10
202.1140593727
 20
250.0580531237
 30
0.0
  0
SPLINE
  5
325
100
AcDbEntity
  8
_1
100
AcDbSpline
 62
7
  6
CONTINUOUS
 70
0
 71
3
 72
9
 73
5
 74
0
 42
0.0000001
 43
0.0000001
 44
0.0000000001
 40
0.0
 40
0.0
 40
0.0
 40
0.0
 40
0.2547179658
 40
1.0
 40
1.0
 40
1.0
 40
1.0
 10
197.7730781088
 20
251.3848460299
 30
0.0
 10
197.7598097321
 20
251.3771855748
 30
0.0
 10
197.7080506726
 20
251.3465426812
 30
0.0
 10
197.6576449424
 20
251.3136001725
 30
0.0
 10
197.6210501201
 20
251.2877090132
 30
0.0
  0
SPLINE
  5
326
100
AcDbEntity
  8
_1
100
AcDbSpline
 62
7
  6
CONTINUOUS
 70
0
 71
3
 72
19
 73
15
 74
0
 42
0.0000001
 43
0.0000001
 44
0.0000000001
 40
0.0
 40
0.0
 40
0.0
 40
0.0
 40
0.0572555741
 40
0.1085821267
 40
0.1554623587
 40
0.2004568864
 40
0.2467134333
 40
0.2969836742
 40
0.3529421453
 40
0.4151202124
 40
0.5556505822
 40
0.709360443
 40
0.8620921779
 40
1.0
 40
1.0
 40
1.0
 40
1.0
 10
197.6210501201
 20
251.2877090132
 30
0.0
 10
197.535667481
 20
251.2273000435
 30
0.0
 10
197.3828475409
 20
251.0984397404
 30
0.0
 10
197.2104106474
 20
250.8691353588
 30
0.0
 10
197.1157723492
 20
250.6208075778
 30
0.0
 10
197.1068334684
 20
250.3638130647
 30
0.0
 10
197.1845788035
 20
250.1126911424
 30
0.0
 10
197.3419339171
 20
249.8789696911
 30
0.0
 10
197.570196528
 20
249.6693595848
 30
0.0
 10
197.9738594822
 20
249.4196137915
 30
0.0
 10
198.6004597684
 20
249.2129059813
 30
0.0
 10
199.4194420789
 20
249.1380795315
 30
0.0
 10
200.2310210034
 20
249.235359028
 30
0.0
 10
200.7368994138
 20
249.4218014591
 30
0.0
 10
200.955071872
 20
249.5477626346
 30
0.0
  0
SPLINE
  5
327
100
AcDbEntity
  8
_1
100
AcDbSpline
 62
7
  6
CONTINUOUS
 70
0
 71
3
 72
16
 73
12
 74
0
 42
0.0000001
 43
0.0000001
 44
0.0000000001
 40
0.0
 40
0.0
 40
0.0
 40
0.0
 40
0.138664611
 40
0.2606529084
 40
0.369626694
 40
0.473657907
 40
0.5828701485
 40
0.7052235704
 40
0.772726479
 40
0.8445133344
 40
1.0
 40
1.0
 40
1.0
 40
1.0
 10
200.955071872
 20
249.5477626346
 30
0.0
 10
201.0673836751
 20
249.6126054973
 30
0.0
 10
201.2684933386
 20
249.7541803917
 30
0.0
 10
201.4973771891
 20
250.0190805715
 30
0.0
 10
201.6192442974
 20
250.3152380474
 30
0.0
 10
201.6177008492
 20
250.6248252131
 30
0.0
 10
201.493036801
 20
250.9202960865
 30
0.0
 10
201.306258926
 20
251.1335349322
 30
0.0
 10
201.1148914104
 20
251.2865622813
 30
0.0
 10
200.8817385668
 20
251.434552204
 30
0.0
 10
200.6861901715
 20
251.5214886803
 30
0.0
 10
200.5492701548
 20
251.570474813
 30
0.0
  0
SPLINE
  5
328
100
AcDbEntity
  8
_1
100
AcDbSpline
 62
7
  6
CONTINUOUS
 70
0
 71
3
 72
9
 73
5
 74
0
 42
0.0000001
 43
0.0000001
 44
0.0000000001
 40
0.0
 40
0.0
 40
0.0
 40
0.0
 40
0.2600606229
 40
1.0
 40
1.0
 40
1.0
 40
1.0
 10
198.2071119085
 20
251.5804300738
 30
0.0
 10
198.1680828761
 20
251.5669162778
 30
0.0
 10
198.0191605182
 20
251.5117467825
 30
0.0
 10
197.8748500563
 20
251.4436037405
 30
0.0
 10
197.7730781088
 20
251.3848460299
 30
0.0
  0
SPLINE
  5
329
100
AcDbEntity
  8
_1
100
AcDbSpline
 62
7
  6
CONTINUOUS
 70
0
 71
3
 72
12
 73
8
 74
0
 42
0.0000001
 43
0.0000001
 44
0.0000000001
 40
0.0
 40
0.0
 40
0.0
 40
0.0
 40
0.2105930593
 40
0.3261888478
 40
0.4487372438
 40
0.7132822001
 40
1.0
 40
1.0
 40
1.0
 40
1.0
 10
186.2508561504
 20
282.1731423185
 30
0.0
 10
186.6208788021
 20
281.6018529795
 30
0.0
 10
187.3350982927
 20
280.8047833054
 30
0.0
 10
188.4715077832
 20
279.9020886075
 30
0.0
 10
189.8432521426
 20
279.0259228867
 30
0.0
 10
191.8347311572
 20
278.1180735608
 30
0.0
 10
193.5547264168
 20
277.6289360318
 30
0.0
 10
194.4605515186
 20
277.4333797155
 30
0.0
  0
SPLINE
  5
32A
100
AcDbEntity
  8
_1
100
AcDbSpline
 62
7
  6
CONTINUOUS
 70
0
 71
3
 72
17
 73
13
 74
0
 42
0.0000001
 43
0.0000001
 44
0.0000000001
 40
0.0
 40
0.0
 40
0.0
 40
0.0
 40
0.1286914424
 40
0.270275894
 40
0.4174292768
 40
0.5617752962
 40
0.6954478949
 40
0.8127150858
 40
0.8646785489
 40
0.9125125227
 40
0.9571418263
 40
1.0
 40
1.0
 40
1.0
 40
1.0
 10
187.1664322316
 20
255.4672013049
 30
0.0
 10
186.9628623527
 20
255.3496708821
 30
0.0
 10
186.501960108
 20
255.1595022797
 30
0.0
 10
185.7507839888
 20
255.0092260528
 30
0.0
 10
184.9562790848
 20
254.9872084303
 30
0.0
 10
184.1832727412
 20
255.0958292078
 30
0.0
 10
183.4944479841
 20
255.3259222169
 30
0.0
 10
183.015357181
 20
255.6175221614
 30
0.0
 10
182.7342136269
 20
255.8996979314
 30
0.0
 10
182.5848645381
 20
256.1193803228
 30
0.0
 10
182.49281629
 20
256.35109683
 30
0.0
 10
182.4719026631
 20
256.5115806017
 30
0.0
 10
182.4719006966
 20
256.58986338
 30
0.0
  0
SPLINE
  5
32B
100
AcDbEntity
  8
_1
100
AcDbSpline
 62
7
  6
CONTINUOUS
 70
0
 71
3
 72
10
 73
6
 74
0
 42
0.0000001
 43
0.0000001
 44
0.0000000001
 40
0.0
 40
0.0
 40
0.0
 40
0.0
 40
0.2316290797
 40
0.4771628687
 40
1.0
 40
1.0
 40
1.0
 40
1.0
 10
207.8493328128
 20
251.6910083191
 30
0.0
 10
207.4479011645
 20
251.4592430324
 30
0.0
 10
206.5911333341
 20
251.0320565317
 30
0.0
 10
204.7149750388
 20
250.3292047262
 30
0.0
 10
203.202741729
 20
249.997096394
 30
0.0
 10
202.1663650843
 20
249.8533804977
 30
0.0
  0
SPLINE
  5
32C
100
AcDbEntity
  8
_1
100
AcDbSpline
 62
7
  6
CONTINUOUS
 70
0
 71
3
 72
11
 73
7
 74
0
 42
0.0000001
 43
0.0000001
 44
0.0000000001
 40
0.0
 40
0.0
 40
0.0
 40
0.0
 40
0.2237396927
 40
0.4637615565
 40
0.7223439804
 40
1.0
 40
1.0
 40
1.0
 40
1.0
 10
210.9321761206
 20
254.7481093449
 30
0.0
 10
210.790684037
 20
254.4518332685
 30
0.0
 10
210.4345206318
 20
253.8665095237
 30
0.0
 10
209.7339085166
 20
253.0654946487
 30
0.0
 10
208.8633745583
 20
252.3253420561
 30
0.0
 10
208.2021938903
 20
251.8947315411
 30
0.0
 10
207.8493328128
 20
251.6910083191
 30
0.0
  0
SPLINE
  5
32D
100
AcDbEntity
  8
_1
100
AcDbSpline
 62
7
  6
CONTINUOUS
 70
0
 71
3
 72
11
 73
7
 74
0
 42
0.0000001
 43
0.0000001
 44
0.0000000001
 40
0.0
 40
0.0
 40
0.0
 40
0.0
 40
0.2976699746
 40
0.5686197247
 40
0.8038536187
 40
1.0
 40
1.0
 40
1.0
 40
1.0
 10
194.4605515186
 20
277.4333797155
 30
0.0
 10
195.9502125716
 20
276.5241639892
 30
0.0
 10
198.7834870914
 20
274.7671001812
 30
0.0
 10
202.7606163533
 20
272.2382912899
 30
0.0
 10
206.2112924029
 20
269.9913304194
 30
0.0
 10
208.3138357331
 20
268.5854656072
 30
0.0
 10
209.2635522631
 20
267.9369973137
 30
0.0
  0
SPLINE
  5
32E
100
AcDbEntity
  8
_1
100
AcDbSpline
 62
7
  6
CONTINUOUS
 70
0
 71
3
 72
13
 73
9
 74
0
 42
0.0000001
 43
0.0000001
 44
0.0000000001
 40
0.0
 40
0.0
 40
0.0
 40
0.0
 40
0.4174324388
 40
0.7161244361
 40
0.8238467821
 40
0.9056202523
 40
0.9632768198
 40
1.0
 40
1.0
 40
1.0
 40
1.0
 10
186.2508561504
 20
282.1731423185
 30
0.0
 10
186.1336320465
 20
282.230471
 30
0.0
 10
185.9312819543
 20
282.326194439
 30
0.0
 10
185.6939572427
 20
282.4269340804
 30
0.0
 10
185.5498564651
 20
282.4770605377
 30
0.0
 10
185.4750218528
 20
282.4974158431
 30
0.0
 10
185.4208501675
 20
282.5057081146
 30
0.0
 10
185.3901969093
 20
282.5033068928
 30
0.0
 10
185.3798621959
 20
282.4983087933
 30
0.0
  0
SPLINE
  5
32F
100
AcDbEntity
  8
_1
100
AcDbSpline
 62
7
  6
CONTINUOUS
 70
0
 71
3
 72
16
 73
12
 74
0
 42
0.0000001
 43
0.0000001
 44
0.0000000001
 40
0.0
 40
0.0
 40
0.0
 40
0.0
 40
0.0431158799
 40
0.0875378877
 40
0.1841206038
 40
0.295464219
 40
0.4220826351
 40
0.5611494716
 40
0.7078007606
 40
0.8561300753
 40
1.0
 40
1.0
 40
1.0
 40
1.0
 10
182.4718961052
 20
258.2228682142
 30
0.0
 10
182.4718965875
 20
258.1563801059
 30
0.0
 10
182.4868057594
 20
258.020953822
 30
0.0
 10
182.5773998996
 20
257.7499252243
 30
0.0
 10
182.8090589043
 20
257.4265485041
 30
0.0
 10
183.2222619895
 20
257.1094317383
 30
0.0
 10
183.7523142231
 20
256.8616735403
 30
0.0
 10
184.369143731
 20
256.696392604
 30
0.0
 10
185.0368220683
 20
256.6225179317
 30
0.0
 10
185.7153466217
 20
256.644465378
 30
0.0
 10
186.1609428522
 20
256.7243994524
 30
0.0
 10
186.3753061536
 20
256.7815809203
 30
0.0
  0
SPLINE
  5
330
100
AcDbEntity
  8
_1
100
AcDbSpline
 62
7
  6
CONTINUOUS
 70
0
 71
3
 72
13
 73
9
 74
0
 42
0.0000001
 43
0.0000001
 44
0.0000000001
 40
0.0
 40
0.0
 40
0.0
 40
0.0
 40
0.1142487484
 40
0.2375477548
 40
0.5000005226
 40
0.7624530043
 40
0.8857516767
 40
1.0
 40
1.0
 40
1.0
 40
1.0
 10
197.2427634787
 20
247.2003158278
 30
0.0
 10
197.3879750485
 20
247.1164797856
 30
0.0
 10
197.7055614247
 20
246.9685866736
 30
0.0
 10
198.4093928456
 20
246.7548280333
 30
0.0
 10
199.3640871455
 20
246.6509915061
 30
0.0
 10
200.3187805273
 20
246.7548324474
 30
0.0
 10
201.0226093107
 20
246.96859455
 30
0.0
 10
201.3401937409
 20
247.1164892484
 30
0.0
 10
201.4854041658
 20
247.2003260259
 30
0.0
  0
SPLINE
  5
331
100
AcDbEntity
  8
_1
100
AcDbSpline
 62
7
  6
CONTINUOUS
 70
0
 71
3
 72
9
 73
5
 74
0
 42
0.0000001
 43
0.0000001
 44
0.0000000001
 40
0.0
 40
0.0
 40
0.0
 40
0.0
 40
0.5245221438
 40
1.0
 40
1.0
 40
1.0
 40
1.0
 10
213.9216319123
 20
256.6534762376
 30
0.0
 10
214.2006560642
 20
256.6781171868
 30
0.0
 10
214.7296666091
 20
256.772345042
 30
0.0
 10
215.2308028472
 20
256.9733151952
 30
0.0
 10
215.4507034788
 20
257.1002741262
 30
0.0
  0
SPLINE
  5
332
100
AcDbEntity
  8
_1
100
AcDbSpline
 62
7
  6
CONTINUOUS
 70
0
 71
3
 72
11
 73
7
 74
0
 42
0.0000001
 43
0.0000001
 44
0.0000000001
 40
0.0
 40
0.0
 40
0.0
 40
0.0
 40
0.2177718384
 40
0.4509299156
 40
0.7102268825
 40
1.0
 40
1.0
 40
1.0
 40
1.0
 10
216.2561315255
 20
256.5899313668
 30
0.0
 10
216.2561341566
 20
256.4851935003
 30
0.0
 10
216.217451744
 20
256.2668592949
 30
0.0
 10
216.0519334376
 20
255.9627177753
 30
0.0
 10
215.7903453085
 20
255.6876922213
 30
0.0
 10
215.5713990623
 20
255.5369525036
 30
0.0
 10
215.4507034788
 20
255.467269292
 30
0.0
  0
SPLINE
  5
333
100
AcDbEntity
  8
_1
100
AcDbSpline
 62
7
  6
CONTINUOUS
 70
0
 71
3
 72
14
 73
10
 74
0
 42
0.0000001
 43
0.0000001
 44
0.0000000001
 40
0.0
 40
0.0
 40
0.0
 40
0.0
 40
0.2970904155
 40
0.4361007306
 40
0.5667845442
 40
0.6883070779
 40
0.8004582187
 40
0.9038293495
 40
1.0
 40
1.0
 40
1.0
 40
1.0
 10
196.5617618922
 20
249.8533683193
 30
0.0
 10
195.487243807
 20
250.0023688423
 30
0.0
 10
193.9213164033
 20
250.3507875768
 30
0.0
 10
191.9873836572
 20
251.0957909344
 30
0.0
 10
190.7154738523
 20
251.7534409386
 30
0.0
 10
189.6159183538
 20
252.5094424377
 30
0.0
 10
188.7103712824
 20
253.3506178445
 30
0.0
 10
188.0179760583
 20
254.2617112224
 30
0.0
 10
187.7008074311
 20
254.9253184841
 30
0.0
 10
187.5879252896
 20
255.2578392547
 30
0.0
  0
SPLINE
  5
334
100
AcDbEntity
  8
_1
100
AcDbSpline
 62
7
  6
CONTINUOUS
 70
0
 71
3
 72
11
 73
7
 74
0
 42
0.0000001
 43
0.0000001
 44
0.0000000001
 40
0.0
 40
0.0
 40
0.0
 40
0.0
 40
0.2177723091
 40
0.4509273687
 40
0.7102218233
 40
1.0
 40
1.0
 40
1.0
 40
1.0
 10
182.2219025398
 20
256.5898633799
 30
0.0
 10
182.2219025413
 20
256.4756022497
 30
0.0
 10
182.2641002261
 20
256.237418143
 30
0.0
 10
182.44466974
 20
255.9056269501
 30
0.0
 10
182.7300410981
 20
255.6055953714
 30
0.0
 10
182.9688966149
 20
255.4411502715
 30
0.0
 10
183.1005689758
 20
255.3651309182
 30
0.0
  0
SPLINE
  5
335
100
AcDbEntity
  8
_1
100
AcDbSpline
 62
7
  6
CONTINUOUS
 70
0
 71
3
 72
17
 73
13
 74
0
 42
0.0000001
 43
0.0000001
 44
0.0000000001
 40
0.0
 40
0.0
 40
0.0
 40
0.0
 40
0.0428588705
 40
0.0874882997
 40
0.1353223328
 40
0.1872856408
 40
0.3045518466
 40
0.4382226938
 40
0.5825694618
 40
0.7297273024
 40
0.8713109533
 40
1.0
 40
1.0
 40
1.0
 40
1.0
 10
196.6140906081
 20
250.0580531237
 30
0.0
 10
196.614091176
 20
249.9797689322
 30
0.0
 10
196.6350058574
 20
249.8192833514
 30
0.0
 10
196.7270522261
 20
249.587563928
 30
0.0
 10
196.8764041816
 20
249.3678825495
 30
0.0
 10
197.1575465639
 20
249.0857077889
 30
0.0
 10
197.6366338812
 20
248.7941103282
 30
0.0
 10
198.3254557006
 20
248.5640161564
 30
0.0
 10
199.0984698905
 20
248.4553953832
 30
0.0
 10
199.8929845826
 20
248.4774126451
 30
0.0
 10
200.6441632967
 20
248.6276951255
 30
0.0
 10
201.1050602801
 20
248.8178626031
 30
0.0
 10
201.3086267345
 20
248.9353910488
 30
0.0
  0
SPLINE
  5
336
100
AcDbEntity
  8
_1
100
AcDbSpline
 62
7
  6
CONTINUOUS
 70
0
 71
3
 72
11
 73
7
 74
0
 42
0.0000001
 43
0.0000001
 44
0.0000000001
 40
0.0
 40
0.0
 40
0.0
 40
0.0
 40
0.2875022507
 40
0.5471892705
 40
0.7819963901
 40
1.0
 40
1.0
 40
1.0
 40
1.0
 10
215.4507034788
 20
257.1002741262
 30
0.0
 10
215.5623672308
 20
257.1647428386
 30
0.0
 10
215.7664055107
 20
257.3035156192
 30
0.0
 10
216.0162094363
 20
257.5532539412
 30
0.0
 10
216.1857149534
 20
257.8280959852
 30
0.0
 10
216.2404443402
 20
258.0274533441
 30
0.0
 10
216.250872451
 20
258.1246651165
 30
0.0
  0
SPLINE
  5
337
100
AcDbEntity
  8
_1
100
AcDbSpline
 62
7
  6
CONTINUOUS
 70
0
 71
3
 72
11
 73
7
 74
0
 42
0.0000001
 43
0.0000001
 44
0.0000000001
 40
0.0
 40
0.0
 40
0.0
 40
0.0
 40
0.2897776971
 40
0.5490719787
 40
0.7822272299
 40
1.0
 40
1.0
 40
1.0
 40
1.0
 10
215.6274809101
 20
255.3652091033
 30
0.0
 10
215.7591508087
 20
255.441228301
 30
0.0
 10
215.9980017925
 20
255.6056727731
 30
0.0
 10
216.2833673549
 20
255.9057021279
 30
0.0
 10
216.4639329625
 20
256.2374901083
 30
0.0
 10
216.5061296838
 20
256.4756714668
 30
0.0
 10
216.5061296823
 20
256.5899313669
 30
0.0
  0
SPLINE
  5
338
100
AcDbEntity
  8
_1
100
AcDbSpline
 62
7
  6
CONTINUOUS
 70
0
 71
3
 72
13
 73
9
 74
0
 42
0.0000001
 43
0.0000001
 44
0.0000000001
 40
0.0
 40
0.0
 40
0.0
 40
0.0
 40
0.1080960523
 40
0.2182276641
 40
0.332251058
 40
0.4517047041
 40
0.7105856575
 40
1.0
 40
1.0
 40
1.0
 40
1.0
 10
121.665912641
 20
276.5753331614
 30
0.0
 10
121.47736956
 20
276.6842023348
 30
0.0
 10
121.1148380414
 20
276.937125489
 30
0.0
 10
120.6358799862
 20
277.408543147
 30
0.0
 10
120.2238713898
 20
277.9680227439
 30
0.0
 10
119.7568704077
 20
278.8462700722
 30
0.0
 10
119.3718482907
 20
280.1492761155
 30
0.0
 10
119.2841105831
 20
281.2569428592
 30
0.0
 10
119.2841105831
 20
281.8398561045
 30
0.0
  0
SPLINE
  5
339
100
AcDbEntity
  8
_1
100
AcDbSpline
 62
7
  6
CONTINUOUS
 70
0
 71
3
 72
9
 73
5
 74
0
 42
0.0000001
 43
0.0000001
 44
0.0000000001
 40
0.0
 40
0.0
 40
0.0
 40
0.0
 40
0.4813403182
 40
1.0
 40
1.0
 40
1.0
 40
1.0
 10
171.6479532462
 20
256.2267987795
 30
0.0
 10
171.3624875646
 20
256.3916087391
 30
0.0
 10
170.7057656569
 20
256.6251452866
 30
0.0
 10
170.0165074513
 20
256.6836123612
 30
0.0
 10
169.6615204553
 20
256.6718414624
 30
0.0
  0
SPLINE
  5
33A
100
AcDbEntity
  8
_1
100
AcDbSpline
 62
7
  6
CONTINUOUS
 70
0
 71
3
 72
11
 73
7
 74
0
 42
0.0000001
 43
0.0000001
 44
0.0000000001
 40
0.0
 40
0.0
 40
0.0
 40
0.0
 40
0.2399072589
 40
0.4831494364
 40
0.7347125073
 40
1.0
 40
1.0
 40
1.0
 40
1.0
 10
172.5569738543
 20
254.8752342824
 30
0.0
 10
172.5569738543
 20
255.0113859189
 30
0.0
 10
172.5107943072
 20
255.287478311
 30
0.0
 10
172.3160503397
 20
255.6625531976
 30
0.0
 10
172.0206734272
 20
255.9825302571
 30
0.0
 10
171.7783387593
 20
256.1515223714
 30
0.0
 10
171.6479532462
 20
256.2267987795
 30
0.0
  0
SPLINE
  5
33B
100
AcDbEntity
  8
_1
100
AcDbSpline
 62
7
  6
CONTINUOUS
 70
0
 71
3
 72
9
 73
5
 74
0
 42
0.0000001
 43
0.0000001
 44
0.0000000001
 40
0.0
 40
0.0
 40
0.0
 40
0.0
 40
0.5137302264
 40
1.0
 40
1.0
 40
1.0
 40
1.0
 10
138.70239648
 20
253.832590695
 30
0.0
 10
138.6456231998
 20
253.7421867948
 30
0.0
 10
138.5551680502
 20
253.5520671788
 30
0.0
 10
138.5227246581
 20
253.3432075992
 30
0.0
 10
138.5227246594
 20
253.2421614611
 30
0.0
  0
SPLINE
  5
33C
100
AcDbEntity
  8
_1
100
AcDbSpline
 62
7
  6
CONTINUOUS
 70
0
 71
3
 72
13
 73
9
 74
0
 42
0.0000001
 43
0.0000001
 44
0.0000000001
 40
0.0
 40
0.0
 40
0.0
 40
0.0
 40
0.1142483233
 40
0.2375469957
 40
0.4999994774
 40
0.7624522452
 40
0.8857512516
 40
1.0
 40
1.0
 40
1.0
 40
1.0
 10
157.7862262854
 20
240.0967129884
 30
0.0
 10
157.6410158605
 20
240.0128762109
 30
0.0
 10
157.3234314303
 20
239.8649815124
 30
0.0
 10
156.619602647
 20
239.6512194099
 30
0.0
 10
155.6649092651
 20
239.5473784685
 30
0.0
 10
154.7102149652
 20
239.6512149958
 30
0.0
 10
154.0063835443
 20
239.864973636
 30
0.0
 10
153.6887971681
 20
240.0128667481
 30
0.0
 10
153.5435855983
 20
240.0967027903
 30
0.0
  0
SPLINE
  5
33D
100
AcDbEntity
  8
_1
100
AcDbSpline
 62
7
  6
CONTINUOUS
 70
0
 71
3
 72
12
 73
8
 74
0
 42
0.0000001
 43
0.0000001
 44
0.0000000001
 40
0.0
 40
0.0
 40
0.0
 40
0.0
 40
0.2709165232
 40
0.5234499566
 40
0.7637316606
 40
0.8818150823
 40
1.0
 40
1.0
 40
1.0
 40
1.0
 10
154.1464365429
 20
248.2212918526
 30
0.0
 10
153.9747763068
 20
248.1491076912
 30
0.0
 10
153.6541699383
 20
247.9795910277
 30
0.0
 10
153.252957575
 20
247.6327113365
 30
0.0
 10
153.0249008286
 20
247.2699671885
 30
0.0
 10
152.9308732604
 20
246.9544508213
 30
0.0
 10
152.91489711
 20
246.7915879041
 30
0.0
 10
152.91489711
 20
246.710351205
 30
0.0
  0
SPLINE
  5
33E
100
AcDbEntity
  8
_1
100
AcDbSpline
 62
7
  6
CONTINUOUS
 70
0
 71
3
 72
11
 73
7
 74
0
 42
0.0000001
 43
0.0000001
 44
0.0000000001
 40
0.0
 40
0.0
 40
0.0
 40
0.0
 40
0.2399072589
 40
0.4831494364
 40
0.7347125073
 40
1.0
 40
1.0
 40
1.0
 40
1.0
 10
158.41489711
 20
246.710351205
 30
0.0
 10
158.41489711
 20
246.8465028415
 30
0.0
 10
158.368717563
 20
247.1225952335
 30
0.0
 10
158.1739735955
 20
247.4976701201
 30
0.0
 10
157.8785966829
 20
247.8176471797
 30
0.0
 10
157.636262015
 20
247.986639294
 30
0.0
 10
157.505876502
 20
248.061915702
 30
0.0
  0
SPLINE
  5
33F
100
AcDbEntity
  8
_1
100
AcDbSpline
 62
7
  6
CONTINUOUS
 70
0
 71
3
 72
11
 73
7
 74
0
 42
0.0000001
 43
0.0000001
 44
0.0000000001
 40
0.0
 40
0.0
 40
0.0
 40
0.0
 40
0.2897781767
 40
0.5490726313
 40
0.7822276909
 40
1.0
 40
1.0
 40
1.0
 40
1.0
 10
139.4013910954
 20
248.2615178807
 30
0.0
 10
139.2697187345
 20
248.337537234
 30
0.0
 10
139.0308632177
 20
248.5019823338
 30
0.0
 10
138.7454918596
 20
248.8020139126
 30
0.0
 10
138.5649223457
 20
249.1338051055
 30
0.0
 10
138.5227246609
 20
249.3719892122
 30
0.0
 10
138.5227246594
 20
249.4862503423
 30
0.0
  0
SPLINE
  5
340
100
AcDbEntity
  8
_1
100
AcDbSpline
 62
7
  6
CONTINUOUS
 70
0
 71
3
 72
21
 73
17
 74
0
 42
0.0000001
 43
0.0000001
 44
0.0000000001
 40
0.0
 40
0.0
 40
0.0
 40
0.0
 40
0.0624083333
 40
0.1287801683
 40
0.198401542
 40
0.2704096534
 40
0.4174498648
 40
0.5616832559
 40
0.6303106211
 40
0.6954264326
 40
0.7564002257
 40
0.8128617087
 40
0.8647845585
 40
0.9125800424
 40
0.9571739011
 40
1.0
 40
1.0
 40
1.0
 40
1.0
 10
119.2841105831
 20
281.8398561045
 30
0.0
 10
119.2841105831
 20
282.316929034
 30
0.0
 10
119.3487590095
 20
283.3020329311
 30
0.0
 10
119.6146921104
 20
284.7977420033
 30
0.0
 10
120.0471227672
 20
286.3304640648
 30
0.0
 10
120.8386039732
 20
288.3930188972
 30
0.0
 10
122.1671253897
 20
290.8474844465
 30
0.0
 10
123.8697784599
 20
293.0280340523
 30
0.0
 10
125.4023479281
 20
294.5043818838
 30
0.0
 10
126.5767408319
 20
295.4237522085
 30
0.0
 10
127.7701125226
 20
296.1538615863
 30
0.0
 10
128.9583374249
 20
296.6790053968
 30
0.0
 10
130.1177367772
 20
296.9870526728
 30
0.0
 10
131.2255571017
 20
297.0686120052
 30
0.0
 10
132.257198717
 20
296.9174196495
 30
0.0
 10
132.8821872928
 20
296.6576995789
 30
0.0
 10
133.165696781
 20
296.4939945866
 30
0.0
  0
SPLINE
  5
341
100
AcDbEntity
  8
_1
100
AcDbSpline
 62
7
  6
CONTINUOUS
 70
0
 71
3
 72
9
 73
5
 74
0
 42
0.0000001
 43
0.0000001
 44
0.0000000001
 40
0.0
 40
0.0
 40
0.0
 40
0.0
 40
0.48626979
 40
1.0
 40
1.0
 40
1.0
 40
1.0
 10
172.8069518019
 20
253.2422294481
 30
0.0
 10
172.8069518006
 20
253.3432755012
 30
0.0
 10
172.7745084768
 20
253.5521348989
 30
0.0
 10
172.6840534631
 20
253.7422543723
 30
0.0
 10
172.6272802736
 20
253.8326582152
 30
0.0
  0
SPLINE
  5
342
100
AcDbEntity
  8
_1
100
AcDbSpline
 62
7
  6
CONTINUOUS
 70
0
 71
3
 72
11
 73
7
 74
0
 42
0.0000001
 43
0.0000001
 44
0.0000000001
 40
0.0
 40
0.0
 40
0.0
 40
0.0
 40
0.2177727701
 40
0.4509280213
 40
0.7102223029
 40
1.0
 40
1.0
 40
1.0
 40
1.0
 10
172.8069518019
 20
249.4863183294
 30
0.0
 10
172.8069518034
 20
249.3720584292
 30
0.0
 10
172.7647550821
 20
249.1338770707
 30
0.0
 10
172.5841894745
 20
248.8020890903
 30
0.0
 10
172.2988239121
 20
248.5020597355
 30
0.0
 10
172.0599729283
 20
248.3376152634
 30
0.0
 10
171.9283030297
 20
248.2615960658
 30
0.0
  0
SPLINE
  5
343
100
AcDbEntity
  8
_1
100
AcDbSpline
 62
7
  6
CONTINUOUS
 70
0
 71
3
 72
11
 73
7
 74
0
 42
0.0000001
 43
0.0000001
 44
0.0000000001
 40
0.0
 40
0.0
 40
0.0
 40
0.0
 40
0.2315428529
 40
0.4712042066
 40
0.7257832453
 40
1.0
 40
1.0
 40
1.0
 40
1.0
 10
169.6648318084
 20
256.1816041562
 30
0.0
 10
169.6648326613
 20
255.8159586309
 30
0.0
 10
169.5757308309
 20
255.0691344853
 30
0.0
 10
169.1820480895
 20
253.983454261
 30
0.0
 10
168.54019445
 20
252.9449261271
 30
0.0
 10
167.9791453632
 20
252.3205371631
 30
0.0
 10
167.6669752994
 20
252.0204221015
 30
0.0
  0
SPLINE
  5
344
100
AcDbEntity
  8
_1
100
AcDbSpline
 62
7
  6
CONTINUOUS
 70
0
 71
3
 72
16
 73
12
 74
0
 42
0.0000001
 43
0.0000001
 44
0.0000000001
 40
0.0
 40
0.0
 40
0.0
 40
0.0
 40
0.1041815057
 40
0.1611879437
 40
0.2211655572
 40
0.3485278472
 40
0.4827862061
 40
0.6195526553
 40
0.7541696261
 40
0.8822093867
 40
1.0
 40
1.0
 40
1.0
 40
1.0
 10
167.6669752994
 20
252.0204221015
 30
0.0
 10
167.0867130629
 20
251.4625677234
 30
0.0
 10
166.0704014626
 20
250.7190905505
 30
0.0
 10
164.5602369923
 20
249.9177925337
 30
0.0
 10
162.8179952139
 20
249.1841565069
 30
0.0
 10
160.4168146246
 20
248.5063846945
 30
0.0
 10
157.358233512
 20
248.0895876912
 30
0.0
 10
154.2154197896
 20
248.0737826513
 30
0.0
 10
151.1441728004
 20
248.4599757435
 30
0.0
 10
148.2971478346
 20
249.2285193083
 30
0.0
 10
146.5535348455
 20
250.0111574876
 30
0.0
 10
145.7653845097
 20
250.4661860021
 30
0.0
  0
SPLINE
  5
345
100
AcDbEntity
  8
_1
100
AcDbSpline
 62
7
  6
CONTINUOUS
 70
0
 71
3
 72
17
 73
13
 74
0
 42
0.0000001
 43
0.0000001
 44
0.0000000001
 40
0.0
 40
0.0
 40
0.0
 40
0.0
 40
0.0428568436
 40
0.0874852056
 40
0.1353189506
 40
0.1872821807
 40
0.3045481592
 40
0.4382177907
 40
0.5825620028
 40
0.7297179244
 40
0.8713061778
 40
1.0
 40
1.0
 40
1.0
 40
1.0
 10
158.4148785286
 20
245.0773463697
 30
0.0
 10
158.4148779028
 20
244.9990662855
 30
0.0
 10
158.3939598338
 20
244.838588087
 30
0.0
 10
158.3019234995
 20
244.6068732815
 30
0.0
 10
158.1525740942
 20
244.3871944363
 30
0.0
 10
157.8714373723
 20
244.1050189353
 30
0.0
 10
157.392357582
 20
243.813419608
 30
0.0
 10
156.7035487716
 20
243.5833218838
 30
0.0
 10
155.9305498305
 20
243.4746957081
 30
0.0
 10
155.1360392394
 20
243.4967051082
 30
0.0
 10
154.384848051
 20
243.6469752041
 30
0.0
 10
153.9239353606
 20
243.8371442166
 30
0.0
 10
153.7203615577
 20
243.9546749476
 30
0.0
  0
SPLINE
  5
346
100
AcDbEntity
  8
_1
100
AcDbSpline
 62
7
  6
CONTINUOUS
 70
0
 71
3
 72
11
 73
7
 74
0
 42
0.0000001
 43
0.0000001
 44
0.0000000001
 40
0.0
 40
0.0
 40
0.0
 40
0.0
 40
0.2897785432
 40
0.5490732813
 40
0.7822301847
 40
1.0
 40
1.0
 40
1.0
 40
1.0
 10
153.7203615577
 20
243.9546749476
 30
0.0
 10
153.5996615554
 20
244.0243595499
 30
0.0
 10
153.3807095944
 20
244.1751005991
 30
0.0
 10
153.1191173374
 20
244.4501300879
 30
0.0
 10
152.9535937983
 20
244.7542720381
 30
0.0
 10
152.9149148541
 20
244.9726080409
 30
0.0
 10
152.9149156914
 20
245.0773463718
 30
0.0
  0
SPLINE
  5
347
100
AcDbEntity
  8
_1
100
AcDbSpline
 62
7
  6
CONTINUOUS
 70
0
 71
3
 72
11
 73
7
 74
0
 42
0.0000001
 43
0.0000001
 44
0.0000000001
 40
0.0
 40
0.0
 40
0.0
 40
0.0
 40
0.2177761591
 40
0.4509341948
 40
0.7102264624
 40
1.0
 40
1.0
 40
1.0
 40
1.0
 10
152.9149127278
 20
246.7103512049
 30
0.0
 10
152.914911971
 20
246.6056096554
 30
0.0
 10
152.9535901509
 20
246.3872688803
 30
0.0
 10
153.1191225924
 20
246.0831281258
 30
0.0
 10
153.3807127504
 20
245.8081008166
 30
0.0
 10
153.5996634472
 20
245.657363292
 30
0.0
 10
153.7203615577
 20
245.5876797818
 30
0.0
  0
SPLINE
  5
348
100
AcDbEntity
  8
_1
100
AcDbSpline
 62
7
  6
CONTINUOUS
 70
0
 71
3
 72
17
 73
13
 74
0
 42
0.0000001
 43
0.0000001
 44
0.0000000001
 40
0.0
 40
0.0
 40
0.0
 40
0.0
 40
0.1286894515
 40
0.2702733052
 40
0.4174311564
 40
0.5617777971
 40
0.695448455
 40
0.8127144874
 40
0.8646777338
 40
0.9125117275
 40
0.9571411369
 40
1.0
 40
1.0
 40
1.0
 40
1.0
 10
153.7203615577
 20
245.5876797818
 30
0.0
 10
153.9239288094
 20
245.4701528331
 30
0.0
 10
154.384826233
 20
245.2799881826
 30
0.0
 10
155.1360040808
 20
245.1297090327
 30
0.0
 10
155.9305162754
 20
245.1076943958
 30
0.0
 10
156.7035269723
 20
245.21631685
 30
0.0
 10
157.3923450132
 20
245.4464116972
 30
0.0
 10
157.87142932
 20
245.7380089097
 30
0.0
 10
158.1525697784
 20
246.0201829609
 30
0.0
 10
158.3019206974
 20
246.2398636773
 30
0.0
 10
158.3939663932
 20
246.4715823113
 30
0.0
 10
158.4148809265
 20
246.6320672926
 30
0.0
 10
158.4148814922
 20
246.710351205
 30
0.0
  0
SPLINE
  5
349
100
AcDbEntity
  8
_1
100
AcDbSpline
 62
7
  6
CONTINUOUS
 70
0
 71
3
 72
19
 73
15
 74
0
 42
0.0000001
 43
0.0000001
 44
0.0000000001
 40
0.0
 40
0.0
 40
0.0
 40
0.0
 40
0.1379053444
 40
0.2906309588
 40
0.4443371716
 40
0.5848663897
 40
0.6470427481
 40
0.7029991728
 40
0.7532676969
 40
0.7995239583
 40
0.844520597
 40
0.8914047915
 40
0.9427376226
 40
1.0
 40
1.0
 40
1.0
 40
1.0
 10
154.0739134763
 20
246.2000530673
 30
0.0
 10
154.2920928805
 20
246.0740899793
 30
0.0
 10
154.7979810865
 20
245.8876481054
 30
0.0
 10
155.6095756467
 20
245.7903769273
 30
0.0
 10
156.4285750586
 20
245.8652112982
 30
0.0
 10
157.0551882143
 20
246.0719435385
 30
0.0
 10
157.4588503972
 20
246.3217148197
 30
0.0
 10
157.6871047526
 20
246.5313406811
 30
0.0
 10
157.844441311
 20
246.7650824816
 30
0.0
 10
157.9221545449
 20
247.0162285052
 30
0.0
 10
157.9131689176
 20
247.2732440511
 30
0.0
 10
157.8184778976
 20
247.5215891295
 30
0.0
 10
157.6459727446
 20
247.75089822
 30
0.0
 10
157.4931076825
 20
247.8797556349
 30
0.0
 10
157.4077022384
 20
247.9401621538
 30
0.0
  0
SPLINE
  5
34A
100
AcDbEntity
  8
_1
100
AcDbSpline
 62
7
  6
CONTINUOUS
 70
0
 71
3
 72
9
 73
5
 74
0
 42
0.0000001
 43
0.0000001
 44
0.0000000001
 40
0.0
 40
0.0
 40
0.0
 40
0.0
 40
0.2453059442
 40
1.0
 40
1.0
 40
1.0
 40
1.0
 10
157.4077022384
 20
247.9401621538
 30
0.0
 10
157.3956728658
 20
247.9486704232
 30
0.0
 10
157.3462141636
 20
247.9827578569
 30
0.0
 10
157.295138214
 20
248.0144869615
 30
0.0
 10
157.2558807437
 20
248.0371517598
 30
0.0
  0
SPLINE
  5
34B
100
AcDbEntity
  8
_1
100
AcDbSpline
 62
7
  6
CONTINUOUS
 70
0
 71
3
 72
16
 73
12
 74
0
 42
0.0000001
 43
0.0000001
 44
0.0000000001
 40
0.0
 40
0.0
 40
0.0
 40
0.0
 40
0.1553450713
 40
0.2270567807
 40
0.294489129
 40
0.4167383547
 40
0.5259269098
 40
0.6300237814
 40
0.7391164592
 40
0.8612323348
 40
1.0
 40
1.0
 40
1.0
 40
1.0
 10
154.4726331111
 20
248.2202340085
 30
0.0
 10
154.3363289284
 20
248.1710669723
 30
0.0
 10
154.1417167578
 20
248.0839198975
 30
0.0
 10
153.9098276456
 20
247.9358088999
 30
0.0
 10
153.7196069662
 20
247.7827635234
 30
0.0
 10
153.534127549
 20
247.5696279317
 30
0.0
 10
153.4108267583
 20
247.2745765819
 30
0.0
 10
153.4101973288
 20
246.9656897721
 30
0.0
 10
153.5323628817
 20
246.6703020074
 30
0.0
 10
153.7610479556
 20
246.4060557836
 30
0.0
 10
153.9618163376
 20
246.2647709164
 30
0.0
 10
154.0739134763
 20
246.2000530673
 30
0.0
  0
SPLINE
  5
34C
100
AcDbEntity
  8
_1
100
AcDbSpline
 62
7
  6
CONTINUOUS
 70
0
 71
3
 72
11
 73
7
 74
0
 42
0.0000001
 43
0.0000001
 44
0.0000000001
 40
0.0
 40
0.0
 40
0.0
 40
0.0
 40
0.243165747
 40
0.505955822
 40
0.7655357284
 40
1.0
 40
1.0
 40
1.0
 40
1.0
 10
143.262605912
 20
252.01266868
 30
0.0
 10
142.9838525227
 20
251.8811861525
 30
0.0
 10
142.3619840687
 20
251.6943878161
 30
0.0
 10
141.3879244953
 20
251.622437027
 30
0.0
 10
140.4304438999
 20
251.7478966945
 30
0.0
 10
139.8355316702
 20
251.9709038694
 30
0.0
 10
139.5781670547
 20
252.119490038
 30
0.0
  0
SPLINE
  5
34D
100
AcDbEntity
  8
_1
100
AcDbSpline
 62
7
  6
CONTINUOUS
 70
0
 71
3
 72
11
 73
7
 74
0
 42
0.0000001
 43
0.0000001
 44
0.0000000001
 40
0.0
 40
0.0
 40
0.0
 40
0.0
 40
0.2776563166
 40
0.5362388636
 40
0.776260632
 40
1.0
 40
1.0
 40
1.0
 40
1.0
 10
147.1795921841
 20
248.3432656082
 30
0.0
 10
146.8267239817
 20
248.546989551
 30
0.0
 10
146.165529863
 20
248.9776022044
 30
0.0
 10
145.2949777
 20
249.7177605661
 30
0.0
 10
144.5943508441
 20
250.5187831886
 30
0.0
 10
144.2381799003
 20
251.1041137159
 30
0.0
 10
144.096684953
 20
251.4003933394
 30
0.0
  0
SPLINE
  5
34E
100
AcDbEntity
  8
_1
100
AcDbSpline
 62
7
  6
CONTINUOUS
 70
0
 71
3
 72
10
 73
6
 74
0
 42
0.0000001
 43
0.0000001
 44
0.0000000001
 40
0.0
 40
0.0
 40
0.0
 40
0.0
 40
0.5228368037
 40
0.7683706967
 40
1.0
 40
1.0
 40
1.0
 40
1.0
 10
152.862605985
 20
246.5056623936
 30
0.0
 10
151.82622287
 20
246.649372858
 30
0.0
 10
150.3139789399
 20
246.9814741241
 30
0.0
 10
148.4378048245
 20
247.6843181211
 30
0.0
 10
147.5810283153
 20
248.111501593
 30
0.0
 10
147.1795921841
 20
248.3432656082
 30
0.0
  0
SPLINE
  5
34F
100
AcDbEntity
  8
_1
100
AcDbSpline
 62
7
  6
CONTINUOUS
 70
0
 71
3
 72
9
 73
5
 74
0
 42
0.0000001
 43
0.0000001
 44
0.0000000001
 40
0.0
 40
0.0
 40
0.0
 40
0.0
 40
0.4754781776
 40
1.0
 40
1.0
 40
1.0
 40
1.0
 10
139.5781670547
 20
253.7524948722
 30
0.0
 10
139.7980722474
 20
253.6255354222
 30
0.0
 10
140.2992180483
 20
253.4245659302
 30
0.0
 10
140.8282378617
 20
253.3303411129
 30
0.0
 10
141.107266514
 20
253.3057024405
 30
0.0
  0
SPLINE
  5
350
100
AcDbEntity
  8
_1
100
AcDbSpline
 62
7
  6
CONTINUOUS
 70
0
 71
3
 72
16
 73
12
 74
0
 42
0.0000001
 43
0.0000001
 44
0.0000000001
 40
0.0
 40
0.0
 40
0.0
 40
0.0
 40
0.14381898
 40
0.292129422
 40
0.4387865968
 40
0.5778740938
 40
0.7045169128
 40
0.8158786662
 40
0.9124669546
 40
0.9568873722
 40
1.0
 40
1.0
 40
1.0
 40
1.0
 10
168.6500519423
 20
253.4348813278
 30
0.0
 10
168.8644538505
 20
253.3774791818
 30
0.0
 10
169.3102332038
 20
253.2971515142
 30
0.0
 10
169.9891762896
 20
253.2747526686
 30
0.0
 10
170.6574303663
 20
253.3483115545
 30
0.0
 10
171.274902948
 20
253.513424669
 30
0.0
 10
171.8055787021
 20
253.7611598803
 30
0.0
 10
172.2193107625
 20
254.0783785484
 30
0.0
 10
172.4513009205
 20
254.4019514157
 30
0.0
 10
172.5420269181
 20
254.6731745228
 30
0.0
 10
172.5569577557
 20
254.8086993789
 30
0.0
 10
172.5569582364
 20
254.8752342825
 30
0.0
  0
SPLINE
  5
351
100
AcDbEntity
  8
_1
100
AcDbSpline
 62
7
  6
CONTINUOUS
 70
0
 71
3
 72
14
 73
10
 74
0
 42
0.0000001
 43
0.0000001
 44
0.0000000001
 40
0.0
 40
0.0
 40
0.0
 40
0.0
 40
0.0961870964
 40
0.1995783355
 40
0.3117461676
 40
0.4332771221
 40
0.5639590851
 40
0.7029572474
 40
1.0
 40
1.0
 40
1.0
 40
1.0
 10
167.4389477431
 20
251.904314168
 30
0.0
 10
167.3256514934
 20
251.5720819788
 30
0.0
 10
167.0078055937
 20
250.9091361499
 30
0.0
 10
166.3148776198
 20
249.9990454967
 30
0.0
 10
165.4091973332
 20
249.1588258328
 30
0.0
 10
164.309870964
 20
248.4036988979
 30
0.0
 10
163.0385154244
 20
247.7468114274
 30
0.0
 10
161.1057620822
 20
247.0026705205
 30
0.0
 10
159.5409419934
 20
246.6545807338
 30
0.0
 10
158.467208546
 20
246.5056824962
 30
0.0
  0
SPLINE
  5
352
100
AcDbEntity
  8
_1
100
AcDbSpline
 62
7
  6
CONTINUOUS
 70
0
 71
3
 72
19
 73
15
 74
0
 42
0.0000001
 43
0.0000001
 44
0.0000000001
 40
0.0
 40
0.0
 40
0.0
 40
0.0
 40
0.1561191104
 40
0.3133855756
 40
0.4609290557
 40
0.5901610788
 40
0.6468542879
 40
0.6985308558
 40
0.7463733399
 40
0.7923022205
 40
0.8386875495
 40
0.8877723733
 40
0.9412340923
 40
1.0
 40
1.0
 40
1.0
 40
1.0
 10
169.0130571638
 20
254.0680206462
 30
0.0
 10
169.248550807
 20
254.0167454509
 30
0.0
 10
169.7328837987
 20
253.9628380622
 30
0.0
 10
170.4465564845
 20
254.0149329201
 30
0.0
 10
171.097233065
 20
254.192104178
 30
0.0
 10
171.5559833671
 20
254.4424915902
 30
0.0
 10
171.824458118
 20
254.6953341862
 30
0.0
 10
171.9642610979
 20
254.8942698134
 30
0.0
 10
172.0463306056
 20
255.1060336774
 30
0.0
 10
172.0662777803
 20
255.3244928038
 30
0.0
 10
172.0226766318
 20
255.5413215954
 30
0.0
 10
171.9184742202
 20
255.7489149753
 30
0.0
 10
171.7582889781
 20
255.9418397399
 30
0.0
 10
171.6238457229
 20
256.0526584778
 30
0.0
 10
171.5497789827
 20
256.1050452312
 30
0.0
  0
SPLINE
  5
353
100
AcDbEntity
  8
_1
100
AcDbSpline
 62
7
  6
CONTINUOUS
 70
0
 71
3
 72
9
 73
5
 74
0
 42
0.0000001
 43
0.0000001
 44
0.0000000001
 40
0.0
 40
0.0
 40
0.0
 40
0.0
 40
0.2453059442
 40
1.0
 40
1.0
 40
1.0
 40
1.0
 10
171.5497789827
 20
256.1050452312
 30
0.0
 10
171.53774961
 20
256.1135535007
 30
0.0
 10
171.4882909079
 20
256.1476409344
 30
0.0
 10
171.4372149583
 20
256.1793700389
 30
0.0
 10
171.397957488
 20
256.2020348372
 30
0.0
  0
SPLINE
  5
354
100
AcDbEntity
  8
_1
100
AcDbSpline
 62
7
  6
CONTINUOUS
 70
0
 71
3
 72
10
 73
6
 74
0
 42
0.0000001
 43
0.0000001
 44
0.0000000001
 40
0.0
 40
0.0
 40
0.0
 40
0.0
 40
0.2281265147
 40
0.4753426092
 40
1.0
 40
1.0
 40
1.0
 40
1.0
 10
171.397957488
 20
256.2020348372
 30
0.0
 10
171.2797050899
 20
256.2703063465
 30
0.0
 10
171.0194002642
 20
256.3891870523
 30
0.0
 10
170.4426384803
 20
256.5539682612
 30
0.0
 10
169.9755921203
 20
256.5915011173
 30
0.0
 10
169.6617765877
 20
256.5797849761
 30
0.0
  0
SPLINE
  5
355
100
AcDbEntity
  8
_1
100
AcDbSpline
 62
7
  6
CONTINUOUS
 70
0
 71
3
 72
12
 73
8
 74
0
 42
0.0000001
 43
0.0000001
 44
0.0000000001
 40
0.0
 40
0.0
 40
0.0
 40
0.0
 40
0.2867181502
 40
0.551263136
 40
0.6738114606
 40
0.789407145
 40
1.0
 40
1.0
 40
1.0
 40
1.0
 10
160.5684120139
 20
274.08570137
 30
0.0
 10
161.4742337657
 20
274.2812619266
 30
0.0
 10
163.1942210849
 20
274.7704073181
 30
0.0
 10
165.1856878279
 20
275.6782663818
 30
0.0
 10
166.5574199952
 20
276.5544389497
 30
0.0
 10
167.69381656
 20
277.4571391363
 30
0.0
 10
168.4080247477
 20
278.2542125354
 30
0.0
 10
168.7780390219
 20
278.8255034402
 30
0.0
  0
SPLINE
  5
356
100
AcDbEntity
  8
_1
100
AcDbSpline
 62
7
  6
CONTINUOUS
 70
0
 71
3
 72
11
 73
7
 74
0
 42
0.0000001
 43
0.0000001
 44
0.0000000001
 40
0.0
 40
0.0
 40
0.0
 40
0.0
 40
0.2897785432
 40
0.5490732813
 40
0.7822301847
 40
1.0
 40
1.0
 40
1.0
 40
1.0
 10
139.5781670547
 20
252.119490038
 30
0.0
 10
139.4574670524
 20
252.1891746403
 30
0.0
 10
139.2385150914
 20
252.3399156895
 30
0.0
 10
138.9769228345
 20
252.6149451783
 30
0.0
 10
138.8113992953
 20
252.9190871285
 30
0.0
 10
138.7727203511
 20
253.1374231313
 30
0.0
 10
138.7727211885
 20
253.2421614622
 30
0.0
  0
SPLINE
  5
357
100
AcDbEntity
  8
_1
100
AcDbSpline
 62
7
  6
CONTINUOUS
 70
0
 71
3
 72
11
 73
7
 74
0
 42
0.0000001
 43
0.0000001
 44
0.0000000001
 40
0.0
 40
0.0
 40
0.0
 40
0.0
 40
0.2177723091
 40
0.4509273687
 40
0.7102218233
 40
1.0
 40
1.0
 40
1.0
 40
1.0
 10
138.5227246594
 20
253.2421614611
 30
0.0
 10
138.5227246609
 20
253.127900331
 30
0.0
 10
138.5649223457
 20
252.8897162243
 30
0.0
 10
138.7454918596
 20
252.5579250314
 30
0.0
 10
139.0308632177
 20
252.2578934526
 30
0.0
 10
139.2697187345
 20
252.0934483528
 30
0.0
 10
139.4013910954
 20
252.0174289995
 30
0.0
  0
SPLINE
  5
358
100
AcDbEntity
  8
_1
100
AcDbSpline
 62
7
  6
CONTINUOUS
 70
0
 71
3
 72
11
 73
7
 74
0
 42
0.0000001
 43
0.0000001
 44
0.0000000001
 40
0.0
 40
0.0
 40
0.0
 40
0.0
 40
0.2180031701
 40
0.4528101334
 40
0.7124973213
 40
1.0
 40
1.0
 40
1.0
 40
1.0
 10
138.7779820278
 20
254.7768939499
 30
0.0
 10
138.7884103849
 20
254.6796811343
 30
0.0
 10
138.8431410418
 20
254.4803215701
 30
0.0
 10
139.012650167
 20
254.2054770365
 30
0.0
 10
139.2624591084
 20
253.9557369829
 30
0.0
 10
139.4665012317
 20
253.8169637067
 30
0.0
 10
139.5781670547
 20
253.7524948722
 30
0.0
  0
SPLINE
  5
359
100
AcDbEntity
  8
_1
100
AcDbSpline
 62
7
  6
CONTINUOUS
 70
0
 71
3
 72
17
 73
13
 74
0
 42
0.0000001
 43
0.0000001
 44
0.0000000001
 40
0.0
 40
0.0
 40
0.0
 40
0.0
 40
0.0428568436
 40
0.0874852056
 40
0.1353189506
 40
0.1872821807
 40
0.3045481592
 40
0.4382177907
 40
0.5825620028
 40
0.7297179244
 40
0.8713061778
 40
1.0
 40
1.0
 40
1.0
 40
1.0
 10
172.5569552729
 20
253.2422294471
 30
0.0
 10
172.556954647
 20
253.1639493629
 30
0.0
 10
172.5360365781
 20
253.0034711644
 30
0.0
 10
172.4440002438
 20
252.7717563589
 30
0.0
 10
172.2946508385
 20
252.5520775137
 30
0.0
 10
172.0135141166
 20
252.2699020127
 30
0.0
 10
171.5344343263
 20
251.9783026854
 30
0.0
 10
170.8456255158
 20
251.7482049612
 30
0.0
 10
170.0726265748
 20
251.6395787855
 30
0.0
 10
169.2781159837
 20
251.6615881856
 30
0.0
 10
168.5269247953
 20
251.8118582815
 30
0.0
 10
168.0660121048
 20
252.002027294
 30
0.0
 10
167.8624383019
 20
252.119558025
 30
0.0
  0
SPLINE
  5
35A
100
AcDbEntity
  8
_1
100
AcDbSpline
 62
7
  6
CONTINUOUS
 70
0
 71
3
 72
11
 73
7
 74
0
 42
0.0000001
 43
0.0000001
 44
0.0000000001
 40
0.0
 40
0.0
 40
0.0
 40
0.0
 40
0.2897776971
 40
0.5490719787
 40
0.7822272299
 40
1.0
 40
1.0
 40
1.0
 40
1.0
 10
171.9283030297
 20
252.0175071846
 30
0.0
 10
172.0599729283
 20
252.0935263822
 30
0.0
 10
172.2988239121
 20
252.2579708543
 30
0.0
 10
172.5841894745
 20
252.5580002091
 30
0.0
 10
172.7647550821
 20
252.8897881895
 30
0.0
 10
172.8069518034
 20
253.127969548
 30
0.0
 10
172.8069518019
 20
253.2422294481
 30
0.0
  0
SPLINE
  5
35B
100
AcDbEntity
  8
_1
100
AcDbSpline
 62
7
  6
CONTINUOUS
 70
0
 71
3
 72
13
 73
9
 74
0
 42
0.0000001
 43
0.0000001
 44
0.0000000001
 40
0.0
 40
0.0
 40
0.0
 40
0.0
 40
0.1142487484
 40
0.2375477548
 40
0.5000005226
 40
0.7624530043
 40
0.8857516767
 40
1.0
 40
1.0
 40
1.0
 40
1.0
 10
153.5435855983
 20
243.8526139091
 30
0.0
 10
153.6887971681
 20
243.7687778669
 30
0.0
 10
154.0063835443
 20
243.6208847548
 30
0.0
 10
154.7102149652
 20
243.4071261146
 30
0.0
 10
155.6649092651
 20
243.3032895873
 30
0.0
 10
156.619602647
 20
243.4071305287
 30
0.0
 10
157.3234314303
 20
243.6208926312
 30
0.0
 10
157.6410158605
 20
243.7687873297
 30
0.0
 10
157.7862262854
 20
243.8526241072
 30
0.0
  0
SPLINE
  5
35C
100
AcDbEntity
  8
_1
100
AcDbSpline
 62
7
  6
CONTINUOUS
 70
0
 71
3
 72
11
 73
7
 74
0
 42
0.0000001
 43
0.0000001
 44
0.0000000001
 40
0.0
 40
0.0
 40
0.0
 40
0.0
 40
0.2976698654
 40
0.5686195213
 40
0.8038531659
 40
1.0
 40
1.0
 40
1.0
 40
1.0
 10
160.5684120139
 20
274.08570137
 30
0.0
 10
159.0787517236
 20
273.1764761168
 30
0.0
 10
156.2458110831
 20
271.4188566503
 30
0.0
 10
152.2685929817
 20
268.8901759014
 30
0.0
 10
148.817667643
 20
266.6435734535
 30
0.0
 10
146.7151063155
 20
265.2377188659
 30
0.0
 10
145.7653845097
 20
264.5892478041
 30
0.0
  0
SPLINE
  5
35D
100
AcDbEntity
  8
_1
100
AcDbSpline
 62
7
  6
CONTINUOUS
 70
0
 71
3
 72
13
 73
9
 74
0
 42
0.0000001
 43
0.0000001
 44
0.0000000001
 40
0.0
 40
0.0
 40
0.0
 40
0.0
 40
0.4174408112
 40
0.716162315
 40
0.8239575443
 40
0.9058034248
 40
0.9634516369
 40
1.0
 40
1.0
 40
1.0
 40
1.0
 10
168.7780390219
 20
278.8255034402
 30
0.0
 10
168.8952450675
 20
278.8828251301
 30
0.0
 10
169.0973838551
 20
278.9789084678
 30
0.0
 10
169.3346201285
 20
279.0798994076
 30
0.0
 10
169.4788831925
 20
279.1296524946
 30
0.0
 10
169.5538116095
 20
279.149791264
 30
0.0
 10
169.6079214993
 20
279.1580472906
 30
0.0
 10
169.6385123968
 20
279.1558579465
 30
0.0
 10
169.6488275804
 20
279.1509499204
 30
0.0
  0
SPLINE
  5
35E
100
AcDbEntity
  8
_1
100
AcDbSpline
 62
7
  6
CONTINUOUS
 70
0
 71
3
 72
9
 73
5
 74
0
 42
0.0000001
 43
0.0000001
 44
0.0000000001
 40
0.0
 40
0.0
 40
0.0
 40
0.0
 40
0.2459571915
 40
1.0
 40
1.0
 40
1.0
 40
1.0
 10
181.9052117588
 20
278.764931554
 30
0.0
 10
181.8841527753
 20
278.7527712972
 30
0.0
 10
181.801249759
 20
278.6986735263
 30
0.0
 10
181.7308464426
 20
278.6261512128
 30
0.0
 10
181.6870988929
 20
278.5657843011
 30
0.0
  0
SPLINE
  5
35F
100
AcDbEntity
  8
_1
100
AcDbSpline
 62
7
  6
CONTINUOUS
 70
0
 71
3
 72
9
 73
5
 74
0
 42
0.0000001
 43
0.0000001
 44
0.0000000001
 40
0.0
 40
0.0
 40
0.0
 40
0.0
 40
0.2452254915
 40
1.0
 40
1.0
 40
1.0
 40
1.0
 10
183.0258000285
 20
279.4079682019
 30
0.0
 10
183.0441204071
 20
279.4162072115
 30
0.0
 10
183.1203090996
 20
279.4464721866
 30
0.0
 10
183.2017636539
 20
279.4629543135
 30
0.0
 10
183.2633759727
 20
279.4681100844
 30
0.0
  0
SPLINE
  5
360
100
AcDbEntity
  8
_1
100
AcDbSpline
 62
7
  6
CONTINUOUS
 70
0
 71
3
 72
9
 73
5
 74
0
 42
0.0000001
 43
0.0000001
 44
0.0000000001
 40
0.0
 40
0.0
 40
0.0
 40
0.0
 40
0.2252426641
 40
1.0
 40
1.0
 40
1.0
 40
1.0
 10
183.2835894381
 20
279.46954774
 30
0.0
 10
183.3371450128
 20
279.4726908165
 30
0.0
 10
183.5764186888
 20
279.4633302992
 30
0.0
 10
183.806049735
 20
279.3705211164
 30
0.0
 10
183.9658580778
 20
279.2782578139
 30
0.0
  0
SPLINE
  5
361
100
AcDbEntity
  8
_1
100
AcDbSpline
 62
7
  6
CONTINUOUS
 70
0
 71
3
 72
9
 73
5
 74
0
 42
0.0000001
 43
0.0000001
 44
0.0000000001
 40
0.0
 40
0.0
 40
0.0
 40
0.0
 40
0.2549207915
 40
1.0
 40
1.0
 40
1.0
 40
1.0
 10
227.937071844
 20
174.8437144771
 30
0.0
 10
227.9316676286
 20
174.8337340021
 30
0.0
 10
227.9097341417
 20
174.7949869503
 30
0.0
 10
227.8847974006
 20
174.7579213218
 30
0.0
 10
227.8645456747
 20
174.7316478154
 30
0.0
  0
SPLINE
  5
362
100
AcDbEntity
  8
_1
100
AcDbSpline
 62
7
  6
CONTINUOUS
 70
0
 71
3
 72
9
 73
5
 74
0
 42
0.0000001
 43
0.0000001
 44
0.0000000001
 40
0.0
 40
0.0
 40
0.0
 40
0.0
 40
0.256215386
 40
1.0
 40
1.0
 40
1.0
 40
1.0
 10
227.8645456747
 20
174.7316478154
 30
0.0
 10
227.8502798351
 20
174.7131400777
 30
0.0
 10
227.7914024943
 20
174.6434473155
 30
0.0
 10
227.7190188466
 20
174.5850102895
 30
0.0
 10
227.6602869773
 20
174.551065457
 30
0.0
  0
SPLINE
  5
363
100
AcDbEntity
  8
_1
100
AcDbSpline
 62
7
  6
CONTINUOUS
 70
0
 71
3
 72
9
 73
5
 74
0
 42
0.0000001
 43
0.0000001
 44
0.0000000001
 40
0.0
 40
0.0
 40
0.0
 40
0.0
 40
0.532423438
 40
1.0
 40
1.0
 40
1.0
 40
1.0
 10
239.059174031
 20
181.6871951691
 30
0.0
 10
239.0332020423
 20
181.5617260895
 30
0.0
 10
238.9509364088
 20
181.3290826317
 30
0.0
 10
238.7735845619
 20
181.1508360936
 30
0.0
 10
238.6761100935
 20
181.0946200125
 30
0.0
  0
SPLINE
  5
364
100
AcDbEntity
  8
_1
100
AcDbSpline
 62
7
  6
CONTINUOUS
 70
0
 71
3
 72
9
 73
5
 74
0
 42
0.0000001
 43
0.0000001
 44
0.0000000001
 40
0.0
 40
0.0
 40
0.0
 40
0.0
 40
0.2583144219
 40
1.0
 40
1.0
 40
1.0
 40
1.0
 10
240.5211899317
 20
193.6373721293
 30
0.0
 10
240.4732073219
 20
192.6012522787
 30
0.0
 10
240.2157588503
 20
188.5941341048
 30
0.0
 10
239.6628504701
 20
184.6035189093
 30
0.0
 10
239.059174031
 20
181.6871951691
 30
0.0
  0
SPLINE
  5
365
100
AcDbEntity
  8
_1
100
AcDbSpline
 62
7
  6
CONTINUOUS
 70
0
 71
3
 72
9
 73
5
 74
0
 42
0.0000001
 43
0.0000001
 44
0.0000000001
 40
0.0
 40
0.0
 40
0.0
 40
0.0
 40
0.2563131705
 40
1.0
 40
1.0
 40
1.0
 40
1.0
 10
239.059174031
 20
231.6042363136
 30
0.0
 10
239.2523499863
 20
230.447959824
 30
0.0
 10
239.9422242886
 20
225.9265169137
 30
0.0
 10
240.3718107676
 20
221.3640332082
 30
0.0
 10
240.5211899317
 20
217.9659069969
 30
0.0
  0
SPLINE
  5
366
100
AcDbEntity
  8
_1
100
AcDbSpline
 62
7
  6
CONTINUOUS
 70
0
 71
3
 72
15
 73
11
 74
0
 42
0.0000001
 43
0.0000001
 44
0.0000000001
 40
0.0
 40
0.0
 40
0.0
 40
0.0
 40
0.1146593649
 40
0.2381259802
 40
0.367866859
 40
0.5008146199
 40
0.6336493285
 40
0.7630597351
 40
0.886005209
 40
1.0
 40
1.0
 40
1.0
 40
1.0
 10
228.124764793
 20
246.0585349646
 30
0.0
 10
228.1301002509
 20
245.5848253408
 30
0.0
 10
228.2259652453
 20
244.6010704689
 30
0.0
 10
228.5815447366
 20
243.1193614961
 30
0.0
 10
229.1417299795
 20
241.6214283283
 30
0.0
 10
229.8859155915
 20
240.1627048397
 30
0.0
 10
230.7866644689
 20
238.7967281956
 30
0.0
 10
231.8109914345
 20
237.5737285912
 30
0.0
 10
232.9209426272
 20
236.5388433857
 30
0.0
 10
233.7267875906
 20
235.974853552
 30
0.0
 10
234.1346825284
 20
235.7393606274
 30
0.0
  0
SPLINE
  5
367
100
AcDbEntity
  8
_1
100
AcDbSpline
 62
7
  6
CONTINUOUS
 70
0
 71
3
 72
11
 73
7
 74
0
 42
0.0000001
 43
0.0000001
 44
0.0000000001
 40
0.0
 40
0.0
 40
0.0
 40
0.0
 40
0.2368518177
 40
0.499178029
 40
0.761950876
 40
1.0
 40
1.0
 40
1.0
 40
1.0
 10
226.6413584577
 20
254.6401035714
 30
0.0
 10
226.8403591334
 20
254.5252130768
 30
0.0
 10
227.2173081552
 20
254.2088873019
 30
0.0
 10
227.6587628183
 20
253.6092439136
 30
0.0
 10
227.9628257516
 20
252.9282600161
 30
0.0
 10
228.0528557308
 20
252.4429943738
 30
0.0
 10
228.0554567483
 20
252.2120625509
 30
0.0
  0
SPLINE
  5
368
100
AcDbEntity
  8
_1
100
AcDbSpline
 62
7
  6
CONTINUOUS
 70
0
 71
3
 72
9
 73
5
 74
0
 42
0.0000001
 43
0.0000001
 44
0.0000000001
 40
0.0
 40
0.0
 40
0.0
 40
0.0
 40
0.2465107531
 40
1.0
 40
1.0
 40
1.0
 40
1.0
 10
226.5996312295
 20
173.9386992127
 30
0.0
 10
226.6191014551
 20
173.9499522756
 30
0.0
 10
226.6957701202
 20
173.9995570317
 30
0.0
 10
226.7619561672
 20
174.0648725294
 30
0.0
 10
226.8039171179
 20
174.1193168839
 30
0.0
  0
SPLINE
  5
369
100
AcDbEntity
  8
_1
100
AcDbSpline
 62
7
  6
CONTINUOUS
 70
0
 71
3
 72
9
 73
5
 74
0
 42
0.0000001
 43
0.0000001
 44
0.0000000001
 40
0.0
 40
0.0
 40
0.0
 40
0.0
 40
0.7450799758
 40
1.0
 40
1.0
 40
1.0
 40
1.0
 10
226.8039171179
 20
174.1193168839
 30
0.0
 10
226.8241636202
 20
174.1455867307
 30
0.0
 10
226.8490941422
 20
174.1826465268
 30
0.0
 10
226.8710225732
 20
174.2213869986
 30
0.0
 10
226.8764255549
 20
174.231365721
 30
0.0
  0
SPLINE
  5
36A
100
AcDbEntity
  8
_1
100
AcDbSpline
 62
7
  6
CONTINUOUS
 70
0
 71
3
 72
9
 73
5
 74
0
 42
0.0000001
 43
0.0000001
 44
0.0000000001
 40
0.0
 40
0.0
 40
0.0
 40
0.0
 40
0.467576604
 40
1.0
 40
1.0
 40
1.0
 40
1.0
 10
237.6154543298
 20
180.4822537957
 30
0.0
 10
237.712928814
 20
180.5384698697
 30
0.0
 10
237.890280679
 20
180.7167164023
 30
0.0
 10
237.9725462886
 20
180.9493598685
 30
0.0
 10
237.9985182752
 20
181.0748289383
 30
0.0
  0
SPLINE
  5
36B
100
AcDbEntity
  8
_1
100
AcDbSpline
 62
7
  6
CONTINUOUS
 70
0
 71
3
 72
13
 73
9
 74
0
 42
0.0000001
 43
0.0000001
 44
0.0000000001
 40
0.0
 40
0.0
 40
0.0
 40
0.0
 40
0.1146002436
 40
0.2379377994
 40
0.4999935593
 40
0.7620549709
 40
0.8854034144
 40
1.0
 40
1.0
 40
1.0
 40
1.0
 10
232.9964673286
 20
235.1723534625
 30
0.0
 10
232.5923668885
 20
235.411709146
 30
0.0
 10
231.7949077474
 20
235.9807304616
 30
0.0
 10
230.3028040524
 20
237.3920776404
 30
0.0
 10
228.7243503683
 20
239.555103666
 30
0.0
 10
227.6400599757
 20
242.0035297656
 30
0.0
 10
227.1636488656
 20
244.0014028229
 30
0.0
 10
227.0693984727
 20
244.9765452156
 30
0.0
 10
227.0641090371
 20
245.4461687337
 30
0.0
  0
SPLINE
  5
36C
100
AcDbEntity
  8
_1
100
AcDbSpline
 62
7
  6
CONTINUOUS
 70
0
 71
3
 72
9
 73
5
 74
0
 42
0.0000001
 43
0.0000001
 44
0.0000000001
 40
0.0
 40
0.0
 40
0.0
 40
0.0
 40
0.2436351131
 40
1.0
 40
1.0
 40
1.0
 40
1.0
 10
239.4605341759
 20
217.3535407661
 30
0.0
 10
239.4115963248
 20
218.4667950509
 30
0.0
 10
239.1355854248
 20
223.0326856115
 30
0.0
 10
238.5685756728
 20
227.5797271714
 30
0.0
 10
237.9985182752
 20
230.9918700828
 30
0.0
  0
SPLINE
  5
36D
100
AcDbEntity
  8
_1
100
AcDbSpline
 62
7
  6
CONTINUOUS
 70
0
 71
3
 72
9
 73
5
 74
0
 42
0.0000001
 43
0.0000001
 44
0.0000000001
 40
0.0
 40
0.0
 40
0.0
 40
0.0
 40
0.2793566062
 40
1.0
 40
1.0
 40
1.0
 40
1.0
 10
182.905202322
 20
278.6658915831
 30
0.0
 10
182.8460601561
 20
278.7000365561
 30
0.0
 10
182.6288636656
 20
278.8104998747
 30
0.0
 10
182.3783124696
 20
278.8704292858
 30
0.0
 10
182.2027579434
 20
278.8557470097
 30
0.0
  0
SPLINE
  5
36E
100
AcDbEntity
  8
_1
100
AcDbSpline
 62
7
  6
CONTINUOUS
 70
0
 71
3
 72
9
 73
5
 74
0
 42
0.0000001
 43
0.0000001
 44
0.0000000001
 40
0.0
 40
0.0
 40
0.0
 40
0.0
 40
0.2568110236
 40
1.0
 40
1.0
 40
1.0
 40
1.0
 10
182.2027579434
 20
278.8557470097
 30
0.0
 10
182.1817927455
 20
278.8539936124
 30
0.0
 10
182.1004673914
 20
278.8440029746
 30
0.0
 10
182.0206698663
 20
278.8205729767
 30
0.0
 10
181.9651432725
 20
278.7956015378
 30
0.0
  0
SPLINE
  5
36F
100
AcDbEntity
  8
_1
100
AcDbSpline
 62
7
  6
CONTINUOUS
 70
0
 71
3
 72
11
 73
7
 74
0
 42
0.0000001
 43
0.0000001
 44
0.0000000001
 40
0.0
 40
0.0
 40
0.0
 40
0.0
 40
0.2402466315
 40
0.5030287405
 40
0.7641796385
 40
1.0
 40
1.0
 40
1.0
 40
1.0
 10
226.9932244228
 20
251.6590376181
 30
0.0
 10
226.9837364852
 20
251.8872134714
 30
0.0
 10
226.8857798495
 20
252.3622334405
 30
0.0
 10
226.5793142709
 20
253.0264634509
 30
0.0
 10
226.1435337061
 20
253.6087302973
 30
0.0
 10
225.774836833
 20
253.9156564833
 30
0.0
 10
225.5807027018
 20
254.0277373406
 30
0.0
  0
SPLINE
  5
370
100
AcDbEntity
  8
_1
100
AcDbSpline
 62
7
  6
CONTINUOUS
 70
0
 71
3
 72
9
 73
5
 74
0
 42
0.0000001
 43
0.0000001
 44
0.0000000001
 40
0.0
 40
0.0
 40
0.0
 40
0.0
 40
0.2418707821
 40
1.0
 40
1.0
 40
1.0
 40
1.0
 10
237.9985182752
 20
181.0748289383
 30
0.0
 10
238.1953879855
 20
182.0258943977
 30
0.0
 10
238.923644373
 20
185.9755685277
 30
0.0
 10
239.319706002
 20
189.9840111068
 30
0.0
 10
239.4605341759
 20
193.0250058985
 30
0.0
  0
SPLINE
  5
371
100
AcDbEntity
  8
_1
100
AcDbSpline
 62
7
  6
CONTINUOUS
 70
0
 71
3
 72
9
 73
5
 74
0
 42
0.0000001
 43
0.0000001
 44
0.0000000001
 40
0.0
 40
0.0
 40
0.0
 40
0.0
 40
0.5255481049
 40
1.0
 40
1.0
 40
1.0
 40
1.0
 10
231.5800390424
 20
252.2119307913
 30
0.0
 10
231.8515233047
 20
251.7564436406
 30
0.0
 10
232.2721844029
 20
250.8293967362
 30
0.0
 10
232.4569931011
 20
249.8202286088
 30
0.0
 10
232.4569926945
 20
249.3415258408
 30
0.0
  0
SPLINE
  5
372
100
AcDbEntity
  8
_1
100
AcDbSpline
 62
7
  6
CONTINUOUS
 70
0
 71
3
 72
11
 73
7
 74
0
 42
0.0000001
 43
0.0000001
 44
0.0000000001
 40
0.0
 40
0.0
 40
0.0
 40
0.0
 40
0.2131226997
 40
0.4461594469
 40
0.7077314236
 40
1.0
 40
1.0
 40
1.0
 40
1.0
 10
244.8010723919
 20
192.1856569299
 30
0.0
 10
244.8555489168
 20
192.2170759815
 30
0.0
 10
244.9589891139
 20
192.3024511181
 30
0.0
 10
245.0769999366
 20
192.4773624723
 30
0.0
 10
245.1606286369
 20
192.6956183754
 30
0.0
 10
245.191366283
 20
192.8569333197
 30
0.0
 10
245.2016311182
 20
192.9425619669
 30
0.0
  0
SPLINE
  5
373
100
AcDbEntity
  8
_1
100
AcDbSpline
 62
7
  6
CONTINUOUS
 70
0
 71
3
 72
9
 73
5
 74
0
 42
0.0000001
 43
0.0000001
 44
0.0000000001
 40
0.0
 40
0.0
 40
0.0
 40
0.0
 40
0.2608624741
 40
1.0
 40
1.0
 40
1.0
 40
1.0
 10
232.3686579413
 20
177.431839055
 30
0.0
 10
232.3512882959
 20
177.4082529823
 30
0.0
 10
232.2807371867
 20
177.320896428
 30
0.0
 10
232.1927810626
 20
177.2470501051
 30
0.0
 10
232.1209230401
 20
177.2055191041
 30
0.0
  0
SPLINE
  5
374
100
AcDbEntity
  8
_1
100
AcDbSpline
 62
7
  6
CONTINUOUS
 70
0
 71
3
 72
9
 73
5
 74
0
 42
0.0000001
 43
0.0000001
 44
0.0000000001
 40
0.0
 40
0.0
 40
0.0
 40
0.0
 40
0.2482254522
 40
1.0
 40
1.0
 40
1.0
 40
1.0
 10
245.8652855854
 20
208.7277999782
 30
0.0
 10
245.8552138234
 20
207.7188205278
 30
0.0
 10
245.798047134
 20
203.6542300293
 30
0.0
 10
245.6750081454
 20
199.5905880206
 30
0.0
 10
245.5468658099
 20
196.5373327371
 30
0.0
  0
SPLINE
  5
375
100
AcDbEntity
  8
_1
100
AcDbSpline
 62
7
  6
CONTINUOUS
 70
0
 71
3
 72
9
 73
5
 74
0
 42
0.0000001
 43
0.0000001
 44
0.0000000001
 40
0.0
 40
0.0
 40
0.0
 40
0.0
 40
0.2561404601
 40
1.0
 40
1.0
 40
1.0
 40
1.0
 10
243.6292950225
 20
234.2427163616
 30
0.0
 10
243.8689168821
 20
233.1138436468
 30
0.0
 10
244.7335396515
 20
228.6920642329
 30
0.0
 10
245.3087168932
 20
224.2120440239
 30
0.0
 10
245.5468658099
 20
220.8691047676
 30
0.0
  0
SPLINE
  5
376
100
AcDbEntity
  8
_1
100
AcDbSpline
 62
7
  6
CONTINUOUS
 70
0
 71
3
 72
11
 73
7
 74
0
 42
0.0000001
 43
0.0000001
 44
0.0000000001
 40
0.0
 40
0.0
 40
0.0
 40
0.0
 40
0.2262421213
 40
0.4833649947
 40
0.7493398593
 40
1.0
 40
1.0
 40
1.0
 40
1.0
 10
242.3209466915
 20
236.3763609374
 30
0.0
 10
242.4762475852
 20
236.2632631044
 30
0.0
 10
242.7746016649
 20
235.9757090035
 30
0.0
 10
243.1490076347
 20
235.4582814399
 30
0.0
 10
243.4488700428
 20
234.8708817496
 30
0.0
 10
243.5850980748
 20
234.450930789
 30
0.0
 10
243.6292950225
 20
234.2427163616
 30
0.0
  0
SPLINE
  5
377
100
AcDbEntity
  8
_1
100
AcDbSpline
 62
7
  6
CONTINUOUS
 70
0
 71
3
 72
9
 73
5
 74
0
 42
0.0000001
 43
0.0000001
 44
0.0000000001
 40
0.0
 40
0.0
 40
0.0
 40
0.0
 40
0.2518513383
 40
1.0
 40
1.0
 40
1.0
 40
1.0
 10
233.1283741941
 20
242.8268840987
 30
0.0
 10
233.9093283156
 20
242.2987155588
 30
0.0
 10
237.0012415209
 20
240.1883880625
 30
0.0
 10
240.0570158502
 20
238.0250679474
 30
0.0
 10
242.3209466915
 20
236.3763609374
 30
0.0
  0
SPLINE
  5
378
100
AcDbEntity
  8
_1
100
AcDbSpline
 62
7
  6
CONTINUOUS
 70
0
 71
3
 72
9
 73
5
 74
0
 42
0.0000001
 43
0.0000001
 44
0.0000000001
 40
0.0
 40
0.0
 40
0.0
 40
0.0
 40
0.2517451301
 40
1.0
 40
1.0
 40
1.0
 40
1.0
 10
245.8652855854
 20
208.7277999782
 30
0.0
 10
245.8552610041
 20
209.7469651286
 30
0.0
 10
245.7990475456
 20
213.7951850187
 30
0.0
 10
245.6768230774
 20
217.8425115252
 30
0.0
 10
245.5468658099
 20
220.8691047676
 30
0.0
  0
SPLINE
  5
379
100
AcDbEntity
  8
_1
100
AcDbSpline
 62
7
  6
CONTINUOUS
 70
0
 71
3
 72
9
 73
5
 74
0
 42
0.0000001
 43
0.0000001
 44
0.0000000001
 40
0.0
 40
0.0
 40
0.0
 40
0.0
 40
0.542669195
 40
1.0
 40
1.0
 40
1.0
 40
1.0
 10
232.4569851931
 20
249.3415215099
 30
0.0
 10
232.4569849341
 20
249.0365504759
 30
0.0
 10
232.3927955735
 20
248.4694178241
 30
0.0
 10
232.1217850037
 20
247.9530656059
 30
0.0
 10
231.9466950658
 20
247.7649198459
 30
0.0
  0
SPLINE
  5
37A
100
AcDbEntity
  8
_1
100
AcDbSpline
 62
7
  6
CONTINUOUS
 70
0
 71
3
 72
9
 73
5
 74
0
 42
0.0000001
 43
0.0000001
 44
0.0000000001
 40
0.0
 40
0.0
 40
0.0
 40
0.0
 40
0.2533214549
 40
1.0
 40
1.0
 40
1.0
 40
1.0
 10
231.9466950658
 20
247.7649198459
 30
0.0
 10
231.9266041323
 20
247.7433308044
 30
0.0
 10
231.844751942
 20
247.6605172011
 30
0.0
 10
231.7524972289
 20
247.5879162531
 30
0.0
 10
231.6792143793
 20
247.5411624219
 30
0.0
  0
SPLINE
  5
37B
100
AcDbEntity
  8
_1
100
AcDbSpline
 62
7
  6
CONTINUOUS
 70
0
 71
3
 72
11
 73
7
 74
0
 42
0.0000001
 43
0.0000001
 44
0.0000000001
 40
0.0
 40
0.0
 40
0.0
 40
0.0
 40
0.2368518177
 40
0.499178029
 40
0.761950876
 40
1.0
 40
1.0
 40
1.0
 40
1.0
 10
230.0898137104
 20
256.731589589
 30
0.0
 10
230.2888143861
 20
256.6166990944
 30
0.0
 10
230.6657634079
 20
256.3003733195
 30
0.0
 10
231.107218071
 20
255.7007299312
 30
0.0
 10
231.4112810043
 20
255.0197460337
 30
0.0
 10
231.5013109835
 20
254.5344803914
 30
0.0
 10
231.503912001
 20
254.3035485685
 30
0.0
  0
SPLINE
  5
37C
100
AcDbEntity
  8
_1
100
AcDbSpline
 62
7
  6
CONTINUOUS
 70
0
 71
3
 72
12
 73
8
 74
0
 42
0.0000001
 43
0.0000001
 44
0.0000000001
 40
0.0
 40
0.0
 40
0.0
 40
0.0
 40
0.2428616921
 40
0.5055126067
 40
0.7650556521
 40
0.8868010465
 40
1.0
 40
1.0
 40
1.0
 40
1.0
 10
231.6008848914
 20
247.5542024307
 30
0.0
 10
231.6771952519
 20
246.6032077911
 30
0.0
 10
232.1356142638
 20
244.6448046089
 30
0.0
 10
233.4465880629
 20
241.9204745935
 30
0.0
 10
234.997995368
 20
239.8930331632
 30
0.0
 10
236.4360281298
 20
238.5810672078
 30
0.0
 10
237.198024712
 20
238.0531867491
 30
0.0
 10
237.583137781
 20
237.830846645
 30
0.0
  0
SPLINE
  5
37D
100
AcDbEntity
  8
_1
100
AcDbSpline
 62
7
  6
CONTINUOUS
 70
0
 71
3
 72
9
 73
5
 74
0
 42
0.0000001
 43
0.0000001
 44
0.0000000001
 40
0.0
 40
0.0
 40
0.0
 40
0.0
 40
0.5324234529
 40
1.0
 40
1.0
 40
1.0
 40
1.0
 10
242.594749092
 20
183.7283839486
 30
0.0
 10
242.5687771169
 20
183.6029148188
 30
0.0
 10
242.4865114976
 20
183.3702712667
 30
0.0
 10
242.3091596026
 20
183.19202465
 30
0.0
 10
242.2116851047
 20
183.135808552
 30
0.0
  0
SPLINE
  5
37E
100
AcDbEntity
  8
_1
100
AcDbSpline
 62
7
  6
CONTINUOUS
 70
0
 71
3
 72
9
 73
5
 74
0
 42
0.0000001
 43
0.0000001
 44
0.0000000001
 40
0.0
 40
0.0
 40
0.0
 40
0.0
 40
0.2554700855
 40
1.0
 40
1.0
 40
1.0
 40
1.0
 10
243.7438842344
 20
191.3418133753
 30
0.0
 10
243.679358502
 20
190.6891487442
 30
0.0
 10
243.395214102
 20
188.1376685779
 30
0.0
 10
242.9821867261
 20
185.6000730512
 30
0.0
 10
242.594749092
 20
183.7283839486
 30
0.0
  0
SPLINE
  5
37F
100
AcDbEntity
  8
_1
100
AcDbSpline
 62
7
  6
CONTINUOUS
 70
0
 71
3
 72
11
 73
7
 74
0
 42
0.0000001
 43
0.0000001
 44
0.0000000001
 40
0.0
 40
0.0
 40
0.0
 40
0.0
 40
0.2321554998
 40
0.4960429861
 40
0.7621978245
 40
1.0
 40
1.0
 40
1.0
 40
1.0
 10
225.2071033872
 20
259.6088783973
 30
0.0
 10
225.1800510253
 20
259.8303033041
 30
0.0
 10
225.0462868139
 20
260.2939251771
 30
0.0
 10
224.7066799568
 20
260.9467547158
 30
0.0
 10
224.2537229274
 20
261.5336518048
 30
0.0
 10
223.8849880294
 20
261.8561025728
 30
0.0
 10
223.6921644822
 20
261.9786994095
 30
0.0
  0
SPLINE
  5
380
100
AcDbEntity
  8
_1
100
AcDbSpline
 62
7
  6
CONTINUOUS
 70
0
 71
3
 72
9
 73
5
 74
0
 42
0.0000001
 43
0.0000001
 44
0.0000000001
 40
0.0
 40
0.0
 40
0.0
 40
0.0
 40
0.241871754
 40
1.0
 40
1.0
 40
1.0
 40
1.0
 10
239.059229906
 20
181.6871631792
 30
0.0
 10
239.2560744778
 20
182.6381080739
 30
0.0
 10
239.9842458314
 20
186.5872633786
 30
0.0
 10
240.3803069569
 20
190.5951736315
 30
0.0
 10
240.521171582
 20
193.6357641418
 30
0.0
  0
SPLINE
  5
381
100
AcDbEntity
  8
_1
100
AcDbSpline
 62
7
  6
CONTINUOUS
 70
0
 71
3
 72
9
 73
5
 74
0
 42
0.0000001
 43
0.0000001
 44
0.0000000001
 40
0.0
 40
0.0
 40
0.0
 40
0.0
 40
0.4675765891
 40
1.0
 40
1.0
 40
1.0
 40
1.0
 10
238.6761659108
 20
181.0945877966
 30
0.0
 10
238.7736404245
 20
181.1508038875
 30
0.0
 10
238.9509923376
 20
181.3290504987
 30
0.0
 10
239.0332579329
 20
181.5616940593
 30
0.0
 10
239.059229906
 20
181.6871631792
 30
0.0
  0
SPLINE
  5
382
100
AcDbEntity
  8
_1
100
AcDbSpline
 62
7
  6
CONTINUOUS
 70
0
 71
3
 72
11
 73
7
 74
0
 42
0.0000001
 43
0.0000001
 44
0.0000000001
 40
0.0
 40
0.0
 40
0.0
 40
0.0
 40
0.249032946
 40
0.5116232336
 40
0.7680302521
 40
1.0
 40
1.0
 40
1.0
 40
1.0
 10
239.059229906
 20
231.6042037861
 30
0.0
 10
239.0240195555
 20
231.8149594711
 30
0.0
 10
238.8970671483
 20
232.2395384341
 30
0.0
 10
238.5863860533
 20
232.8249967697
 30
0.0
 10
238.1795465392
 20
233.3295752743
 30
0.0
 10
237.8485535844
 20
233.5952046808
 30
0.0
 10
237.6761823554
 20
233.6947210049
 30
0.0
  0
SPLINE
  5
383
100
AcDbEntity
  8
_1
100
AcDbSpline
 62
7
  6
CONTINUOUS
 70
0
 71
3
 72
9
 73
5
 74
0
 42
0.0000001
 43
0.0000001
 44
0.0000000001
 40
0.0
 40
0.0
 40
0.0
 40
0.0
 40
0.2436360024
 40
1.0
 40
1.0
 40
1.0
 40
1.0
 10
240.521171582
 20
217.9675361723
 30
0.0
 10
240.4722213157
 20
219.0806588744
 30
0.0
 10
240.1961803519
 20
223.6459923833
 30
0.0
 10
239.62921717
 20
228.1924781257
 30
0.0
 10
239.059229906
 20
231.6042037861
 30
0.0
  0
SPLINE
  5
384
100
AcDbEntity
  8
_1
100
AcDbSpline
 62
7
  6
CONTINUOUS
 70
0
 71
3
 72
11
 73
7
 74
0
 42
0.0000001
 43
0.0000001
 44
0.0000000001
 40
0.0
 40
0.0
 40
0.0
 40
0.0
 40
0.224112466
 40
0.460026139
 40
0.7169096686
 40
1.0
 40
1.0
 40
1.0
 40
1.0
 10
217.2132435462
 20
252.8340219477
 30
0.0
 10
217.2132435282
 20
252.9315628305
 30
0.0
 10
217.1830223417
 20
253.1328324445
 30
0.0
 10
217.0517762624
 20
253.4196212901
 30
0.0
 10
216.8408506366
 20
253.6867067082
 30
0.0
 10
216.6606905324
 20
253.8398422568
 30
0.0
 10
216.5609868156
 20
253.9122291011
 30
0.0
  0
SPLINE
  5
385
100
AcDbEntity
  8
_1
100
AcDbSpline
 62
7
  6
CONTINUOUS
 70
0
 71
3
 72
13
 73
9
 74
0
 42
0.0000001
 43
0.0000001
 44
0.0000000001
 40
0.0
 40
0.0
 40
0.0
 40
0.0
 40
0.1147598692
 40
0.2383347086
 40
0.5008164557
 40
0.762852046
 40
0.8859052873
 40
1.0
 40
1.0
 40
1.0
 40
1.0
 10
226.9770451038
 20
245.496433982
 30
0.0
 10
226.9823805617
 20
245.0227243582
 30
0.0
 10
227.0781876646
 20
244.0388875678
 30
0.0
 10
227.5622356933
 20
242.0239883288
 30
0.0
 10
228.6625233343
 20
239.5582007536
 30
0.0
 10
230.2627098685
 20
237.3856917798
 30
0.0
 10
231.7731230193
 20
235.9767306486
 30
0.0
 10
232.5790679014
 20
235.4127525694
 30
0.0
 10
232.9869628392
 20
235.1772596448
 30
0.0
  0
SPLINE
  5
386
100
AcDbEntity
  8
_1
100
AcDbSpline
 62
7
  6
CONTINUOUS
 70
0
 71
3
 72
11
 73
7
 74
0
 42
0.0000001
 43
0.0000001
 44
0.0000000001
 40
0.0
 40
0.0
 40
0.0
 40
0.0
 40
0.2368632109
 40
0.4991781243
 40
0.7619393739
 40
1.0
 40
1.0
 40
1.0
 40
1.0
 10
225.4936387685
 20
254.0780025888
 30
0.0
 10
225.6926485445
 20
253.9631068403
 30
0.0
 10
226.069623516
 20
253.6468020116
 30
0.0
 10
226.5109618313
 20
253.0470955707
 30
0.0
 10
226.8151370778
 20
252.3661817686
 30
0.0
 10
226.9051359221
 20
251.8809040014
 30
0.0
 10
226.9077370591
 20
251.6499615683
 30
0.0
  0
SPLINE
  5
387
100
AcDbEntity
  8
_1
100
AcDbSpline
 62
7
  6
CONTINUOUS
 70
0
 71
3
 72
8
 73
4
 74
0
 42
0.0000001
 43
0.0000001
 44
0.0000000001
 40
0.0
 40
0.0
 40
0.0
 40
0.0
 40
1.0
 40
1.0
 40
1.0
 40
1.0
 10
181.9923167464
 20
278.7145951063
 30
0.0
 10
182.0465859206
 20
278.7459224263
 30
0.0
 10
182.1058407471
 20
278.7697013441
 30
0.0
 10
182.166582389
 20
278.7850960574
 30
0.0
  0
SPLINE
  5
388
100
AcDbEntity
  8
_1
100
AcDbSpline
 62
7
  6
CONTINUOUS
 70
0
 71
3
 72
9
 73
5
 74
0
 42
0.0000001
 43
0.0000001
 44
0.0000000001
 40
0.0
 40
0.0
 40
0.0
 40
0.0
 40
0.456571289
 40
1.0
 40
1.0
 40
1.0
 40
1.0
 10
182.166582389
 20
278.7850960574
 30
0.0
 10
182.2932247428
 20
278.8171930287
 30
0.0
 10
182.5907551707
 20
278.8090362085
 30
0.0
 10
182.8575981454
 20
278.6933752456
 30
0.0
 10
182.9922662554
 20
278.6156263349
 30
0.0
  0
SPLINE
  5
389
100
AcDbEntity
  8
_1
100
AcDbSpline
 62
7
  6
CONTINUOUS
 70
0
 71
3
 72
9
 73
5
 74
0
 42
0.0000001
 43
0.0000001
 44
0.0000000001
 40
0.0
 40
0.0
 40
0.0
 40
0.0
 40
0.2555549405
 40
1.0
 40
1.0
 40
1.0
 40
1.0
 10
226.7161975598
 20
174.1475071086
 30
0.0
 10
226.704348502
 20
174.1321604293
 30
0.0
 10
226.6557608824
 20
174.0738687403
 30
0.0
 10
226.597943817
 20
174.0231744853
 30
0.0
 10
226.5510895268
 20
173.9916357367
 30
0.0
  0
SPLINE
  5
38A
100
AcDbEntity
  8
_1
100
AcDbSpline
 62
7
  6
CONTINUOUS
 70
0
 71
3
 72
11
 73
7
 74
0
 42
0.0000001
 43
0.0000001
 44
0.0000000001
 40
0.0
 40
0.0
 40
0.0
 40
0.0
 40
0.2830905571
 40
0.5399741725
 40
0.7758877587
 40
1.0
 40
1.0
 40
1.0
 40
1.0
 10
182.1670543921
 20
253.9121642641
 30
0.0
 10
182.0673494081
 20
253.8397772202
 30
0.0
 10
181.8871869846
 20
253.6866410891
 30
0.0
 10
181.6762583788
 20
253.4195541967
 30
0.0
 10
181.5450103664
 20
253.1327633701
 30
0.0
 10
181.5147886578
 20
252.9314921733
 30
0.0
 10
181.5147886759
 20
252.8339505614
 30
0.0
  0
SPLINE
  5
38B
100
AcDbEntity
  8
_1
100
AcDbSpline
 62
7
  6
CONTINUOUS
 70
0
 71
3
 72
9
 73
5
 74
0
 42
0.0000001
 43
0.0000001
 44
0.0000000001
 40
0.0
 40
0.0
 40
0.0
 40
0.0
 40
0.5324234529
 40
1.0
 40
1.0
 40
1.0
 40
1.0
 10
237.9985741501
 20
181.0747969484
 30
0.0
 10
237.972602175
 20
180.9493278186
 30
0.0
 10
237.8903365557
 20
180.7166842665
 30
0.0
 10
237.7129846607
 20
180.5384376498
 30
0.0
 10
237.6155101628
 20
180.4822215518
 30
0.0
  0
SPLINE
  5
38C
100
AcDbEntity
  8
_1
100
AcDbSpline
 62
7
  6
CONTINUOUS
 70
0
 71
3
 72
9
 73
5
 74
0
 42
0.0000001
 43
0.0000001
 44
0.0000000001
 40
0.0
 40
0.0
 40
0.0
 40
0.0
 40
0.2583134158
 40
1.0
 40
1.0
 40
1.0
 40
1.0
 10
239.4605158262
 20
193.023397911
 30
0.0
 10
239.4125209218
 20
191.9874185039
 30
0.0
 10
239.1550410483
 20
187.9808286537
 30
0.0
 10
238.6021719043
 20
183.9907432574
 30
0.0
 10
237.9985741501
 20
181.0747969484
 30
0.0
  0
SPLINE
  5
38D
100
AcDbEntity
  8
_1
100
AcDbSpline
 62
7
  6
CONTINUOUS
 70
0
 71
3
 72
9
 73
5
 74
0
 42
0.0000001
 43
0.0000001
 44
0.0000000001
 40
0.0
 40
0.0
 40
0.0
 40
0.0
 40
0.2563122883
 40
1.0
 40
1.0
 40
1.0
 40
1.0
 10
237.9985741501
 20
230.9918375553
 30
0.0
 10
238.1917259025
 20
229.8357050743
 30
0.0
 10
238.8815240981
 20
225.3148109435
 30
0.0
 10
239.3110991329
 20
220.752886151
 30
0.0
 10
239.4605158262
 20
217.3551699415
 30
0.0
  0
SPLINE
  5
38E
100
AcDbEntity
  8
_1
100
AcDbSpline
 62
7
  6
CONTINUOUS
 70
0
 71
3
 72
11
 73
7
 74
0
 42
0.0000001
 43
0.0000001
 44
0.0000000001
 40
0.0
 40
0.0
 40
0.0
 40
0.0
 40
0.2319698822
 40
0.4883769512
 40
0.750967195
 40
1.0
 40
1.0
 40
1.0
 40
1.0
 10
236.6155265996
 20
233.0823547741
 30
0.0
 10
236.7878979284
 20
232.9828383923
 30
0.0
 10
237.1188909906
 20
232.7172088547
 30
0.0
 10
237.5257305171
 20
232.2126302048
 30
0.0
 10
237.836411488
 20
231.6271719348
 30
0.0
 10
237.9633638196
 20
231.2025931209
 30
0.0
 10
237.9985741501
 20
230.9918375553
 30
0.0
  0
SPLINE
  5
38F
100
AcDbEntity
  8
_1
100
AcDbSpline
 62
7
  6
CONTINUOUS
 70
0
 71
3
 72
9
 73
5
 74
0
 42
0.0000001
 43
0.0000001
 44
0.0000000001
 40
0.0
 40
0.0
 40
0.0
 40
0.0
 40
0.2455808157
 40
1.0
 40
1.0
 40
1.0
 40
1.0
 10
199.7536925769
 20
158.5346849727
 30
0.0
 10
199.7647585676
 20
158.544529472
 30
0.0
 10
199.8085412302
 20
158.5860400406
 30
0.0
 10
199.847002717
 20
158.6330809517
 30
0.0
 10
199.8727169156
 20
158.6706174691
 30
0.0
  0
SPLINE
  5
390
100
AcDbEntity
  8
_1
100
AcDbSpline
 62
7
  6
CONTINUOUS
 70
0
 71
3
 72
11
 73
7
 74
0
 42
0.0000001
 43
0.0000001
 44
0.0000000001
 40
0.0
 40
0.0
 40
0.0
 40
0.0
 40
0.2372405738
 40
0.5000004574
 40
0.7627600882
 40
1.0
 40
1.0
 40
1.0
 40
1.0
 10
197.2427664227
 20
243.0361622548
 30
0.0
 10
197.5439358994
 20
242.86228591
 30
0.0
 10
198.2442992179
 20
242.6085603397
 30
0.0
 10
199.364089844
 20
242.4870010094
 30
0.0
 10
200.4838789427
 20
242.608565354
 30
0.0
 10
201.1842397272
 20
242.8622944214
 30
0.0
 10
201.4854071098
 20
243.0361724529
 30
0.0
  0
SPLINE
  5
391
100
AcDbEntity
  8
_1
100
AcDbSpline
 62
7
  6
CONTINUOUS
 70
0
 71
3
 72
11
 73
7
 74
0
 42
0.0000001
 43
0.0000001
 44
0.0000000001
 40
0.0
 40
0.0
 40
0.0
 40
0.0
 40
0.2177817009
 40
0.4509079353
 40
0.7102947134
 40
1.0
 40
1.0
 40
1.0
 40
1.0
 10
181.5147886759
 20
252.8339505614
 30
0.0
 10
181.514788697
 20
252.7196853201
 30
0.0
 10
181.5570153628
 20
252.4815203883
 30
0.0
 10
181.7375690543
 20
252.1496804341
 30
0.0
 10
182.0229987686
 20
251.8497107317
 30
0.0
 10
182.261823895
 20
251.6852177882
 30
0.0
 10
182.3934621946
 20
251.6092180998
 30
0.0
  0
SPLINE
  5
392
100
AcDbEntity
  8
_1
100
AcDbSpline
 62
7
  6
CONTINUOUS
 70
0
 71
3
 72
11
 73
7
 74
0
 42
0.0000001
 43
0.0000001
 44
0.0000000001
 40
0.0
 40
0.0
 40
0.0
 40
0.0
 40
0.2897052857
 40
0.5490919933
 40
0.7822182543
 40
1.0
 40
1.0
 40
1.0
 40
1.0
 10
182.3934621946
 20
251.2009668912
 30
0.0
 10
182.261823895
 20
251.2769665796
 30
0.0
 10
182.0229987708
 20
251.4414594621
 30
0.0
 10
181.7375690915
 20
251.7414291785
 30
0.0
 10
181.5570154132
 20
252.0732691174
 30
0.0
 10
181.5147886438
 20
252.3114340876
 30
0.0
 10
181.5147886759
 20
252.4256993528
 30
0.0
  0
SPLINE
  5
393
100
AcDbEntity
  8
_1
100
AcDbSpline
 62
7
  6
CONTINUOUS
 70
0
 71
3
 72
11
 73
7
 74
0
 42
0.0000001
 43
0.0000001
 44
0.0000000001
 40
0.0
 40
0.0
 40
0.0
 40
0.0
 40
0.2897048043
 40
0.5490913404
 40
0.7822177947
 40
1.0
 40
1.0
 40
1.0
 40
1.0
 10
216.3345876913
 20
251.6092996842
 30
0.0
 10
216.4662235285
 20
251.6852992166
 30
0.0
 10
216.7050441201
 20
251.8497914716
 30
0.0
 10
216.9904680007
 20
252.1497589649
 30
0.0
 10
217.17101779
 20
252.481595689
 30
0.0
 10
217.2132435674
 20
252.7197579133
 30
0.0
 10
217.2132435462
 20
252.8340219477
 30
0.0
  0
SPLINE
  5
394
100
AcDbEntity
  8
_1
100
AcDbSpline
 62
7
  6
CONTINUOUS
 70
0
 71
3
 72
9
 73
5
 74
0
 42
0.0000001
 43
0.0000001
 44
0.0000000001
 40
0.0
 40
0.0
 40
0.0
 40
0.0
 40
0.4675765891
 40
1.0
 40
1.0
 40
1.0
 40
1.0
 10
210.7455643409
 20
164.9689437187
 30
0.0
 10
210.8430388546
 20
165.0251598096
 30
0.0
 10
211.0203907677
 20
165.2034064208
 30
0.0
 10
211.1026563629
 20
165.4360499814
 30
0.0
 10
211.128628336
 20
165.5615191013
 30
0.0
  0
SPLINE
  5
395
100
AcDbEntity
  8
_1
100
AcDbSpline
 62
7
  6
CONTINUOUS
 70
0
 71
3
 72
11
 73
7
 74
0
 42
0.0000001
 43
0.0000001
 44
0.0000000001
 40
0.0
 40
0.0
 40
0.0
 40
0.0
 40
0.2372398078
 40
0.4999994051
 40
0.7627593222
 40
1.0
 40
1.0
 40
1.0
 40
1.0
 10
201.4854071098
 20
242.6279212443
 30
0.0
 10
201.1842398593
 20
242.4540432891
 30
0.0
 10
200.4838792953
 20
242.2003142413
 30
0.0
 10
199.364090359
 20
242.0787498009
 30
0.0
 10
198.2442995705
 20
242.2003090353
 30
0.0
 10
197.5439360315
 20
242.4540346252
 30
0.0
 10
197.2427664227
 20
242.6279110463
 30
0.0
  0
SPLINE
  5
396
100
AcDbEntity
  8
_1
100
AcDbSpline
 62
7
  6
CONTINUOUS
 70
0
 71
3
 72
11
 73
7
 74
0
 42
0.0000001
 43
0.0000001
 44
0.0000000001
 40
0.0
 40
0.0
 40
0.0
 40
0.0
 40
0.2177821605
 40
0.4509085882
 40
0.7102951949
 40
1.0
 40
1.0
 40
1.0
 40
1.0
 10
217.2132435462
 20
252.4257707392
 30
0.0
 10
217.2132435142
 20
252.3115067287
 30
0.0
 10
217.1710178404
 20
252.0733445428
 30
0.0
 10
216.9904680379
 20
251.7415078033
 30
0.0
 10
216.7050441223
 20
251.4415403241
 30
0.0
 10
216.4662235285
 20
251.277048008
 30
0.0
 10
216.3345876913
 20
251.2010484756
 30
0.0
  0
SPLINE
  5
397
100
AcDbEntity
  8
_1
100
AcDbSpline
 62
7
  6
CONTINUOUS
 70
0
 71
3
 72
9
 73
5
 74
0
 42
0.0000001
 43
0.0000001
 44
0.0000000001
 40
0.0
 40
0.0
 40
0.0
 40
0.0
 40
0.2381363303
 40
1.0
 40
1.0
 40
1.0
 40
1.0
 10
206.117017025
 20
219.6639817977
 30
0.0
 10
205.9654211204
 20
219.7515037541
 30
0.0
 10
205.3409841948
 20
220.1399784126
 30
0.0
 10
204.7651271392
 20
220.604224436
 30
0.0
 10
204.3553141185
 20
220.9859039205
 30
0.0
  0
SPLINE
  5
398
100
AcDbEntity
  8
_1
100
AcDbSpline
 62
7
  6
CONTINUOUS
 70
0
 71
3
 72
9
 73
5
 74
0
 42
0.0000001
 43
0.0000001
 44
0.0000000001
 40
0.0
 40
0.0
 40
0.0
 40
0.0
 40
0.2439674935
 40
1.0
 40
1.0
 40
1.0
 40
1.0
 10
204.3553141185
 20
220.9859039205
 30
0.0
 10
204.2296679346
 20
221.1029245331
 30
0.0
 10
203.7253241749
 20
221.5939651674
 30
0.0
 10
203.2631925273
 20
222.1279089847
 30
0.0
 10
202.9382719996
 20
222.5492606462
 30
0.0
  0
SPLINE
  5
399
100
AcDbEntity
  8
_1
100
AcDbSpline
 62
7
  6
CONTINUOUS
 70
0
 71
3
 72
9
 73
5
 74
0
 42
0.0000001
 43
0.0000001
 44
0.0000000001
 40
0.0
 40
0.0
 40
0.0
 40
0.0
 40
0.25538761
 40
1.0
 40
1.0
 40
1.0
 40
1.0
 10
201.0580157382
 20
225.7777059335
 30
0.0
 10
200.98812043
 20
225.9438947628
 30
0.0
 10
200.7270067042
 20
226.5997951676
 30
0.0
 10
200.5165495941
 20
227.2762258243
 30
0.0
 10
200.3941094536
 20
227.7874202936
 30
0.0
  0
SPLINE
  5
39A
100
AcDbEntity
  8
_1
100
AcDbSpline
 62
7
  6
CONTINUOUS
 70
0
 71
3
 72
9
 73
5
 74
0
 42
0.0000001
 43
0.0000001
 44
0.0000000001
 40
0.0
 40
0.0
 40
0.0
 40
0.0
 40
0.2612698425
 40
1.0
 40
1.0
 40
1.0
 40
1.0
 10
200.3941094536
 20
227.7874202936
 30
0.0
 10
200.349137563
 20
227.9751804648
 30
0.0
 10
200.1947840513
 20
228.6977916791
 30
0.0
 10
200.1132474502
 20
229.4372905589
 30
0.0
 10
200.1070992896
 20
229.9831561349
 30
0.0
  0
SPLINE
  5
39B
100
AcDbEntity
  8
_1
100
AcDbSpline
 62
7
  6
CONTINUOUS
 70
0
 71
3
 72
11
 73
7
 74
0
 42
0.0000001
 43
0.0000001
 44
0.0000000001
 40
0.0
 40
0.0
 40
0.0
 40
0.0
 40
0.2895416688
 40
0.549118971
 40
0.7822562702
 40
1.0
 40
1.0
 40
1.0
 40
1.0
 10
43.0232599634
 20
144.6895102534
 30
0.0
 10
42.8917008244
 20
144.6135550025
 30
0.0
 10
42.6529644874
 20
144.4489381397
 30
0.0
 10
42.3673886284
 20
144.1491309492
 30
0.0
 10
42.1867086731
 20
143.8172125542
 30
0.0
 10
42.1447569622
 20
143.5790296043
 30
0.0
 10
42.1447569977
 20
143.4647879911
 30
0.0
  0
SPLINE
  5
39C
100
AcDbEntity
  8
_1
100
AcDbSpline
 62
7
  6
CONTINUOUS
 70
0
 71
3
 72
11
 73
7
 74
0
 42
0.0000001
 43
0.0000001
 44
0.0000000001
 40
0.0
 40
0.0
 40
0.0
 40
0.0
 40
0.2372531816
 40
0.5000006935
 40
0.7627478297
 40
1.0
 40
1.0
 40
1.0
 40
1.0
 10
64.2363927436
 20
154.4873801444
 30
0.0
 10
63.9352082828
 20
154.6612651401
 30
0.0
 10
63.2348525443
 20
154.9150444402
 30
0.0
 10
62.1150684502
 20
155.0363720614
 30
0.0
 10
60.9952864322
 20
154.9150390898
 30
0.0
 10
60.2949339797
 20
154.6612563728
 30
0.0
 10
59.9937520565
 20
154.4873699463
 30
0.0
  0
SPLINE
  5
39D
100
AcDbEntity
  8
_1
100
AcDbSpline
 62
7
  6
CONTINUOUS
 70
0
 71
3
 72
17
 73
13
 74
0
 42
0.0000001
 43
0.0000001
 44
0.0000000001
 40
0.0
 40
0.0
 40
0.0
 40
0.0
 40
0.1286917537
 40
0.2702758802
 40
0.4174285457
 40
0.5617737263
 40
0.69544562
 40
0.812712688
 40
0.8646764364
 40
0.9125109396
 40
0.9571409768
 40
1.0
 40
1.0
 40
1.0
 40
1.0
 10
32.7702160522
 20
134.2790929213
 30
0.0
 10
32.7702160522
 20
133.4670586608
 30
0.0
 10
32.9973819638
 20
131.7596919186
 30
0.0
 10
33.8452778217
 20
129.2528138349
 30
0.0
 10
35.1517327531
 20
126.8378551895
 30
0.0
 10
36.8118922897
 20
124.7128700484
 30
0.0
 10
38.6900641842
 20
123.049553287
 30
0.0
 10
40.3899815784
 20
122.1199422275
 30
0.0
 10
41.7197947902
 20
121.7662499521
 30
0.0
 10
42.6350013311
 20
121.6989007166
 30
0.0
 10
43.4872378022
 20
121.8237646409
 30
0.0
 10
44.0034933306
 20
122.0384006413
 30
0.0
 10
44.2377022565
 20
122.1736126247
 30
0.0
  0
SPLINE
  5
39E
100
AcDbEntity
  8
_1
100
AcDbSpline
 62
7
  6
CONTINUOUS
 70
0
 71
3
 72
9
 73
5
 74
0
 42
0.0000001
 43
0.0000001
 44
0.0000000001
 40
0.0
 40
0.0
 40
0.0
 40
0.0
 40
0.4801430713
 40
1.0
 40
1.0
 40
1.0
 40
1.0
 10
47.2657240125
 20
159.3860386977
 30
0.0
 10
47.2657240125
 20
157.5863825983
 30
0.0
 10
47.6193743228
 20
153.8350355841
 30
0.0
 10
48.5239025838
 20
150.1845622141
 30
0.0
 10
49.1115855514
 20
148.3267891123
 30
0.0
  0
SPLINE
  5
39F
100
AcDbEntity
  8
_1
100
AcDbSpline
 62
7
  6
CONTINUOUS
 70
0
 71
3
 72
15
 73
11
 74
0
 42
0.0000001
 43
0.0000001
 44
0.0000000001
 40
0.0
 40
0.0
 40
0.0
 40
0.0
 40
0.1569890794
 40
0.3063766674
 40
0.4463847589
 40
0.575858534
 40
0.6944894701
 40
0.8030737183
 40
0.9037449084
 40
1.0
 40
1.0
 40
1.0
 40
1.0
 10
59.0582559197
 20
130.6307941648
 30
0.0
 10
60.0252816987
 20
129.5190713514
 30
0.0
 10
62.0161835836
 20
127.4364595946
 30
0.0
 10
65.2161815819
 20
124.7197133015
 30
0.0
 10
68.4969824734
 20
122.5350785635
 30
0.0
 10
71.7837729453
 20
120.9350352314
 30
0.0
 10
75.0038140047
 20
119.9597740483
 30
0.0
 10
78.0874905171
 20
119.6407481228
 30
0.0
 10
80.9599651874
 20
120.0002518094
 30
0.0
 10
82.6965090826
 20
120.7063953598
 30
0.0
 10
83.4788978771
 20
121.1581029104
 30
0.0
  0
SPLINE
  5
3A0
100
AcDbEntity
  8
_1
100
AcDbSpline
 62
7
  6
CONTINUOUS
 70
0
 71
3
 72
11
 73
7
 74
0
 42
0.0000001
 43
0.0000001
 44
0.0000000001
 40
0.0
 40
0.0
 40
0.0
 40
0.0
 40
0.2177434119
 40
0.4508805377
 40
0.710457812
 40
1.0
 40
1.0
 40
1.0
 40
1.0
 10
92.7527041729
 20
196.8228534644
 30
0.0
 10
92.7527041492
 20
196.899015411
 30
0.0
 10
92.7247357547
 20
197.0578059449
 30
0.0
 10
92.6042797372
 20
197.2790869518
 30
0.0
 10
92.4138921125
 20
197.4789599552
 30
0.0
 10
92.2547314995
 20
197.5887048276
 30
0.0
 10
92.1670237532
 20
197.639341773
 30
0.0
  0
SPLINE
  5
3A1
100
AcDbEntity
  8
_1
100
AcDbSpline
 62
7
  6
CONTINUOUS
 70
0
 71
3
 72
10
 73
6
 74
0
 42
0.0000001
 43
0.0000001
 44
0.0000000001
 40
0.0
 40
0.0
 40
0.0
 40
0.0
 40
0.2310336092
 40
0.4766021487
 40
1.0
 40
1.0
 40
1.0
 40
1.0
 10
31.7093365549
 20
164.6931532093
 30
0.0
 10
31.7093365549
 20
162.7441650579
 30
0.0
 10
31.9704723147
 20
158.7204391302
 30
0.0
 10
33.4354414265
 20
150.4018344679
 30
0.0
 10
35.5118756754
 20
144.2042597323
 30
0.0
 10
37.2537950989
 20
140.1470306997
 30
0.0
  0
SPLINE
  5
3A2
100
AcDbEntity
  8
_1
100
AcDbSpline
 62
7
  6
CONTINUOUS
 70
0
 71
3
 72
16
 73
12
 74
0
 42
0.0000001
 43
0.0000001
 44
0.0000000001
 40
0.0
 40
0.0
 40
0.0
 40
0.0
 40
0.1570005442
 40
0.3074668871
 40
0.4489598442
 40
0.5797004951
 40
0.6988550673
 40
0.806881712
 40
0.9058859696
 40
0.9532786381
 40
1.0
 40
1.0
 40
1.0
 40
1.0
 10
46.8112720321
 20
123.5929471187
 30
0.0
 10
48.3858906014
 20
121.4853788408
 30
0.0
 10
51.6776455556
 20
117.5077741704
 30
0.0
 10
57.0785662168
 20
112.2487904278
 30
0.0
 10
62.7190517242
 20
107.9328682129
 30
0.0
 10
68.4432101967
 20
104.6831099777
 30
0.0
 10
74.1002460119
 20
102.5955202406
 30
0.0
 10
79.5414242849
 20
101.7416026528
 30
0.0
 10
83.8435477378
 20
102.1193929342
 30
0.0
 10
86.9418950155
 20
103.0865343423
 30
0.0
 10
88.3689183766
 20
103.7740178446
 30
0.0
 10
89.0469317522
 20
104.1654673508
 30
0.0
  0
SPLINE
  5
3A3
100
AcDbEntity
  8
_1
100
AcDbSpline
 62
7
  6
CONTINUOUS
 70
0
 71
3
 72
14
 73
10
 74
0
 42
0.0000001
 43
0.0000001
 44
0.0000000001
 40
0.0
 40
0.0
 40
0.0
 40
0.0
 40
0.2892794439
 40
0.4225385419
 40
0.548493187
 40
0.667893079
 40
0.7818663216
 40
0.8919503585
 40
1.0
 40
1.0
 40
1.0
 40
1.0
 10
96.0563215433
 20
127.543244548
 30
0.0
 10
96.0563215433
 20
125.3383512181
 30
0.0
 10
95.798889506
 20
122.1019288796
 30
0.0
 10
94.8039713265
 20
118.0340571047
 30
0.0
 10
93.7915779075
 20
115.3234717328
 30
0.0
 10
92.5015628284
 20
112.8976946773
 30
0.0
 10
90.9432422549
 20
110.7813514656
 30
0.0
 10
89.131351709
 20
108.9982852532
 30
0.0
 10
87.7601627285
 20
108.0413501349
 30
0.0
 10
87.0469413158
 20
107.6295730833
 30
0.0
  0
SPLINE
  5
3A4
100
AcDbEntity
  8
_1
100
AcDbSpline
 62
7
  6
CONTINUOUS
 70
0
 71
3
 72
11
 73
7
 74
0
 42
0.0000001
 43
0.0000001
 44
0.0000000001
 40
0.0
 40
0.0
 40
0.0
 40
0.0
 40
0.2897775924
 40
0.5490673716
 40
0.782225449
 40
1.0
 40
1.0
 40
1.0
 40
1.0
 10
96.7323027564
 20
89.185539867
 30
0.0
 10
97.1053725925
 20
88.9701527694
 30
0.0
 10
97.8472529598
 20
88.6170409386
 30
0.0
 10
98.987727739
 20
88.3418966156
 30
0.0
 10
100.0576630891
 20
88.3688643753
 30
0.0
 10
100.7018810942
 20
88.6027706619
 30
0.0
 10
100.9822537083
 20
88.7646355416
 30
0.0
  0
SPLINE
  5
3A5
100
AcDbEntity
  8
_1
100
AcDbSpline
 62
7
  6
CONTINUOUS
 70
0
 71
3
 72
11
 73
7
 74
0
 42
0.0000001
 43
0.0000001
 44
0.0000000001
 40
0.0
 40
0.0
 40
0.0
 40
0.0
 40
0.2380373032
 40
0.5008218959
 40
0.7631598719
 40
1.0
 40
1.0
 40
1.0
 40
1.0
 10
32.8016033676
 20
132.9445365735
 30
0.0
 10
32.8126571467
 20
131.9631247442
 30
0.0
 10
33.1952402761
 20
129.9007374062
 30
0.0
 10
34.487570871
 20
127.0065274526
 30
0.0
 10
36.3637467808
 20
124.4579733228
 30
0.0
 10
37.965809698
 20
123.1136228978
 30
0.0
 10
38.811521103
 20
122.6253622364
 30
0.0
  0
SPLINE
  5
3A6
100
AcDbEntity
  8
_1
100
AcDbSpline
 62
7
  6
CONTINUOUS
 70
0
 71
3
 72
11
 73
7
 74
0
 42
0.0000001
 43
0.0000001
 44
0.0000000001
 40
0.0
 40
0.0
 40
0.0
 40
0.0
 40
0.2896413964
 40
0.5491107671
 40
0.7822355978
 40
1.0
 40
1.0
 40
1.0
 40
1.0
 10
99.7040253902
 20
95.0970969044
 30
0.0
 10
99.7040253902
 20
94.8691394329
 30
0.0
 10
99.6693757703
 20
94.4355103648
 30
0.0
 10
99.4938695843
 20
93.8397179621
 30
0.0
 10
99.1982300676
 20
93.3561477008
 30
0.0
 10
98.9203732227
 20
93.1228829681
 30
0.0
 10
98.7719811889
 20
93.0371297938
 30
0.0
  0
SPLINE
  5
3A7
100
AcDbEntity
  8
_1
100
AcDbSpline
 62
7
  6
CONTINUOUS
 70
0
 71
3
 72
11
 73
7
 74
0
 42
0.0000001
 43
0.0000001
 44
0.0000000001
 40
0.0
 40
0.0
 40
0.0
 40
0.0
 40
0.2896413964
 40
0.5491107671
 40
0.7822355978
 40
1.0
 40
1.0
 40
1.0
 40
1.0
 10
42.2037859954
 20
194.6898801213
 30
0.0
 10
42.2037859954
 20
194.4619226497
 30
0.0
 10
42.1691363754
 20
194.0282935817
 30
0.0
 10
41.9936301894
 20
193.432501179
 30
0.0
 10
41.6979906727
 20
192.9489309177
 30
0.0
 10
41.4201338279
 20
192.7156661849
 30
0.0
 10
41.2717417941
 20
192.6299130107
 30
0.0
  0
SPLINE
  5
3A8
100
AcDbEntity
  8
_1
100
AcDbSpline
 62
7
  6
CONTINUOUS
 70
0
 71
3
 72
11
 73
7
 74
0
 42
0.0000001
 43
0.0000001
 44
0.0000000001
 40
0.0
 40
0.0
 40
0.0
 40
0.0
 40
0.2896413964
 40
0.5491107671
 40
0.7822355978
 40
1.0
 40
1.0
 40
1.0
 40
1.0
 10
99.7040253902
 20
161.4928524453
 30
0.0
 10
99.7040253902
 20
161.2648949737
 30
0.0
 10
99.6693757703
 20
160.8312659057
 30
0.0
 10
99.4938695843
 20
160.235473503
 30
0.0
 10
99.1982300676
 20
159.7519032417
 30
0.0
 10
98.9203732227
 20
159.518638509
 30
0.0
 10
98.7719811889
 20
159.4328853347
 30
0.0
  0
SPLINE
  5
3A9
100
AcDbEntity
  8
_1
100
AcDbSpline
 62
7
  6
CONTINUOUS
 70
0
 71
3
 72
16
 73
12
 74
0
 42
0.0000001
 43
0.0000001
 44
0.0000000001
 40
0.0
 40
0.0
 40
0.0
 40
0.0
 40
0.0428765743
 40
0.0875234667
 40
0.186928609
 40
0.3042403422
 40
0.4379658104
 40
0.582370771
 40
0.729593422
 40
0.8712541043
 40
1.0
 40
1.0
 40
1.0
 40
1.0
 10
94.2720820652
 20
100.8312308057
 30
0.0
 10
94.3829925299
 20
100.8953240334
 30
0.0
 10
94.627560976
 20
100.9969214508
 30
0.0
 10
95.1849266747
 20
101.0786655734
 30
0.0
 10
95.9718149499
 20
100.9250116442
 30
0.0
 10
96.8987621203
 20
100.41658654
 30
0.0
 10
97.7897796688
 20
99.6284857144
 30
0.0
 10
98.5757581891
 20
98.6220101136
 30
0.0
 10
99.1948013424
 20
97.4780470445
 30
0.0
 10
99.5964035083
 20
96.2905249451
 30
0.0
 10
99.7040253902
 20
95.4817376943
 30
0.0
 10
99.7040253902
 20
95.0970969044
 30
0.0
  0
SPLINE
  5
3AA
100
AcDbEntity
  8
_1
100
AcDbSpline
 62
7
  6
CONTINUOUS
 70
0
 71
3
 72
16
 73
12
 74
0
 42
0.0000001
 43
0.0000001
 44
0.0000000001
 40
0.0
 40
0.0
 40
0.0
 40
0.0
 40
0.0428765743
 40
0.0875234667
 40
0.186928609
 40
0.3042403422
 40
0.4379658104
 40
0.582370771
 40
0.729593422
 40
0.8712541043
 40
1.0
 40
1.0
 40
1.0
 40
1.0
 10
36.7718426704
 20
200.4240140225
 30
0.0
 10
36.8827531351
 20
200.4881072502
 30
0.0
 10
37.1273215811
 20
200.5897046676
 30
0.0
 10
37.6846872798
 20
200.6714487902
 30
0.0
 10
38.4715755551
 20
200.5177948611
 30
0.0
 10
39.3985227254
 20
200.0093697568
 30
0.0
 10
40.2895402739
 20
199.2212689313
 30
0.0
 10
41.0755187942
 20
198.2147933304
 30
0.0
 10
41.6945619475
 20
197.0708302613
 30
0.0
 10
42.0961641135
 20
195.883308162
 30
0.0
 10
42.2037859954
 20
195.0745209111
 30
0.0
 10
42.2037859954
 20
194.6898801213
 30
0.0
  0
SPLINE
  5
3AB
100
AcDbEntity
  8
_1
100
AcDbSpline
 62
7
  6
CONTINUOUS
 70
0
 71
3
 72
11
 73
7
 74
0
 42
0.0000001
 43
0.0000001
 44
0.0000000001
 40
0.0
 40
0.0
 40
0.0
 40
0.0
 40
0.2890187658
 40
0.5480380911
 40
0.7814999707
 40
1.0
 40
1.0
 40
1.0
 40
1.0
 10
111.2274665383
 20
97.4641457983
 30
0.0
 10
111.2226626788
 20
97.0431811321
 30
0.0
 10
111.1499996104
 20
96.2429579618
 30
0.0
 10
110.8138928967
 20
95.1448904224
 30
0.0
 10
110.259367383
 20
94.2538750258
 30
0.0
 10
109.7431355355
 20
93.8226955963
 30
0.0
 10
109.4674997549
 20
93.663565388
 30
0.0
  0
SPLINE
  5
3AC
100
AcDbEntity
  8
_1
100
AcDbSpline
 62
7
  6
CONTINUOUS
 70
0
 71
3
 72
11
 73
7
 74
0
 42
0.0000001
 43
0.0000001
 44
0.0000000001
 40
0.0
 40
0.0
 40
0.0
 40
0.0
 40
0.2380373032
 40
0.5008218959
 40
0.7631598719
 40
1.0
 40
1.0
 40
1.0
 40
1.0
 10
200.1070992896
 20
229.9831561349
 30
0.0
 10
200.1181530688
 20
229.0017443056
 30
0.0
 10
200.5007361982
 20
226.9393569675
 30
0.0
 10
201.793066793
 20
224.0451470139
 30
0.0
 10
203.6692427029
 20
221.4965928842
 30
0.0
 10
205.2713056201
 20
220.1522424591
 30
0.0
 10
206.117017025
 20
219.6639817977
 30
0.0
  0
SPLINE
  5
3AD
100
AcDbEntity
  8
_1
100
AcDbSpline
 62
7
  6
CONTINUOUS
 70
0
 71
3
 72
11
 73
7
 74
0
 42
0.0000001
 43
0.0000001
 44
0.0000000001
 40
0.0
 40
0.0
 40
0.0
 40
0.0
 40
0.2368641689
 40
0.4991784024
 40
0.7619387912
 40
1.0
 40
1.0
 40
1.0
 40
1.0
 10
198.6236929543
 20
238.5647247417
 30
0.0
 10
198.8227033552
 20
238.4498286325
 30
0.0
 10
199.199680014
 20
238.1335244316
 30
0.0
 10
199.6410032364
 20
237.5338095281
 30
0.0
 10
199.945192882
 20
236.8529049025
 30
0.0
 10
200.035190104
 20
236.3676265106
 30
0.0
 10
200.037791245
 20
236.1366837212
 30
0.0
  0
SPLINE
  5
3AE
100
AcDbEntity
  8
_1
100
AcDbSpline
 62
7
  6
CONTINUOUS
 70
0
 71
3
 72
16
 73
12
 74
0
 42
0.0000001
 43
0.0000001
 44
0.0000000001
 40
0.0
 40
0.0
 40
0.0
 40
0.0
 40
0.0428765743
 40
0.0875234667
 40
0.186928609
 40
0.3042403422
 40
0.4379658104
 40
0.582370771
 40
0.729593422
 40
0.8712541043
 40
1.0
 40
1.0
 40
1.0
 40
1.0
 10
94.2720820652
 20
167.2269863465
 30
0.0
 10
94.3829925299
 20
167.2910795742
 30
0.0
 10
94.627560976
 20
167.3926769916
 30
0.0
 10
95.1849266747
 20
167.4744211143
 30
0.0
 10
95.9718149499
 20
167.3207671851
 30
0.0
 10
96.8987621203
 20
166.8123420808
 30
0.0
 10
97.7897796688
 20
166.0242412553
 30
0.0
 10
98.5757581891
 20
165.0177656545
 30
0.0
 10
99.1948013424
 20
163.8738025853
 30
0.0
 10
99.5964035083
 20
162.686280486
 30
0.0
 10
99.7040253902
 20
161.8774932352
 30
0.0
 10
99.7040253902
 20
161.4928524453
 30
0.0
  0
SPLINE
  5
3AF
100
AcDbEntity
  8
_1
100
AcDbSpline
 62
7
  6
CONTINUOUS
 70
0
 71
3
 72
11
 73
7
 74
0
 42
0.0000001
 43
0.0000001
 44
0.0000000001
 40
0.0
 40
0.0
 40
0.0
 40
0.0
 40
0.2185000293
 40
0.4519619089
 40
0.7109812342
 40
1.0
 40
1.0
 40
1.0
 40
1.0
 10
34.561570151
 20
204.6965082748
 30
0.0
 10
34.2859343704
 20
204.5373780665
 30
0.0
 10
33.7697025229
 20
204.106198637
 30
0.0
 10
33.2151770092
 20
203.2151832405
 30
0.0
 10
32.8790702955
 20
202.117115701
 30
0.0
 10
32.8064072271
 20
201.3168925307
 30
0.0
 10
32.8016033676
 20
200.8959278645
 30
0.0
  0
SPLINE
  5
3B0
100
AcDbEntity
  8
_1
100
AcDbSpline
 62
7
  6
CONTINUOUS
 70
0
 71
3
 72
11
 73
7
 74
0
 42
0.0000001
 43
0.0000001
 44
0.0000000001
 40
0.0
 40
0.0
 40
0.0
 40
0.0
 40
0.217774551
 40
0.4509326284
 40
0.7102224076
 40
1.0
 40
1.0
 40
1.0
 40
1.0
 10
43.0468161976
 20
209.5954381212
 30
0.0
 10
43.3271888116
 20
209.757303001
 30
0.0
 10
43.9714068168
 20
209.9912092875
 30
0.0
 10
45.0413421668
 20
210.0181770473
 30
0.0
 10
46.1818169461
 20
209.7430327242
 30
0.0
 10
46.9236973134
 20
209.3899208934
 30
0.0
 10
47.2967671495
 20
209.1745337958
 30
0.0
  0
SPLINE
  5
3B1
100
AcDbEntity
  8
_1
100
AcDbSpline
 62
7
  6
CONTINUOUS
 70
0
 71
3
 72
13
 73
9
 74
0
 42
0.0000001
 43
0.0000001
 44
0.0000000001
 40
0.0
 40
0.0
 40
0.0
 40
0.0
 40
0.110186112
 40
0.2220966168
 40
0.3373290712
 40
0.4572504546
 40
0.7147071375
 40
1.0
 40
1.0
 40
1.0
 40
1.0
 10
41.5471652466
 20
186.4379673884
 30
0.0
 10
40.8387176707
 20
186.0289467647
 30
0.0
 10
39.4728316252
 20
185.09144345
 30
0.0
 10
37.6419314624
 20
183.3696467236
 30
0.0
 10
36.0366481868
 20
181.3428717576
 30
0.0
 10
34.1707265897
 20
178.1861120678
 30
0.0
 10
32.498348198
 20
173.5103506485
 30
0.0
 10
31.9277094247
 20
169.4972500317
 30
0.0
 10
31.7933049665
 20
167.3834469933
 30
0.0
  0
SPLINE
  5
3B2
100
AcDbEntity
  8
_1
100
AcDbSpline
 62
7
  6
CONTINUOUS
 70
0
 71
3
 72
9
 73
5
 74
0
 42
0.0000001
 43
0.0000001
 44
0.0000000001
 40
0.0
 40
0.0
 40
0.0
 40
0.0
 40
0.2466844308
 40
1.0
 40
1.0
 40
1.0
 40
1.0
 10
31.7933049665
 20
167.3834469933
 30
0.0
 10
31.7792591823
 20
167.1625464236
 30
0.0
 10
31.7297158715
 20
166.2666089288
 30
0.0
 10
31.7093365549
 20
165.3690932668
 30
0.0
 10
31.7093365549
 20
164.6931532093
 30
0.0
  0
SPLINE
  5
3B3
100
AcDbEntity
  8
_1
100
AcDbSpline
 62
7
  6
CONTINUOUS
 70
0
 71
3
 72
8
 73
4
 74
0
 42
0.0000001
 43
0.0000001
 44
0.0000000001
 40
0.0
 40
0.0
 40
0.0
 40
0.0
 40
1.0
 40
1.0
 40
1.0
 40
1.0
 10
199.8144404891
 20
158.5957371447
 30
0.0
 10
199.7652967772
 20
158.5400419842
 30
0.0
 10
199.70669745
 20
158.4912886102
 30
0.0
 10
199.6423648594
 20
158.4541621626
 30
0.0
  0
SPLINE
  5
3B4
100
AcDbEntity
  8
_1
100
AcDbSpline
 62
7
  6
CONTINUOUS
 70
0
 71
3
 72
22
 73
18
 74
0
 42
0.0000001
 43
0.0000001
 44
0.0000000001
 40
0.0
 40
0.0
 40
0.0
 40
0.0
 40
0.042820923
 40
0.0874095656
 40
0.1351994529
 40
0.1871160661
 40
0.2435704323
 40
0.3045360544
 40
0.3696425342
 40
0.4382594485
 40
0.5095663393
 40
0.5826116414
 40
0.7296291388
 40
0.8016259859
 40
0.8712381408
 40
0.9375986779
 40
1.0
 40
1.0
 40
1.0
 40
1.0
 10
43.5471556831
 20
182.973861656
 30
0.0
 10
44.6196227612
 20
183.5930485221
 30
0.0
 10
46.9837027631
 20
184.5756244941
 30
0.0
 10
50.8861318536
 20
185.1475185859
 30
0.0
 10
55.0766906634
 20
184.8390068341
 30
0.0
 10
59.4623534664
 20
183.6737359503
 30
0.0
 10
63.9570031406
 20
181.6872678427
 30
0.0
 10
68.4711642813
 20
178.9255039042
 30
0.0
 10
72.9131897492
 20
175.4478936595
 30
0.0
 10
77.1906910679
 20
171.3282743265
 30
0.0
 10
81.2143018237
 20
166.653372954
 30
0.0
 10
86.1329221605
 20
159.8021255715
 30
0.0
 10
90.1766244265
 20
152.3304218101
 30
0.0
 10
93.1700719483
 20
144.5296913401
 30
0.0
 10
94.8058222324
 20
138.7318321841
 30
0.0
 10
95.8118019072
 20
133.0741753799
 30
0.0
 10
96.0563215433
 20
129.3478850649
 30
0.0
 10
96.0563215433
 20
127.543244548
 30
0.0
  0
SPLINE
  5
3B5
100
AcDbEntity
  8
_1
100
AcDbSpline
 62
7
  6
CONTINUOUS
 70
0
 71
3
 72
9
 73
5
 74
0
 42
0.0000001
 43
0.0000001
 44
0.0000000001
 40
0.0
 40
0.0
 40
0.0
 40
0.0
 40
0.2583134158
 40
1.0
 40
1.0
 40
1.0
 40
1.0
 10
212.5905700121
 20
177.5101200639
 30
0.0
 10
212.5425751077
 20
176.4741406568
 30
0.0
 10
212.2850952342
 20
172.4675508066
 30
0.0
 10
211.7322260902
 20
168.4774654103
 30
0.0
 10
211.128628336
 20
165.5615191013
 30
0.0
  0
SPLINE
  5
3B6
100
AcDbEntity
  8
_1
100
AcDbSpline
 62
7
  6
CONTINUOUS
 70
0
 71
3
 72
9
 73
5
 74
0
 42
0.0000001
 43
0.0000001
 44
0.0000000001
 40
0.0
 40
0.0
 40
0.0
 40
0.0
 40
0.2563122883
 40
1.0
 40
1.0
 40
1.0
 40
1.0
 10
211.128628336
 20
215.4785597082
 30
0.0
 10
211.3217800883
 20
214.3224272272
 30
0.0
 10
212.011578284
 20
209.8015330963
 30
0.0
 10
212.4411533188
 20
205.2396083039
 30
0.0
 10
212.5905700121
 20
201.8418920943
 30
0.0
  0
SPLINE
  5
3B7
100
AcDbEntity
  8
_1
100
AcDbSpline
 62
7
  6
CONTINUOUS
 70
0
 71
3
 72
11
 73
7
 74
0
 42
0.0000001
 43
0.0000001
 44
0.0000000001
 40
0.0
 40
0.0
 40
0.0
 40
0.0
 40
0.2319590056
 40
0.4883757449
 40
0.7509793728
 40
1.0
 40
1.0
 40
1.0
 40
1.0
 10
209.7455807855
 20
217.5690769269
 30
0.0
 10
209.9179440064
 20
217.4695652262
 30
0.0
 10
210.2489141512
 20
217.2039155311
 30
0.0
 10
210.6558290963
 20
216.6993817558
 30
0.0
 10
210.9664393572
 20
216.1138718141
 30
0.0
 10
211.0934197325
 20
215.6893049363
 30
0.0
 10
211.128628336
 20
215.4785597082
 30
0.0
  0
SPLINE
  5
3B8
100
AcDbEntity
  8
_1
100
AcDbSpline
 62
7
  6
CONTINUOUS
 70
0
 71
3
 72
12
 73
8
 74
0
 42
0.0000001
 43
0.0000001
 44
0.0000000001
 40
0.0
 40
0.0
 40
0.0
 40
0.0
 40
0.1081617236
 40
0.2183616438
 40
0.4513665204
 40
0.710408856
 40
1.0
 40
1.0
 40
1.0
 40
1.0
 10
53.4791336567
 20
173.1195292137
 30
0.0
 10
52.9872709268
 20
172.8355551711
 30
0.0
 10
52.0415346875
 20
172.1756264384
 30
0.0
 10
50.3451183329
 20
170.5069320344
 30
0.0
 10
48.6652251122
 20
167.7678450672
 30
0.0
 10
47.4960697131
 20
163.797848582
 30
0.0
 10
47.2657240125
 20
160.906669559
 30
0.0
 10
47.2657240125
 20
159.3860386977
 30
0.0
  0
SPLINE
  5
3B9
100
AcDbEntity
  8
_1
100
AcDbSpline
 62
7
  6
CONTINUOUS
 70
0
 71
3
 72
11
 73
7
 74
0
 42
0.0000001
 43
0.0000001
 44
0.0000000001
 40
0.0
 40
0.0
 40
0.0
 40
0.0
 40
0.2368401281
 40
0.4991781041
 40
0.7619626968
 40
1.0
 40
1.0
 40
1.0
 40
1.0
 10
105.2175488029
 20
175.7347114264
 30
0.0
 10
106.0632602079
 20
175.246450765
 30
0.0
 10
107.665323125
 20
173.90210034
 30
0.0
 10
109.5414990349
 20
171.3535462102
 30
0.0
 10
110.8338296297
 20
168.4593362567
 30
0.0
 10
111.2164127592
 20
166.3969489186
 30
0.0
 10
111.2274665383
 20
165.4155370893
 30
0.0
  0
SPLINE
  5
3BA
100
AcDbEntity
  8
_1
100
AcDbSpline
 62
7
  6
CONTINUOUS
 70
0
 71
3
 72
11
 73
7
 74
0
 42
0.0000001
 43
0.0000001
 44
0.0000000001
 40
0.0
 40
0.0
 40
0.0
 40
0.0
 40
0.217773123
 40
0.4509318975
 40
0.7102284635
 40
1.0
 40
1.0
 40
1.0
 40
1.0
 10
34.7378146258
 20
138.6279988819
 30
0.0
 10
34.424449727
 20
138.4470890837
 30
0.0
 10
33.8380432571
 20
137.954222393
 30
0.0
 10
33.2140009148
 20
136.9336668444
 30
0.0
 10
32.8430136715
 20
135.6759822916
 30
0.0
 10
32.7702160522
 20
134.7605574017
 30
0.0
 10
32.7702160522
 20
134.2790929213
 30
0.0
  0
SPLINE
  5
3BB
100
AcDbEntity
  8
_1
100
AcDbSpline
 62
7
  6
CONTINUOUS
 70
0
 71
3
 72
11
 73
7
 74
0
 42
0.0000001
 43
0.0000001
 44
0.0000000001
 40
0.0
 40
0.0
 40
0.0
 40
0.0
 40
0.2177434119
 40
0.4508805377
 40
0.710457812
 40
1.0
 40
1.0
 40
1.0
 40
1.0
 10
65.1149133731
 20
153.2626476815
 30
0.0
 10
65.1149133376
 20
153.3768906015
 30
0.0
 10
65.0729607458
 20
153.6150764022
 30
0.0
 10
64.8922767197
 20
153.9469979126
 30
0.0
 10
64.6066952825
 20
154.2468074177
 30
0.0
 10
64.367954363
 20
154.4114247263
 30
0.0
 10
64.2363927436
 20
154.4873801444
 30
0.0
  0
SPLINE
  5
3BC
100
AcDbEntity
  8
_1
100
AcDbSpline
 62
7
  6
CONTINUOUS
 70
0
 71
3
 72
11
 73
7
 74
0
 42
0.0000001
 43
0.0000001
 44
0.0000000001
 40
0.0
 40
0.0
 40
0.0
 40
0.0
 40
0.2372531816
 40
0.5000006935
 40
0.7627478297
 40
1.0
 40
1.0
 40
1.0
 40
1.0
 10
85.0959265017
 20
201.7217493182
 30
0.0
 10
84.8951368612
 20
201.8376726487
 30
0.0
 10
84.4282330356
 20
202.0068588488
 30
0.0
 10
83.6817103061
 20
202.0877439295
 30
0.0
 10
82.9351889608
 20
202.0068552818
 30
0.0
 10
82.4682873258
 20
201.8376668038
 30
0.0
 10
82.267499377
 20
201.7217425195
 30
0.0
  0
SPLINE
  5
3BD
100
AcDbEntity
  8
_1
100
AcDbSpline
 62
7
  6
CONTINUOUS
 70
0
 71
3
 72
11
 73
7
 74
0
 42
0.0000001
 43
0.0000001
 44
0.0000000001
 40
0.0
 40
0.0
 40
0.0
 40
0.0
 40
0.2897776971
 40
0.5490719787
 40
0.7822272299
 40
1.0
 40
1.0
 40
1.0
 40
1.0
 10
69.1860783886
 20
194.1692256729
 30
0.0
 10
68.8788486251
 20
193.991847545
 30
0.0
 10
68.3215296629
 20
193.6081437768
 30
0.0
 10
67.6556766841
 20
192.9080752823
 30
0.0
 10
67.2343569329
 20
192.133903328
 30
0.0
 10
67.1358979167
 20
191.5781468248
 30
0.0
 10
67.1358979201
 20
191.3115403912
 30
0.0
  0
SPLINE
  5
3BE
100
AcDbEntity
  8
_1
100
AcDbSpline
 62
7
  6
CONTINUOUS
 70
0
 71
3
 72
23
 73
19
 74
0
 42
0.0000001
 43
0.0000001
 44
0.0000000001
 40
0.0
 40
0.0
 40
0.0
 40
0.0
 40
0.0623922525
 40
0.1287432868
 40
0.1983462051
 40
0.2703338288
 40
0.3437230872
 40
0.4174674945
 40
0.4905040552
 40
0.5618022775
 40
0.6304105399
 40
0.6955084469
 40
0.7564656954
 40
0.8129120023
 40
0.8648209523
 40
0.9126036246
 40
0.9571855063
 40
1.0
 40
1.0
 40
1.0
 40
1.0
 10
98.8847604439
 20
125.9102815299
 30
0.0
 10
98.8847604439
 20
127.8808431239
 30
0.0
 10
98.6177706769
 20
131.949709882
 30
0.0
 10
97.5192811685
 20
138.1277095709
 30
0.0
 10
95.7332029337
 20
144.4581633188
 30
0.0
 10
93.2979600573
 20
150.8056874626
 30
0.0
 10
90.2651874453
 20
157.0357662129
 30
0.0
 10
86.6996854624
 20
163.0154812597
 30
0.0
 10
82.6774621173
 20
168.6172389171
 30
0.0
 10
78.2842510763
 20
173.7216488953
 30
0.0
 10
73.613245795
 20
178.2202004104
 30
0.0
 10
68.7627536778
 20
182.0175457069
 30
0.0
 10
63.8334849813
 20
185.0332269681
 30
0.0
 10
58.9255599642
 20
187.2022987539
 30
0.0
 10
54.1366689917
 20
188.474662317
 30
0.0
 10
49.5608432491
 20
188.8114970512
 30
0.0
 10
45.2996482488
 20
188.186997388
 30
0.0
 10
42.7182309558
 20
187.1140795569
 30
0.0
 10
41.5471652466
 20
186.4379673884
 30
0.0
  0
SPLINE
  5
3BF
100
AcDbEntity
  8
_1
100
AcDbSpline
 62
7
  6
CONTINUOUS
 70
0
 71
3
 72
14
 73
10
 74
0
 42
0.0000001
 43
0.0000001
 44
0.0000000001
 40
0.0
 40
0.0
 40
0.0
 40
0.0
 40
0.2892794439
 40
0.4225385419
 40
0.548493187
 40
0.667893079
 40
0.7818663216
 40
0.8919503585
 40
1.0
 40
1.0
 40
1.0
 40
1.0
 10
34.5377754555
 20
163.0601901913
 30
0.0
 10
34.5377754555
 20
165.2650835212
 30
0.0
 10
34.7952074928
 20
168.5015058597
 30
0.0
 10
35.7901256723
 20
172.5693776346
 30
0.0
 10
36.8025190913
 20
175.2799630065
 30
0.0
 10
38.0925341705
 20
177.705740062
 30
0.0
 10
39.650854744
 20
179.8220832736
 30
0.0
 10
41.4627452898
 20
181.6051494861
 30
0.0
 10
42.8339342703
 20
182.5620846043
 30
0.0
 10
43.5471556831
 20
182.973861656
 30
0.0
  0
SPLINE
  5
3C0
100
AcDbEntity
  8
_1
100
AcDbSpline
 62
7
  6
CONTINUOUS
 70
0
 71
3
 72
10
 73
6
 74
0
 42
0.0000001
 43
0.0000001
 44
0.0000000001
 40
0.0
 40
0.0
 40
0.0
 40
0.0
 40
0.2438476783
 40
0.5116187157
 40
1.0
 40
1.0
 40
1.0
 40
1.0
 10
43.0232776272
 20
140.1987994854
 30
0.0
 10
43.332152813
 20
140.0204743479
 30
0.0
 10
44.0280385192
 20
139.7237113074
 30
0.0
 10
45.4381298054
 20
139.3783210416
 30
0.0
 10
46.6473016723
 20
139.4447336967
 30
0.0
 10
47.2659183143
 20
139.8018900495
 30
0.0
  0
SPLINE
  5
3C1
100
AcDbEntity
  8
_1
100
AcDbSpline
 62
7
  6
CONTINUOUS
 70
0
 71
3
 72
14
 73
10
 74
0
 42
0.0000001
 43
0.0000001
 44
0.0000000001
 40
0.0
 40
0.0
 40
0.0
 40
0.0
 40
0.1080485189
 40
0.218131551
 40
0.3321037768
 40
0.4515029789
 40
0.577457096
 40
0.7107167899
 40
1.0
 40
1.0
 40
1.0
 40
1.0
 10
89.0469317522
 20
104.1654673508
 30
0.0
 10
89.8257287627
 20
104.6151040633
 30
0.0
 10
91.3229905029
 20
105.6600213687
 30
0.0
 10
93.301475844
 20
107.6070258351
 30
0.0
 10
95.0030865817
 20
109.9179496607
 30
0.0
 10
96.4117232241
 20
112.5667658618
 30
0.0
 10
97.5172212667
 20
115.5265905484
 30
0.0
 10
98.6036520121
 20
119.9685463121
 30
0.0
 10
98.8847604439
 20
123.5026080836
 30
0.0
 10
98.8847604439
 20
125.9102815299
 30
0.0
  0
SPLINE
  5
3C2
100
AcDbEntity
  8
_1
100
AcDbSpline
 62
7
  6
CONTINUOUS
 70
0
 71
3
 72
11
 73
7
 74
0
 42
0.0000001
 43
0.0000001
 44
0.0000000001
 40
0.0
 40
0.0
 40
0.0
 40
0.0
 40
0.2897775924
 40
0.5490673716
 40
0.782225449
 40
1.0
 40
1.0
 40
1.0
 40
1.0
 10
38.811521103
 20
204.2756039494
 30
0.0
 10
38.4384512668
 20
204.490991047
 30
0.0
 10
37.6965708995
 20
204.8441028777
 30
0.0
 10
36.5560961203
 20
205.1192472008
 30
0.0
 10
35.4861607702
 20
205.092279441
 30
0.0
 10
34.8419427651
 20
204.8583731545
 30
0.0
 10
34.561570151
 20
204.6965082748
 30
0.0
  0
SPLINE
  5
3C3
100
AcDbEntity
  8
_1
100
AcDbSpline
 62
7
  6
CONTINUOUS
 70
0
 71
3
 72
11
 73
7
 74
0
 42
0.0000001
 43
0.0000001
 44
0.0000000001
 40
0.0
 40
0.0
 40
0.0
 40
0.0
 40
0.2380373032
 40
0.5008218959
 40
0.7631598719
 40
1.0
 40
1.0
 40
1.0
 40
1.0
 10
102.7422204918
 20
160.5166072428
 30
0.0
 10
102.7311667126
 20
161.4980190721
 30
0.0
 10
102.3485835832
 20
163.5604064102
 30
0.0
 10
101.0562529884
 20
166.4546163638
 30
0.0
 10
99.1800770785
 20
169.0031704935
 30
0.0
 10
97.5780141613
 20
170.3475209186
 30
0.0
 10
96.7323027564
 20
170.83578158
 30
0.0
  0
SPLINE
  5
3C4
100
AcDbEntity
  8
_1
100
AcDbSpline
 62
7
  6
CONTINUOUS
 70
0
 71
3
 72
16
 73
12
 74
0
 42
0.0000001
 43
0.0000001
 44
0.0000000001
 40
0.0
 40
0.0
 40
0.0
 40
0.0
 40
0.0428765743
 40
0.0875234667
 40
0.186928609
 40
0.3042403422
 40
0.4379658104
 40
0.582370771
 40
0.729593422
 40
0.8712541043
 40
1.0
 40
1.0
 40
1.0
 40
1.0
 10
98.7719811889
 20
159.4328853347
 30
0.0
 10
98.6610707242
 20
159.368792107
 30
0.0
 10
98.4165022782
 20
159.2671946896
 30
0.0
 10
97.8591365795
 20
159.185450567
 30
0.0
 10
97.0722483042
 20
159.3391044962
 30
0.0
 10
96.1453011339
 20
159.8475296004
 30
0.0
 10
95.2542835854
 20
160.635630426
 30
0.0
 10
94.4683050651
 20
161.6421060268
 30
0.0
 10
93.8492619118
 20
162.7860690959
 30
0.0
 10
93.4476597458
 20
163.9735911953
 30
0.0
 10
93.3400378639
 20
164.7823784461
 30
0.0
 10
93.3400378639
 20
165.167019236
 30
0.0
  0
SPLINE
  5
3C5
100
AcDbEntity
  8
_1
100
AcDbSpline
 62
7
  6
CONTINUOUS
 70
0
 71
3
 72
12
 73
8
 74
0
 42
0.0000001
 43
0.0000001
 44
0.0000000001
 40
0.0
 40
0.0
 40
0.0
 40
0.0
 40
0.1081617236
 40
0.2183616438
 40
0.4513665204
 40
0.710408856
 40
1.0
 40
1.0
 40
1.0
 40
1.0
 10
83.4788978771
 20
121.1581029104
 30
0.0
 10
83.9707606069
 20
121.442076953
 30
0.0
 10
84.9164968462
 20
122.1020056857
 30
0.0
 10
86.6129132009
 20
123.7707000897
 30
0.0
 10
88.2928064215
 20
126.5097870569
 30
0.0
 10
89.4619618206
 20
130.4797835421
 30
0.0
 10
89.6923075213
 20
133.3709625651
 30
0.0
 10
89.6923075213
 20
134.8915934264
 30
0.0
  0
SPLINE
  5
3C6
100
AcDbEntity
  8
_1
100
AcDbSpline
 62
7
  6
CONTINUOUS
 70
0
 71
3
 72
11
 73
7
 74
0
 42
0.0000001
 43
0.0000001
 44
0.0000000001
 40
0.0
 40
0.0
 40
0.0
 40
0.0
 40
0.2896413964
 40
0.5491107671
 40
0.7822355978
 40
1.0
 40
1.0
 40
1.0
 40
1.0
 10
93.3400378639
 20
98.7712636951
 30
0.0
 10
93.3400378639
 20
98.9992211666
 30
0.0
 10
93.3746874839
 20
99.4328502347
 30
0.0
 10
93.5501936699
 20
100.0286426374
 30
0.0
 10
93.8458331866
 20
100.5122128987
 30
0.0
 10
94.1236900315
 20
100.7454776314
 30
0.0
 10
94.2720820652
 20
100.8312308057
 30
0.0
  0
SPLINE
  5
3C7
100
AcDbEntity
  8
_1
100
AcDbSpline
 62
7
  6
CONTINUOUS
 70
0
 71
3
 72
11
 73
7
 74
0
 42
0.0000001
 43
0.0000001
 44
0.0000000001
 40
0.0
 40
0.0
 40
0.0
 40
0.0
 40
0.2185000293
 40
0.4519619089
 40
0.7109812342
 40
1.0
 40
1.0
 40
1.0
 40
1.0
 10
100.9822537083
 20
88.7646355416
 30
0.0
 10
101.2578894889
 20
88.9237657499
 30
0.0
 10
101.7741213364
 20
89.3549451793
 30
0.0
 10
102.3286468501
 20
90.2459605759
 30
0.0
 10
102.6647535638
 20
91.3440281153
 30
0.0
 10
102.7374166322
 20
92.1442512856
 30
0.0
 10
102.7422204918
 20
92.5652159519
 30
0.0
  0
SPLINE
  5
3C8
100
AcDbEntity
  8
_1
100
AcDbSpline
 62
7
  6
CONTINUOUS
 70
0
 71
3
 72
23
 73
19
 74
0
 42
0.0000001
 43
0.0000001
 44
0.0000000001
 40
0.0
 40
0.0
 40
0.0
 40
0.0
 40
0.0428152128
 40
0.0873978917
 40
0.1351813848
 40
0.1870910566
 40
0.2435378821
 40
0.3044953619
 40
0.3695931396
 40
0.4382008638
 40
0.5094981962
 40
0.5825336761
 40
0.6562769973
 40
0.7296653718
 40
0.8016525033
 40
0.8712552825
 40
0.9376069731
 40
1.0
 40
1.0
 40
1.0
 40
1.0
 10
44.0220292007
 20
187.8668210187
 30
0.0
 10
45.1931131559
 20
188.5429468241
 30
0.0
 10
47.7745819282
 20
189.6158716294
 30
0.0
 10
52.0358545274
 20
190.2403543466
 30
0.0
 10
56.6117518144
 20
189.9034737259
 30
0.0
 10
61.400694186
 20
188.6310511304
 30
0.0
 10
66.308643645
 20
186.4619206908
 30
0.0
 10
71.2379073226
 20
183.4461949011
 30
0.0
 10
76.0883659586
 20
179.6488303592
 30
0.0
 10
80.7593149025
 20
175.1502923914
 30
0.0
 10
85.1524567195
 20
170.0459284519
 30
0.0
 10
89.174611212
 20
164.4442412175
 30
0.0
 10
92.7400574082
 20
158.4646060895
 30
0.0
 10
95.7727967543
 20
152.2345983798
 30
0.0
 10
98.208026695
 20
145.8871214824
 30
0.0
 10
99.994121437
 20
139.5566719657
 30
0.0
 10
101.0926227486
 20
133.3786332874
 30
0.0
 10
101.3596238741
 20
129.3097219864
 30
0.0
 10
101.3596238741
 20
127.3391360685
 30
0.0
  0
SPLINE
  5
3C9
100
AcDbEntity
  8
_1
100
AcDbSpline
 62
7
  6
CONTINUOUS
 70
0
 71
3
 72
11
 73
7
 74
0
 42
0.0000001
 43
0.0000001
 44
0.0000000001
 40
0.0
 40
0.0
 40
0.0
 40
0.0
 40
0.2896413964
 40
0.5491107671
 40
0.7822355978
 40
1.0
 40
1.0
 40
1.0
 40
1.0
 10
35.8397984691
 20
198.3640469119
 30
0.0
 10
35.8397984691
 20
198.5920043835
 30
0.0
 10
35.874448089
 20
199.0256334515
 30
0.0
 10
36.049954275
 20
199.6214258542
 30
0.0
 10
36.3455937917
 20
200.1049961155
 30
0.0
 10
36.6234506366
 20
200.3382608482
 30
0.0
 10
36.7718426704
 20
200.4240140225
 30
0.0
  0
SPLINE
  5
3CA
100
AcDbEntity
  8
_1
100
AcDbSpline
 62
7
  6
CONTINUOUS
 70
0
 71
3
 72
16
 73
12
 74
0
 42
0.0000001
 43
0.0000001
 44
0.0000000001
 40
0.0
 40
0.0
 40
0.0
 40
0.0
 40
0.0469027945
 40
0.0944609001
 40
0.1937010771
 40
0.3017875877
 40
0.4208357908
 40
0.5513636847
 40
0.6926264975
 40
0.8429489437
 40
1.0
 40
1.0
 40
1.0
 40
1.0
 10
87.0469413158
 20
107.6295730833
 30
0.0
 10
86.43484859
 20
107.2761824903
 30
0.0
 10
85.1476376877
 20
106.6543704621
 30
0.0
 10
82.3559160284
 20
105.7733917139
 30
0.0
 10
78.4832727829
 20
105.4102123918
 30
0.0
 10
73.5816939782
 20
106.1387092277
 30
0.0
 10
68.4813561322
 20
107.967942853
 30
0.0
 10
63.3129968033
 20
110.8362508487
 30
0.0
 10
58.2089880484
 20
114.6608609574
 30
0.0
 10
53.3063792182
 20
119.3355733357
 30
0.0
 10
50.3077283352
 20
122.8783704199
 30
0.0
 10
48.8694713292
 20
124.7578122978
 30
0.0
  0
SPLINE
  5
3CB
100
AcDbEntity
  8
_1
100
AcDbSpline
 62
7
  6
CONTINUOUS
 70
0
 71
3
 72
10
 73
6
 74
0
 42
0.0000001
 43
0.0000001
 44
0.0000000001
 40
0.0
 40
0.0
 40
0.0
 40
0.0
 40
0.5230647009
 40
0.76861596
 40
1.0
 40
1.0
 40
1.0
 40
1.0
 10
39.2920931928
 20
141.3461037724
 30
0.0
 10
37.796226211
 20
144.9440466248
 30
0.0
 10
36.0149265961
 20
150.4289025074
 30
0.0
 10
34.7607181388
 20
157.7810042536
 30
0.0
 10
34.5377754555
 20
161.3365203732
 30
0.0
 10
34.5377754555
 20
163.0601901913
 30
0.0
  0
SPLINE
  5
3CC
100
AcDbEntity
  8
_1
100
AcDbSpline
 62
7
  6
CONTINUOUS
 70
0
 71
3
 72
11
 73
7
 74
0
 42
0.0000001
 43
0.0000001
 44
0.0000000001
 40
0.0
 40
0.0
 40
0.0
 40
0.0
 40
0.2189524021
 40
0.4553884312
 40
0.7150165488
 40
1.0
 40
1.0
 40
1.0
 40
1.0
 10
46.3521660798
 20
184.2157362302
 30
0.0
 10
45.2814628801
 20
183.249907661
 30
0.0
 10
43.3392969846
 20
180.9095377533
 30
0.0
 10
41.3031465671
 20
176.621541125
 30
0.0
 10
40.0852224569
 20
171.5936991072
 30
0.0
 10
39.8410542346
 20
167.9988352451
 30
0.0
 10
39.8410542346
 20
166.1220213453
 30
0.0
  0
SPLINE
  5
3CD
100
AcDbEntity
  8
_1
100
AcDbSpline
 62
7
  6
CONTINUOUS
 70
0
 71
3
 72
11
 73
7
 74
0
 42
0.0000001
 43
0.0000001
 44
0.0000000001
 40
0.0
 40
0.0
 40
0.0
 40
0.0
 40
0.2896413964
 40
0.5491107671
 40
0.7822355978
 40
1.0
 40
1.0
 40
1.0
 40
1.0
 10
93.3400378639
 20
165.167019236
 30
0.0
 10
93.3400378639
 20
165.3949767075
 30
0.0
 10
93.3746874839
 20
165.8286057755
 30
0.0
 10
93.5501936699
 20
166.4243981782
 30
0.0
 10
93.8458331866
 20
166.9079684395
 30
0.0
 10
94.1236900315
 20
167.1412331723
 30
0.0
 10
94.2720820652
 20
167.2269863465
 30
0.0
  0
SPLINE
  5
3CE
100
AcDbEntity
  8
_1
100
AcDbSpline
 62
7
  6
CONTINUOUS
 70
0
 71
3
 72
11
 73
7
 74
0
 42
0.0000001
 43
0.0000001
 44
0.0000000001
 40
0.0
 40
0.0
 40
0.0
 40
0.0
 40
0.2177438688
 40
0.4508811915
 40
0.7104582954
 40
1.0
 40
1.0
 40
1.0
 40
1.0
 10
92.7527041729
 20
196.7412032243
 30
0.0
 10
92.7527041559
 20
196.665042099
 30
0.0
 10
92.7247363991
 20
196.5062533965
 30
0.0
 10
92.6042829879
 20
196.2849745307
 30
0.0
 10
92.4138992231
 20
196.0851030092
 30
0.0
 10
92.2547416339
 20
195.9753585555
 30
0.0
 10
92.1670355291
 20
195.9247217145
 30
0.0
  0
SPLINE
  5
3CF
100
AcDbEntity
  8
_1
100
AcDbSpline
 62
7
  6
CONTINUOUS
 70
0
 71
3
 72
20
 73
16
 74
0
 42
0.0000001
 43
0.0000001
 44
0.0000000001
 40
0.0
 40
0.0
 40
0.0
 40
0.0
 40
0.0428333614
 40
0.0874347963
 40
0.1352384509
 40
0.1871702282
 40
0.243641059
 40
0.3046242356
 40
0.3697492882
 40
0.4383858402
 40
0.5826384723
 40
0.7296982195
 40
0.8711977863
 40
0.9375835287
 40
1.0
 40
1.0
 40
1.0
 40
1.0
 10
55.6004453995
 20
174.3442614562
 30
0.0
 10
56.3400768235
 20
174.7712851392
 30
0.0
 10
57.9704580281
 20
175.4489453313
 30
0.0
 10
60.6617729412
 20
175.8433883787
 30
0.0
 10
63.5518086657
 20
175.6306604215
 30
0.0
 10
66.576394159
 20
174.8270127791
 30
0.0
 10
69.6761481885
 20
173.4570163004
 30
0.0
 10
72.7892967464
 20
171.5523640133
 30
0.0
 10
75.8529461975
 20
169.153993716
 30
0.0
 10
79.8508322302
 20
165.3029165863
 30
0.0
 10
84.2935099964
 20
159.6132135288
 30
0.0
 10
88.417942058
 20
151.9919239088
 30
0.0
 10
90.699487688
 20
145.2450139595
 30
0.0
 10
91.645009794
 20
139.9308870564
 30
0.0
 10
91.8136190329
 20
137.3608436111
 30
0.0
 10
91.8136190329
 20
136.1163258881
 30
0.0
  0
SPLINE
  5
3D0
100
AcDbEntity
  8
_1
100
AcDbSpline
 62
7
  6
CONTINUOUS
 70
0
 71
3
 72
14
 73
10
 74
0
 42
0.0000001
 43
0.0000001
 44
0.0000000001
 40
0.0
 40
0.0
 40
0.0
 40
0.0
 40
0.289279351
 40
0.4225384304
 40
0.548492971
 40
0.6678927279
 40
0.7818658948
 40
0.8919501018
 40
1.0
 40
1.0
 40
1.0
 40
1.0
 10
101.3596238741
 20
127.3391360685
 30
0.0
 10
101.3596238741
 20
124.9314947212
 30
0.0
 10
101.0785200567
 20
121.3974713051
 30
0.0
 10
99.9921159146
 20
116.9555440751
 30
0.0
 10
98.8866301068
 20
113.9957113334
 30
0.0
 10
97.4779951162
 20
111.3468762761
 30
0.0
 10
95.7763828409
 20
109.0359256103
 30
0.0
 10
93.7978788137
 20
107.0888977782
 30
0.0
 10
92.3006007239
 20
106.0439668013
 30
0.0
 10
91.5217946586
 20
105.5943227977
 30
0.0
  0
SPLINE
  5
3D1
100
AcDbEntity
  8
_1
100
AcDbSpline
 62
7
  6
CONTINUOUS
 70
0
 71
3
 72
11
 73
7
 74
0
 42
0.0000001
 43
0.0000001
 44
0.0000000001
 40
0.0
 40
0.0
 40
0.0
 40
0.0
 40
0.2177723091
 40
0.4509273687
 40
0.7102218233
 40
1.0
 40
1.0
 40
1.0
 40
1.0
 10
67.1358979201
 20
191.3115403912
 30
0.0
 10
67.1358979235
 20
191.0449310875
 30
0.0
 10
67.2343591881
 20
190.4891681719
 30
0.0
 10
67.6556880539
 20
189.7149887219
 30
0.0
 10
68.3215545561
 20
189.0149150381
 30
0.0
 10
68.8788840952
 20
188.631209805
 30
0.0
 10
69.1861196041
 20
188.4538313141
 30
0.0
  0
SPLINE
  5
3D2
100
AcDbEntity
  8
_1
100
AcDbSpline
 62
7
  6
CONTINUOUS
 70
0
 71
3
 72
17
 73
13
 74
0
 42
0.0000001
 43
0.0000001
 44
0.0000000001
 40
0.0
 40
0.0
 40
0.0
 40
0.0
 40
0.1286917537
 40
0.2702758802
 40
0.4174285457
 40
0.5617737263
 40
0.69544562
 40
0.812712688
 40
0.8646764364
 40
0.9125109396
 40
0.9571409768
 40
1.0
 40
1.0
 40
1.0
 40
1.0
 10
46.20530083
 20
126.5225185854
 30
0.0
 10
46.20530083
 20
127.3345528458
 30
0.0
 10
45.9781349184
 20
129.041919588
 30
0.0
 10
45.1302390605
 20
131.5487976717
 30
0.0
 10
43.8237841291
 20
133.9637563171
 30
0.0
 10
42.1636245925
 20
136.0887414582
 30
0.0
 10
40.285452698
 20
137.7520582197
 30
0.0
 10
38.5855353038
 20
138.6816692792
 30
0.0
 10
37.255722092
 20
139.0353615545
 30
0.0
 10
36.3405155511
 20
139.1027107901
 30
0.0
 10
35.4882790801
 20
138.9778468657
 30
0.0
 10
34.9720235516
 20
138.7632108653
 30
0.0
 10
34.7378146258
 20
138.6279988819
 30
0.0
  0
SPLINE
  5
3D3
100
AcDbEntity
  8
_1
100
AcDbSpline
 62
7
  6
CONTINUOUS
 70
0
 71
3
 72
20
 73
16
 74
0
 42
0.0000001
 43
0.0000001
 44
0.0000000001
 40
0.0
 40
0.0
 40
0.0
 40
0.0
 40
0.0624157747
 40
0.128800506
 40
0.2703000415
 40
0.4173614002
 40
0.5616163059
 40
0.630253607
 40
0.6953789833
 40
0.7563620777
 40
0.8128324794
 40
0.8647635675
 40
0.9125664553
 40
0.9571671906
 40
1.0
 40
1.0
 40
1.0
 40
1.0
 10
89.6923075213
 20
134.8915934264
 30
0.0
 10
89.6923075213
 20
136.1360972842
 30
0.0
 10
89.5237079008
 20
138.7061070991
 30
0.0
 10
88.5781949061
 20
144.0202005808
 30
0.0
 10
86.2966628394
 20
150.7671266813
 30
0.0
 10
82.172201309
 20
158.3884898389
 30
0.0
 10
77.7294565631
 20
164.0782604086
 30
0.0
 10
73.731508476
 20
167.9293697893
 30
0.0
 10
70.6678326587
 20
170.3277388861
 30
0.0
 10
67.5546761166
 20
172.232371442
 30
0.0
 10
64.454933763
 20
173.6023359055
 30
0.0
 10
61.4303773222
 20
174.4059464681
 30
0.0
 10
58.5403840248
 20
174.6186502451
 30
0.0
 10
55.8491106247
 20
174.2242031986
 30
0.0
 10
54.2187563629
 20
173.5465460157
 30
0.0
 10
53.4791336567
 20
173.1195292137
 30
0.0
  0
SPLINE
  5
3D4
100
AcDbEntity
  8
_1
100
AcDbSpline
 62
7
  6
CONTINUOUS
 70
0
 71
3
 72
11
 73
7
 74
0
 42
0.0000001
 43
0.0000001
 44
0.0000000001
 40
0.0
 40
0.0
 40
0.0
 40
0.0
 40
0.217773123
 40
0.4509318975
 40
0.7102284635
 40
1.0
 40
1.0
 40
1.0
 40
1.0
 10
44.2377022565
 20
122.1736126247
 30
0.0
 10
44.5510671552
 20
122.3545224229
 30
0.0
 10
45.1374736251
 20
122.8473891137
 30
0.0
 10
45.7615159675
 20
123.8679446622
 30
0.0
 10
46.1325032107
 20
125.125629215
 30
0.0
 10
46.20530083
 20
126.0410541049
 30
0.0
 10
46.20530083
 20
126.5225185854
 30
0.0
  0
SPLINE
  5
3D5
100
AcDbEntity
  8
_1
100
AcDbSpline
 62
7
  6
CONTINUOUS
 70
0
 71
3
 72
11
 73
7
 74
0
 42
0.0000001
 43
0.0000001
 44
0.0000000001
 40
0.0
 40
0.0
 40
0.0
 40
0.0
 40
0.2897781767
 40
0.5490726313
 40
0.7822276909
 40
1.0
 40
1.0
 40
1.0
 40
1.0
 10
69.1861196041
 20
188.3721810724
 30
0.0
 10
68.8788840952
 20
188.5495595633
 30
0.0
 10
68.3215545561
 20
188.9332647964
 30
0.0
 10
67.6556880539
 20
189.6333384801
 30
0.0
 10
67.2343591881
 20
190.4075179302
 30
0.0
 10
67.1358979235
 20
190.9632808458
 30
0.0
 10
67.1358979201
 20
191.2298901495
 30
0.0
  0
SPLINE
  5
3D6
100
AcDbEntity
  8
_1
100
AcDbSpline
 62
7
  6
CONTINUOUS
 70
0
 71
3
 72
11
 73
7
 74
0
 42
0.0000001
 43
0.0000001
 44
0.0000000001
 40
0.0
 40
0.0
 40
0.0
 40
0.0
 40
0.2372279391
 40
0.4999994739
 40
0.762771295
 40
1.0
 40
1.0
 40
1.0
 40
1.0
 10
79.0856145406
 20
188.3722048679
 30
0.0
 10
78.382925875
 20
187.9665097993
 30
0.0
 10
76.7487637305
 20
187.3744390367
 30
0.0
 10
74.1358748544
 20
187.0908233886
 30
0.0
 10
71.5229820359
 20
187.3744271129
 30
0.0
 10
69.888813464
 20
187.9664897612
 30
0.0
 10
69.1861196041
 20
188.3721810724
 30
0.0
  0
SPLINE
  5
3D7
100
AcDbEntity
  8
_1
100
AcDbSpline
 62
7
  6
CONTINUOUS
 70
0
 71
3
 72
16
 73
12
 74
0
 42
0.0000001
 43
0.0000001
 44
0.0000000001
 40
0.0
 40
0.0
 40
0.0
 40
0.0
 40
0.0428765743
 40
0.0875234667
 40
0.186928609
 40
0.3042403422
 40
0.4379658104
 40
0.582370771
 40
0.729593422
 40
0.8712541043
 40
1.0
 40
1.0
 40
1.0
 40
1.0
 10
98.7719811889
 20
93.0371297938
 30
0.0
 10
98.6610707242
 20
92.9730365661
 30
0.0
 10
98.4165022782
 20
92.8714391487
 30
0.0
 10
97.8591365795
 20
92.7896950261
 30
0.0
 10
97.0722483042
 20
92.9433489553
 30
0.0
 10
96.1453011339
 20
93.4517740595
 30
0.0
 10
95.2542835854
 20
94.2398748851
 30
0.0
 10
94.4683050651
 20
95.2463504859
 30
0.0
 10
93.8492619118
 20
96.390313555
 30
0.0
 10
93.4476597458
 20
97.5778356544
 30
0.0
 10
93.3400378639
 20
98.3866229052
 30
0.0
 10
93.3400378639
 20
98.7712636951
 30
0.0
  0
SPLINE
  5
3D8
100
AcDbEntity
  8
_1
100
AcDbSpline
 62
7
  6
CONTINUOUS
 70
0
 71
3
 72
17
 73
13
 74
0
 42
0.0000001
 43
0.0000001
 44
0.0000000001
 40
0.0
 40
0.0
 40
0.0
 40
0.0
 40
0.0428578854
 40
0.0874871916
 40
0.1353216232
 40
0.1872852175
 40
0.3045509968
 40
0.4382199863
 40
0.5825637463
 40
0.7297191059
 40
0.87130673
 40
1.0
 40
1.0
 40
1.0
 40
1.0
 10
63.7290692887
 20
155.3660138077
 30
0.0
 10
63.9632696707
 20
155.5012262371
 30
0.0
 10
64.4795205193
 20
155.7158409823
 30
0.0
 10
65.3317383401
 20
155.8407352392
 30
0.0
 10
66.246940486
 20
155.7733756658
 30
0.0
 10
67.5767453868
 20
155.4196972148
 30
0.0
 10
69.2766448839
 20
154.4901091714
 30
0.0
 10
71.1548066447
 20
152.8268355948
 30
0.0
 10
72.8149710559
 20
150.7018665644
 30
0.0
 10
74.121457129
 20
148.2868908093
 30
0.0
 10
74.9693855387
 20
145.7799713752
 30
0.0
 10
75.1965581558
 20
144.0725727333
 30
0.0
 10
75.1965581558
 20
143.2605288941
 30
0.0
  0
SPLINE
  5
3D9
100
AcDbEntity
  8
_1
100
AcDbSpline
 62
7
  6
CONTINUOUS
 70
0
 71
3
 72
11
 73
7
 74
0
 42
0.0000001
 43
0.0000001
 44
0.0000000001
 40
0.0
 40
0.0
 40
0.0
 40
0.0
 40
0.1897808462
 40
0.4108516599
 40
0.6801193963
 40
1.0
 40
1.0
 40
1.0
 40
1.0
 10
42.1445892954
 20
141.2276660061
 30
0.0
 10
42.1445937278
 20
141.1386588121
 30
0.0
 10
42.1912226766
 20
140.9448721898
 30
0.0
 10
42.376287561
 20
140.679671863
 30
0.0
 10
42.6608814098
 20
140.4248357439
 30
0.0
 10
42.8933523276
 20
140.2738101951
 30
0.0
 10
43.0232776272
 20
140.1987994854
 30
0.0
  0
SPLINE
  5
3DA
100
AcDbEntity
  8
_1
100
AcDbSpline
 62
7
  6
CONTINUOUS
 70
0
 71
3
 72
11
 73
7
 74
0
 42
0.0000001
 43
0.0000001
 44
0.0000000001
 40
0.0
 40
0.0
 40
0.0
 40
0.0
 40
0.2177434119
 40
0.4508805377
 40
0.710457812
 40
1.0
 40
1.0
 40
1.0
 40
1.0
 10
42.1447569977
 20
143.4647879911
 30
0.0
 10
42.1447570331
 20
143.3505450711
 30
0.0
 10
42.186709625
 20
143.1123592704
 30
0.0
 10
42.3673936511
 20
142.78043776
 30
0.0
 10
42.6529750882
 20
142.4806282549
 30
0.0
 10
42.8917160078
 20
142.3160109463
 30
0.0
 10
43.0232776272
 20
142.2400555282
 30
0.0
  0
SPLINE
  5
3DB
100
AcDbEntity
  8
_1
100
AcDbSpline
 62
7
  6
CONTINUOUS
 70
0
 71
3
 72
11
 73
7
 74
0
 42
0.0000001
 43
0.0000001
 44
0.0000000001
 40
0.0
 40
0.0
 40
0.0
 40
0.0
 40
0.2895416688
 40
0.549118971
 40
0.7822562702
 40
1.0
 40
1.0
 40
1.0
 40
1.0
 10
64.2364104074
 20
152.0379254192
 30
0.0
 10
64.3679695463
 20
152.1138806701
 30
0.0
 10
64.6067058834
 20
152.2784975329
 30
0.0
 10
64.8922817424
 20
152.5783047234
 30
0.0
 10
65.0729616977
 20
152.9102231184
 30
0.0
 10
65.1149134086
 20
153.1484060683
 30
0.0
 10
65.1149133731
 20
153.2626476815
 30
0.0
  0
SPLINE
  5
3DC
100
AcDbEntity
  8
_1
100
AcDbSpline
 62
7
  6
CONTINUOUS
 70
0
 71
3
 72
11
 73
7
 74
0
 42
0.0000001
 43
0.0000001
 44
0.0000000001
 40
0.0
 40
0.0
 40
0.0
 40
0.0
 40
0.289775686
 40
0.5490694863
 40
0.7822277738
 40
1.0
 40
1.0
 40
1.0
 40
1.0
 10
75.1965581558
 20
143.2605288941
 30
0.0
 10
75.1965581558
 20
142.7790570972
 30
0.0
 10
75.1237625022
 20
141.8636279425
 30
0.0
 10
74.7527672961
 20
140.6059450302
 30
0.0
 10
74.1287370298
 20
139.5853861029
 30
0.0
 10
73.5423230118
 20
139.0925329255
 30
0.0
 10
73.228962245
 20
138.9116183164
 30
0.0
  0
SPLINE
  5
3DD
100
AcDbEntity
  8
_1
100
AcDbSpline
 62
7
  6
CONTINUOUS
 70
0
 71
3
 72
11
 73
7
 74
0
 42
0.0000001
 43
0.0000001
 44
0.0000000001
 40
0.0
 40
0.0
 40
0.0
 40
0.0
 40
0.2372531816
 40
0.5000006935
 40
0.7627478297
 40
1.0
 40
1.0
 40
1.0
 40
1.0
 10
43.0232776272
 20
142.2400555282
 30
0.0
 10
43.324462088
 20
142.0661705325
 30
0.0
 10
44.0248178264
 20
141.8123912324
 30
0.0
 10
45.1446019206
 20
141.6910636112
 30
0.0
 10
46.2643839386
 20
141.8123965828
 30
0.0
 10
46.9647363911
 20
142.0661792998
 30
0.0
 10
47.2659183143
 20
142.2400657263
 30
0.0
  0
SPLINE
  5
3DE
100
AcDbEntity
  8
_1
100
AcDbSpline
 62
7
  6
CONTINUOUS
 70
0
 71
3
 72
10
 73
6
 74
0
 42
0.0000001
 43
0.0000001
 44
0.0000000001
 40
0.0
 40
0.0
 40
0.0
 40
0.0
 40
0.2318978071
 40
0.4774425371
 40
1.0
 40
1.0
 40
1.0
 40
1.0
 10
39.8410542346
 20
166.1220213453
 30
0.0
 10
39.8410542346
 20
164.4831470812
 30
0.0
 10
40.0424793235
 20
161.1066162673
 30
0.0
 10
41.1800238966
 20
154.1236167059
 30
0.0
 10
42.8001522287
 20
148.9048971327
 30
0.0
 10
44.1627939449
 20
145.4724502688
 30
0.0
  0
SPLINE
  5
3DF
100
AcDbEntity
  8
_1
100
AcDbSpline
 62
7
  6
CONTINUOUS
 70
0
 71
3
 72
15
 73
11
 74
0
 42
0.0000001
 43
0.0000001
 44
0.0000000001
 40
0.0
 40
0.0
 40
0.0
 40
0.0
 40
0.1534915289
 40
0.3012236522
 40
0.4412576258
 40
0.572102022
 40
0.6928865654
 40
0.8035720476
 40
0.9051847331
 40
1.0
 40
1.0
 40
1.0
 40
1.0
 10
54.1723198855
 20
127.8202085177
 30
0.0
 10
55.4816440922
 20
126.1092194298
 30
0.0
 10
58.2037358188
 20
122.8644456626
 30
0.0
 10
62.6300694441
 20
118.51774359
 30
0.0
 10
67.2425671605
 20
114.8578223839
 30
0.0
 10
71.9375656798
 20
111.9690448248
 30
0.0
 10
76.612043718
 20
109.9183623718
 30
0.0
 10
81.167394731
 20
108.7580983742
 30
0.0
 10
85.5029093477
 20
108.5266963661
 30
0.0
 10
88.2486341456
 20
109.0253983161
 30
0.0
 10
89.5150327391
 20
109.4346249535
 30
0.0
  0
SPLINE
  5
3E0
100
AcDbEntity
  8
_1
100
AcDbSpline
 62
7
  6
CONTINUOUS
 70
0
 71
3
 72
11
 73
7
 74
0
 42
0.0000001
 43
0.0000001
 44
0.0000000001
 40
0.0
 40
0.0
 40
0.0
 40
0.0
 40
0.237228705
 40
0.5000005261
 40
0.7627720609
 40
1.0
 40
1.0
 40
1.0
 40
1.0
 10
69.1861196041
 20
188.4538313141
 30
0.0
 10
69.888813464
 20
188.0481400029
 30
0.0
 10
71.5229820359
 20
187.4560773546
 30
0.0
 10
74.1358748544
 20
187.1724736303
 30
0.0
 10
76.7487637305
 20
187.4560892785
 30
0.0
 10
78.382925875
 20
188.048160041
 30
0.0
 10
79.0856145406
 20
188.4538551096
 30
0.0
  0
SPLINE
  5
3E1
100
AcDbEntity
  8
_1
100
AcDbSpline
 62
7
  6
CONTINUOUS
 70
0
 71
3
 72
11
 73
7
 74
0
 42
0.0000001
 43
0.0000001
 44
0.0000000001
 40
0.0
 40
0.0
 40
0.0
 40
0.0
 40
0.2895416688
 40
0.549118971
 40
0.7822562702
 40
1.0
 40
1.0
 40
1.0
 40
1.0
 10
92.1670355291
 20
196.0063719562
 30
0.0
 10
92.2547416217
 20
196.0570087901
 30
0.0
 10
92.4138991797
 20
196.1667533653
 30
0.0
 10
92.6042830857
 20
196.3666248256
 30
0.0
 10
92.7247363893
 20
196.5879037556
 30
0.0
 10
92.7527041965
 20
196.7466923889
 30
0.0
 10
92.7527041729
 20
196.8228534644
 30
0.0
  0
SPLINE
  5
3E2
100
AcDbEntity
  8
_1
100
AcDbSpline
 62
7
  6
CONTINUOUS
 70
0
 71
3
 72
9
 73
5
 74
0
 42
0.0000001
 43
0.0000001
 44
0.0000000001
 40
0.0
 40
0.0
 40
0.0
 40
0.0
 40
0.5202965445
 40
1.0
 40
1.0
 40
1.0
 40
1.0
 10
64.2364104074
 20
149.5997497424
 30
0.0
 10
64.4970978948
 20
149.750256835
 30
0.0
 10
64.9463354108
 20
150.1588609687
 30
0.0
 10
65.1150907236
 20
150.7479963974
 30
0.0
 10
65.1150810316
 20
151.0255269571
 30
0.0
  0
SPLINE
  5
3E3
100
AcDbEntity
  8
_1
100
AcDbSpline
 62
7
  6
CONTINUOUS
 70
0
 71
3
 72
12
 73
8
 74
0
 42
0.0000001
 43
0.0000001
 44
0.0000000001
 40
0.0
 40
0.0
 40
0.0
 40
0.0
 40
0.2895882012
 40
0.5486297032
 40
0.7816357469
 40
0.8918367889
 40
1.0
 40
1.0
 40
1.0
 40
1.0
 10
91.8136190329
 20
136.1163258881
 30
0.0
 10
91.8136190329
 20
134.5957104144
 30
0.0
 10
91.5832778123
 20
131.7045515479
 30
0.0
 10
90.4141372993
 20
127.7345648566
 30
0.0
 10
88.7342496114
 20
124.9954665523
 30
0.0
 10
87.0378285727
 20
123.3267473016
 30
0.0
 10
86.0920781405
 20
122.6668144728
 30
0.0
 10
85.6002091575
 20
122.3828355911
 30
0.0
  0
SPLINE
  5
3E4
100
AcDbEntity
  8
_1
100
AcDbSpline
 62
7
  6
CONTINUOUS
 70
0
 71
3
 72
16
 73
12
 74
0
 42
0.0000001
 43
0.0000001
 44
0.0000000001
 40
0.0
 40
0.0
 40
0.0
 40
0.0
 40
0.0428765743
 40
0.0875234667
 40
0.186928609
 40
0.3042403422
 40
0.4379658104
 40
0.582370771
 40
0.729593422
 40
0.8712541043
 40
1.0
 40
1.0
 40
1.0
 40
1.0
 10
41.2717417941
 20
192.6299130107
 30
0.0
 10
41.1608313294
 20
192.565819783
 30
0.0
 10
40.9162628833
 20
192.4642223656
 30
0.0
 10
40.3588971847
 20
192.382478243
 30
0.0
 10
39.5720089094
 20
192.5361321721
 30
0.0
 10
38.6450617391
 20
193.0445572764
 30
0.0
 10
37.7540441905
 20
193.8326581019
 30
0.0
 10
36.9680656702
 20
194.8391337028
 30
0.0
 10
36.3490225169
 20
195.9830967719
 30
0.0
 10
35.947420351
 20
197.1706188712
 30
0.0
 10
35.8397984691
 20
197.9794061221
 30
0.0
 10
35.8397984691
 20
198.3640469119
 30
0.0
  0
ELLIPSE
  5
3E5
100
AcDbEntity
  8
_1
100
AcDbEllipse
 62
7
  6
CONTINUOUS
 10
220.8645396285
 20
265.0789515951
 30
0.0
 11
2.3730687665
 21
4.4026444242
 31
0.0
 40
0.556862072
 41
-2.372483465
 42
-0.8016871382
  0
ELLIPSE
  5
3E6
100
AcDbEntity
  8
_1
100
AcDbEllipse
 62
7
  6
CONTINUOUS
 10
214.9203005298
 20
281.0621757469
 30
0.0
 11
-6.9732295899
 21
12.1706873307
 31
0.0
 40
0.5773483695
 41
4.2636328641
 42
6.2393851482
  0
ELLIPSE
  5
3E7
100
AcDbEntity
  8
_1
100
AcDbEllipse
 62
7
  6
CONTINUOUS
 10
86.9969119461
 20
220.1293909021
 30
0.0
 11
113.9080210456
 21
65.2639215266
 31
0.0
 40
0.0753349731
 41
-0.3837585309
 42
0.471358875
  0
ELLIPSE
  5
3E8
100
AcDbEntity
  8
_1
100
AcDbEllipse
 62
7
  6
CONTINUOUS
 10
482.8472802279
 20
408.6818173841
 30
0.0
 11
273.5438290272
 21
140.9202579684
 31
0.0
 40
0.0331551908
 41
2.7916930674
 42
3.1245139142
  0
ELLIPSE
  5
3E9
100
AcDbEntity
  8
_1
100
AcDbEllipse
 62
7
  6
CONTINUOUS
 10
138.6942048271
 20
278.388011141
 30
0.0
 11
6.9731426067
 21
12.1707374227
 31
0.0
 40
0.5773435439
 41
6.3269851026
 42
8.2877867852
  0
ELLIPSE
  5
3EA
100
AcDbEntity
  8
_1
100
AcDbEllipse
 62
7
  6
CONTINUOUS
 10
132.7994593239
 20
262.5761402235
 30
0.0
 11
-2.3730994875
 21
4.4026278786
 31
0.0
 40
0.5568670418
 41
0.8016832507
 42
2.3724795775
  0
ELLIPSE
  5
3EB
100
AcDbEntity
  8
_1
100
AcDbEllipse
 62
7
  6
CONTINUOUS
 10
268.0328780573
 20
216.7822291802
 30
0.0
 11
113.9089605082
 21
-65.2633770834
 31
0.0
 40
0.0753343482
 41
2.670234147
 42
3.5253515529
  0
ELLIPSE
  5
3EC
100
AcDbEntity
  8
_1
100
AcDbEllipse
 62
7
  6
CONTINUOUS
 10
-127.820786403
 20
405.3327526398
 30
0.0
 11
273.5462731791
 21
-140.9189398968
 31
0.0
 40
0.0331551487
 41
0.0170784054
 42
0.3648461017
  0
ENDSEC
  0
SECTION
  2
OBJECTS
  0
DICTIONARY
  5
C
100
AcDbDictionary
280
0
281
1
  3
ACAD_GROUP
350
D
  3
ACAD_MLINESTYLE
350
17
  3
ACAD_LAYOUT
350
1A
  3
ACAD_PLOTSETTINGS
350
19
  3
ACAD_PLOTSTYLENAME
350
E
  0
DICTIONARY
  5
D
102
{ACAD_REACTORS
330
C
102
}
100
AcDbDictionary
280
0
281
1
  0
ACDBDICTIONARYWDFLT
  5
E
102
{ACAD_REACTORS
330
C
102
}
100
AcDbDictionary
281
1
  3
Normal
350
F
100
AcDbDictionaryWithDefault
340
F
  0
DICTIONARY
  5
17
102
{ACAD_REACTORS
330
C
102
}
100
AcDbDictionary
280
0
281
1
  3
Standard
350
18
  0
DICTIONARY
  5
19
102
{ACAD_REACTORS
330
C
102
}
100
AcDbDictionary
281
1
  0
DICTIONARY
  5
1A
102
{ACAD_REACTORS
330
C
102
}
100
AcDbDictionary
281
1
  3
Model
350
3ED
  3
Layout1
350
3EE
  0
ACDBPLACEHOLDER
  5
F
102
{ACAD_REACTORS
330
E
102
}
  0
MLINESTYLE
  5
18
102
{ACAD_REACTORS
330
17
102
}
100
AcDbMlineStyle
  2
STANDARD
 70
0
  3

 62
256
 51
90.0
 52
90.0
 71
2
 49
0.5
 62
256
  6
BYLAYER
 49
-0.5
 62
256
  6
BYLAYER
  0
LAYOUT
  5
3ED
102
{ACAD_REACTORS
330
1A
102
}
100
AcDbPlotSettings
  1

  2
none_device
  4

  6

 40
0.0
 41
0.0
 42
0.0
 43
0.0
 44
210.0
 45
297.0
 46
0.0
 47
0.0
 48
0.0
 49
0.0
140
0.0
141
0.0
142
1.0
143
1.0
 70
1024
 72
1
 73
0
 74
0
  7

 75
0
147
1.0
148
0.0
149
0.0
100
AcDbLayout
  1
Model
 70
0
 71
0
 10
0.0
 20
0.0
 11
210.0
 21
297.0
 12
0.0
 22
0.0
 32
0.0
 14
0.0
 24
0.0
 34
0.0
 15
0.0
 25
0.0
 35
0.0
146
0.0
 13
0.0
 23
0.0
 33
0.0
 16
1.0
 26
0.0
 36
0.0
 17
0.0
 27
1.0
 37
0.0
 76
0
330
211
345
0
346
0
  0
LAYOUT
  5
3EE
102
{ACAD_REACTORS
330
1A
102
}
100
AcDbPlotSettings
  1

  2
none_device
  4

  6

 40
0.0
 41
0.0
 42
0.0
 43
0.0
 44
210.0
 45
297.0
 46
0.0
 47
0.0
 48
0.0
 49
0.0
140
0.0
141
0.0
142
1.0
143
1.0
 70
0
 72
1
 73
0
 74
0
  7

 75
0
147
1.0
148
0.0
149
0.0
100
AcDbLayout
  1
Layout1
 70
0
 71
1
 10
0.0
 20
0.0
 11
210.0
 21
297.0
 12
0.0
 22
0.0
 32
0.0
 14
0.0
 24
0.0
 34
0.0
 15
0.0
 25
0.0
 35
0.0
146
0.0
 13
0.0
 23
0.0
 33
0.0
 16
1.0
 26
0.0
 36
0.0
 17
0.0
 27
1.0
 37
0.0
 76
0
330
212
345
0
346
0
  0
ENDSEC
  0
EOF
