999
DXF file: C:\Users\sesa63760\Dev\_Creo\CAD\MCADPD0005338_3D-CAD\drw0001_1.dxf
999
Pro/ENGINEER 2019471 by Parametric Technology Corporation
  0
SECTION
  2
HEADER
  9
$ACADVER
  1
AC1024
  9
$DWGCODEPAGE
  3
ANSI_1252
  9
$EXTMAX
 10
125.2140422767
 20
177.08843122
 30
0.0
  9
$EXTMIN
 10
0.0
 20
0.0
 30
0.0
  9
$LIMMIN
 10
0.0
 20
0.0
  9
$LIMMAX
 10
125.2140422767
 20
177.08843122
  9
$VIEWCTR
 10
62.6070211384
 20
88.54421561
  9
$VIEWSIZE
 40
177.08843122
  9
$CLAYER
  8
0
  9
$LTSCALE
 40
11.5435421832
  9
$CELTYPE
  6
BYLAYER
  9
$DIMSCALE
 40
1.0
  9
$DIMASZ
 40
1.4906433604
  9
$DIMEXO
 40
1.0
  9
$DIMDLI
 40
7.9755382357
  9
$DIMEXE
 40
1.0
  9
$DIMCEN
 40
1.8889432663
  9
$DIMLFAC
 40
1.0
  9
$DIMBLK
  1
_FILLED
  9
$DIMALT
 70
0
  9
$DIMALTF
 40
0.0393700787
  9
$DIMTXT
 40
2.0869007046
  9
$DIMTOL
 70
1
  9
$DIMLIM
 70
0
  9
$DIMTFAC
 40
1.0
  9
$DIMTP
 40
0.01
  9
$DIMTM
 40
0.01
  9
$DIMGAP
 40
0.625
  9
$DIMDSEP
 70
46
  9
$AUNITS
 70
0
  9
$PDMODE
 70
3
  9
$PDSIZE
 40
0.3125
  9
$HANDSEED
  5
40D
  9
$TILEMODE
 70
1
  9
$MEASUREMENT
 70
1
  9
$INSUNITS
 70
4
  0
ENDSEC
  0
SECTION
  2
CLASSES
  0
CLASS
  1
ACDBDICTIONARYWDFLT
  2
AcDbDictionaryWithDefault
  3
AutoCAD 2000
 90
0
 91
1
280
0
281
0
  0
CLASS
  1
ACDBPLACEHOLDER
  2
AcDbPlaceHolder
  3
AutoCAD 2000
 90
0
 91
1
280
0
281
0
  0
CLASS
  1
LAYOUT
  2
AcDbLayout
  3
AutoCAD 2000
 90
0
 91
0
280
0
281
0
  0
ENDSEC
  0
SECTION
  2
TABLES
  0
TABLE
  2
VPORT
  5
8
100
AcDbSymbolTable
 70
2
  0
VPORT
  5
1F4
100
AcDbSymbolTableRecord
100
AcDbViewportTableRecord
  2
*ACTIVE
 70
0
 10
0.0
 20
0.0
 11
1.0
 21
1.0
 12
62.6070211384
 22
88.54421561
 13
0.0
 23
0.0
 14
1.0
 24
1.0
 15
0.0
 25
0.0
 16
0.0
 26
0.0
 36
1.0
 17
0.0
 27
0.0
 37
0.0
 40
177.08843122
 41
0.7070707071
 42
50.0
 43
0.0
 44
0.0
 50
0.0
 51
0.0
 71
0
 72
100
 73
1
 74
1
 75
0
 76
0
 77
0
 78
0
  0
ENDTAB
  0
TABLE
  2
LTYPE
  5
5
100
AcDbSymbolTable
 70
6
  0
LTYPE
  5
14
100
AcDbSymbolTableRecord
100
AcDbLinetypeTableRecord
  2
BYBLOCK
 70
0
  3

 72
65
 73
0
 40
0.0
  0
LTYPE
  5
15
100
AcDbSymbolTableRecord
100
AcDbLinetypeTableRecord
  2
BYLAYER
 70
0
  3

 72
65
 73
0
 40
0.0
  0
LTYPE
  5
16
100
AcDbSymbolTableRecord
100
AcDbLinetypeTableRecord
  2
CONTINUOUS
 70
64
  3
Solid line
 72
65
 73
0
 40
0.0
  0
LTYPE
  5
1F5
100
AcDbSymbolTableRecord
100
AcDbLinetypeTableRecord
  2
CENTER
 70
64
  3
____ _ ____ _ ____ _ ____ _ ____ _ ____ _ ____
 72
65
 73
4
 40
0.6
 49
0.375
 74
0
 49
-0.075
 74
0
 49
0.075
 74
0
 49
-0.075
 74
0
  0
LTYPE
  5
1F6
100
AcDbSymbolTableRecord
100
AcDbLinetypeTableRecord
  2
HIDDEN
 70
64
  3
- - - - - - - - - - - - - - - - - - - -
 72
65
 73
2
 40
0.2
 49
0.1
 74
0
 49
-0.1
 74
0
  0
LTYPE
  5
1F7
100
AcDbSymbolTableRecord
100
AcDbLinetypeTableRecord
  2
PHANTOM
 70
64
  3
_____ _ _ _____ _ _ _____ _ _ _____
 72
65
 73
6
 40
0.8
 49
0.45
 74
0
 49
-0.05
 74
0
 49
0.1
 74
0
 49
-0.05
 74
0
 49
0.1
 74
0
 49
-0.05
 74
0
  0
LTYPE
  5
1F8
100
AcDbSymbolTableRecord
100
AcDbLinetypeTableRecord
  2
DOT
 70
64
  3
. . . . . . . . . . . . . . . . . . . .
 72
65
 73
2
 40
0.2
 49
0.1
 74
0
 49
-0.1
 74
0
  0
LTYPE
  5
1F9
100
AcDbSymbolTableRecord
100
AcDbLinetypeTableRecord
  2
DASHED
 70
64
  3
- - - - - - - - - - - - - - - - - - - -
 72
65
 73
2
 40
0.2
 49
0.1
 74
0
 49
-0.1
 74
0
  0
ENDTAB
  0
TABLE
  2
LAYER
  5
2
100
AcDbSymbolTable
 70
36
  0
LAYER
  5
10
100
AcDbSymbolTableRecord
100
AcDbLayerTableRecord
  2
0
 70
0
 62
7
  6
CONTINUOUS
370
-3
390
F
  0
LAYER
  5
1FA
100
AcDbSymbolTableRecord
100
AcDbLayerTableRecord
  2
DEFAULT_1
 70
0
 62
7
  6
CENTER
370
-3
390
F
  0
LAYER
  5
1FB
100
AcDbSymbolTableRecord
100
AcDbLayerTableRecord
  2
DEFAULT_2
 70
0
 62
7
  6
HIDDEN
370
-3
390
F
  0
LAYER
  5
1FC
100
AcDbSymbolTableRecord
100
AcDbLayerTableRecord
  2
DEFAULT_3
 70
0
 62
7
  6
PHANTOM
370
-3
390
F
  0
LAYER
  5
1FD
100
AcDbSymbolTableRecord
100
AcDbLayerTableRecord
  2
00_COMPONENTS
 70
0
 62
7
  6
CONTINUOUS
370
-3
390
F
  0
LAYER
  5
1FE
100
AcDbSymbolTableRecord
100
AcDbLayerTableRecord
  2
01_1_DEFAULT_DATUMS
 70
0
 62
7
  6
CONTINUOUS
370
-3
390
F
  0
LAYER
  5
1FF
100
AcDbSymbolTableRecord
100
AcDbLayerTableRecord
  2
01_PLANES
 70
0
 62
7
  6
CONTINUOUS
370
-3
390
F
  0
LAYER
  5
200
100
AcDbSymbolTableRecord
100
AcDbLayerTableRecord
  2
02_COORD_SYS
 70
0
 62
7
  6
CONTINUOUS
370
-3
390
F
  0
LAYER
  5
201
100
AcDbSymbolTableRecord
100
AcDbLayerTableRecord
  2
03_AXES
 70
0
 62
7
  6
CONTINUOUS
370
-3
390
F
  0
LAYER
  5
202
100
AcDbSymbolTableRecord
100
AcDbLayerTableRecord
  2
04_POINTS
 70
0
 62
7
  6
CONTINUOUS
370
-3
390
F
  0
LAYER
  5
203
100
AcDbSymbolTableRecord
100
AcDbLayerTableRecord
  2
05_CURVES
 70
0
 62
7
  6
CONTINUOUS
370
-3
390
F
  0
LAYER
  5
204
100
AcDbSymbolTableRecord
100
AcDbLayerTableRecord
  2
06_SURFS
 70
0
 62
7
  6
CONTINUOUS
370
-3
390
F
  0
LAYER
  5
205
100
AcDbSymbolTableRecord
100
AcDbLayerTableRecord
  2
07_COSMETICS
 70
0
 62
7
  6
CONTINUOUS
370
-3
390
F
  0
LAYER
  5
206
100
AcDbSymbolTableRecord
100
AcDbLayerTableRecord
  2
10_NOTES
 70
0
 62
7
  6
CONTINUOUS
370
-3
390
F
  0
LAYER
  5
207
100
AcDbSymbolTableRecord
100
AcDbLayerTableRecord
  2
11_NOTES_PUB
 70
0
 62
7
  6
CONTINUOUS
370
-3
390
F
  0
LAYER
  5
208
100
AcDbSymbolTableRecord
100
AcDbLayerTableRecord
  2
13_REF_GTOL
 70
0
 62
7
  6
CONTINUOUS
370
-3
390
F
  0
LAYER
  5
209
100
AcDbSymbolTableRecord
100
AcDbLayerTableRecord
  2
16_MISC
 70
0
 62
7
  6
CONTINUOUS
370
-3
390
F
  0
LAYER
  5
20A
100
AcDbSymbolTableRecord
100
AcDbLayerTableRecord
  2
17_NO_PRINT
 70
0
 62
7
  6
CONTINUOUS
370
-3
390
F
  0
LAYER
  5
20B
100
AcDbSymbolTableRecord
100
AcDbLayerTableRecord
  2
18_DATUM_CAMS_JOINTS
 70
0
 62
7
  6
CONTINUOUS
370
-3
390
F
  0
LAYER
  5
20C
100
AcDbSymbolTableRecord
100
AcDbLayerTableRecord
  2
19_DATUM_FUNCTIONAL
 70
0
 62
7
  6
CONTINUOUS
370
-3
390
F
  0
LAYER
  5
20D
100
AcDbSymbolTableRecord
100
AcDbLayerTableRecord
  2
20_DATUM_KINEMATIC_SCHEME
 70
0
 62
7
  6
CONTINUOUS
370
-3
390
F
  0
ENDTAB
  0
TABLE
  2
STYLE
  5
3
100
AcDbSymbolTable
 70
1
  0
STYLE
  5
11
100
AcDbSymbolTableRecord
100
AcDbTextStyleTableRecord
  2
STANDARD
 70
0
 40
0.0
 41
1.0
 50
0.0
 71
0
 42
0.2
  3
ARIAL.TTF
  4

  0
STYLE
  5
20E
100
AcDbSymbolTableRecord
100
AcDbTextStyleTableRecord
  2
TEXTSTYLE_1
 70
0
 40
0.0
 41
0.8
 50
0.0
 71
0
 42
0.2
  3
gdt
  4

  0
ENDTAB
  0
TABLE
  2
VIEW
  5
6
100
AcDbSymbolTable
 70
0
  0
ENDTAB
  0
TABLE
  2
UCS
  5
7
100
AcDbSymbolTable
 70
0
  0
ENDTAB
  0
TABLE
  2
APPID
  5
9
100
AcDbSymbolTable
 70
1
  0
APPID
  5
20F
100
AcDbSymbolTableRecord
100
AcDbRegAppTableRecord
  2
ACAD
 70
0
  0
ENDTAB
  0
TABLE
  2
BLOCK_RECORD
  5
1
100
AcDbSymbolTable
 70
0
  0
BLOCK_RECORD
  5
210
100
AcDbSymbolTableRecord
100
AcDbBlockTableRecord
  2
*Model_Space
  0
BLOCK_RECORD
  5
211
100
AcDbSymbolTableRecord
100
AcDbBlockTableRecord
  2
*Paper_Space
  0
BLOCK_RECORD
  5
212
100
AcDbSymbolTableRecord
100
AcDbBlockTableRecord
  2
_FILLED
  0
ENDTAB
  0
TABLE
  2
DIMSTYLE
  5
A
100
AcDbSymbolTable
 70
1
100
AcDbDimStyleTable
 71
0
  0
DIMSTYLE
105
213
100
AcDbSymbolTableRecord
100
AcDbDimStyleTableRecord
  2
STANDARD
 70
0
  3

  4

 40
1.0
 41
1.4906433604
 42
1.0
 43
0.38
 44
1.0
 45
0.0
 46
0.0
 47
0.01
 48
0.01
140
2.0869007046
141
0.09
142
0.0
143
25.4
144
1.0
145
0.0
146
1.0
147
0.625
 71
1
 72
0
 73
0
 74
0
 75
0
 76
0
 77
1
 78
8
 79
2
170
0
171
1
172
0
173
0
174
0
175
0
176
0
177
0
178
0
270
2
179
2
271
2
272
2
273
2
274
2
275
0
280
0
281
0
282
0
283
1
284
8
285
0
286
0
287
3
288
0
340
11
278
46
341
212
342
212
343
212
344
212
  0
ENDTAB
  0
ENDSEC
  0
SECTION
  2
BLOCKS
  0
BLOCK
  5
20
100
AcDbEntity
  8
0
100
AcDbBlockBegin
  2
*Model_Space
 70
0
 10
0.0
 20
0.0
 30
0.0
  3
*Model_Space
  1

  0
ENDBLK
  5
21
100
AcDbEntity
  8
0
100
AcDbBlockEnd
  0
BLOCK
  5
1C
100
AcDbEntity
  8
0
100
AcDbBlockBegin
  2
*Paper_Space
 70
0
 10
0.0
 20
0.0
 30
0.0
  3
*Paper_Space
  1

  0
ENDBLK
  5
1D
100
AcDbEntity
  8
0
100
AcDbBlockEnd
  0
BLOCK
  5
214
100
AcDbEntity
  8
0
100
AcDbBlockBegin
  2
_FILLED
 70
64
 10
0.0
 20
0.0
  3
_FILLED
  1

  0
SOLID
  5
215
100
AcDbEntity
  8
0
  6
BYBLOCK
 62
0
100
AcDbTrace
 10
0.0
 20
0.0
 11
-1.0
 21
0.25
 12
-1.0
 22
-0.25
 13
-1.0
 23
-0.25
  0
ENDBLK
  5
216
100
AcDbEntity
  8
0
  6
BYBLOCK
 62
0
100
AcDbBlockEnd
  0
ENDSEC
  0
SECTION
  2
ENTITIES
  0
LINE
  5
217
100
AcDbEntity
  8
0
100
AcDbLine
 62
7
  6
BYLAYER
 10
63.1349313817
 20
153.7941890794
 11
28.7696848931
 21
133.9535232013
  0
LINE
  5
218
100
AcDbEntity
  8
0
100
AcDbLine
 62
7
  6
BYLAYER
 10
31.5981108402
 20
134.1168269817
 11
62.9935212125
 21
152.2428674135
  0
LWPOLYLINE
  5
219
100
AcDbEntity
  8
0
100
AcDbPolyline
 62
7
  6
BYLAYER
 90
3
 70
0
 10
63.444172704
 20
30.5422183205
 10
63.6541887355
 20
30.5575440584
 10
63.8354128074
 20
30.6265788764
  0
LINE
  5
21A
100
AcDbEntity
  8
0
100
AcDbLine
 62
7
  6
BYLAYER
 10
63.4439210995
 20
30.5422630627
 11
63.4441747411
 21
30.542235189
  0
LINE
  5
21B
100
AcDbEntity
  8
0
100
AcDbLine
 62
7
  6
BYLAYER
 10
14.5848304058
 20
59.0388261856
 11
14.5262524578
 21
59.1204742747
  0
LWPOLYLINE
  5
21C
100
AcDbEntity
  8
0
100
AcDbPolyline
 62
7
  6
BYLAYER
 90
3
 70
0
 10
14.5262706074
 20
59.1206377693
 10
14.5948384361
 20
58.7946977504
 10
14.7900391632
 20
58.5822730682
  0
LINE
  5
21D
100
AcDbEntity
  8
0
100
AcDbLine
 62
7
  6
BYLAYER
 10
14.5262269182
 20
72.3802684904
 11
14.5262696032
 21
72.3772596728
  0
LINE
  5
21E
100
AcDbEntity
  8
0
100
AcDbLine
 62
7
  6
BYLAYER
 10
14.5262525531
 20
109.7127716845
 11
14.5262696032
 21
109.7113724738
  0
LINE
  5
21F
100
AcDbEntity
  8
0
100
AcDbLine
 62
7
  6
BYLAYER
 10
14.5262524578
 20
59.1204742747
 11
14.5262524578
 21
72.3802736434
  0
LINE
  5
220
100
AcDbEntity
  8
0
100
AcDbLine
 62
7
  6
BYLAYER
 10
14.5262696032
 20
109.7113724738
 11
14.5262696032
 21
96.4530751603
  0
LINE
  5
221
100
AcDbEntity
  8
0
100
AcDbLine
 62
7
  6
BYLAYER
 10
14.5848302222
 20
72.2507955753
 11
14.5848305893
 21
59.0388260797
  0
LINE
  5
222
100
AcDbEntity
  8
0
100
AcDbLine
 62
7
  6
BYLAYER
 10
14.5848316904
 20
96.4192662747
 11
14.5848316904
 21
109.6312355584
  0
LINE
  5
223
100
AcDbEntity
  8
0
100
AcDbLine
 62
7
  6
BYLAYER
 10
14.7913582896
 20
75.2342579685
 11
14.7913582788
 21
76.3311788108
  0
LINE
  5
224
100
AcDbEntity
  8
0
100
AcDbLine
 62
7
  6
BYLAYER
 10
14.7913582896
 20
92.9168928604
 11
14.7913582896
 21
94.0138135625
  0
LWPOLYLINE
  5
225
100
AcDbEntity
  8
0
100
AcDbPolyline
 62
7
  6
BYLAYER
 90
4
 70
0
 10
15.1551473412
 20
110.860831057
 10
14.7901230237
 20
110.4949985204
 10
14.6477550937
 20
110.2398928488
 10
14.5262703876
 20
109.7127715299
  0
LINE
  5
226
100
AcDbEntity
  8
0
100
AcDbLine
 62
7
  6
BYLAYER
 10
65.1855613604
 20
150.9773210745
 11
66.5997690349
 21
151.7938093823
  0
LINE
  5
227
100
AcDbEntity
  8
0
100
AcDbLine
 62
7
  6
BYLAYER
 10
37.467200984
 20
130.7283828641
 11
42.8410724502
 21
133.8309704818
  0
LINE
  5
228
100
AcDbEntity
  8
0
100
AcDbLine
 62
7
  6
BYLAYER
 10
59.811553945
 20
143.628798659
 11
62.9935212125
 21
145.4658973514
  0
LINE
  5
229
100
AcDbEntity
  8
0
100
AcDbLine
 62
7
  6
BYLAYER
 10
42.9117834227
 20
133.7901464063
 11
64.3370296903
 21
146.1599442686
  0
LINE
  5
22A
100
AcDbEntity
  8
0
100
AcDbLine
 62
7
  6
BYLAYER
 10
43.6491978503
 20
133.3644096195
 11
38.2753263841
 21
130.2618220018
  0
LINE
  5
22B
100
AcDbEntity
  8
0
100
AcDbLine
 62
7
  6
BYLAYER
 10
43.7199088229
 20
133.323585544
 11
65.1451550904
 21
145.6933834063
  0
LINE
  5
22C
100
AcDbEntity
  8
0
100
AcDbLine
 62
7
  6
BYLAYER
 10
43.7603150929
 20
133.2536002199
 11
65.1855613604
 21
145.6233980822
  0
LWPOLYLINE
  5
22D
100
AcDbEntity
  8
0
100
AcDbPolyline
 62
7
  6
BYLAYER
 90
4
 70
0
 10
63.2472526073
 20
30.6061031396
 10
63.277465041
 20
30.5900078441
 10
63.4176116347
 20
30.5458385085
 10
63.4439210995
 20
30.5422630627
  0
LINE
  5
22E
100
AcDbEntity
  8
0
100
AcDbLine
 62
7
  6
BYLAYER
 10
14.78760479
 20
58.5835444899
 11
63.2481507697
 21
30.6054681721
  0
LINE
  5
22F
100
AcDbEntity
  8
0
100
AcDbLine
 62
7
  6
BYLAYER
 10
63.036700329
 20
31.065758878
 11
14.5848305893
 21
59.0388260797
  0
LINE
  5
230
100
AcDbEntity
  8
0
100
AcDbLine
 62
7
  6
BYLAYER
 10
78.2673656533
 20
23.7264286719
 11
65.1421802193
 21
31.3040865859
  0
LINE
  5
231
100
AcDbEntity
  8
0
100
AcDbLine
 62
7
  6
BYLAYER
 10
14.7812332389
 20
58.5873221425
 11
14.78760479
 21
58.5835444899
  0
LINE
  5
232
100
AcDbEntity
  8
0
100
AcDbLine
 62
7
  6
BYLAYER
 10
63.2472035265
 20
30.6060170423
 11
63.2415056483
 21
30.609403767
  0
LINE
  5
233
100
AcDbEntity
  8
0
100
AcDbLine
 62
7
  6
BYLAYER
 10
17.3853378432
 20
71.2871498038
 11
17.3853378432
 21
73.7366570552
  0
LINE
  5
234
100
AcDbEntity
  8
0
100
AcDbLine
 62
7
  6
BYLAYER
 10
17.3853378432
 20
92.5162126492
 11
17.3853378432
 21
94.8024298712
  0
LINE
  5
235
100
AcDbEntity
  8
0
100
AcDbLine
 62
7
  6
BYLAYER
 10
18.6890673909
 20
94.049738294
 11
18.6890673909
 21
91.3164454727
  0
LINE
  5
236
100
AcDbEntity
  8
0
100
AcDbLine
 62
7
  6
BYLAYER
 10
18.6890673864
 20
73.4310411302
 11
18.6890673909
 21
70.5344582267
  0
LINE
  5
237
100
AcDbEntity
  8
0
100
AcDbLine
 62
7
  6
BYLAYER
 10
20.2311996772
 20
91.5403054065
 11
20.2311996775
 21
80.2678286484
  0
LINE
  5
238
100
AcDbEntity
  8
0
100
AcDbLine
 62
7
  6
BYLAYER
 10
15.1575368845
 20
110.8623014082
 11
28.8110863274
 21
119.5930218509
  0
LINE
  5
239
100
AcDbEntity
  8
0
100
AcDbLine
 62
7
  6
BYLAYER
 10
28.9110583763
 20
119.5831107294
 11
15.2590004117
 21
110.853344008
  0
LINE
  5
23A
100
AcDbEntity
  8
0
100
AcDbLine
 62
7
  6
BYLAYER
 10
15.1575368845
 20
110.8623014082
 11
15.1551365728
 21
110.8608473221
  0
LINE
  5
23B
100
AcDbEntity
  8
0
100
AcDbLine
 62
7
  6
BYLAYER
 10
44.6523001295
 20
131.7739861851
 11
66.5997690349
 21
144.4452876281
  0
LINE
  5
23C
100
AcDbEntity
  8
0
100
AcDbLine
 62
7
  6
BYLAYER
 10
40.5102489531
 20
128.9715180456
 11
44.8302972864
 21
131.4656842255
  0
LINE
  5
23D
100
AcDbEntity
  8
0
100
AcDbLine
 62
7
  6
BYLAYER
 10
41.3058271828
 20
128.5122011316
 11
44.9118937881
 21
130.5941522293
  0
LINE
  5
23E
100
AcDbEntity
  8
0
100
AcDbLine
 62
7
  6
BYLAYER
 10
24.7639139746
 20
76.9383442592
 11
24.7639139742
 21
74.6867485933
  0
LINE
  5
23F
100
AcDbEntity
  8
0
100
AcDbLine
 62
7
  6
BYLAYER
 10
24.7641109314
 20
74.6630368455
 11
24.7641109592
 21
73.4773134557
  0
LINE
  5
240
100
AcDbEntity
  8
0
100
AcDbLine
 62
7
  6
BYLAYER
 10
78.3377904723
 20
145.0170128572
 11
45.5281724256
 21
126.0744841176
  0
LINE
  5
241
100
AcDbEntity
  8
0
100
AcDbLine
 62
7
  6
BYLAYER
 10
46.5181266296
 20
125.4212985704
 11
79.39845506
 21
144.4046517255
  0
LINE
  5
242
100
AcDbEntity
  8
0
100
AcDbLine
 62
7
  6
BYLAYER
 10
80.8126745103
 20
143.5881702164
 11
47.9323460799
 21
124.6048170614
  0
LINE
  5
243
100
AcDbEntity
  8
0
100
AcDbLine
 62
7
  6
BYLAYER
 10
81.873339098
 20
142.9758090846
 11
49.0637210513
 21
124.033280345
  0
LINE
  5
244
100
AcDbEntity
  8
0
100
AcDbLine
 62
7
  6
BYLAYER
 10
34.8326982873
 20
60.5609479571
 11
14.5848302222
 21
72.2507955753
  0
LINE
  5
245
100
AcDbEntity
  8
0
100
AcDbLine
 62
7
  6
BYLAYER
 10
63.0367006961
 20
44.2777279498
 11
42.7888982213
 21
55.9675427572
  0
LINE
  5
246
100
AcDbEntity
  8
0
100
AcDbLine
 62
7
  6
BYLAYER
 10
34.9377737824
 20
60.7452346892
 11
35.8197837036
 21
60.2360175439
  0
LINE
  5
247
100
AcDbEntity
  8
0
100
AcDbLine
 62
7
  6
BYLAYER
 10
41.8017472147
 20
56.7824074315
 11
42.6837615802
 21
56.2731877189
  0
LINE
  5
248
100
AcDbEntity
  8
0
100
AcDbLine
 62
7
  6
BYLAYER
 10
14.6536407861
 20
72.7009638543
 11
34.7974291101
 21
61.0712053432
  0
LINE
  5
249
100
AcDbEntity
  8
0
100
AcDbLine
 62
7
  6
BYLAYER
 10
43.2483851677
 20
56.1921539673
 11
63.3921524345
 21
44.5624076134
  0
LINE
  5
24A
100
AcDbEntity
  8
0
100
AcDbLine
 62
7
  6
BYLAYER
 10
60.9432969123
 20
46.1395193254
 11
59.6395673646
 21
46.8922109025
  0
LINE
  5
24B
100
AcDbEntity
  8
0
100
AcDbLine
 62
7
  6
BYLAYER
 10
18.6890673909
 20
70.5344582267
 11
17.3853378432
 21
71.2871498038
  0
LINE
  5
24C
100
AcDbEntity
  8
0
100
AcDbLine
 62
7
  6
BYLAYER
 10
28.7696848931
 20
133.9535232013
 11
28.7696848931
 21
119.5665478303
  0
LINE
  5
24D
100
AcDbEntity
  8
0
100
AcDbLine
 62
7
  6
BYLAYER
 10
14.5811123497
 20
72.5708378727
 11
14.6536407861
 21
72.7009638543
  0
LINE
  5
24E
100
AcDbEntity
  8
0
100
AcDbLine
 62
7
  6
BYLAYER
 10
63.5372764659
 20
47.0914256635
 11
60.9432969123
 21
48.5890265768
  0
LINE
  5
24F
100
AcDbEntity
  8
0
100
AcDbLine
 62
7
  6
BYLAYER
 10
17.3853378432
 20
73.7366570552
 11
14.7913582896
 21
75.2342579685
  0
LINE
  5
250
100
AcDbEntity
  8
0
100
AcDbLine
 62
7
  6
BYLAYER
 10
14.9325058214
 20
76.4132392207
 11
17.9846484751
 21
74.6511237014
  0
LINE
  5
251
100
AcDbEntity
  8
0
100
AcDbLine
 62
7
  6
BYLAYER
 10
60.3439863238
 20
50.195501857
 11
63.3961288032
 21
48.4333864393
  0
LINE
  5
252
100
AcDbEntity
  8
0
100
AcDbLine
 62
7
  6
BYLAYER
 10
24.7641109592
 20
73.4773134557
 11
29.1309422625
 21
70.9561792629
  0
LINE
  5
253
100
AcDbEntity
  8
0
100
AcDbLine
 62
7
  6
BYLAYER
 10
49.6017263243
 20
59.1376339455
 11
62.0062260011
 21
51.9760547345
  0
LINE
  5
254
100
AcDbEntity
  8
0
100
AcDbLine
 62
7
  6
BYLAYER
 10
67.0927594913
 20
49.0394096905
 11
69.2696757063
 21
47.7825949607
  0
LINE
  5
255
100
AcDbEntity
  8
0
100
AcDbLine
 62
7
  6
BYLAYER
 10
40.879370109
 20
65.815521315
 11
40.901261344
 21
65.7932304313
  0
LINE
  5
256
100
AcDbEntity
  8
0
100
AcDbLine
 62
7
  6
BYLAYER
 10
40.8455753873
 20
65.7460143381
 11
40.8672127052
 21
65.7226058675
  0
LINE
  5
257
100
AcDbEntity
  8
0
100
AcDbLine
 62
7
  6
BYLAYER
 10
35.3459336939
 20
72.3488947419
 11
35.3459336939
 21
70.7158899077
  0
LINE
  5
258
100
AcDbEntity
  8
0
100
AcDbLine
 62
7
  6
BYLAYER
 10
36.1060766484
 20
73.4001528421
 11
36.1060766484
 21
68.7869141853
  0
LINE
  5
259
100
AcDbEntity
  8
0
100
AcDbLine
 62
7
  6
BYLAYER
 10
36.4667952495
 20
68.9401446509
 11
36.4667952495
 21
73.191896572
  0
LINE
  5
25A
100
AcDbEntity
  8
0
100
AcDbLine
 62
7
  6
BYLAYER
 10
16.7194615273
 20
95.1868650443
 11
14.7913582896
 21
94.0138135625
  0
LINE
  5
25B
100
AcDbEntity
  8
0
100
AcDbLine
 62
7
  6
BYLAYER
 10
81.873339098
 20
135.6272873305
 11
55.4278185508
 21
120.3590500627
  0
LINE
  5
25C
100
AcDbEntity
  8
0
100
AcDbLine
 62
7
  6
BYLAYER
 10
40.2264852617
 20
65.6119486697
 11
36.43247913
 21
67.8023800312
  0
LINE
  5
25D
100
AcDbEntity
  8
0
100
AcDbLine
 62
7
  6
BYLAYER
 10
36.1060766484
 20
68.7869141853
 11
40.1012465955
 21
66.4803539223
  0
LINE
  5
25E
100
AcDbEntity
  8
0
100
AcDbLine
 62
7
  6
BYLAYER
 10
40.1012454923
 20
66.7863274786
 11
36.3710584681
 21
68.9399032407
  0
LINE
  5
25F
100
AcDbEntity
  8
0
100
AcDbLine
 62
7
  6
BYLAYER
 10
35.3459336939
 20
70.7158899077
 11
35.0193640177
 21
70.9044307327
  0
LINE
  5
260
100
AcDbEntity
  8
0
100
AcDbLine
 62
7
  6
BYLAYER
 10
20.3723438119
 20
80.2871564398
 11
24.0594950633
 21
78.1584268305
  0
LINE
  5
261
100
AcDbEntity
  8
0
100
AcDbLine
 62
7
  6
BYLAYER
 10
65.4413803677
 20
54.2671247043
 11
69.1285280436
 21
52.1383971593
  0
LINE
  5
262
100
AcDbEntity
  8
0
100
AcDbLine
 62
7
  6
BYLAYER
 10
35.0193640177
 20
72.537435567
 11
35.3459336939
 21
72.3488947419
  0
LINE
  5
263
100
AcDbEntity
  8
0
100
AcDbLine
 62
7
  6
BYLAYER
 10
39.0152498308
 20
71.7205789192
 11
36.1060766484
 21
73.4001528421
  0
LINE
  5
264
100
AcDbEntity
  8
0
100
AcDbLine
 62
7
  6
BYLAYER
 10
42.755280096
 20
67.7798978845
 11
42.636722987
 21
67.8969051271
  0
LINE
  5
265
100
AcDbEntity
  8
0
100
AcDbLine
 62
7
  6
BYLAYER
 10
39.0152498308
 20
71.7205789192
 11
40.1012465955
 21
69.8395877877
  0
LINE
  5
266
100
AcDbEntity
  8
0
100
AcDbLine
 62
7
  6
BYLAYER
 10
34.6853254925
 20
84.8145013817
 11
34.7625567621
 21
84.6526321384
  0
LINE
  5
267
100
AcDbEntity
  8
0
100
AcDbLine
 62
7
  6
BYLAYER
 10
34.7625567621
 20
84.6526321384
 11
34.7823775917
 21
84.5962382112
  0
LINE
  5
268
100
AcDbEntity
  8
0
100
AcDbLine
 62
7
  6
BYLAYER
 10
35.8328700301
 20
74.4423959766
 11
35.8404964644
 21
74.4178240204
  0
LINE
  5
269
100
AcDbEntity
  8
0
100
AcDbLine
 62
7
  6
BYLAYER
 10
35.911064067
 20
74.4365697351
 11
35.9178110404
 21
74.4122715695
  0
LINE
  5
26A
100
AcDbEntity
  8
0
100
AcDbLine
 62
7
  6
BYLAYER
 10
38.103655734
 20
92.8023035531
 11
38.103655734
 21
89.5362938846
  0
LINE
  5
26B
100
AcDbEntity
  8
0
100
AcDbLine
 62
7
  6
BYLAYER
 10
38.2413745373
 20
89.6158053981
 11
38.2413745373
 21
92.8818150666
  0
LINE
  5
26C
100
AcDbEntity
  8
0
100
AcDbLine
 62
7
  6
BYLAYER
 10
39.5178751843
 20
88.7198123755
 11
39.5178751843
 21
91.985822044
  0
LINE
  5
26D
100
AcDbEntity
  8
0
100
AcDbLine
 62
7
  6
BYLAYER
 10
40.1012465955
 20
66.4803539223
 11
40.1012465955
 21
69.8395877877
  0
LINE
  5
26E
100
AcDbEntity
  8
0
100
AcDbLine
 62
7
  6
BYLAYER
 10
93.8942044255
 20
136.0357162578
 11
61.0845863788
 21
117.0931875182
  0
LINE
  5
26F
100
AcDbEntity
  8
0
100
AcDbLine
 62
7
  6
BYLAYER
 10
94.9548690133
 20
135.423355126
 11
62.0745405828
 21
116.440001971
  0
LINE
  5
270
100
AcDbEntity
  8
0
100
AcDbLine
 62
7
  6
BYLAYER
 10
96.3690884636
 20
134.606873617
 11
63.4887600331
 21
115.6235204619
  0
LINE
  5
271
100
AcDbEntity
  8
0
100
AcDbLine
 62
7
  6
BYLAYER
 10
97.4297530513
 20
133.9945124852
 11
64.6201350046
 21
115.0519837456
  0
LINE
  5
272
100
AcDbEntity
  8
0
100
AcDbLine
 62
7
  6
BYLAYER
 10
36.4324791707
 20
74.0077983779
 11
39.7748441151
 21
72.0781267325
  0
LINE
  5
273
100
AcDbEntity
  8
0
100
AcDbLine
 62
7
  6
BYLAYER
 10
40.2264909223
 20
72.6338661889
 11
36.687936167
 21
74.6768055119
  0
LINE
  5
274
100
AcDbEntity
  8
0
100
AcDbLine
 62
7
  6
BYLAYER
 10
43.7603150929
 20
133.1857784868
 11
43.7603150929
 21
133.2536002199
  0
LINE
  5
275
100
AcDbEntity
  8
0
100
AcDbLine
 62
7
  6
BYLAYER
 10
39.6786806458
 20
81.0853026489
 11
39.4356999882
 21
80.6971061433
  0
LINE
  5
276
100
AcDbEntity
  8
0
100
AcDbLine
 62
7
  6
BYLAYER
 10
20.2673462283
 20
80.2935699641
 11
14.8275048408
 21
76.4196547101
  0
LINE
  5
277
100
AcDbEntity
  8
0
100
AcDbLine
 62
7
  6
BYLAYER
 10
20.3723472089
 20
80.2871544747
 11
14.9325058214
 21
76.4132392207
  0
LINE
  5
278
100
AcDbEntity
  8
0
100
AcDbLine
 62
7
  6
BYLAYER
 10
20.2673612243
 20
80.2935458401
 11
20.2725071608
 21
80.2969015003
  0
LINE
  5
279
100
AcDbEntity
  8
0
100
AcDbLine
 62
7
  6
BYLAYER
 10
14.8275166923
 20
76.4196356343
 11
14.8326657254
 21
76.422986212
  0
LINE
  5
27A
100
AcDbEntity
  8
0
100
AcDbLine
 62
7
  6
BYLAYER
 10
37.0429911463
 20
93.4146646849
 11
38.8107654592
 21
94.4353188414
  0
LINE
  5
27B
100
AcDbEntity
  8
0
100
AcDbLine
 62
7
  6
BYLAYER
 10
38.103655734
 20
92.8023035531
 11
38.2413745373
 21
92.8818150666
  0
LINE
  5
27C
100
AcDbEntity
  8
0
100
AcDbLine
 62
7
  6
BYLAYER
 10
97.4297530513
 20
126.645990731
 11
70.984232504
 21
111.3777534633
  0
LINE
  5
27D
100
AcDbEntity
  8
0
100
AcDbLine
 62
7
  6
BYLAYER
 10
18.4830713163
 20
90.8598437805
 11
18.4373723651
 21
90.8392311555
  0
LINE
  5
27E
100
AcDbEntity
  8
0
100
AcDbLine
 62
7
  6
BYLAYER
 10
18.6890673909
 20
91.3164454727
 11
21.5101176798
 21
92.4210409964
  0
LINE
  5
27F
100
AcDbEntity
  8
0
100
AcDbLine
 62
7
  6
BYLAYER
 10
21.902286525
 20
92.1946273302
 11
18.4379267379
 21
90.8381409434
  0
LINE
  5
280
100
AcDbEntity
  8
0
100
AcDbLine
 62
7
  6
BYLAYER
 10
36.4667952495
 20
68.9401446509
 11
36.3710584681
 21
68.9399032407
  0
LINE
  5
281
100
AcDbEntity
  8
0
100
AcDbLine
 62
7
  6
BYLAYER
 10
63.3961289275
 20
64.6920000014
 11
60.3439862722
 21
66.4541155198
  0
LINE
  5
282
100
AcDbEntity
  8
0
100
AcDbLine
 62
7
  6
BYLAYER
 10
17.9846484317
 20
90.9097373689
 11
14.9325059523
 21
92.6718527867
  0
LINE
  5
283
100
AcDbEntity
  8
0
100
AcDbLine
 62
7
  6
BYLAYER
 10
43.3430418256
 20
77.3735422477
 11
43.7320031633
 21
77.1489803949
  0
LINE
  5
284
100
AcDbEntity
  8
0
100
AcDbLine
 62
7
  6
BYLAYER
 10
14.7913582896
 20
94.0138135625
 11
17.3853378432
 21
92.5162126492
  0
LINE
  5
285
100
AcDbEntity
  8
0
100
AcDbLine
 62
7
  6
BYLAYER
 10
60.9432969123
 20
67.3685821708
 11
63.5372764659
 21
65.8709812575
  0
LINE
  5
286
100
AcDbEntity
  8
0
100
AcDbLine
 62
7
  6
BYLAYER
 10
42.6837599769
 20
79.9517587413
 11
41.8017472147
 21
80.4609775283
  0
LINE
  5
287
100
AcDbEntity
  8
0
100
AcDbLine
 62
7
  6
BYLAYER
 10
35.8197837036
 20
83.9145876406
 11
34.9377737824
 21
84.423804786
  0
LINE
  5
288
100
AcDbEntity
  8
0
100
AcDbLine
 62
7
  6
BYLAYER
 10
42.7888923357
 20
80.1360126453
 11
63.3921524345
 21
68.2409777102
  0
LINE
  5
289
100
AcDbEntity
  8
0
100
AcDbLine
 62
7
  6
BYLAYER
 10
14.5262696032
 20
96.4530751603
 11
34.8326934376
 21
84.729422304
  0
LINE
  5
28A
100
AcDbEntity
  8
0
100
AcDbLine
 62
7
  6
BYLAYER
 10
38.8107654592
 20
94.4353188414
 11
40.578539772
 21
91.3734609123
  0
LINE
  5
28B
100
AcDbEntity
  8
0
100
AcDbLine
 62
7
  6
BYLAYER
 10
44.8302972864
 20
131.4656842255
 11
44.9118937881
 21
130.5941522293
  0
LINE
  5
28C
100
AcDbEntity
  8
0
100
AcDbLine
 62
7
  6
BYLAYER
 10
16.8571737409
 20
74.0415858435
 11
14.6536407861
 21
72.7009638543
  0
LINE
  5
28D
100
AcDbEntity
  8
0
100
AcDbLine
 62
7
  6
BYLAYER
 10
39.5178751843
 20
91.985822044
 11
39.6555939876
 21
92.0653335576
  0
LINE
  5
28E
100
AcDbEntity
  8
0
100
AcDbLine
 62
7
  6
BYLAYER
 10
38.103655734
 20
89.5362938846
 11
38.2413745373
 21
89.6158053981
  0
LINE
  5
28F
100
AcDbEntity
  8
0
100
AcDbLine
 62
7
  6
BYLAYER
 10
31.2586175524
 20
83.4292794981
 11
34.1716134099
 21
85.1110884015
  0
LINE
  5
290
100
AcDbEntity
  8
0
100
AcDbLine
 62
7
  6
BYLAYER
 10
17.9846484751
 20
74.6511237014
 11
24.0594950592
 21
78.1584268281
  0
LINE
  5
291
100
AcDbEntity
  8
0
100
AcDbLine
 62
7
  6
BYLAYER
 10
109.4506183788
 20
127.0544196583
 11
108.0364107044
 21
126.2379313506
  0
LINE
  5
292
100
AcDbEntity
  8
0
100
AcDbLine
 62
7
  6
BYLAYER
 10
110.1577487117
 20
45.0368235923
 11
109.8749048216
 21
45.2001198941
  0
LINE
  5
293
100
AcDbEntity
  8
0
100
AcDbLine
 62
7
  6
BYLAYER
 10
67.0927594913
 20
70.2684725359
 11
69.2696757063
 21
69.0116578061
  0
LINE
  5
294
100
AcDbEntity
  8
0
100
AcDbLine
 62
7
  6
BYLAYER
 10
112.3497682519
 20
46.6289744327
 11
112.6326121419
 21
46.4656781309
  0
LINE
  5
295
100
AcDbEntity
  8
0
100
AcDbLine
 62
7
  6
BYLAYER
 10
38.103655734
 20
89.5362938846
 11
39.5178751843
 21
88.7198123755
  0
LINE
  5
296
100
AcDbEntity
  8
0
100
AcDbLine
 62
7
  6
BYLAYER
 10
39.5178751843
 20
88.8788340785
 11
38.2413745373
 21
89.6158053981
  0
LINE
  5
297
100
AcDbEntity
  8
0
100
AcDbLine
 62
7
  6
BYLAYER
 10
37.9428502725
 20
59.6116924233
 11
38.1858309301
 21
59.9998889288
  0
LINE
  5
298
100
AcDbEntity
  8
0
100
AcDbLine
 62
7
  6
BYLAYER
 10
19.3811385854
 20
71.5750276201
 11
24.7639139658
 21
74.6867485885
  0
LINE
  5
299
100
AcDbEntity
  8
0
100
AcDbLine
 62
7
  6
BYLAYER
 10
27.3516927825
 20
78.7650807202
 11
28.5141192281
 21
79.4362039355
  0
LINE
  5
29A
100
AcDbEntity
  8
0
100
AcDbLine
 62
7
  6
BYLAYER
 10
24.7639139705
 20
76.9383442569
 11
18.6890673864
 21
73.4310411302
  0
LINE
  5
29B
100
AcDbEntity
  8
0
100
AcDbLine
 62
7
  6
BYLAYER
 10
109.9456069622
 20
125.1356813134
 11
78.55019659
 21
107.0096408815
  0
LINE
  5
29C
100
AcDbEntity
  8
0
100
AcDbLine
 62
7
  6
BYLAYER
 10
35.2682888764
 20
81.7528678368
 11
29.3286166438
 21
78.3236169443
  0
LINE
  5
29D
100
AcDbEntity
  8
0
100
AcDbLine
 62
7
  6
BYLAYER
 10
78.2673656533
 20
105.3766703849
 11
112.6326121419
 21
125.217336263
  0
LINE
  5
29E
100
AcDbEntity
  8
0
100
AcDbLine
 62
7
  6
BYLAYER
 10
37.0429911463
 20
93.4146646849
 11
38.103655734
 21
92.8023035531
  0
LINE
  5
29F
100
AcDbEntity
  8
0
100
AcDbLine
 62
7
  6
BYLAYER
 10
39.5178751843
 20
91.985822044
 11
40.578539772
 21
91.3734609123
  0
LINE
  5
2A0
100
AcDbEntity
  8
0
100
AcDbLine
 62
7
  6
BYLAYER
 10
40.4408233485
 20
91.6119914307
 11
39.6555939876
 21
92.0653335576
  0
LINE
  5
2A1
100
AcDbEntity
  8
0
100
AcDbLine
 62
7
  6
BYLAYER
 10
38.2413745373
 20
92.8818150666
 11
37.1807099496
 21
93.4941761984
  0
LINE
  5
2A2
100
AcDbEntity
  8
0
100
AcDbLine
 62
7
  6
BYLAYER
 10
14.5848316904
 20
109.6312355584
 11
63.0366992279
 21
81.6581696281
  0
LINE
  5
2A3
100
AcDbEntity
  8
0
100
AcDbLine
 62
7
  6
BYLAYER
 10
63.7397185398
 20
82.8636215584
 11
15.2590004117
 21
110.853344008
  0
LINE
  5
2A4
100
AcDbEntity
  8
0
100
AcDbLine
 62
7
  6
BYLAYER
 10
59.6395673646
 20
46.8922109025
 11
59.6395673646
 21
49.7887937533
  0
LINE
  5
2A5
100
AcDbEntity
  8
0
100
AcDbLine
 62
7
  6
BYLAYER
 10
59.6395673609
 20
67.6741980911
 11
59.6395673644
 21
70.40749097
  0
LINE
  5
2A6
100
AcDbEntity
  8
0
100
AcDbLine
 62
7
  6
BYLAYER
 10
59.811553945
 20
143.547175225
 11
59.811553945
 21
143.628798659
  0
LINE
  5
2A7
100
AcDbEntity
  8
0
100
AcDbLine
 62
7
  6
BYLAYER
 10
60.9432969123
 20
69.6547993927
 11
60.9432969123
 21
67.3685821708
  0
LINE
  5
2A8
100
AcDbEntity
  8
0
100
AcDbLine
 62
7
  6
BYLAYER
 10
60.9432969123
 20
48.5890265768
 11
60.9432969123
 21
46.1395193254
  0
LINE
  5
2A9
100
AcDbEntity
  8
0
100
AcDbLine
 62
7
  6
BYLAYER
 10
61.6504007495
 20
69.2465620376
 11
61.6504007495
 21
67.7768263246
  0
LINE
  5
2AA
100
AcDbEntity
  8
0
100
AcDbLine
 62
7
  6
BYLAYER
 10
61.6504007495
 20
46.5477634793
 11
61.6504007495
 21
48.1807892216
  0
LINE
  5
2AB
100
AcDbEntity
  8
0
100
AcDbLine
 62
7
  6
BYLAYER
 10
62.9935212125
 20
152.2428674135
 11
62.9935212125
 21
145.4658973514
  0
LINE
  5
2AC
100
AcDbEntity
  8
0
100
AcDbLine
 62
7
  6
BYLAYER
 10
63.0366992279
 20
81.6581696281
 11
63.0366992279
 21
68.4462003444
  0
LINE
  5
2AD
100
AcDbEntity
  8
0
100
AcDbLine
 62
7
  6
BYLAYER
 10
63.036700329
 20
31.065758878
 11
63.0367006961
 21
44.2777279498
  0
LINE
  5
2AE
100
AcDbEntity
  8
0
100
AcDbLine
 62
7
  6
BYLAYER
 10
63.3157900085
 20
31.0636433507
 11
63.3157900085
 21
44.4346450888
  0
LINE
  5
2AF
100
AcDbEntity
  8
0
100
AcDbLine
 62
7
  6
BYLAYER
 10
63.3157915146
 20
81.6560710669
 11
63.3157254295
 21
68.2851045755
  0
LINE
  5
2B0
100
AcDbEntity
  8
0
100
AcDbLine
 62
7
  6
BYLAYER
 10
63.5372764659
 20
48.1883463656
 11
63.5372764659
 21
47.0914256635
  0
LINE
  5
2B1
100
AcDbEntity
  8
0
100
AcDbLine
 62
7
  6
BYLAYER
 10
63.5372764659
 20
65.8709812575
 11
63.5372764545
 21
64.7740604023
  0
LINE
  5
2B2
100
AcDbEntity
  8
0
100
AcDbLine
 62
7
  6
BYLAYER
 10
110.1577487117
 20
120.8898981436
 11
112.6326121419
 21
122.3187526822
  0
LINE
  5
2B3
100
AcDbEntity
  8
0
100
AcDbLine
 62
7
  6
BYLAYER
 10
109.8749048216
 20
120.31834227
 11
112.3497682519
 21
121.7471968086
  0
LINE
  5
2B4
100
AcDbEntity
  8
0
100
AcDbLine
 62
7
  6
BYLAYER
 10
112.6326121419
 20
121.5839005068
 11
110.1577487117
 21
120.1550459682
  0
LINE
  5
2B5
100
AcDbEntity
  8
0
100
AcDbLine
 62
7
  6
BYLAYER
 10
40.3703019838
 20
79.078318755
 11
41.3643691645
 21
79.6522402835
  0
LINE
  5
2B6
100
AcDbEntity
  8
0
100
AcDbLine
 62
7
  6
BYLAYER
 10
30.4707658317
 20
73.3626554785
 11
36.4104380643
 21
76.791906371
  0
LINE
  5
2B7
100
AcDbEntity
  8
0
100
AcDbLine
 62
7
  6
BYLAYER
 10
40.7190845352
 20
78.14751262
 11
41.8504506747
 21
78.8007032662
  0
LINE
  5
2B8
100
AcDbEntity
  8
0
100
AcDbLine
 62
7
  6
BYLAYER
 10
35.9697246768
 20
74.4528582724
 11
41.5379737011
 21
77.6676691557
  0
LINE
  5
2B9
100
AcDbEntity
  8
0
100
AcDbLine
 62
7
  6
BYLAYER
 10
36.6879372576
 20
74.6768048823
 11
41.8373180283
 21
77.6497835102
  0
LINE
  5
2BA
100
AcDbEntity
  8
0
100
AcDbLine
 62
7
  6
BYLAYER
 10
24.7641194782
 20
73.4773183741
 11
18.6890673909
 21
70.5344582267
  0
LINE
  5
2BB
100
AcDbEntity
  8
0
100
AcDbLine
 62
7
  6
BYLAYER
 10
64.9964579214
 20
69.1199473018
 11
64.9964579214
 21
68.8921734942
  0
LINE
  5
2BC
100
AcDbEntity
  8
0
100
AcDbLine
 62
7
  6
BYLAYER
 10
64.9964579214
 20
47.6631106489
 11
64.9964579214
 21
47.8908844564
  0
LINE
  5
2BD
100
AcDbEntity
  8
0
100
AcDbLine
 62
7
  6
BYLAYER
 10
65.1855613604
 20
145.6233980822
 11
65.1855613604
 21
150.9773210745
  0
LINE
  5
2BE
100
AcDbEntity
  8
0
100
AcDbLine
 62
7
  6
BYLAYER
 10
65.8930296607
 20
69.6111625361
 11
65.8930296607
 21
69.4098063395
  0
LINE
  5
2BF
100
AcDbEntity
  8
0
100
AcDbLine
 62
7
  6
BYLAYER
 10
65.8930296607
 20
48.1807434941
 11
65.8930296607
 21
48.3820996907
  0
LINE
  5
2C0
100
AcDbEntity
  8
0
100
AcDbLine
 62
7
  6
BYLAYER
 10
66.5997690349
 20
151.7938093823
 11
66.5997690349
 21
144.4452876281
  0
LINE
  5
2C1
100
AcDbEntity
  8
0
100
AcDbLine
 62
7
  6
BYLAYER
 10
69.2696757063
 20
47.7825949607
 11
69.2696757063
 21
50.2321022121
  0
LINE
  5
2C2
100
AcDbEntity
  8
0
100
AcDbLine
 62
7
  6
BYLAYER
 10
69.2696757063
 20
51.8933570856
 11
69.269675706
 21
67.3504356287
  0
LINE
  5
2C3
100
AcDbEntity
  8
0
100
AcDbLine
 62
7
  6
BYLAYER
 10
69.2696757063
 20
69.0116578061
 11
69.2696757063
 21
71.4611650574
  0
LINE
  5
2C4
100
AcDbEntity
  8
0
100
AcDbLine
 62
7
  6
BYLAYER
 10
36.4667952495
 20
68.9401446509
 11
39.5780408781
 21
70.7458016425
  0
LINE
  5
2C5
100
AcDbEntity
  8
0
100
AcDbLine
 62
7
  6
BYLAYER
 10
35.0111416633
 20
71.3174185584
 11
35.3459336939
 21
71.5107096736
  0
LINE
  5
2C6
100
AcDbEntity
  8
0
100
AcDbLine
 62
7
  6
BYLAYER
 10
44.962992761
 20
75.3684717458
 11
40.2264898235
 21
72.6338668233
  0
LINE
  5
2C7
100
AcDbEntity
  8
0
100
AcDbLine
 62
7
  6
BYLAYER
 10
36.1060766484
 20
68.7869141853
 11
36.3710584681
 21
68.9399032407
  0
LINE
  5
2C8
100
AcDbEntity
  8
0
100
AcDbLine
 62
7
  6
BYLAYER
 10
63.7397185398
 20
82.8636215584
 11
78.1259921701
 21
91.1694982572
  0
LINE
  5
2C9
100
AcDbEntity
  8
0
100
AcDbLine
 62
7
  6
BYLAYER
 10
78.2673656533
 20
90.9246335607
 11
63.8810979638
 21
82.6187602917
  0
LINE
  5
2CA
100
AcDbEntity
  8
0
100
AcDbLine
 62
7
  6
BYLAYER
 10
36.6879372576
 20
74.6768048823
 11
35.9697246768
 21
74.4528582724
  0
LINE
  5
2CB
100
AcDbEntity
  8
0
100
AcDbLine
 62
7
  6
BYLAYER
 10
43.7603150929
 20
133.2536002199
 11
43.7199088229
 21
133.323585544
  0
LINE
  5
2CC
100
AcDbEntity
  8
0
100
AcDbLine
 62
7
  6
BYLAYER
 10
40.9447024043
 20
65.8358926458
 11
46.6077034338
 21
69.1054082982
  0
LINE
  5
2CD
100
AcDbEntity
  8
0
100
AcDbLine
 62
7
  6
BYLAYER
 10
46.5190585693
 20
68.1016029447
 11
47.6504247088
 21
68.7547935909
  0
LINE
  5
2CE
100
AcDbEntity
  8
0
100
AcDbLine
 62
7
  6
BYLAYER
 10
47.1507650866
 20
67.3343395937
 11
48.1447976332
 21
67.9082411263
  0
LINE
  5
2CF
100
AcDbEntity
  8
0
100
AcDbLine
 62
7
  6
BYLAYER
 10
37.2512289345
 20
61.6186763171
 11
43.1909011671
 21
65.0479272097
  0
LINE
  5
2D0
100
AcDbEntity
  8
0
100
AcDbLine
 62
7
  6
BYLAYER
 10
28.9110622047
 20
119.5831085191
 11
78.1259911129
 21
91.1694988676
  0
LINE
  5
2D1
100
AcDbEntity
  8
0
100
AcDbLine
 62
7
  6
BYLAYER
 10
43.6491978503
 20
133.3644096195
 11
44.8302972864
 21
131.4656842255
  0
LINE
  5
2D2
100
AcDbEntity
  8
0
100
AcDbLine
 62
7
  6
BYLAYER
 10
78.2673656533
 20
23.7264286719
 11
78.2673656533
 21
105.3766703849
  0
LINE
  5
2D3
100
AcDbEntity
  8
0
100
AcDbLine
 62
7
  6
BYLAYER
 10
79.39845506
 20
144.4046517255
 11
79.39845506
 21
142.7716751099
  0
LINE
  5
2D4
100
AcDbEntity
  8
0
100
AcDbLine
 62
7
  6
BYLAYER
 10
55.2159922217
 20
70.1970418612
 11
49.2763199891
 21
66.7677909687
  0
LINE
  5
2D5
100
AcDbEntity
  8
0
100
AcDbLine
 62
7
  6
BYLAYER
 10
46.9161200815
 20
61.5783443851
 11
40.9764478489
 21
58.1490934925
  0
LINE
  5
2D6
100
AcDbEntity
  8
0
100
AcDbLine
 62
7
  6
BYLAYER
 10
50.2698381358
 20
61.9319143519
 11
56.2095103684
 21
65.3611652444
  0
LINE
  5
2D7
100
AcDbEntity
  8
0
100
AcDbLine
 62
7
  6
BYLAYER
 10
40.2264898235
 20
65.6119460359
 11
40.9447024043
 21
65.8358926458
  0
LINE
  5
2D8
100
AcDbEntity
  8
0
100
AcDbLine
 62
7
  6
BYLAYER
 10
81.873339098
 20
142.9758090846
 11
81.873339098
 21
135.6272873305
  0
LINE
  5
2D9
100
AcDbEntity
  8
0
100
AcDbLine
 62
7
  6
BYLAYER
 10
61.6504007495
 20
67.7768263246
 11
60.9432969123
 21
67.3685821708
  0
LINE
  5
2DA
100
AcDbEntity
  8
0
100
AcDbLine
 62
7
  6
BYLAYER
 10
64.9964579214
 20
68.8921734942
 11
65.8930296607
 21
69.4098063395
  0
LINE
  5
2DB
100
AcDbEntity
  8
0
100
AcDbLine
 62
7
  6
BYLAYER
 10
46.3629133659
 20
57.267715574
 11
52.3025855985
 21
60.6969664666
  0
LINE
  5
2DC
100
AcDbEntity
  8
0
100
AcDbLine
 62
7
  6
BYLAYER
 10
69.2696757063
 20
71.4611650574
 11
63.3921524345
 21
68.2409777102
  0
LINE
  5
2DD
100
AcDbEntity
  8
0
100
AcDbLine
 62
7
  6
BYLAYER
 10
63.5372764659
 20
65.8709812575
 11
69.2696757063
 21
69.0116578061
  0
LINE
  5
2DE
100
AcDbEntity
  8
0
100
AcDbLine
 62
7
  6
BYLAYER
 10
69.2283682189
 20
67.2585953724
 11
69.222152811
 21
67.2554338343
  0
LINE
  5
2DF
100
AcDbEntity
  8
0
100
AcDbLine
 62
7
  6
BYLAYER
 10
63.4959690091
 20
64.6822530089
 11
63.4897528024
 21
64.6790929024
  0
LINE
  5
2E0
100
AcDbEntity
  8
0
100
AcDbLine
 62
7
  6
BYLAYER
 10
63.5372764545
 20
64.7740604023
 11
69.2696756949
 21
67.3504027795
  0
LINE
  5
2E1
100
AcDbEntity
  8
0
100
AcDbLine
 62
7
  6
BYLAYER
 10
69.2221649457
 20
67.2554110496
 11
63.4897657052
 21
64.6790686724
  0
LINE
  5
2E2
100
AcDbEntity
  8
0
100
AcDbLine
 62
7
  6
BYLAYER
 10
64.9964579214
 20
68.8921734942
 11
63.9348223953
 21
68.5382966421
  0
LINE
  5
2E3
100
AcDbEntity
  8
0
100
AcDbLine
 62
7
  6
BYLAYER
 10
63.2643054058
 20
68.3147920251
 11
61.6504007495
 21
67.7768263246
  0
LINE
  5
2E4
100
AcDbEntity
  8
0
100
AcDbLine
 62
7
  6
BYLAYER
 10
78.2673656533
 20
105.3766703849
 11
28.7696848931
 21
133.9535232013
  0
LINE
  5
2E5
100
AcDbEntity
  8
0
100
AcDbLine
 62
7
  6
BYLAYER
 10
63.3921524345
 20
44.5624076134
 11
63.3157900085
 21
44.4346450888
  0
LINE
  5
2E6
100
AcDbEntity
  8
0
100
AcDbLine
 62
7
  6
BYLAYER
 10
64.9015983567
 20
54.2887784778
 11
59.8042043128
 21
50.2171556306
  0
LINE
  5
2E7
100
AcDbEntity
  8
0
100
AcDbLine
 62
7
  6
BYLAYER
 10
110.1577487117
 20
120.1550459682
 11
109.9327560373
 21
120.1327645033
  0
LINE
  5
2E8
100
AcDbEntity
  8
0
100
AcDbLine
 62
7
  6
BYLAYER
 10
63.4887600331
 20
115.6235204619
 11
62.0745405828
 21
116.440001971
  0
LINE
  5
2E9
100
AcDbEntity
  8
0
100
AcDbLine
 62
7
  6
BYLAYER
 10
47.9323460799
 20
124.6048170614
 11
46.5181266296
 21
125.4212985704
  0
LINE
  5
2EA
100
AcDbEntity
  8
0
100
AcDbLine
 62
7
  6
BYLAYER
 10
78.55019659
 20
107.0096408815
 11
64.6201350046
 21
115.0519837456
  0
LINE
  5
2EB
100
AcDbEntity
  8
0
100
AcDbLine
 62
7
  6
BYLAYER
 10
61.0845863788
 20
117.0931875182
 11
49.0637210513
 21
124.033280345
  0
LINE
  5
2EC
100
AcDbEntity
  8
0
100
AcDbLine
 62
7
  6
BYLAYER
 10
45.5281724256
 20
126.0744841176
 11
31.5981108402
 21
134.1168269817
  0
LINE
  5
2ED
100
AcDbEntity
  8
0
100
AcDbLine
 62
7
  6
BYLAYER
 10
94.9548690133
 20
135.423355126
 11
94.9548690133
 21
133.7903785105
  0
LINE
  5
2EE
100
AcDbEntity
  8
0
100
AcDbLine
 62
7
  6
BYLAYER
 10
65.4413803677
 20
54.2671247043
 11
60.3439863238
 21
50.195501857
  0
LINE
  5
2EF
100
AcDbEntity
  8
0
100
AcDbLine
 62
7
  6
BYLAYER
 10
59.8048874754
 20
50.2161057388
 11
59.8455634392
 21
50.2453954455
  0
LINE
  5
2F0
100
AcDbEntity
  8
0
100
AcDbLine
 62
7
  6
BYLAYER
 10
64.9429574832
 20
54.3170182927
 11
64.9022652751
 21
54.2877533351
  0
LINE
  5
2F1
100
AcDbEntity
  8
0
100
AcDbLine
 62
7
  6
BYLAYER
 10
42.8410724502
 20
133.8309704818
 11
42.9117834227
 21
133.7901464063
  0
LINE
  5
2F2
100
AcDbEntity
  8
0
100
AcDbLine
 62
7
  6
BYLAYER
 10
43.6491978503
 20
133.3644096195
 11
43.7199088229
 21
133.323585544
  0
LINE
  5
2F3
100
AcDbEntity
  8
0
100
AcDbLine
 62
7
  6
BYLAYER
 10
65.1451550904
 20
145.6933834063
 11
65.1855613604
 21
145.6233980822
  0
LINE
  5
2F4
100
AcDbEntity
  8
0
100
AcDbLine
 62
7
  6
BYLAYER
 10
97.4297530513
 20
133.9945124852
 11
97.4297530513
 21
126.645990731
  0
LINE
  5
2F5
100
AcDbEntity
  8
0
100
AcDbLine
 62
7
  6
BYLAYER
 10
63.3961288032
 20
48.4333864393
 11
69.1285280436
 21
52.1383971593
  0
LINE
  5
2F6
100
AcDbEntity
  8
0
100
AcDbLine
 62
7
  6
BYLAYER
 10
69.2696757063
 20
51.8933570856
 11
63.5372764659
 21
48.1883463656
  0
LINE
  5
2F7
100
AcDbEntity
  8
0
100
AcDbLine
 62
7
  6
BYLAYER
 10
61.6504007495
 20
46.5477634793
 11
60.9432969123
 21
46.1395193254
  0
LINE
  5
2F8
100
AcDbEntity
  8
0
100
AcDbLine
 62
7
  6
BYLAYER
 10
65.8930296607
 20
48.1807434941
 11
64.9964579214
 21
47.6631106489
  0
LINE
  5
2F9
100
AcDbEntity
  8
0
100
AcDbLine
 62
7
  6
BYLAYER
 10
69.2696757063
 20
50.2321022121
 11
63.5372764659
 21
47.0914256635
  0
LINE
  5
2FA
100
AcDbEntity
  8
0
100
AcDbLine
 62
7
  6
BYLAYER
 10
63.3921524345
 20
44.5624076134
 11
69.2696757063
 21
47.7825949607
  0
LINE
  5
2FB
100
AcDbEntity
  8
0
100
AcDbLine
 62
7
  6
BYLAYER
 10
61.7079292278
 20
147.974882387
 11
61.6287129005
 21
148.0809358315
  0
LINE
  5
2FC
100
AcDbEntity
  8
0
100
AcDbLine
 62
7
  6
BYLAYER
 10
62.1578016855
 20
148.7541006414
 11
62.2370180128
 21
148.648047197
  0
LINE
  5
2FD
100
AcDbEntity
  8
0
100
AcDbLine
 62
7
  6
BYLAYER
 10
64.9964579214
 20
47.6631106489
 11
63.9348223953
 21
47.3092337967
  0
LINE
  5
2FE
100
AcDbEntity
  8
0
100
AcDbLine
 62
7
  6
BYLAYER
 10
63.4436162606
 20
47.1454991849
 11
61.6504007495
 21
46.5477634793
  0
LINE
  5
2FF
100
AcDbEntity
  8
0
100
AcDbLine
 62
7
  6
BYLAYER
 10
108.0364107044
 20
126.2379313506
 11
108.0364107044
 21
124.0334129196
  0
LINE
  5
300
100
AcDbEntity
  8
0
100
AcDbLine
 62
7
  6
BYLAYER
 10
112.6326121419
 20
125.217336263
 11
112.6326121419
 21
122.3187526822
  0
LINE
  5
301
100
AcDbEntity
  8
0
100
AcDbLine
 62
7
  6
BYLAYER
 10
112.6326121419
 20
121.5839005068
 11
112.6326121419
 21
47.2005303063
  0
LINE
  5
302
100
AcDbEntity
  8
0
100
AcDbLine
 62
7
  6
BYLAYER
 10
112.6326121419
 20
46.4656781309
 11
112.6326121419
 21
43.56709455
  0
LINE
  5
303
100
AcDbEntity
  8
0
100
AcDbLine
 62
7
  6
BYLAYER
 10
59.8822429229
 20
143.5879872818
 11
59.811553945
 21
143.628798659
  0
LINE
  5
304
100
AcDbEntity
  8
0
100
AcDbLine
 62
7
  6
BYLAYER
 10
62.9935212125
 20
145.4658973514
 11
63.0642101904
 21
145.4250859742
  0
LINE
  5
305
100
AcDbEntity
  8
0
100
AcDbLine
 62
7
  6
BYLAYER
 10
63.8354574574
 20
30.6265834085
 11
63.8381188451
 21
30.628040258
  0
LINE
  5
306
100
AcDbEntity
  8
0
100
AcDbLine
 62
7
  6
BYLAYER
 10
63.8810947971
 20
30.7203919901
 11
78.2673656533
 21
38.1784654961
  0
LINE
  5
307
100
AcDbEntity
  8
0
100
AcDbLine
 62
7
  6
BYLAYER
 10
63.8381188451
 20
30.628040258
 11
78.2259641663
 21
38.0869299918
  0
LINE
  5
308
100
AcDbEntity
  8
0
100
AcDbLine
 62
7
  6
BYLAYER
 10
66.5997690349
 20
144.4452876281
 11
71.9736929729
 21
141.3427213853
  0
LINE
  5
309
100
AcDbEntity
  8
0
100
AcDbLine
 62
7
  6
BYLAYER
 10
81.873339098
 20
135.6272873305
 11
87.5301069261
 21
132.3614247859
  0
LINE
  5
30A
100
AcDbEntity
  8
0
100
AcDbLine
 62
7
  6
BYLAYER
 10
97.4297530513
 20
126.645990731
 11
104.9957171372
 21
122.2778781492
  0
LINE
  5
30B
100
AcDbEntity
  8
0
100
AcDbLine
 62
7
  6
BYLAYER
 10
65.1451550904
 20
145.6933834063
 11
64.3370296903
 21
146.1599442686
  0
LINE
  5
30C
100
AcDbEntity
  8
0
100
AcDbLine
 62
7
  6
BYLAYER
 10
110.1577487117
 20
120.1550459682
 11
109.8749048216
 21
120.31834227
  0
LINE
  5
30D
100
AcDbEntity
  8
0
100
AcDbLine
 62
7
  6
BYLAYER
 10
112.3497682519
 20
121.7471968086
 11
112.6326121419
 21
121.5839005068
  0
LINE
  5
30E
100
AcDbEntity
  8
0
100
AcDbLine
 62
7
  6
BYLAYER
 10
62.9935212125
 20
152.2428674135
 11
65.1855613604
 21
150.9773210745
  0
LINE
  5
30F
100
AcDbEntity
  8
0
100
AcDbLine
 62
7
  6
BYLAYER
 10
108.0364107044
 20
126.2379313506
 11
109.9456069622
 21
125.1356813134
  0
LINE
  5
310
100
AcDbEntity
  8
0
100
AcDbLine
 62
7
  6
BYLAYER
 10
66.5997690349
 20
151.7938093823
 11
63.1349313817
 21
153.7941890794
  0
LINE
  5
311
100
AcDbEntity
  8
0
100
AcDbLine
 62
7
  6
BYLAYER
 10
78.3377904723
 20
145.0170128572
 11
79.39845506
 21
144.4046517255
  0
LINE
  5
312
100
AcDbEntity
  8
0
100
AcDbLine
 62
7
  6
BYLAYER
 10
80.8126745103
 20
143.5881702164
 11
81.873339098
 21
142.9758090846
  0
LINE
  5
313
100
AcDbEntity
  8
0
100
AcDbLine
 62
7
  6
BYLAYER
 10
93.8942044255
 20
136.0357162578
 11
94.9548690133
 21
135.423355126
  0
LINE
  5
314
100
AcDbEntity
  8
0
100
AcDbLine
 62
7
  6
BYLAYER
 10
96.3690884636
 20
134.606873617
 11
97.4297530513
 21
133.9945124852
  0
LINE
  5
315
100
AcDbEntity
  8
0
100
AcDbLine
 62
7
  6
BYLAYER
 10
109.4506183788
 20
127.0544196583
 11
112.6326121419
 21
125.217336263
  0
LINE
  5
316
100
AcDbEntity
  8
0
100
AcDbLine
 62
7
  6
BYLAYER
 10
110.1577487117
 20
45.7716757677
 11
112.6326121419
 21
47.2005303063
  0
LINE
  5
317
100
AcDbEntity
  8
0
100
AcDbLine
 62
7
  6
BYLAYER
 10
109.8749048216
 20
45.2001198941
 11
112.3497682519
 21
46.6289744327
  0
LINE
  5
318
100
AcDbEntity
  8
0
100
AcDbLine
 62
7
  6
BYLAYER
 10
112.6326121419
 20
46.4656781309
 11
110.1577487117
 21
45.0368235923
  0
LINE
  5
319
100
AcDbEntity
  8
0
100
AcDbLine
 62
7
  6
BYLAYER
 10
112.6326121419
 20
43.56709455
 11
78.2673656533
 21
23.7264286719
  0
ARC
  5
31A
100
AcDbEntity
  8
0
100
AcDbCircle
 62
7
  6
BYLAYER
 10
-722.0604240077
 20
1369.997602125
 40
1495.2050329788
100
AcDbArc
 50
299.727773637
 51
299.9655756209
  0
ARC
  5
31B
100
AcDbEntity
  8
0
100
AcDbCircle
 62
7
  6
BYLAYER
 10
130.5929060987
 20
74.6468266001
 40
95.5968172924
100
AcDbArc
 50
181.0167895628
 51
181.2643623141
  0
ARC
  5
31C
100
AcDbEntity
  8
0
100
AcDbCircle
 62
7
  6
BYLAYER
 10
130.5929060987
 20
73.0138217659
 40
95.5968172924
100
AcDbArc
 50
181.0167895628
 51
181.2643623141
  0
ARC
  5
31D
100
AcDbEntity
  8
0
100
AcDbCircle
 62
7
  6
BYLAYER
 10
-22.3452678256
 20
123.0242409334
 40
80.3393730353
100
AcDbArc
 50
320.6440438221
 51
321.1547637969
  0
ARC
  5
31E
100
AcDbEntity
  8
0
100
AcDbCircle
 62
7
  6
BYLAYER
 10
111.6128184086
 20
45.6838414743
 40
80.3388445436
100
AcDbArc
 50
158.8455348216
 51
159.3562569812
  0
ARC
  5
31F
100
AcDbEntity
  8
0
100
AcDbCircle
 62
7
  6
BYLAYER
 10
55.5934245005
 20
47.5735604315
 40
54.3336598721
100
AcDbArc
 50
357.6012643926
 51
357.7256797107
  0
ARC
  5
320
100
AcDbEntity
  8
0
100
AcDbCircle
 62
7
  6
BYLAYER
 10
96.714731654
 20
45.8550677503
 40
13.176460621
100
AcDbArc
 50
357.1508875884
 51
357.5834879345
  0
ARC
  5
321
100
AcDbEntity
  8
0
100
AcDbCircle
 62
7
  6
BYLAYER
 10
41.2072527798
 20
73.0710841684
 40
4.8231336723
100
AcDbArc
 50
58.8042204932
 51
59.9965441016
  0
ARC
  5
322
100
AcDbEntity
  8
0
100
AcDbCircle
 62
7
  6
BYLAYER
 10
42.8250777367
 20
77.1110068315
 40
1.9506106333
100
AcDbArc
 50
112.0783254759
 51
119.9766065056
  0
ARC
  5
323
100
AcDbEntity
  8
0
100
AcDbCircle
 62
7
  6
BYLAYER
 10
46.6780061285
 20
70.4385316889
 40
1.9443461777
100
AcDbArc
 50
300.0079606182
 51
308.1819887904
  0
ARC
  5
324
100
AcDbEntity
  8
0
100
AcDbCircle
 62
7
  6
BYLAYER
 10
41.9829351372
 20
75.902062442
 40
1.8296205904
100
AcDbArc
 50
101.5993548737
 51
104.9963861698
  0
ARC
  5
325
100
AcDbEntity
  8
0
100
AcDbCircle
 62
7
  6
BYLAYER
 10
42.5089963246
 20
76.2420382072
 40
1.7968291307
100
AcDbArc
 50
131.3356996875
 51
138.5900249071
  0
ARC
  5
326
100
AcDbEntity
  8
0
100
AcDbCircle
 62
7
  6
BYLAYER
 10
45.7673120775
 20
70.5937168182
 40
1.7855708173
100
AcDbArc
 50
284.0014571767
 51
287.694812855
  0
ARC
  5
327
100
AcDbEntity
  8
0
100
AcDbCircle
 62
7
  6
BYLAYER
 10
16.2968127641
 20
109.484953681
 40
1.7299754838
100
AcDbArc
 50
142.1390043004
 51
151.1687455618
  0
ARC
  5
328
100
AcDbEntity
  8
0
100
AcDbCircle
 62
7
  6
BYLAYER
 10
41.9478938584
 20
76.0214645198
 40
1.7055967175
100
AcDbArc
 50
120.03889979
 51
131.1623639048
  0
ARC
  5
329
100
AcDbEntity
  8
0
100
AcDbCircle
 62
7
  6
BYLAYER
 10
33.3519963868
 20
84.0419845231
 40
1.6324889116
100
AcDbArc
 50
21.0087110972
 51
24.9037410666
  0
ARC
  5
32A
100
AcDbEntity
  8
0
100
AcDbCircle
 62
7
  6
BYLAYER
 10
16.1362306277
 20
109.6108411671
 40
1.5259327705
100
AcDbArc
 50
136.2098048765
 51
142.1702259538
  0
ARC
  5
32B
100
AcDbEntity
  8
0
100
AcDbCircle
 62
7
  6
BYLAYER
 10
51.057622837
 20
77.9482673174
 40
1.2250334555
100
AcDbArc
 50
63.3494307584
 51
67.3608014074
  0
ARC
  5
32C
100
AcDbEntity
  8
0
100
AcDbCircle
 62
7
  6
BYLAYER
 10
55.3002811879
 20
80.397837293
 40
1.2250334555
100
AcDbArc
 50
63.3494307584
 51
67.3608014074
  0
ARC
  5
32D
100
AcDbEntity
  8
0
100
AcDbCircle
 62
7
  6
BYLAYER
 10
25.6016727317
 20
92.6449344801
 40
1.2250334555
100
AcDbArc
 50
63.3494307584
 51
67.3608014074
  0
ARC
  5
32E
100
AcDbEntity
  8
0
100
AcDbCircle
 62
7
  6
BYLAYER
 10
21.3590143809
 20
99.99339351
 40
1.2250334555
100
AcDbArc
 50
63.3494307584
 51
67.3608014074
  0
ARC
  5
32F
100
AcDbEntity
  8
0
100
AcDbCircle
 62
7
  6
BYLAYER
 10
21.3590164711
 20
60.8012785832
 40
1.2250290246
100
AcDbArc
 50
63.3495052338
 51
67.3608130922
  0
ARC
  5
330
100
AcDbEntity
  8
0
100
AcDbCircle
 62
7
  6
BYLAYER
 10
25.601674822
 20
63.2508485589
 40
1.2250290246
100
AcDbArc
 50
63.3495052338
 51
67.3608130922
  0
ARC
  5
331
100
AcDbEntity
  8
0
100
AcDbCircle
 62
7
  6
BYLAYER
 10
55.3002832782
 20
41.2057223662
 40
1.2250290246
100
AcDbArc
 50
63.3495052338
 51
67.3608130922
  0
ARC
  5
332
100
AcDbEntity
  8
0
100
AcDbCircle
 62
7
  6
BYLAYER
 10
51.0576249273
 20
48.5541813961
 40
1.2250290246
100
AcDbArc
 50
63.3495052338
 51
67.3608130922
  0
ARC
  5
333
100
AcDbEntity
  8
0
100
AcDbCircle
 62
7
  6
BYLAYER
 10
51.5552729591
 20
77.1508184245
 40
1.185187111
100
AcDbArc
 50
352.1770330628
 51
356.7522526752
  0
ARC
  5
334
100
AcDbEntity
  8
0
100
AcDbCircle
 62
7
  6
BYLAYER
 10
55.79793131
 20
79.6003884002
 40
1.185187111
100
AcDbArc
 50
352.1770330628
 51
356.7522526752
  0
ARC
  5
335
100
AcDbEntity
  8
0
100
AcDbCircle
 62
7
  6
BYLAYER
 10
26.0993228538
 20
91.8474855873
 40
1.185187111
100
AcDbArc
 50
352.1770330628
 51
356.7522526753
  0
ARC
  5
336
100
AcDbEntity
  8
0
100
AcDbCircle
 62
7
  6
BYLAYER
 10
21.8566645029
 20
99.1959446172
 40
1.185187111
100
AcDbArc
 50
352.1770330628
 51
356.7522526753
  0
ARC
  5
337
100
AcDbEntity
  8
0
100
AcDbCircle
 62
7
  6
BYLAYER
 10
21.8566669949
 20
60.0038297558
 40
1.1851821733
100
AcDbArc
 50
352.1770313435
 51
356.7521101934
  0
ARC
  5
338
100
AcDbEntity
  8
0
100
AcDbCircle
 62
7
  6
BYLAYER
 10
26.0993253458
 20
62.4533997314
 40
1.1851821733
100
AcDbArc
 50
352.1770313435
 51
356.7521101934
  0
ARC
  5
339
100
AcDbEntity
  8
0
100
AcDbCircle
 62
7
  6
BYLAYER
 10
55.797933802
 20
40.4082735388
 40
1.1851821734
100
AcDbArc
 50
352.1770313436
 51
356.7521101934
  0
ARC
  5
33A
100
AcDbEntity
  8
0
100
AcDbCircle
 62
7
  6
BYLAYER
 10
51.5552754511
 20
47.7567325687
 40
1.1851821733
100
AcDbArc
 50
352.1770313436
 51
356.7521101934
  0
ARC
  5
33B
100
AcDbEntity
  8
0
100
AcDbCircle
 62
7
  6
BYLAYER
 10
15.6183128994
 20
109.6300019824
 40
1.0334814389
100
AcDbArc
 50
176.0028012745
 51
179.9316272422
  0
ARC
  5
33C
100
AcDbEntity
  8
0
100
AcDbCircle
 62
7
  6
BYLAYER
 10
112.7444365708
 20
47.1835042755
 40
0.6866999508
100
AcDbArc
 50
204.05001515
 51
210.0050809903
  0
ARC
  5
33D
100
AcDbEntity
  8
0
100
AcDbCircle
 62
7
  6
BYLAYER
 10
112.7444365708
 20
122.3017266514
 40
0.6866999509
100
AcDbArc
 50
204.05001515
 51
210.0050809903
  0
ARC
  5
33E
100
AcDbEntity
  8
0
100
AcDbCircle
 62
7
  6
BYLAYER
 10
39.5598289973
 20
81.4125837098
 40
0.5700096167
100
AcDbArc
 50
267.0930343684
 51
267.9621048701
  0
ARC
  5
33F
100
AcDbEntity
  8
0
100
AcDbCircle
 62
7
  6
BYLAYER
 10
15.0224530298
 20
58.9249929589
 40
0.4193320819
100
AcDbArc
 50
209.3786398027
 51
213.9479880327
  0
SPLINE
  5
340
100
AcDbEntity
  8
0
100
AcDbSpline
 62
7
  6
BYLAYER
 70
0
 71
3
 72
15
 73
11
 74
0
 42
0.0000001
 43
0.0000001
 44
0.0000000001
 40
0.0
 40
0.0
 40
0.0
 40
0.0
 40
0.1181418878
 40
0.2411717151
 40
0.3677190071
 40
0.4963165044
 40
0.6253972743
 40
0.7533761092
 40
0.8787318648
 40
1.0
 40
1.0
 40
1.0
 40
1.0
 10
28.3452109292
 20
73.9292041034
 30
0.0
 10
28.4440007304
 20
73.312121252
 30
0.0
 10
28.7089821511
 20
72.0619358644
 30
0.0
 10
29.2805586058
 20
70.2003383442
 30
0.0
 10
30.0254607772
 20
68.3413388679
 30
0.0
 10
30.9299440225
 20
66.5189039391
 30
0.0
 10
31.9777204751
 20
64.7661039557
 30
0.0
 10
33.1496955058
 20
63.1146572394
 30
0.0
 10
34.4245161189
 20
61.5948619085
 30
0.0
 10
35.3463302691
 20
60.6688400703
 30
0.0
 10
35.8197837036
 20
60.2360175439
 30
0.0
  0
SPLINE
  5
341
100
AcDbEntity
  8
0
100
AcDbSpline
 62
7
  6
BYLAYER
 70
0
 71
3
 72
11
 73
7
 74
0
 42
0.0000001
 43
0.0000001
 44
0.0000000001
 40
0.0
 40
0.0
 40
0.0
 40
0.0
 40
0.2310265135
 40
0.4861540688
 40
0.7486178611
 40
1.0
 40
1.0
 40
1.0
 40
1.0
 10
26.7056925466
 20
77.337206535
 30
0.0
 10
26.7056925466
 20
77.0386782606
 30
0.0
 10
26.7989583601
 20
76.4098254325
 30
0.0
 10
27.1391190541
 20
75.4984595931
 30
0.0
 10
27.6548300686
 20
74.6428375958
 30
0.0
 10
28.1018321799
 20
74.144337206
 30
0.0
 10
28.3452109292
 20
73.9292041034
 30
0.0
  0
SPLINE
  5
342
100
AcDbEntity
  8
0
100
AcDbSpline
 62
7
  6
BYLAYER
 70
0
 71
3
 72
11
 73
7
 74
0
 42
0.0000001
 43
0.0000001
 44
0.0000000001
 40
0.0
 40
0.0
 40
0.0
 40
0.0
 40
0.273083824
 40
0.5275802074
 40
0.7676557817
 40
1.0
 40
1.0
 40
1.0
 40
1.0
 10
49.2763199891
 20
61.8448960368
 30
0.0
 10
49.3661584835
 20
61.8205739933
 30
0.0
 10
49.5435731121
 20
61.7861493639
 30
0.0
 10
49.8066949926
 20
61.781779096
 30
0.0
 10
50.0519757934
 20
61.8277492464
 30
0.0
 10
50.2012469543
 20
61.892342232
 30
0.0
 10
50.2698230883
 20
61.9319403608
 30
0.0
  0
SPLINE
  5
343
100
AcDbEntity
  8
0
100
AcDbSpline
 62
7
  6
BYLAYER
 70
0
 71
3
 72
11
 73
7
 74
0
 42
0.0000001
 43
0.0000001
 44
0.0000000001
 40
0.0
 40
0.0
 40
0.0
 40
0.0
 40
0.2715530918
 40
0.5255380692
 40
0.7663038577
 40
1.0
 40
1.0
 40
1.0
 40
1.0
 10
41.8017472148
 20
56.7824074315
 30
0.0
 10
42.214882593
 20
56.6830514353
 30
0.0
 10
43.0300470374
 20
56.5475424436
 30
0.0
 10
44.235673407
 20
56.5550919968
 30
0.0
 10
45.360113516
 20
56.7837291506
 30
0.0
 10
46.0462259893
 20
57.0848787555
 30
0.0
 10
46.3629053555
 20
57.2677294258
 30
0.0
  0
SPLINE
  5
344
100
AcDbEntity
  8
0
100
AcDbSpline
 62
7
  6
BYLAYER
 70
0
 71
3
 72
11
 73
7
 74
0
 42
0.0000001
 43
0.0000001
 44
0.0000000001
 40
0.0
 40
0.0
 40
0.0
 40
0.0
 40
0.2774237279
 40
0.533314297
 40
0.7715545602
 40
1.0
 40
1.0
 40
1.0
 40
1.0
 10
39.6786806458
 20
58.2232349692
 30
0.0
 10
39.6707537599
 20
58.1803185465
 30
0.0
 10
39.6491572218
 20
58.0987655273
 30
0.0
 10
39.5966959418
 20
57.9884017932
 30
0.0
 10
39.5258784712
 20
57.8981816528
 30
0.0
 10
39.4668845401
 20
57.8529004004
 30
0.0
 10
39.4357599608
 20
57.8349348905
 30
0.0
  0
SPLINE
  5
345
100
AcDbEntity
  8
0
100
AcDbSpline
 62
7
  6
BYLAYER
 70
0
 71
3
 72
12
 73
8
 74
0
 42
0.0000001
 43
0.0000001
 44
0.0000000001
 40
0.0
 40
0.0
 40
0.0
 40
0.0
 40
0.2548782147
 40
0.5235291124
 40
0.7791380987
 40
0.8950213418
 40
1.0
 40
1.0
 40
1.0
 40
1.0
 10
38.9780368975
 20
82.685144475
 30
0.0
 10
39.0984652141
 20
82.5888161721
 30
0.0
 10
39.3170815556
 20
82.3539796432
 30
0.0
 10
39.5554738205
 20
81.9437726799
 30
0.0
 10
39.6734415151
 20
81.5699536248
 30
0.0
 10
39.7000975051
 20
81.2819829224
 30
0.0
 10
39.6902175175
 20
81.1477636537
 30
0.0
 10
39.6786806458
 20
81.0853026489
 30
0.0
  0
SPLINE
  5
346
100
AcDbEntity
  8
0
100
AcDbSpline
 62
7
  6
BYLAYER
 70
0
 71
3
 72
12
 73
8
 74
0
 42
0.0000001
 43
0.0000001
 44
0.0000000001
 40
0.0
 40
0.0
 40
0.0
 40
0.0
 40
0.1142773399
 40
0.2377162014
 40
0.5003088264
 40
0.7629244562
 40
1.0
 40
1.0
 40
1.0
 40
1.0
 10
51.5387405118
 20
79.0852615721
 30
0.0
 10
51.620996456
 20
79.037772155
 30
0.0
 10
51.7835457853
 20
78.9237649785
 30
0.0
 10
52.0879136864
 20
78.6390564636
 30
0.0
 10
52.4095097966
 20
78.1994783778
 30
0.0
 10
52.6668555258
 20
77.6159398665
 30
0.0
 10
52.7407939246
 20
77.2002697644
 30
0.0
 10
52.7407973956
 20
77.0032268433
 30
0.0
  0
SPLINE
  5
347
100
AcDbEntity
  8
0
100
AcDbSpline
 62
7
  6
BYLAYER
 70
0
 71
3
 72
12
 73
8
 74
0
 42
0.0000001
 43
0.0000001
 44
0.0000000001
 40
0.0
 40
0.0
 40
0.0
 40
0.0
 40
0.1142773399
 40
0.2377162014
 40
0.5003088264
 40
0.7629244562
 40
1.0
 40
1.0
 40
1.0
 40
1.0
 10
55.7813988627
 20
81.5348315478
 30
0.0
 10
55.8636548069
 20
81.4873421306
 30
0.0
 10
56.0262041362
 20
81.3733349542
 30
0.0
 10
56.3305720372
 20
81.0886264393
 30
0.0
 10
56.6521681475
 20
80.6490483535
 30
0.0
 10
56.9095138767
 20
80.0655098421
 30
0.0
 10
56.9834522755
 20
79.6498397401
 30
0.0
 10
56.9834557465
 20
79.452796819
 30
0.0
  0
SPLINE
  5
348
100
AcDbEntity
  8
0
100
AcDbSpline
 62
7
  6
BYLAYER
 70
0
 71
3
 72
12
 73
8
 74
0
 42
0.0000001
 43
0.0000001
 44
0.0000000001
 40
0.0
 40
0.0
 40
0.0
 40
0.0
 40
0.1142773399
 40
0.2377162014
 40
0.5003088264
 40
0.7629244562
 40
1.0
 40
1.0
 40
1.0
 40
1.0
 10
26.0827904065
 20
93.7819287349
 30
0.0
 10
26.1650463507
 20
93.7344393177
 30
0.0
 10
26.32759568
 20
93.6204321413
 30
0.0
 10
26.6319635811
 20
93.3357236263
 30
0.0
 10
26.9535596913
 20
92.8961455406
 30
0.0
 10
27.2109054206
 20
92.3126070292
 30
0.0
 10
27.2848438193
 20
91.8969369272
 30
0.0
 10
27.2848472903
 20
91.6998940061
 30
0.0
  0
SPLINE
  5
349
100
AcDbEntity
  8
0
100
AcDbSpline
 62
7
  6
BYLAYER
 70
0
 71
3
 72
12
 73
8
 74
0
 42
0.0000001
 43
0.0000001
 44
0.0000000001
 40
0.0
 40
0.0
 40
0.0
 40
0.0
 40
0.1142773399
 40
0.2377162014
 40
0.5003088264
 40
0.7629244562
 40
1.0
 40
1.0
 40
1.0
 40
1.0
 10
21.8401320556
 20
101.1303877648
 30
0.0
 10
21.9223879998
 20
101.0828983476
 30
0.0
 10
22.0849373292
 20
100.9688911712
 30
0.0
 10
22.3893052302
 20
100.6841826562
 30
0.0
 10
22.7109013404
 20
100.2446045705
 30
0.0
 10
22.9682470697
 20
99.6610660591
 30
0.0
 10
23.0421854684
 20
99.2453959571
 30
0.0
 10
23.0421889394
 20
99.048353036
 30
0.0
  0
SPLINE
  5
34A
100
AcDbEntity
  8
0
100
AcDbSpline
 62
7
  6
BYLAYER
 70
0
 71
3
 72
10
 73
6
 74
0
 42
0.0000001
 43
0.0000001
 44
0.0000000001
 40
0.0
 40
0.0
 40
0.0
 40
0.0
 40
0.512828604
 40
0.7611863898
 40
1.0
 40
1.0
 40
1.0
 40
1.0
 10
45.6883132187
 20
74.3193651159
 30
0.0
 10
46.3249070695
 20
73.2167583433
 30
0.0
 10
47.1425358833
 20
71.5003419012
 30
0.0
 10
47.9171499634
 20
69.1394323712
 30
0.0
 10
48.1892817895
 20
67.958589595
 30
0.0
 10
48.2929142745
 20
67.374822297
 30
0.0
  0
SPLINE
  5
34B
100
AcDbEntity
  8
0
100
AcDbSpline
 62
7
  6
BYLAYER
 70
0
 71
3
 72
10
 73
6
 74
0
 42
0.0000001
 43
0.0000001
 44
0.0000000001
 40
0.0
 40
0.0
 40
0.0
 40
0.0
 40
0.2388130254
 40
0.4871705976
 40
1.0
 40
1.0
 40
1.0
 40
1.0
 10
40.9764478489
 20
80.0472435307
 30
0.0
 10
41.4301890857
 20
79.6656168957
 30
0.0
 10
42.3167641085
 20
78.8395320873
 30
0.0
 10
43.9740697945
 20
76.9882569272
 30
0.0
 10
45.0517203961
 20
75.4219701075
 30
0.0
 10
45.6883132187
 20
74.3193651159
 30
0.0
  0
SPLINE
  5
34C
100
AcDbEntity
  8
0
100
AcDbSpline
 62
7
  6
BYLAYER
 70
0
 71
3
 72
11
 73
7
 74
0
 42
0.0000001
 43
0.0000001
 44
0.0000000001
 40
0.0
 40
0.0
 40
0.0
 40
0.0
 40
0.2897634497
 40
0.5490660779
 40
0.7822170403
 40
1.0
 40
1.0
 40
1.0
 40
1.0
 10
38.8107654592
 20
79.2327892905
 30
0.0
 10
38.9476568196
 20
79.1537568146
 30
0.0
 10
39.2198913333
 20
79.0241892541
 30
0.0
 10
39.6383829513
 20
78.9232152747
 30
0.0
 10
40.0310008059
 20
78.9331146787
 30
0.0
 10
40.2674048195
 20
79.0189380961
 30
0.0
 10
40.3702841244
 20
79.0783496339
 30
0.0
  0
SPLINE
  5
34D
100
AcDbEntity
  8
0
100
AcDbSpline
 62
7
  6
BYLAYER
 70
0
 71
3
 72
12
 73
8
 74
0
 42
0.0000001
 43
0.0000001
 44
0.0000000001
 40
0.0
 40
0.0
 40
0.0
 40
0.0
 40
0.2479030355
 40
0.51042527
 40
0.7672613194
 40
0.8876965736
 40
1.0
 40
1.0
 40
1.0
 40
1.0
 10
36.6450830694
 20
82.5479015796
 30
0.0
 10
36.6957192302
 20
82.215287451
 30
0.0
 10
36.8892164175
 20
81.5428106559
 30
0.0
 10
37.3733058603
 20
80.614628376
 30
0.0
 10
37.9198174799
 20
79.9306753277
 30
0.0
 10
38.417183202
 20
79.4882066509
 30
0.0
 10
38.6787696525
 20
79.308995381
 30
0.0
 10
38.8107654592
 20
79.2327892905
 30
0.0
  0
SPLINE
  5
34E
100
AcDbEntity
  8
0
100
AcDbSpline
 62
7
  6
BYLAYER
 70
0
 71
3
 72
11
 73
7
 74
0
 42
0.0000001
 43
0.0000001
 44
0.0000000001
 40
0.0
 40
0.0
 40
0.0
 40
0.0
 40
0.230428137
 40
0.4695188913
 40
0.7244330428
 40
1.0
 40
1.0
 40
1.0
 40
1.0
 10
31.9332176996
 20
82.2606935598
 30
0.0
 10
32.2559678109
 20
82.4470387511
 30
0.0
 10
32.9633890907
 20
82.7464140926
 30
0.0
 10
34.1288434471
 20
82.9382745305
 30
0.0
 10
35.379943095
 20
82.8779608301
 30
0.0
 10
36.2198175561
 20
82.6812681351
 30
0.0
 10
36.6450830694
 20
82.5479015796
 30
0.0
  0
SPLINE
  5
34F
100
AcDbEntity
  8
0
100
AcDbSpline
 62
7
  6
BYLAYER
 70
0
 71
3
 72
11
 73
7
 74
0
 42
0.0000001
 43
0.0000001
 44
0.0000000001
 40
0.0
 40
0.0
 40
0.0
 40
0.0
 40
0.2777362934
 40
0.5334031758
 40
0.7715018719
 40
1.0
 40
1.0
 40
1.0
 40
1.0
 10
29.3286166438
 20
73.3221727751
 30
0.0
 10
29.4313624948
 20
73.285719207
 30
0.0
 10
29.6345367424
 20
73.2304561944
 30
0.0
 10
29.9384833613
 20
73.2063842161
 30
0.0
 10
30.2216680456
 20
73.2468210044
 30
0.0
 10
30.3930664802
 20
73.3178481337
 30
0.0
 10
30.470748023
 20
73.3626863793
 30
0.0
  0
SPLINE
  5
350
100
AcDbEntity
  8
0
100
AcDbSpline
 62
7
  6
BYLAYER
 70
0
 71
3
 72
11
 73
7
 74
0
 42
0.0000001
 43
0.0000001
 44
0.0000000001
 40
0.0
 40
0.0
 40
0.0
 40
0.0
 40
0.2755677298
 40
0.5304823596
 40
0.7695729579
 40
1.0
 40
1.0
 40
1.0
 40
1.0
 10
48.2929142745
 20
62.3733781278
 30
0.0
 10
48.1957854426
 20
61.938398431
 30
0.0
 10
47.9461995081
 20
61.1126879485
 30
0.0
 10
47.3728993458
 20
59.9990268102
 30
0.0
 10
46.6240324866
 20
59.0856216422
 30
0.0
 10
46.0110641019
 20
58.6226471494
 30
0.0
 10
45.6883132187
 20
58.4363015124
 30
0.0
  0
SPLINE
  5
351
100
AcDbEntity
  8
0
100
AcDbSpline
 62
7
  6
BYLAYER
 70
0
 71
3
 72
12
 73
8
 74
0
 42
0.0000001
 43
0.0000001
 44
0.0000000001
 40
0.0
 40
0.0
 40
0.0
 40
0.0
 40
0.1123041765
 40
0.2327400013
 40
0.4895765757
 40
0.7520983415
 40
1.0
 40
1.0
 40
1.0
 40
1.0
 10
46.5047648507
 20
65.9064654084
 30
0.0
 10
46.5047648507
 20
65.754049477
 30
0.0
 10
46.5291759323
 20
65.437901474
 30
0.0
 10
46.6636871619
 20
64.7859336315
 30
0.0
 10
46.9827565455
 20
63.9706641958
 30
0.0
 10
47.5445447323
 20
63.0873424368
 30
0.0
 10
48.0301797111
 20
62.5835344706
 30
0.0
 10
48.2929142745
 20
62.3733781278
 30
0.0
  0
SPLINE
  5
352
100
AcDbEntity
  8
0
100
AcDbSpline
 62
7
  6
BYLAYER
 70
0
 71
3
 72
17
 73
13
 74
0
 42
0.0000001
 43
0.0000001
 44
0.0000000001
 40
0.0
 40
0.0
 40
0.0
 40
0.0
 40
0.1286838122
 40
0.2703019607
 40
0.4174417478
 40
0.5617801027
 40
0.6954476096
 40
0.8127118774
 40
0.8646786847
 40
0.9125085647
 40
0.9571391055
 40
1.0
 40
1.0
 40
1.0
 40
1.0
 10
28.9112293071
 20
77.0844961208
 30
0.0
 10
29.0037554882
 20
77.0310773137
 30
0.0
 10
29.1833699897
 20
76.8928388182
 30
0.0
 10
29.4132822807
 20
76.6313112607
 30
0.0
 10
29.6024831557
 20
76.3235254165
 30
0.0
 10
29.7354044855
 20
75.9945770906
 30
0.0
 10
29.801382675
 20
75.6711330142
 30
0.0
 10
29.7954213687
 20
75.416289063
 30
0.0
 10
29.7483127735
 20
75.2414644358
 30
0.0
 10
29.6957207402
 20
75.1327782881
 30
0.0
 10
29.6254801302
 20
75.0438352344
 30
0.0
 10
29.5670161291
 20
74.9991756723
 30
0.0
 10
29.5361991226
 20
74.9813819833
 30
0.0
  0
SPLINE
  5
353
100
AcDbEntity
  8
0
100
AcDbSpline
 62
7
  6
BYLAYER
 70
0
 71
3
 72
17
 73
13
 74
0
 42
0.0000001
 43
0.0000001
 44
0.0000000001
 40
0.0
 40
0.0
 40
0.0
 40
0.0
 40
0.1286838122
 40
0.2703019607
 40
0.4174417478
 40
0.5617801027
 40
0.6954476096
 40
0.8127118774
 40
0.8646786847
 40
0.9125085647
 40
0.9571391055
 40
1.0
 40
1.0
 40
1.0
 40
1.0
 10
48.7103016112
 20
65.6537549942
 30
0.0
 10
48.8028277923
 20
65.6003361871
 30
0.0
 10
48.9824422938
 20
65.4620976916
 30
0.0
 10
49.2123545848
 20
65.2005701342
 30
0.0
 10
49.4015554598
 20
64.89278429
 30
0.0
 10
49.5344767896
 20
64.563835964
 30
0.0
 10
49.6004549791
 20
64.2403918876
 30
0.0
 10
49.5944936728
 20
63.9855479364
 30
0.0
 10
49.5473850776
 20
63.8107233093
 30
0.0
 10
49.4947930443
 20
63.7020371616
 30
0.0
 10
49.4245524343
 20
63.6130941078
 30
0.0
 10
49.3660884332
 20
63.5684345458
 30
0.0
 10
49.3352714267
 20
63.5506408568
 30
0.0
  0
SPLINE
  5
354
100
AcDbEntity
  8
0
100
AcDbSpline
 62
7
  6
BYLAYER
 70
0
 71
3
 72
12
 73
8
 74
0
 42
0.0000001
 43
0.0000001
 44
0.0000000001
 40
0.0
 40
0.0
 40
0.0
 40
0.0
 40
0.1142773399
 40
0.2377162014
 40
0.5003088264
 40
0.7629244562
 40
1.0
 40
1.0
 40
1.0
 40
1.0
 10
51.5387405118
 20
49.6911713146
 30
0.0
 10
51.620996264
 20
49.6436820083
 30
0.0
 10
51.7835452138
 20
49.529675098
 30
0.0
 10
52.0879124042
 20
49.2449672478
 30
0.0
 10
52.4095077636
 20
48.8053901883
 30
0.0
 10
52.6668528919
 20
48.2218530394
 30
0.0
 10
52.740791118
 20
47.8061839078
 30
0.0
 10
52.7407945889
 20
47.6091414468
 30
0.0
  0
SPLINE
  5
355
100
AcDbEntity
  8
0
100
AcDbSpline
 62
7
  6
BYLAYER
 70
0
 71
3
 72
12
 73
8
 74
0
 42
0.0000001
 43
0.0000001
 44
0.0000000001
 40
0.0
 40
0.0
 40
0.0
 40
0.0
 40
0.1142773399
 40
0.2377162014
 40
0.5003088264
 40
0.7629244562
 40
1.0
 40
1.0
 40
1.0
 40
1.0
 10
55.7813988627
 20
42.3427122847
 30
0.0
 10
55.8636546149
 20
42.2952229784
 30
0.0
 10
56.0262035647
 20
42.1812160681
 30
0.0
 10
56.3305707551
 20
41.8965082179
 30
0.0
 10
56.6521661145
 20
41.4569311584
 30
0.0
 10
56.9095112428
 20
40.8733940095
 30
0.0
 10
56.9834494689
 20
40.4577248779
 30
0.0
 10
56.9834529398
 20
40.2606824169
 30
0.0
  0
SPLINE
  5
356
100
AcDbEntity
  8
0
100
AcDbSpline
 62
7
  6
BYLAYER
 70
0
 71
3
 72
12
 73
8
 74
0
 42
0.0000001
 43
0.0000001
 44
0.0000000001
 40
0.0
 40
0.0
 40
0.0
 40
0.0
 40
0.1142773399
 40
0.2377162014
 40
0.5003088264
 40
0.7629244562
 40
1.0
 40
1.0
 40
1.0
 40
1.0
 10
26.0827904065
 20
64.3878384773
 30
0.0
 10
26.1650461587
 20
64.340349171
 30
0.0
 10
26.3275951085
 20
64.2263422608
 30
0.0
 10
26.6319622989
 20
63.9416344105
 30
0.0
 10
26.9535576583
 20
63.5020573511
 30
0.0
 10
27.2109027866
 20
62.9185202021
 30
0.0
 10
27.2848410127
 20
62.5028510705
 30
0.0
 10
27.2848444837
 20
62.3058086095
 30
0.0
  0
SPLINE
  5
357
100
AcDbEntity
  8
0
100
AcDbSpline
 62
7
  6
BYLAYER
 70
0
 71
3
 72
12
 73
8
 74
0
 42
0.0000001
 43
0.0000001
 44
0.0000000001
 40
0.0
 40
0.0
 40
0.0
 40
0.0
 40
0.1142773399
 40
0.2377162014
 40
0.5003088264
 40
0.7629244562
 40
1.0
 40
1.0
 40
1.0
 40
1.0
 10
21.8401320556
 20
61.9382685017
 30
0.0
 10
21.9223878078
 20
61.8907791953
 30
0.0
 10
22.0849367576
 20
61.7767722851
 30
0.0
 10
22.389303948
 20
61.4920644349
 30
0.0
 10
22.7108993074
 20
61.0524873754
 30
0.0
 10
22.9682444358
 20
60.4689502265
 30
0.0
 10
23.0421826618
 20
60.0532810949
 30
0.0
 10
23.0421861328
 20
59.8562386338
 30
0.0
  0
SPLINE
  5
358
100
AcDbEntity
  8
0
100
AcDbSpline
 62
7
  6
BYLAYER
 70
0
 71
3
 72
9
 73
5
 74
0
 42
0.0000001
 43
0.0000001
 44
0.0000000001
 40
0.0
 40
0.0
 40
0.0
 40
0.0
 40
0.5072618584
 40
1.0
 40
1.0
 40
1.0
 40
1.0
 10
14.5811131294
 20
72.5708374238
 30
0.0
 10
14.5646645786
 20
72.5413260788
 30
0.0
 10
14.5381062441
 20
72.479734071
 30
0.0
 10
14.5262526569
 20
72.4130917797
 30
0.0
 10
14.5262524655
 20
72.3802734069
 30
0.0
  0
SPLINE
  5
359
100
AcDbEntity
  8
0
100
AcDbSpline
 62
7
  6
BYLAYER
 70
0
 71
3
 72
11
 73
7
 74
0
 42
0.0000001
 43
0.0000001
 44
0.0000000001
 40
0.0
 40
0.0
 40
0.0
 40
0.0
 40
0.2177249355
 40
0.4508743929
 40
0.7104693359
 40
1.0
 40
1.0
 40
1.0
 40
1.0
 10
48.0853317957
 20
65.7156130888
 30
0.0
 10
48.1265512977
 20
65.7394131615
 30
0.0
 10
48.2212459701
 20
65.7738741988
 30
0.0
 10
48.3786589318
 20
65.7778437878
 30
0.0
 10
48.5463455913
 20
65.7372517091
 30
0.0
 10
48.6554864576
 20
65.685401822
 30
0.0
 10
48.7103016112
 20
65.6537549942
 30
0.0
  0
SPLINE
  5
35A
100
AcDbEntity
  8
0
100
AcDbSpline
 62
7
  6
BYLAYER
 70
0
 71
3
 72
11
 73
7
 74
0
 42
0.0000001
 43
0.0000001
 44
0.0000000001
 40
0.0
 40
0.0
 40
0.0
 40
0.0
 40
0.2177249355
 40
0.4508743929
 40
0.7104693359
 40
1.0
 40
1.0
 40
1.0
 40
1.0
 10
28.2862594916
 20
77.1463542153
 30
0.0
 10
28.3274789935
 20
77.1701542881
 30
0.0
 10
28.4221736659
 20
77.2046153253
 30
0.0
 10
28.5795866277
 20
77.2085849143
 30
0.0
 10
28.7472732871
 20
77.1679928357
 30
0.0
 10
28.8564141534
 20
77.1161429485
 30
0.0
 10
28.9112293071
 20
77.0844961208
 30
0.0
  0
SPLINE
  5
35B
100
AcDbEntity
  8
0
100
AcDbSpline
 62
7
  6
BYLAYER
 70
0
 71
3
 72
11
 73
7
 74
0
 42
0.0000001
 43
0.0000001
 44
0.0000000001
 40
0.0
 40
0.0
 40
0.0
 40
0.0
 40
0.229173653
 40
0.4676046736
 40
0.7230207545
 40
1.0
 40
1.0
 40
1.0
 40
1.0
 10
35.9697242049
 20
74.4528590703
 30
0.0
 10
35.8483472681
 20
74.3827700831
 30
0.0
 10
35.6181658002
 20
74.207110983
 30
0.0
 10
35.3401824549
 20
73.8583201956
 30
0.0
 10
35.1314760054
 20
73.4321177978
 30
0.0
 10
35.0440463377
 20
73.1165942349
 30
0.0
 10
35.0111416633
 20
72.9504233927
 30
0.0
  0
SPLINE
  5
35C
100
AcDbEntity
  8
0
100
AcDbSpline
 62
7
  6
BYLAYER
 70
0
 71
3
 72
9
 73
5
 74
0
 42
0.0000001
 43
0.0000001
 44
0.0000000001
 40
0.0
 40
0.0
 40
0.0
 40
0.0
 40
0.2484595826
 40
1.0
 40
1.0
 40
1.0
 40
1.0
 10
41.0940928563
 20
77.4979752756
 30
0.0
 10
41.1263785278
 20
77.5166110418
 30
0.0
 10
41.2587749476
 20
77.5873059942
 30
0.0
 10
41.4005931828
 20
77.640171675
 30
0.0
 10
41.5095059519
 20
77.6693700868
 30
0.0
  0
SPLINE
  5
35D
100
AcDbEntity
  8
0
100
AcDbSpline
 62
7
  6
BYLAYER
 70
0
 71
3
 72
11
 73
7
 74
0
 42
0.0000001
 43
0.0000001
 44
0.0000000001
 40
0.0
 40
0.0
 40
0.0
 40
0.0
 40
0.2207551698
 40
0.4588550067
 40
0.7182749269
 40
1.0
 40
1.0
 40
1.0
 40
1.0
 10
41.6150590124
 20
77.6943176307
 30
0.0
 10
41.7660804544
 20
77.7253446441
 30
0.0
 10
42.0888545374
 20
77.7507001481
 30
0.0
 10
42.5889410931
 20
77.6832844834
 30
0.0
 10
43.109122722
 20
77.5153526648
 30
0.0
 10
43.4486738711
 20
77.3462719104
 30
0.0
 10
43.6190715522
 20
77.2478949889
 30
0.0
  0
SPLINE
  5
35E
100
AcDbEntity
  8
0
100
AcDbSpline
 62
7
  6
BYLAYER
 70
0
 71
3
 72
11
 73
7
 74
0
 42
0.0000001
 43
0.0000001
 44
0.0000000001
 40
0.0
 40
0.0
 40
0.0
 40
0.0
 40
0.2336498316
 40
0.4744105017
 40
0.7283807747
 40
1.0
 40
1.0
 40
1.0
 40
1.0
 10
40.7190946033
 20
78.1474951797
 30
0.0
 10
40.5973085865
 20
78.0771988853
 30
0.0
 10
40.3651162987
 20
77.9065328253
 30
0.0
 10
40.0728648819
 20
77.5758797293
 30
0.0
 10
39.8387915025
 20
77.1755427848
 30
0.0
 10
39.7273585271
 20
76.8778542334
 30
0.0
 10
39.6811388898
 20
76.7210553163
 30
0.0
  0
SPLINE
  5
35F
100
AcDbEntity
  8
0
100
AcDbSpline
 62
7
  6
BYLAYER
 70
0
 71
3
 72
9
 73
5
 74
0
 42
0.0000001
 43
0.0000001
 44
0.0000000001
 40
0.0
 40
0.0
 40
0.0
 40
0.0
 40
0.4492328584
 40
1.0
 40
1.0
 40
1.0
 40
1.0
 10
78.2259636894
 20
38.0869308787
 30
0.0
 10
78.2394521195
 20
38.0947186501
 30
0.0
 10
78.2627422448
 20
38.1238900715
 30
0.0
 10
78.2673656533
 20
38.1593744452
 30
0.0
 10
78.2673656533
 20
38.1784699167
 30
0.0
  0
SPLINE
  5
360
100
AcDbEntity
  8
0
100
AcDbSpline
 62
7
  6
BYLAYER
 70
0
 71
3
 72
11
 73
7
 74
0
 42
0.0000001
 43
0.0000001
 44
0.0000000001
 40
0.0
 40
0.0
 40
0.0
 40
0.0
 40
0.228497127
 40
0.4665953291
 40
0.7222625558
 40
1.0
 40
1.0
 40
1.0
 40
1.0
 10
37.2512467939
 20
61.6186454383
 30
0.0
 10
37.1735724637
 20
61.5737894644
 30
0.0
 10
37.0263572299
 20
61.4608643027
 30
0.0
 10
36.8497411277
 20
61.2358292939
 30
0.0
 10
36.7186129641
 20
60.9605568157
 30
0.0
 10
36.6648856093
 20
60.7569631473
 30
0.0
 10
36.6450830694
 20
60.6497515415
 30
0.0
  0
SPLINE
  5
361
100
AcDbEntity
  8
0
100
AcDbSpline
 62
7
  6
BYLAYER
 70
0
 71
3
 72
11
 73
7
 74
0
 42
0.0000001
 43
0.0000001
 44
0.0000000001
 40
0.0
 40
0.0
 40
0.0
 40
0.0
 40
0.2177819762
 40
0.4509325184
 40
0.7102355404
 40
1.0
 40
1.0
 40
1.0
 40
1.0
 10
47.1507828954
 20
67.3343086928
 30
0.0
 10
47.0478887489
 20
67.2749175834
 30
0.0
 10
46.855356592
 20
67.1130936354
 30
0.0
 10
46.6504709753
 20
66.7780166323
 30
0.0
 10
46.5286711705
 20
66.3650926491
 30
0.0
 10
46.5047648507
 20
66.0645378182
 30
0.0
 10
46.5047648507
 20
65.9064654084
 30
0.0
  0
SPLINE
  5
362
100
AcDbEntity
  8
0
100
AcDbSpline
 62
7
  6
BYLAYER
 70
0
 71
3
 72
11
 73
7
 74
0
 42
0.0000001
 43
0.0000001
 44
0.0000000001
 40
0.0
 40
0.0
 40
0.0
 40
0.0
 40
0.2077679824
 40
0.4371701971
 40
0.7008397977
 40
1.0
 40
1.0
 40
1.0
 40
1.0
 10
38.1857709576
 20
82.8620601816
 30
0.0
 10
38.237215398
 20
82.8917545782
 30
0.0
 10
38.3605860272
 20
82.9301495379
 30
0.0
 10
38.5638318957
 20
82.912677027
 30
0.0
 10
38.7767437435
 20
82.8289705892
 30
0.0
 10
38.9112470414
 20
82.738568401
 30
0.0
 10
38.9780368975
 20
82.685144475
 30
0.0
  0
SPLINE
  5
363
100
AcDbEntity
  8
0
100
AcDbSpline
 62
7
  6
BYLAYER
 70
0
 71
3
 72
17
 73
13
 74
0
 42
0.0000001
 43
0.0000001
 44
0.0000000001
 40
0.0
 40
0.0
 40
0.0
 40
0.0
 40
0.0431680374
 40
0.0884046468
 40
0.1373277183
 40
0.1908921165
 40
0.3124876847
 40
0.450707304
 40
0.5979161819
 40
0.7444839213
 40
0.8809141914
 40
1.0
 40
1.0
 40
1.0
 40
1.0
 10
38.185770298
 20
59.9999939468
 30
0.0
 10
38.2190962381
 20
60.0192348242
 30
0.0
 10
38.293305814
 20
60.0490535547
 30
0.0
 10
38.4160903731
 20
60.0634449243
 30
0.0
 10
38.5479032363
 20
60.0481667214
 30
0.0
 10
38.7391903541
 20
59.9873229445
 30
0.0
 10
38.9801765624
 20
59.8383153974
 30
0.0
 10
39.2394784983
 20
59.5813852862
 30
0.0
 10
39.4585825338
 20
59.2620489273
 30
0.0
 10
39.6166544293
 20
58.9101921189
 30
0.0
 10
39.6991483582
 20
58.5591273848
 30
0.0
 10
39.6979623192
 20
58.3276265865
 30
0.0
 10
39.6786806458
 20
58.2232349692
 30
0.0
  0
SPLINE
  5
364
100
AcDbEntity
  8
0
100
AcDbSpline
 62
7
  6
BYLAYER
 70
0
 71
3
 72
11
 73
7
 74
0
 42
0.0000001
 43
0.0000001
 44
0.0000000001
 40
0.0
 40
0.0
 40
0.0
 40
0.0
 40
0.2177796898
 40
0.4509408373
 40
0.7102206425
 40
1.0
 40
1.0
 40
1.0
 40
1.0
 10
27.3517078301
 20
78.7650547113
 30
0.0
 10
27.2488244358
 20
78.7056464353
 30
0.0
 10
27.0562619791
 20
78.5438558486
 30
0.0
 10
26.8514088483
 20
78.2087576525
 30
0.0
 10
26.7295846326
 20
77.7958434034
 30
0.0
 10
26.7056925466
 20
77.4952877617
 30
0.0
 10
26.7056925466
 20
77.337206535
 30
0.0
  0
SPLINE
  5
365
100
AcDbEntity
  8
0
100
AcDbSpline
 62
7
  6
BYLAYER
 70
0
 71
3
 72
12
 73
8
 74
0
 42
0.0000001
 43
0.0000001
 44
0.0000000001
 40
0.0
 40
0.0
 40
0.0
 40
0.0
 40
0.1141224671
 40
0.2294494167
 40
0.4677604385
 40
0.722976165
 40
1.0
 40
1.0
 40
1.0
 40
1.0
 10
31.2586255628
 20
83.4292656463
 30
0.0
 10
31.0745065749
 20
83.3229553402
 30
0.0
 10
30.7174935001
 20
83.0853709548
 30
0.0
 10
30.0567532676
 20
82.5143234926
 30
0.0
 10
29.3429378099
 20
81.6181527902
 30
0.0
 10
28.7094382938
 20
80.319889471
 30
0.0
 10
28.4446685744
 20
79.3585123247
 30
0.0
 10
28.3452109292
 20
78.8520990353
 30
0.0
  0
SPLINE
  5
366
100
AcDbEntity
  8
0
100
AcDbSpline
 62
7
  6
BYLAYER
 70
0
 71
3
 72
11
 73
7
 74
0
 42
0.0000001
 43
0.0000001
 44
0.0000000001
 40
0.0
 40
0.0
 40
0.0
 40
0.0
 40
0.2598534031
 40
0.5213567998
 40
0.7716681523
 40
1.0
 40
1.0
 40
1.0
 40
1.0
 10
43.2483851677
 20
79.8707240641
 30
0.0
 10
43.1989521831
 20
79.8616272865
 30
0.0
 10
43.0979322913
 20
79.8528223292
 30
0.0
 10
42.9484368855
 20
79.8623051574
 30
0.0
 10
42.8081448613
 20
79.8935783002
 30
0.0
 10
42.7220216017
 20
79.9296981179
 30
0.0
 10
42.6837599769
 20
79.9517587413
 30
0.0
  0
SPLINE
  5
367
100
AcDbEntity
  8
0
100
AcDbSpline
 62
7
  6
BYLAYER
 70
0
 71
3
 72
9
 73
5
 74
0
 42
0.0000001
 43
0.0000001
 44
0.0000000001
 40
0.0
 40
0.0
 40
0.0
 40
0.0
 40
0.4514315063
 40
1.0
 40
1.0
 40
1.0
 40
1.0
 10
63.4897646973
 20
64.6790705756
 30
0.0
 10
63.4764199575
 20
64.6730845816
 30
0.0
 10
63.4421391578
 20
64.6702176425
 30
0.0
 10
63.411524449
 20
64.6831115978
 30
0.0
 10
63.396132561
 20
64.6919979075
 30
0.0
  0
SPLINE
  5
368
100
AcDbEntity
  8
0
100
AcDbSpline
 62
7
  6
BYLAYER
 70
0
 71
3
 72
11
 73
7
 74
0
 42
0.0000001
 43
0.0000001
 44
0.0000000001
 40
0.0
 40
0.0
 40
0.0
 40
0.0
 40
0.2372238755
 40
0.500000753
 40
0.762778207
 40
1.0
 40
1.0
 40
1.0
 40
1.0
 10
60.3439862763
 20
66.4541155222
 30
0.0
 10
60.2439722154
 20
66.5118573687
 30
0.0
 10
60.0545264555
 20
66.6709286972
 30
0.0
 10
59.8335091516
 20
66.9727819505
 30
0.0
 10
59.6826054067
 20
67.3151141353
 30
0.0
 10
59.639567365
 20
67.5587134666
 30
0.0
 10
59.639567365
 20
67.6741980935
 30
0.0
  0
SPLINE
  5
369
100
AcDbEntity
  8
0
100
AcDbSpline
 62
7
  6
BYLAYER
 70
0
 71
3
 72
9
 73
5
 74
0
 42
0.0000001
 43
0.0000001
 44
0.0000000001
 40
0.0
 40
0.0
 40
0.0
 40
0.0
 40
0.2291141319
 40
1.0
 40
1.0
 40
1.0
 40
1.0
 10
78.2673656533
 20
90.9246323399
 30
0.0
 10
78.2673656533
 20
90.935805051
 30
0.0
 10
78.2630342369
 20
90.9845424951
 30
0.0
 10
78.2447596342
 20
91.0314181735
 30
0.0
 10
78.2259634978
 20
91.063973856
 30
0.0
  0
SPLINE
  5
36A
100
AcDbEntity
  8
0
100
AcDbSpline
 62
7
  6
BYLAYER
 70
0
 71
3
 72
9
 73
5
 74
0
 42
0.0000001
 43
0.0000001
 44
0.0000000001
 40
0.0
 40
0.0
 40
0.0
 40
0.0
 40
0.2671500437
 40
1.0
 40
1.0
 40
1.0
 40
1.0
 10
78.2259634978
 20
91.063973856
 30
0.0
 10
78.2194538508
 20
91.0752488328
 30
0.0
 10
78.1927731697
 20
91.1159405473
 30
0.0
 10
78.1569210141
 20
91.1516418847
 30
0.0
 10
78.1259911129
 20
91.1694988676
 30
0.0
  0
SPLINE
  5
36B
100
AcDbEntity
  8
0
100
AcDbSpline
 62
7
  6
BYLAYER
 70
0
 71
3
 72
9
 73
5
 74
0
 42
0.0000001
 43
0.0000001
 44
0.0000000001
 40
0.0
 40
0.0
 40
0.0
 40
0.0
 40
0.55076622
 40
1.0
 40
1.0
 40
1.0
 40
1.0
 10
28.9110622047
 20
119.5831085191
 30
0.0
 10
28.894525111
 20
119.5926559986
 30
0.0
 10
28.8614830797
 20
119.6063937191
 30
0.0
 10
28.8245752042
 20
119.600808718
 30
0.0
 10
28.811086857
 20
119.5930209945
 30
0.0
  0
SPLINE
  5
36C
100
AcDbEntity
  8
0
100
AcDbSpline
 62
7
  6
BYLAYER
 70
0
 71
3
 72
9
 73
5
 74
0
 42
0.0000001
 43
0.0000001
 44
0.0000000001
 40
0.0
 40
0.0
 40
0.0
 40
0.0
 40
0.5419226795
 40
1.0
 40
1.0
 40
1.0
 40
1.0
 10
34.9377737824
 20
84.423804786
 30
0.0
 10
34.9008559422
 20
84.445148604
 30
0.0
 10
34.836854074
 20
84.4930551144
 30
0.0
 10
34.7932266364
 20
84.5618754846
 30
0.0
 10
34.7823243514
 20
84.5962331642
 30
0.0
  0
SPLINE
  5
36D
100
AcDbEntity
  8
0
100
AcDbSpline
 62
7
  6
BYLAYER
 70
0
 71
3
 72
9
 73
5
 74
0
 42
0.0000001
 43
0.0000001
 44
0.0000000001
 40
0.0
 40
0.0
 40
0.0
 40
0.0
 40
0.5487509836
 40
1.0
 40
1.0
 40
1.0
 40
1.0
 10
14.7913582899
 20
76.3311461729
 30
0.0
 10
14.7913583039
 20
76.349134944
 30
0.0
 10
14.7955297131
 20
76.3824848404
 30
0.0
 10
14.8154599912
 20
76.4110675321
 30
0.0
 10
14.8275046501
 20
76.4196550305
 30
0.0
  0
SPLINE
  5
36E
100
AcDbEntity
  8
0
100
AcDbSpline
 62
7
  6
BYLAYER
 70
0
 71
3
 72
11
 73
7
 74
0
 42
0.0000001
 43
0.0000001
 44
0.0000000001
 40
0.0
 40
0.0
 40
0.0
 40
0.0
 40
0.2387804468
 40
0.4892029827
 40
0.745134629
 40
1.0
 40
1.0
 40
1.0
 40
1.0
 10
35.0193640177
 20
70.9044307327
 30
0.0
 10
35.0673567082
 20
70.6350012965
 30
0.0
 10
35.2054316769
 20
70.089607806
 30
0.0
 10
35.5155529711
 20
69.2918959408
 30
0.0
 10
35.9234497995
 20
68.5186375542
 30
0.0
 10
36.2539959763
 20
68.0336086104
 30
0.0
 10
36.4324836676
 20
67.8023774115
 30
0.0
  0
SPLINE
  5
36F
100
AcDbEntity
  8
0
100
AcDbSpline
 62
7
  6
BYLAYER
 70
0
 71
3
 72
9
 73
5
 74
0
 42
0.0000001
 43
0.0000001
 44
0.0000000001
 40
0.0
 40
0.0
 40
0.0
 40
0.0
 40
0.2587049249
 40
1.0
 40
1.0
 40
1.0
 40
1.0
 10
43.1611341657
 20
70.1814706757
 30
0.0
 10
43.1819420553
 20
70.2028232234
 30
0.0
 10
43.2647999403
 20
70.2829145135
 30
0.0
 10
43.358087573
 20
70.3525656829
 30
0.0
 10
43.4320726356
 20
70.3952807237
 30
0.0
  0
SPLINE
  5
370
100
AcDbEntity
  8
0
100
AcDbSpline
 62
7
  6
BYLAYER
 70
0
 71
3
 72
11
 73
7
 74
0
 42
0.0000001
 43
0.0000001
 44
0.0000000001
 40
0.0
 40
0.0
 40
0.0
 40
0.0
 40
0.2677716674
 40
0.5207094904
 40
0.7630106918
 40
1.0
 40
1.0
 40
1.0
 40
1.0
 10
43.4320726356
 20
70.3952807237
 30
0.0
 10
43.5006406525
 20
70.4348682504
 30
0.0
 10
43.6432303371
 20
70.4973853466
 30
0.0
 10
43.8684134255
 20
70.5340054955
 30
0.0
 10
44.0862587835
 20
70.5103461119
 30
0.0
 10
44.2195839663
 20
70.4563383635
 30
0.0
 10
44.2802751292
 20
70.4213113397
 30
0.0
  0
SPLINE
  5
371
100
AcDbEntity
  8
0
100
AcDbSpline
 62
7
  6
BYLAYER
 70
0
 71
3
 72
12
 73
8
 74
0
 42
0.0000001
 43
0.0000001
 44
0.0000000001
 40
0.0
 40
0.0
 40
0.0
 40
0.0
 40
0.1805588643
 40
0.2907835468
 40
0.4139010096
 40
0.6928327973
 40
1.0
 40
1.0
 40
1.0
 40
1.0
 10
42.636722987
 20
67.8969051271
 30
0.0
 10
42.5936954502
 20
67.9643586782
 30
0.0
 10
42.5525216751
 20
68.0902804822
 30
0.0
 10
42.5270868393
 20
68.2716270894
 30
0.0
 10
42.5183470553
 20
68.4989607816
 30
0.0
 10
42.5453317261
 20
68.8130994788
 30
0.0
 10
42.5998552932
 20
69.0678139626
 30
0.0
 10
42.636722987
 20
69.1988363216
 30
0.0
  0
SPLINE
  5
372
100
AcDbEntity
  8
0
100
AcDbSpline
 62
7
  6
BYLAYER
 70
0
 71
3
 72
9
 73
5
 74
0
 42
0.0000001
 43
0.0000001
 44
0.0000000001
 40
0.0
 40
0.0
 40
0.0
 40
0.0
 40
0.5145262444
 40
1.0
 40
1.0
 40
1.0
 40
1.0
 10
42.636722987
 20
69.1988363216
 30
0.0
 10
42.6888489261
 20
69.3840842397
 30
0.0
 10
42.8219117292
 20
69.7360334999
 30
0.0
 10
43.0344099338
 20
70.0514293672
 30
0.0
 10
43.1611341657
 20
70.1814706757
 30
0.0
  0
SPLINE
  5
373
100
AcDbEntity
  8
0
100
AcDbSpline
 62
7
  6
BYLAYER
 70
0
 71
3
 72
11
 73
7
 74
0
 42
0.0000001
 43
0.0000001
 44
0.0000000001
 40
0.0
 40
0.0
 40
0.0
 40
0.0
 40
0.2828566273
 40
0.5426498158
 40
0.7804438526
 40
1.0
 40
1.0
 40
1.0
 40
1.0
 10
47.1885279217
 20
71.1801827625
 30
0.0
 10
47.193500038
 20
70.9736888931
 30
0.0
 10
47.1785482414
 20
70.5762315803
 30
0.0
 10
47.0709776433
 20
70.0139508078
 30
0.0
 10
46.8807001153
 20
69.5226400013
 30
0.0
 10
46.6939035292
 20
69.2414095304
 30
0.0
 10
46.5887914197
 20
69.1203440338
 30
0.0
  0
SPLINE
  5
374
100
AcDbEntity
  8
0
100
AcDbSpline
 62
7
  6
BYLAYER
 70
0
 71
3
 72
9
 73
5
 74
0
 42
0.0000001
 43
0.0000001
 44
0.0000000001
 40
0.0
 40
0.0
 40
0.0
 40
0.0
 40
0.5046928013
 40
1.0
 40
1.0
 40
1.0
 40
1.0
 10
46.5887914197
 20
69.1203440338
 30
0.0
 10
46.5248176049
 20
69.0466605952
 30
0.0
 10
46.38640827
 20
68.9102851978
 30
0.0
 10
46.2269905109
 20
68.7990146335
 30
0.0
 10
46.1440502481
 20
68.7511402892
 30
0.0
  0
SPLINE
  5
375
100
AcDbEntity
  8
0
100
AcDbSpline
 62
7
  6
BYLAYER
 70
0
 71
3
 72
11
 73
7
 74
0
 42
0.0000001
 43
0.0000001
 44
0.0000000001
 40
0.0
 40
0.0
 40
0.0
 40
0.0
 40
0.2730284633
 40
0.5273115991
 40
0.7674904847
 40
1.0
 40
1.0
 40
1.0
 40
1.0
 10
44.6816129027
 20
67.9370890931
 30
0.0
 10
44.8478595614
 20
67.8926060799
 30
0.0
 10
45.1759618978
 20
67.8297511212
 30
0.0
 10
45.6624777226
 20
67.8230829843
 30
0.0
 10
46.1159918689
 20
67.9086728231
 30
0.0
 10
46.3921203996
 20
68.02835602
 30
0.0
 10
46.5190485012
 20
68.101620385
 30
0.0
  0
SPLINE
  5
376
100
AcDbEntity
  8
0
100
AcDbSpline
 62
7
  6
BYLAYER
 70
0
 71
3
 72
9
 73
5
 74
0
 42
0.0000001
 43
0.0000001
 44
0.0000000001
 40
0.0
 40
0.0
 40
0.0
 40
0.0
 40
0.2662755973
 40
1.0
 40
1.0
 40
1.0
 40
1.0
 10
63.5372856547
 20
82.290719416
 30
0.0
 10
63.5030771737
 20
82.2412787904
 30
0.0
 10
63.3865130162
 20
82.0483865981
 30
0.0
 10
63.3167501442
 20
81.8217335568
 30
0.0
 10
63.3157915146
 20
81.6560710669
 30
0.0
  0
SPLINE
  5
377
100
AcDbEntity
  8
0
100
AcDbSpline
 62
7
  6
BYLAYER
 70
0
 71
3
 72
9
 73
5
 74
0
 42
0.0000001
 43
0.0000001
 44
0.0000000001
 40
0.0
 40
0.0
 40
0.0
 40
0.0
 40
0.2326010983
 40
1.0
 40
1.0
 40
1.0
 40
1.0
 10
63.8810979638
 20
82.6187602917
 30
0.0
 10
63.8490820669
 20
82.6001914415
 30
0.0
 10
63.716813103
 20
82.511134683
 30
0.0
 10
63.6072901693
 20
82.3907670399
 30
0.0
 10
63.5372856547
 20
82.290719416
 30
0.0
  0
SPLINE
  5
378
100
AcDbEntity
  8
0
100
AcDbSpline
 62
7
  6
BYLAYER
 70
0
 71
3
 72
9
 73
5
 74
0
 42
0.0000001
 43
0.0000001
 44
0.0000000001
 40
0.0
 40
0.0
 40
0.0
 40
0.0
 40
0.4479938835
 40
1.0
 40
1.0
 40
1.0
 40
1.0
 10
63.8381102054
 20
30.6280563185
 30
0.0
 10
63.8517157691
 20
30.6359209098
 30
0.0
 10
63.8752293293
 20
30.665341686
 30
0.0
 10
63.8806474972
 20
30.7010319753
 30
0.0
 10
63.8810920231
 20
30.720390552
 30
0.0
  0
SPLINE
  5
379
100
AcDbEntity
  8
0
100
AcDbSpline
 62
7
  6
BYLAYER
 70
0
 71
3
 72
15
 73
11
 74
0
 42
0.0000001
 43
0.0000001
 44
0.0000000001
 40
0.0
 40
0.0
 40
0.0
 40
0.0
 40
0.1448975546
 40
0.2745250287
 40
0.3911086762
 40
0.4999947748
 40
0.6088794465
 40
0.7254458539
 40
0.8551834328
 40
1.0
 40
1.0
 40
1.0
 40
1.0
 10
52.7407973956
 20
77.0032268433
 30
0.0
 10
52.7407989134
 20
76.9170641954
 30
0.0
 10
52.7277861204
 20
76.7532492412
 30
0.0
 10
52.661440278
 20
76.5282245758
 30
0.0
 10
52.5496493012
 20
76.345514884
 30
0.0
 10
52.3945155677
 20
76.2150210029
 30
0.0
 10
52.20396447
 20
76.1458719033
 30
0.0
 10
51.989774762
 20
76.1403892332
 30
0.0
 10
51.7617420601
 20
76.1955357475
 30
0.0
 10
51.6133182688
 20
76.2660968399
 30
0.0
 10
51.5387405118
 20
76.3091533539
 30
0.0
  0
SPLINE
  5
37A
100
AcDbEntity
  8
0
100
AcDbSpline
 62
7
  6
BYLAYER
 70
0
 71
3
 72
14
 73
10
 74
0
 42
0.0000001
 43
0.0000001
 44
0.0000000001
 40
0.0
 40
0.0
 40
0.0
 40
0.0
 40
0.1361911081
 40
0.2723509963
 40
0.4071495667
 40
0.5373023583
 40
0.6602001693
 40
0.776810514
 40
1.0
 40
1.0
 40
1.0
 40
1.0
 10
43.2483851677
 20
56.1921539673
 30
0.0
 10
43.236572899
 20
56.1680868759
 30
0.0
 10
43.2120270716
 20
56.1203883142
 30
0.0
 10
43.1696098891
 20
56.0522144069
 30
0.0
 10
43.118008825
 20
55.9917735293
 30
0.0
 10
43.054881853
 20
55.9469879386
 30
0.0
 10
42.9844832724
 20
55.9243287646
 30
0.0
 10
42.8924790497
 20
55.9224508303
 30
0.0
 10
42.8269691937
 20
55.9456073744
 30
0.0
 10
42.7889005298
 20
55.9675414232
 30
0.0
  0
SPLINE
  5
37B
100
AcDbEntity
  8
0
100
AcDbSpline
 62
7
  6
BYLAYER
 70
0
 71
3
 72
9
 73
5
 74
0
 42
0.0000001
 43
0.0000001
 44
0.0000000001
 40
0.0
 40
0.0
 40
0.0
 40
0.0
 40
0.4924945377
 40
1.0
 40
1.0
 40
1.0
 40
1.0
 10
63.1755029089
 20
44.290247141
 30
0.0
 10
63.2045406426
 20
44.3065733445
 30
0.0
 10
63.2574299743
 20
44.350582778
 30
0.0
 10
63.298179354
 20
44.4051785339
 30
0.0
 10
63.3157907423
 20
44.4346446652
 30
0.0
  0
SPLINE
  5
37C
100
AcDbEntity
  8
0
100
AcDbSpline
 62
7
  6
BYLAYER
 70
0
 71
3
 72
11
 73
7
 74
0
 42
0.0000001
 43
0.0000001
 44
0.0000000001
 40
0.0
 40
0.0
 40
0.0
 40
0.0
 40
0.2353676249
 40
0.4791040339
 40
0.734675542
 40
1.0
 40
1.0
 40
1.0
 40
1.0
 10
63.0367006961
 20
44.2777279498
 30
0.0
 10
63.0465824845
 20
44.272023033
 30
0.0
 10
63.0689902037
 20
44.2639846915
 30
0.0
 10
63.1051268987
 20
44.2638915207
 30
0.0
 10
63.1412904637
 20
44.2732060151
 30
0.0
 10
63.1642909325
 20
44.2839433086
 30
0.0
 10
63.1755029089
 20
44.290247141
 30
0.0
  0
SPLINE
  5
37D
100
AcDbEntity
  8
0
100
AcDbSpline
 62
7
  6
BYLAYER
 70
0
 71
3
 72
11
 73
7
 74
0
 42
0.0000001
 43
0.0000001
 44
0.0000000001
 40
0.0
 40
0.0
 40
0.0
 40
0.0
 40
0.2598670239
 40
0.5213630515
 40
0.7716582743
 40
1.0
 40
1.0
 40
1.0
 40
1.0
 10
43.2483851677
 20
56.1921539673
 30
0.0
 10
43.1989497149
 20
56.1830567355
 30
0.0
 10
43.0979289748
 20
56.1742527237
 30
0.0
 10
42.9484352618
 20
56.1837308897
 30
0.0
 10
42.8081476555
 20
56.2150096705
 30
0.0
 10
42.722024838
 20
56.2511263223
 30
0.0
 10
42.6837615802
 20
56.2731877189
 30
0.0
  0
SPLINE
  5
37E
100
AcDbEntity
  8
0
100
AcDbSpline
 62
7
  6
BYLAYER
 70
0
 71
3
 72
17
 73
13
 74
0
 42
0.0000001
 43
0.0000001
 44
0.0000000001
 40
0.0
 40
0.0
 40
0.0
 40
0.0
 40
0.0431680374
 40
0.0884046468
 40
0.1373277183
 40
0.1908921165
 40
0.3124876847
 40
0.450707304
 40
0.5979161819
 40
0.7444839213
 40
0.8809141914
 40
1.0
 40
1.0
 40
1.0
 40
1.0
 10
39.4357606203
 20
80.6970011253
 30
0.0
 10
39.4024346802
 20
80.6777602479
 30
0.0
 10
39.3282251043
 20
80.6479415174
 30
0.0
 10
39.2054405453
 20
80.6335501478
 30
0.0
 10
39.0736276821
 20
80.6488283507
 30
0.0
 10
38.8823405642
 20
80.7096721277
 30
0.0
 10
38.6413543559
 20
80.8586796747
 30
0.0
 10
38.38205242
 20
81.1156097859
 30
0.0
 10
38.1629483845
 20
81.4349461448
 30
0.0
 10
38.004876489
 20
81.7868029533
 30
0.0
 10
37.9223825601
 20
82.1378676873
 30
0.0
 10
37.9235685991
 20
82.3693684856
 30
0.0
 10
37.9428502725
 20
82.4737601029
 30
0.0
  0
SPLINE
  5
37F
100
AcDbEntity
  8
0
100
AcDbSpline
 62
7
  6
BYLAYER
 70
0
 71
3
 72
21
 73
17
 74
0
 42
0.0000001
 43
0.0000001
 44
0.0000000001
 40
0.0
 40
0.0
 40
0.0
 40
0.0
 40
0.066591786
 40
0.1385221382
 40
0.2915402881
 40
0.444572231
 40
0.5164573611
 40
0.5830763787
 40
0.6434880253
 40
0.6975331238
 40
0.7461397768
 40
0.7915369359
 40
0.8369333329
 40
0.8855323511
 40
0.9396227527
 40
1.0
 40
1.0
 40
1.0
 40
1.0
 10
51.5387405118
 20
76.3091533539
 30
0.0
 10
51.4564856224
 20
76.3566421621
 30
0.0
 10
51.2939414283
 20
76.470640319
 30
0.0
 10
50.9895561508
 20
76.7553930906
 30
0.0
 10
50.6681293929
 20
77.1945695514
 30
0.0
 10
50.4486006301
 20
77.6924016262
 30
0.0
 10
50.3540644413
 20
78.0984567653
 30
0.0
 10
50.3291076783
 20
78.3821860096
 30
0.0
 10
50.3496910008
 20
78.6410966987
 30
0.0
 10
50.4160338465
 20
78.8661859708
 30
0.0
 10
50.5278231839
 20
79.048887808
 30
0.0
 10
50.6829567002
 20
79.1793898912
 30
0.0
 10
50.8735090836
 20
79.2485417568
 30
0.0
 10
51.0877010125
 20
79.2540265973
 30
0.0
 10
51.3157363862
 20
79.1988803131
 30
0.0
 10
51.4641618873
 20
79.128318587
 30
0.0
 10
51.5387405118
 20
79.0852615721
 30
0.0
  0
SPLINE
  5
380
100
AcDbEntity
  8
0
100
AcDbSpline
 62
7
  6
BYLAYER
 70
0
 71
3
 72
21
 73
17
 74
0
 42
0.0000001
 43
0.0000001
 44
0.0000000001
 40
0.0
 40
0.0
 40
0.0
 40
0.0
 40
0.066591786
 40
0.1385221382
 40
0.2915402881
 40
0.444572231
 40
0.5164573611
 40
0.5830763787
 40
0.6434880253
 40
0.6975331238
 40
0.7461397768
 40
0.7915369359
 40
0.8369333329
 40
0.8855323511
 40
0.9396227527
 40
1.0
 40
1.0
 40
1.0
 40
1.0
 10
55.7813988627
 20
39.5666105482
 30
0.0
 10
55.6991441653
 20
39.6140992456
 30
0.0
 10
55.5366003507
 20
39.7280971363
 30
0.0
 10
55.2322157839
 20
40.0128492431
 30
0.0
 10
54.9107897765
 20
40.4520246784
 30
0.0
 10
54.6912615263
 20
40.9498555909
 30
0.0
 10
54.5967255582
 20
41.3559097819
 30
0.0
 10
54.5717688535
 20
41.6396383637
 30
0.0
 10
54.5923521279
 20
41.8985484483
 30
0.0
 10
54.6586948187
 20
42.1236371948
 30
0.0
 10
54.7704838952
 20
42.3063386055
 30
0.0
 10
54.9256170493
 20
42.436840384
 30
0.0
 10
55.1161689877
 20
42.5059920881
 30
0.0
 10
55.3303604165
 20
42.5114769158
 30
0.0
 10
55.5583952577
 20
42.4563307603
 30
0.0
 10
55.7068204123
 20
42.385769199
 30
0.0
 10
55.7813988627
 20
42.3427122847
 30
0.0
  0
SPLINE
  5
381
100
AcDbEntity
  8
0
100
AcDbSpline
 62
7
  6
BYLAYER
 70
0
 71
3
 72
9
 73
5
 74
0
 42
0.0000001
 43
0.0000001
 44
0.0000000001
 40
0.0
 40
0.0
 40
0.0
 40
0.0
 40
0.2331101417
 40
1.0
 40
1.0
 40
1.0
 40
1.0
 10
38.414164953
 20
82.9565411059
 30
0.0
 10
38.3995786755
 20
82.9379360899
 30
0.0
 10
38.3429419991
 20
82.8534484407
 30
0.0
 10
38.3105287284
 20
82.7543637201
 30
0.0
 10
38.2964021911
 20
82.6778821798
 30
0.0
  0
SPLINE
  5
382
100
AcDbEntity
  8
0
100
AcDbSpline
 62
7
  6
BYLAYER
 70
0
 71
3
 72
9
 73
5
 74
0
 42
0.0000001
 43
0.0000001
 44
0.0000000001
 40
0.0
 40
0.0
 40
0.0
 40
0.0
 40
0.2555539634
 40
1.0
 40
1.0
 40
1.0
 40
1.0
 10
34.8759671169
 20
84.6272479342
 30
0.0
 10
34.8824586806
 20
84.6103291341
 30
0.0
 10
34.9067258288
 20
84.5436985636
 30
0.0
 10
34.926311017
 20
84.4753340937
 30
0.0
 10
34.937773972
 20
84.4238047409
 30
0.0
  0
SPLINE
  5
383
100
AcDbEntity
  8
0
100
AcDbSpline
 62
7
  6
BYLAYER
 70
0
 71
3
 72
21
 73
17
 74
0
 42
0.0000001
 43
0.0000001
 44
0.0000000001
 40
0.0
 40
0.0
 40
0.0
 40
0.0
 40
0.066591786
 40
0.1385221382
 40
0.2915402881
 40
0.444572231
 40
0.5164573611
 40
0.5830763787
 40
0.6434880253
 40
0.6975331238
 40
0.7461397768
 40
0.7915369359
 40
0.8369333329
 40
0.8855323511
 40
0.9396227527
 40
1.0
 40
1.0
 40
1.0
 40
1.0
 10
26.0827904065
 20
61.6117367409
 30
0.0
 10
26.0005357091
 20
61.6592254382
 30
0.0
 10
25.8379918945
 20
61.773223329
 30
0.0
 10
25.5336073278
 20
62.0579754357
 30
0.0
 10
25.2121813204
 20
62.4971508711
 30
0.0
 10
24.9926530701
 20
62.9949817835
 30
0.0
 10
24.8981171021
 20
63.4010359745
 30
0.0
 10
24.8731603973
 20
63.6847645563
 30
0.0
 10
24.8937436717
 20
63.943674641
 30
0.0
 10
24.9600863626
 20
64.1687633875
 30
0.0
 10
25.071875439
 20
64.3514647981
 30
0.0
 10
25.2270085931
 20
64.4819665766
 30
0.0
 10
25.4175605315
 20
64.5511182807
 30
0.0
 10
25.6317519604
 20
64.5566031084
 30
0.0
 10
25.8597868016
 20
64.501456953
 30
0.0
 10
26.0082119561
 20
64.4308953916
 30
0.0
 10
26.0827904065
 20
64.3878384773
 30
0.0
  0
SPLINE
  5
384
100
AcDbEntity
  8
0
100
AcDbSpline
 62
7
  6
BYLAYER
 70
0
 71
3
 72
9
 73
5
 74
0
 42
0.0000001
 43
0.0000001
 44
0.0000000001
 40
0.0
 40
0.0
 40
0.0
 40
0.0
 40
0.2362482601
 40
1.0
 40
1.0
 40
1.0
 40
1.0
 10
38.378325545
 20
60.0421957811
 30
0.0
 10
38.3685579482
 20
60.0258786129
 30
0.0
 10
38.3308820532
 20
59.9546195766
 30
0.0
 10
38.3075689169
 20
59.8762715228
 30
0.0
 10
38.2964021911
 20
59.8158145002
 30
0.0
  0
SPLINE
  5
385
100
AcDbEntity
  8
0
100
AcDbSpline
 62
7
  6
BYLAYER
 70
0
 71
3
 72
11
 73
7
 74
0
 42
0.0000001
 43
0.0000001
 44
0.0000000001
 40
0.0
 40
0.0
 40
0.0
 40
0.0
 40
0.2077679824
 40
0.4371701971
 40
0.7008397977
 40
1.0
 40
1.0
 40
1.0
 40
1.0
 10
39.4357599608
 20
57.8349348905
 30
0.0
 10
39.3843155204
 20
57.8052404939
 30
0.0
 10
39.2609448911
 20
57.7668455342
 30
0.0
 10
39.0576990226
 20
57.7843180451
 30
0.0
 10
38.8447871748
 20
57.868024483
 30
0.0
 10
38.7102838769
 20
57.9584266711
 30
0.0
 10
38.6434940209
 20
58.0118505971
 30
0.0
  0
SPLINE
  5
386
100
AcDbEntity
  8
0
100
AcDbSpline
 62
7
  6
BYLAYER
 70
0
 71
3
 72
9
 73
5
 74
0
 42
0.0000001
 43
0.0000001
 44
0.0000000001
 40
0.0
 40
0.0
 40
0.0
 40
0.0
 40
0.2567992082
 40
1.0
 40
1.0
 40
1.0
 40
1.0
 10
54.403973775
 20
73.4809097714
 30
0.0
 10
54.4951396617
 20
73.205889104
 30
0.0
 10
54.8300739347
 20
72.1284686729
 30
0.0
 10
55.0834390854
 20
71.0250247739
 30
0.0
 10
55.2159922217
 20
70.1970418612
 30
0.0
  0
SPLINE
  5
387
100
AcDbEntity
  8
0
100
AcDbSpline
 62
7
  6
BYLAYER
 70
0
 71
3
 72
21
 73
17
 74
0
 42
0.0000001
 43
0.0000001
 44
0.0000000001
 40
0.0
 40
0.0
 40
0.0
 40
0.0
 40
0.066591786
 40
0.1385221382
 40
0.2915402881
 40
0.444572231
 40
0.5164573611
 40
0.5830763787
 40
0.6434880253
 40
0.6975331238
 40
0.7461397768
 40
0.7915369359
 40
0.8369333329
 40
0.8855323511
 40
0.9396227527
 40
1.0
 40
1.0
 40
1.0
 40
1.0
 10
55.7813988627
 20
78.7587233296
 30
0.0
 10
55.6991439732
 20
78.8062121378
 30
0.0
 10
55.5365997791
 20
78.9202102947
 30
0.0
 10
55.2322145017
 20
79.2049630663
 30
0.0
 10
54.9107877438
 20
79.6441395271
 30
0.0
 10
54.691258981
 20
80.1419716019
 30
0.0
 10
54.5967227922
 20
80.548026741
 30
0.0
 10
54.5717660292
 20
80.8317559852
 30
0.0
 10
54.5923493516
 20
81.0906666744
 30
0.0
 10
54.6586921974
 20
81.3157559464
 30
0.0
 10
54.7704815348
 20
81.4984577837
 30
0.0
 10
54.9256150511
 20
81.6289598669
 30
0.0
 10
55.1161674345
 20
81.6981117324
 30
0.0
 10
55.3303593634
 20
81.703596573
 30
0.0
 10
55.558394737
 20
81.6484502887
 30
0.0
 10
55.7068202382
 20
81.5778885627
 30
0.0
 10
55.7813988627
 20
81.5348315478
 30
0.0
  0
SPLINE
  5
388
100
AcDbEntity
  8
0
100
AcDbSpline
 62
7
  6
BYLAYER
 70
0
 71
3
 72
21
 73
17
 74
0
 42
0.0000001
 43
0.0000001
 44
0.0000000001
 40
0.0
 40
0.0
 40
0.0
 40
0.0
 40
0.066591786
 40
0.1385221382
 40
0.2915402881
 40
0.444572231
 40
0.5164573611
 40
0.5830763787
 40
0.6434880253
 40
0.6975331238
 40
0.7461397768
 40
0.7915369359
 40
0.8369333329
 40
0.8855323511
 40
0.9396227527
 40
1.0
 40
1.0
 40
1.0
 40
1.0
 10
21.8401320556
 20
59.1621667652
 30
0.0
 10
21.7578773582
 20
59.2096554626
 30
0.0
 10
21.5953335436
 20
59.3236533533
 30
0.0
 10
21.2909489769
 20
59.60840546
 30
0.0
 10
20.9695229695
 20
60.0475808954
 30
0.0
 10
20.7499947192
 20
60.5454118078
 30
0.0
 10
20.6554587512
 20
60.9514659989
 30
0.0
 10
20.6305020464
 20
61.2351945806
 30
0.0
 10
20.6510853208
 20
61.4941046653
 30
0.0
 10
20.7174280117
 20
61.7191934118
 30
0.0
 10
20.8292170881
 20
61.9018948225
 30
0.0
 10
20.9843502422
 20
62.032396601
 30
0.0
 10
21.1749021806
 20
62.101548305
 30
0.0
 10
21.3890936095
 20
62.1070331328
 30
0.0
 10
21.6171284507
 20
62.0518869773
 30
0.0
 10
21.7655536053
 20
61.981325416
 30
0.0
 10
21.8401320556
 20
61.9382685017
 30
0.0
  0
SPLINE
  5
389
100
AcDbEntity
  8
0
100
AcDbSpline
 62
7
  6
BYLAYER
 70
0
 71
3
 72
9
 73
5
 74
0
 42
0.0000001
 43
0.0000001
 44
0.0000000001
 40
0.0
 40
0.0
 40
0.0
 40
0.0
 40
0.5507355098
 40
1.0
 40
1.0
 40
1.0
 40
1.0
 10
69.269675706
 20
67.3504356287
 30
0.0
 10
69.2696756911
 20
67.3313018131
 30
0.0
 10
69.265078215
 20
67.2957632919
 30
0.0
 10
69.2418619489
 20
67.2664403633
 30
0.0
 10
69.2283682189
 20
67.2585953724
 30
0.0
  0
SPLINE
  5
38A
100
AcDbEntity
  8
0
100
AcDbSpline
 62
7
  6
BYLAYER
 70
0
 71
3
 72
11
 73
7
 74
0
 42
0.0000001
 43
0.0000001
 44
0.0000000001
 40
0.0
 40
0.0
 40
0.0
 40
0.0
 40
0.2930731398
 40
0.5449143541
 40
0.7712192557
 40
1.0
 40
1.0
 40
1.0
 40
1.0
 10
34.9377737824
 20
60.7452346892
 30
0.0
 10
34.9044803511
 20
60.7644830988
 30
0.0
 10
34.8461173783
 20
60.8074324543
 30
0.0
 10
34.7853073549
 20
60.891071826
 30
0.0
 10
34.7654503424
 20
60.9849701331
 30
0.0
 10
34.7829162254
 20
61.0449257241
 30
0.0
 10
34.7974291101
 20
61.0712053432
 30
0.0
  0
SPLINE
  5
38B
100
AcDbEntity
  8
0
100
AcDbSpline
 62
7
  6
BYLAYER
 70
0
 71
3
 72
11
 73
7
 74
0
 42
0.0000001
 43
0.0000001
 44
0.0000000001
 40
0.0
 40
0.0
 40
0.0
 40
0.0
 40
0.2733399907
 40
0.5276641852
 40
0.7677069032
 40
1.0
 40
1.0
 40
1.0
 40
1.0
 10
55.0761425343
 20
64.6643934965
 30
0.0
 10
54.9607667412
 20
64.2271400248
 30
0.0
 10
54.6762107225
 20
63.3971184977
 30
0.0
 10
54.056541353
 20
62.279921254
 30
0.0
 10
53.2689828672
 20
61.3600607569
 30
0.0
 10
52.635392953
 20
60.8891479145
 30
0.0
 10
52.3025775881
 20
60.6969803183
 30
0.0
  0
SPLINE
  5
38C
100
AcDbEntity
  8
0
100
AcDbSpline
 62
7
  6
BYLAYER
 70
0
 71
3
 72
11
 73
7
 74
0
 42
0.0000001
 43
0.0000001
 44
0.0000000001
 40
0.0
 40
0.0
 40
0.0
 40
0.0
 40
0.2897793411
 40
0.5490591205
 40
0.7822202867
 40
1.0
 40
1.0
 40
1.0
 40
1.0
 10
56.8555106043
 20
66.7890394297
 30
0.0
 10
56.8555106043
 20
66.6309582114
 30
0.0
 10
56.8316185365
 20
66.3304025891
 30
0.0
 10
56.7097943166
 20
65.9174883573
 30
0.0
 10
56.5049412127
 20
65.5823901276
 30
0.0
 10
56.312378721
 20
65.4205995453
 30
0.0
 10
56.2094953197
 20
65.3611912551
 30
0.0
  0
SPLINE
  5
38D
100
AcDbEntity
  8
0
100
AcDbSpline
 62
7
  6
BYLAYER
 70
0
 71
3
 72
11
 73
7
 74
0
 42
0.0000001
 43
0.0000001
 44
0.0000000001
 40
0.0
 40
0.0
 40
0.0
 40
0.0
 40
0.2513820865
 40
0.5138458654
 40
0.768973437
 40
1.0
 40
1.0
 40
1.0
 40
1.0
 10
55.2159922217
 20
70.1970418612
 30
0.0
 10
55.4593709203
 20
69.9819088035
 30
0.0
 10
55.9063729851
 20
69.4834084904
 30
0.0
 10
56.4220840011
 20
68.6277865689
 30
0.0
 10
56.7622447578
 20
67.7164206811
 30
0.0
 10
56.8555106043
 20
67.087567768
 30
0.0
 10
56.8555106043
 20
66.7890394297
 30
0.0
  0
SPLINE
  5
38E
100
AcDbEntity
  8
0
100
AcDbSpline
 62
7
  6
BYLAYER
 70
0
 71
3
 72
14
 73
10
 74
0
 42
0.0000001
 43
0.0000001
 44
0.0000000001
 40
0.0
 40
0.0
 40
0.0
 40
0.0
 40
0.2231759362
 40
0.3397754433
 40
0.4626683654
 40
0.592826917
 40
0.7276370789
 40
0.8638039677
 40
1.0
 40
1.0
 40
1.0
 40
1.0
 10
34.8326982873
 20
60.5609479571
 30
0.0
 10
34.7946711739
 20
60.582947809
 30
0.0
 10
34.7418716662
 20
60.6281043116
 30
0.0
 10
34.6974954541
 20
60.7087134411
 30
0.0
 10
34.6819237022
 20
60.7810072584
 30
0.0
 10
34.6891254476
 20
60.8580716768
 30
0.0
 10
34.715652453
 20
60.9329906904
 30
0.0
 10
34.7534733815
 20
61.0038220194
 30
0.0
 10
34.7824984242
 20
61.0489372584
 30
0.0
 10
34.7974291101
 20
61.0712053432
 30
0.0
  0
SPLINE
  5
38F
100
AcDbEntity
  8
0
100
AcDbSpline
 62
7
  6
BYLAYER
 70
0
 71
3
 72
11
 73
7
 74
0
 42
0.0000001
 43
0.0000001
 44
0.0000000001
 40
0.0
 40
0.0
 40
0.0
 40
0.0
 40
0.2653256596
 40
0.5208984329
 40
0.7646337233
 40
1.0
 40
1.0
 40
1.0
 40
1.0
 10
14.5262696032
 20
72.3772596728
 30
0.0
 10
14.5264164235
 20
72.3643979144
 30
0.0
 10
14.5286180906
 20
72.3391102524
 30
0.0
 10
14.5386343561
 20
72.3031350052
 30
0.0
 10
14.5567827511
 20
72.2718861111
 30
0.0
 10
14.5749487246
 20
72.2565007388
 30
0.0
 10
14.5848302222
 20
72.2507955753
 30
0.0
  0
SPLINE
  5
390
100
AcDbEntity
  8
0
100
AcDbSpline
 62
7
  6
BYLAYER
 70
0
 71
3
 72
9
 73
5
 74
0
 42
0.0000001
 43
0.0000001
 44
0.0000000001
 40
0.0
 40
0.0
 40
0.0
 40
0.0
 40
0.5207853432
 40
1.0
 40
1.0
 40
1.0
 40
1.0
 10
42.683761124
 20
79.9517580015
 30
0.0
 10
42.6944157264
 20
79.9873070411
 30
0.0
 10
42.721586184
 20
80.0539078894
 30
0.0
 10
42.7647515066
 20
80.1118573425
 30
0.0
 10
42.7888996199
 20
80.1360032628
 30
0.0
  0
SPLINE
  5
391
100
AcDbEntity
  8
0
100
AcDbSpline
 62
7
  6
BYLAYER
 70
0
 71
3
 72
15
 73
11
 74
0
 42
0.0000001
 43
0.0000001
 44
0.0000000001
 40
0.0
 40
0.0
 40
0.0
 40
0.0
 40
0.1448975546
 40
0.2745250287
 40
0.3911086762
 40
0.4999947748
 40
0.6088794465
 40
0.7254458539
 40
0.8551834328
 40
1.0
 40
1.0
 40
1.0
 40
1.0
 10
56.9834529398
 20
40.2606824169
 30
0.0
 10
56.9834544576
 20
40.1745199701
 30
0.0
 10
56.970441695
 20
40.0107053984
 30
0.0
 10
56.9040960075
 20
39.7856812585
 30
0.0
 10
56.7923052917
 20
39.6029719933
 30
0.0
 10
56.6371719204
 20
39.472478417
 30
0.0
 10
56.4466212677
 20
39.4033294789
 30
0.0
 10
56.2324320598
 20
39.3978468216
 30
0.0
 10
56.0043998903
 20
39.4529932071
 30
0.0
 10
55.8559764456
 20
39.5235541347
 30
0.0
 10
55.7813988627
 20
39.5666105482
 30
0.0
  0
SPLINE
  5
392
100
AcDbEntity
  8
0
100
AcDbSpline
 62
7
  6
BYLAYER
 70
0
 71
3
 72
15
 73
11
 74
0
 42
0.0000001
 43
0.0000001
 44
0.0000000001
 40
0.0
 40
0.0
 40
0.0
 40
0.0
 40
0.1448975546
 40
0.2745250287
 40
0.3911086762
 40
0.4999947748
 40
0.6088794465
 40
0.7254458539
 40
0.8551834328
 40
1.0
 40
1.0
 40
1.0
 40
1.0
 10
52.7407945889
 20
47.6091414468
 30
0.0
 10
52.7407961067
 20
47.522979
 30
0.0
 10
52.7277833441
 20
47.3591644283
 30
0.0
 10
52.6614376566
 20
47.1341402884
 30
0.0
 10
52.5496469408
 20
46.9514310232
 30
0.0
 10
52.3945135695
 20
46.8209374469
 30
0.0
 10
52.2039629168
 20
46.7517885088
 30
0.0
 10
51.9897737089
 20
46.7463058515
 30
0.0
 10
51.7617415394
 20
46.801452237
 30
0.0
 10
51.6133180947
 20
46.8720131646
 30
0.0
 10
51.5387405118
 20
46.9150695781
 30
0.0
  0
SPLINE
  5
393
100
AcDbEntity
  8
0
100
AcDbSpline
 62
7
  6
BYLAYER
 70
0
 71
3
 72
11
 73
7
 74
0
 42
0.0000001
 43
0.0000001
 44
0.0000000001
 40
0.0
 40
0.0
 40
0.0
 40
0.0
 40
0.2177249355
 40
0.4508743929
 40
0.7104693359
 40
1.0
 40
1.0
 40
1.0
 40
1.0
 10
49.3352714267
 20
63.5506408568
 30
0.0
 10
49.2940519248
 20
63.526840784
 30
0.0
 10
49.1993572524
 20
63.4923797468
 30
0.0
 10
49.0419442906
 20
63.4884101578
 30
0.0
 10
48.8742576312
 20
63.5290022364
 30
0.0
 10
48.7651167649
 20
63.5808521236
 30
0.0
 10
48.7103016112
 20
63.6124989514
 30
0.0
  0
SPLINE
  5
394
100
AcDbEntity
  8
0
100
AcDbSpline
 62
7
  6
BYLAYER
 70
0
 71
3
 72
15
 73
11
 74
0
 42
0.0000001
 43
0.0000001
 44
0.0000000001
 40
0.0
 40
0.0
 40
0.0
 40
0.0
 40
0.1181418878
 40
0.2411717151
 40
0.3677190071
 40
0.4963165044
 40
0.6253972743
 40
0.7533761092
 40
0.8787318648
 40
1.0
 40
1.0
 40
1.0
 40
1.0
 10
49.2763199891
 20
66.7677909687
 30
0.0
 10
49.177530188
 20
67.3848738201
 30
0.0
 10
48.9125487672
 20
68.6350592077
 30
0.0
 10
48.3409723125
 20
70.4966567279
 30
0.0
 10
47.5960701411
 20
72.3556562042
 30
0.0
 10
46.6915868958
 20
74.1780911331
 30
0.0
 10
45.6438104432
 20
75.9308911164
 30
0.0
 10
44.4718354125
 20
77.5823378327
 30
0.0
 10
43.1970147994
 20
79.1021331637
 30
0.0
 10
42.2752006492
 20
80.0281550018
 30
0.0
 10
41.8017472148
 20
80.4609775283
 30
0.0
  0
SPLINE
  5
395
100
AcDbEntity
  8
0
100
AcDbSpline
 62
7
  6
BYLAYER
 70
0
 71
3
 72
11
 73
7
 74
0
 42
0.0000001
 43
0.0000001
 44
0.0000000001
 40
0.0
 40
0.0
 40
0.0
 40
0.0
 40
0.2310265135
 40
0.4861540688
 40
0.7486178611
 40
1.0
 40
1.0
 40
1.0
 40
1.0
 10
50.9158383717
 20
63.3597885372
 30
0.0
 10
50.9158383717
 20
63.6583168115
 30
0.0
 10
50.8225725582
 20
64.2871696396
 30
0.0
 10
50.4824118642
 20
65.198535479
 30
0.0
 10
49.9667008497
 20
66.0541574763
 30
0.0
 10
49.5196987384
 20
66.5526578661
 30
0.0
 10
49.2763199891
 20
66.7677909687
 30
0.0
  0
SPLINE
  5
396
100
AcDbEntity
  8
0
100
AcDbSpline
 62
7
  6
BYLAYER
 70
0
 71
3
 72
11
 73
7
 74
0
 42
0.0000001
 43
0.0000001
 44
0.0000000001
 40
0.0
 40
0.0
 40
0.0
 40
0.0
 40
0.2177249355
 40
0.4508743929
 40
0.7104693359
 40
1.0
 40
1.0
 40
1.0
 40
1.0
 10
29.5361991226
 20
74.9813819833
 30
0.0
 10
29.4949796207
 20
74.9575819106
 30
0.0
 10
29.4002849483
 20
74.9231208733
 30
0.0
 10
29.2428719865
 20
74.9191512844
 30
0.0
 10
29.0751853271
 20
74.959743363
 30
0.0
 10
28.9660444607
 20
75.0115932502
 30
0.0
 10
28.9112293071
 20
75.0432400779
 30
0.0
  0
SPLINE
  5
397
100
AcDbEntity
  8
0
100
AcDbSpline
 62
7
  6
BYLAYER
 70
0
 71
3
 72
21
 73
17
 74
0
 42
0.0000001
 43
0.0000001
 44
0.0000000001
 40
0.0
 40
0.0
 40
0.0
 40
0.0
 40
0.066591786
 40
0.1385221382
 40
0.2915402881
 40
0.444572231
 40
0.5164573611
 40
0.5830763787
 40
0.6434880253
 40
0.6975331238
 40
0.7461397768
 40
0.7915369359
 40
0.8369333329
 40
0.8855323511
 40
0.9396227527
 40
1.0
 40
1.0
 40
1.0
 40
1.0
 10
26.0827904065
 20
91.0058205166
 30
0.0
 10
26.0005355171
 20
91.0533093249
 30
0.0
 10
25.837991323
 20
91.1673074818
 30
0.0
 10
25.5336060455
 20
91.4520602534
 30
0.0
 10
25.2121792876
 20
91.8912367141
 30
0.0
 10
24.9926505248
 20
92.3890687889
 30
0.0
 10
24.898114336
 20
92.795123928
 30
0.0
 10
24.873157573
 20
93.0788531723
 30
0.0
 10
24.8937408955
 20
93.3377638615
 30
0.0
 10
24.9600837412
 20
93.5628531335
 30
0.0
 10
25.0718730786
 20
93.7455549708
 30
0.0
 10
25.227006595
 20
93.876057054
 30
0.0
 10
25.4175589783
 20
93.9452089195
 30
0.0
 10
25.6317509072
 20
93.95069376
 30
0.0
 10
25.8597862809
 20
93.8955474758
 30
0.0
 10
26.008211782
 20
93.8249857497
 30
0.0
 10
26.0827904065
 20
93.7819287349
 30
0.0
  0
SPLINE
  5
398
100
AcDbEntity
  8
0
100
AcDbSpline
 62
7
  6
BYLAYER
 70
0
 71
3
 72
12
 73
8
 74
0
 42
0.0000001
 43
0.0000001
 44
0.0000000001
 40
0.0
 40
0.0
 40
0.0
 40
0.0
 40
0.1141224671
 40
0.2294494167
 40
0.4677604385
 40
0.722976165
 40
1.0
 40
1.0
 40
1.0
 40
1.0
 10
46.3629053555
 20
57.2677294258
 30
0.0
 10
46.5470243434
 20
57.3740397319
 30
0.0
 10
46.9040374183
 20
57.6116241173
 30
0.0
 10
47.5647776508
 20
58.1826715795
 30
0.0
 10
48.2785931085
 20
59.0788422819
 30
0.0
 10
48.9120926245
 20
60.3771056011
 30
0.0
 10
49.1768623439
 20
61.3384827474
 30
0.0
 10
49.2763199891
 20
61.8448960368
 30
0.0
  0
SPLINE
  5
399
100
AcDbEntity
  8
0
100
AcDbSpline
 62
7
  6
BYLAYER
 70
0
 71
3
 72
9
 73
5
 74
0
 42
0.0000001
 43
0.0000001
 44
0.0000000001
 40
0.0
 40
0.0
 40
0.0
 40
0.0
 40
0.5211941894
 40
1.0
 40
1.0
 40
1.0
 40
1.0
 10
34.9377979012
 20
60.7452125305
 30
0.0
 10
34.9271469694
 20
60.7096319083
 30
0.0
 10
34.8999429303
 20
60.6430455663
 30
0.0
 10
34.8568268138
 20
60.5850669383
 30
0.0
 10
34.8327110153
 20
60.5609298238
 30
0.0
  0
SPLINE
  5
39A
100
AcDbEntity
  8
0
100
AcDbSpline
 62
7
  6
BYLAYER
 70
0
 71
3
 72
11
 73
7
 74
0
 42
0.0000001
 43
0.0000001
 44
0.0000000001
 40
0.0
 40
0.0
 40
0.0
 40
0.0
 40
0.2177796898
 40
0.4509408373
 40
0.7102206425
 40
1.0
 40
1.0
 40
1.0
 40
1.0
 10
50.2698230883
 20
61.9319403608
 30
0.0
 10
50.3727064826
 20
61.9913486368
 30
0.0
 10
50.5652689392
 20
62.1531392235
 30
0.0
 10
50.77012207
 20
62.4882374196
 30
0.0
 10
50.8919462857
 20
62.9011516687
 30
0.0
 10
50.9158383717
 20
63.2017073104
 30
0.0
 10
50.9158383717
 20
63.3597885372
 30
0.0
  0
SPLINE
  5
39B
100
AcDbEntity
  8
0
100
AcDbSpline
 62
7
  6
BYLAYER
 70
0
 71
3
 72
9
 73
5
 74
0
 42
0.0000001
 43
0.0000001
 44
0.0000000001
 40
0.0
 40
0.0
 40
0.0
 40
0.0
 40
0.5507524196
 40
1.0
 40
1.0
 40
1.0
 40
1.0
 10
63.5372764656
 20
64.7740931272
 30
0.0
 10
63.5372764507
 20
64.7549586893
 30
0.0
 10
63.5326798145
 20
64.7194195724
 30
0.0
 10
63.5094622558
 20
64.6900977188
 30
0.0
 10
63.4959690091
 20
64.6822530089
 30
0.0
  0
SPLINE
  5
39C
100
AcDbEntity
  8
0
100
AcDbSpline
 62
7
  6
BYLAYER
 70
0
 71
3
 72
21
 73
17
 74
0
 42
0.0000001
 43
0.0000001
 44
0.0000000001
 40
0.0
 40
0.0
 40
0.0
 40
0.0
 40
0.066591786
 40
0.1385221382
 40
0.2915402881
 40
0.444572231
 40
0.5164573611
 40
0.5830763787
 40
0.6434880253
 40
0.6975331238
 40
0.7461397768
 40
0.7915369359
 40
0.8369333329
 40
0.8855323511
 40
0.9396227527
 40
1.0
 40
1.0
 40
1.0
 40
1.0
 10
21.8401320556
 20
98.3542795465
 30
0.0
 10
21.7578771662
 20
98.4017683548
 30
0.0
 10
21.5953329721
 20
98.5157665117
 30
0.0
 10
21.2909476946
 20
98.8005192833
 30
0.0
 10
20.9695209367
 20
99.239695744
 30
0.0
 10
20.7499921739
 20
99.7375278188
 30
0.0
 10
20.6554559851
 20
100.1435829579
 30
0.0
 10
20.6304992221
 20
100.4273122022
 30
0.0
 10
20.6510825446
 20
100.6862228914
 30
0.0
 10
20.7174253903
 20
100.9113121634
 30
0.0
 10
20.8292147278
 20
101.0940140007
 30
0.0
 10
20.9843482441
 20
101.2245160839
 30
0.0
 10
21.1749006274
 20
101.2936679494
 30
0.0
 10
21.3890925564
 20
101.2991527899
 30
0.0
 10
21.61712793
 20
101.2440065057
 30
0.0
 10
21.7655534311
 20
101.1734447796
 30
0.0
 10
21.8401320556
 20
101.1303877648
 30
0.0
  0
SPLINE
  5
39D
100
AcDbEntity
  8
0
100
AcDbSpline
 62
7
  6
BYLAYER
 70
0
 71
3
 72
11
 73
7
 74
0
 42
0.0000001
 43
0.0000001
 44
0.0000000001
 40
0.0
 40
0.0
 40
0.0
 40
0.0
 40
0.2293039759
 40
0.4526914114
 40
0.706826908
 40
1.0
 40
1.0
 40
1.0
 40
1.0
 10
63.4441699893
 20
30.5422516538
 30
0.0
 10
63.4578900091
 20
30.5407238373
 30
0.0
 10
63.4868766647
 20
30.544872234
 30
0.0
 10
63.5185446671
 20
30.5764643942
 30
0.0
 10
63.5343994822
 20
30.6209815233
 30
0.0
 10
63.537135958
 20
30.6540531089
 30
0.0
 10
63.5372766356
 20
30.671702495
 30
0.0
  0
SPLINE
  5
39E
100
AcDbEntity
  8
0
100
AcDbSpline
 62
7
  6
BYLAYER
 70
0
 71
3
 72
11
 73
7
 74
0
 42
0.0000001
 43
0.0000001
 44
0.0000000001
 40
0.0
 40
0.0
 40
0.0
 40
0.0
 40
0.2777362934
 40
0.5334031758
 40
0.7715018719
 40
1.0
 40
1.0
 40
1.0
 40
1.0
 10
48.2929142745
 20
67.374822297
 30
0.0
 10
48.1901684235
 20
67.4112758652
 30
0.0
 10
47.986994176
 20
67.4665388777
 30
0.0
 10
47.683047557
 20
67.490610856
 30
0.0
 10
47.3998628727
 20
67.4501740677
 30
0.0
 10
47.2284644381
 20
67.3791469384
 30
0.0
 10
47.1507828954
 20
67.3343086928
 30
0.0
  0
SPLINE
  5
39F
100
AcDbEntity
  8
0
100
AcDbSpline
 62
7
  6
BYLAYER
 70
0
 71
3
 72
15
 73
11
 74
0
 42
0.0000001
 43
0.0000001
 44
0.0000000001
 40
0.0
 40
0.0
 40
0.0
 40
0.0
 40
0.1006116485
 40
0.2061587045
 40
0.3215813683
 40
0.4493120431
 40
0.5876583904
 40
0.7313401585
 40
0.8721980174
 40
1.0
 40
1.0
 40
1.0
 40
1.0
 10
44.2802751292
 20
70.4213113397
 30
0.0
 10
44.3711972245
 20
70.3688369721
 30
0.0
 10
44.5365775906
 20
70.2199005828
 30
0.0
 10
44.6766087875
 20
69.905316765
 30
0.0
 10
44.6911477968
 20
69.5343016388
 30
0.0
 10
44.583409638
 20
69.1460668135
 30
0.0
 10
44.3749195341
 20
68.7694570521
 30
0.0
 10
44.0950827248
 20
68.425903997
 30
0.0
 10
43.7778567364
 20
68.1335963242
 30
0.0
 10
43.5475558516
 20
67.9716164023
 30
0.0
 10
43.4320725949
 20
67.904942511
 30
0.0
  0
SPLINE
  5
3A0
100
AcDbEntity
  8
0
100
AcDbSpline
 62
7
  6
BYLAYER
 70
0
 71
3
 72
14
 73
10
 74
0
 42
0.0000001
 43
0.0000001
 44
0.0000000001
 40
0.0
 40
0.0
 40
0.0
 40
0.0
 40
0.1035591267
 40
0.2099068802
 40
0.3214893639
 40
0.4401503761
 40
0.5670677314
 40
0.7028123248
 40
1.0
 40
1.0
 40
1.0
 40
1.0
 10
40.944705512
 20
65.8358873454
 30
0.0
 10
41.0427672034
 20
65.8925077394
 30
0.0
 10
41.2301912457
 20
66.0282295902
 30
0.0
 10
41.4693687378
 20
66.2886840675
 30
0.0
 10
41.6653246802
 20
66.6024712672
 30
0.0
 10
41.8154763144
 20
66.9646386908
 30
0.0
 10
41.9186097357
 20
67.3699638231
 30
0.0
 10
41.9940298398
 20
67.9786461756
 30
0.0
 10
41.9724164168
 20
68.4557075119
 30
0.0
 10
41.9312281834
 20
68.7780389666
 30
0.0
  0
SPLINE
  5
3A1
100
AcDbEntity
  8
0
100
AcDbSpline
 62
7
  6
BYLAYER
 70
0
 71
3
 72
9
 73
5
 74
0
 42
0.0000001
 43
0.0000001
 44
0.0000000001
 40
0.0
 40
0.0
 40
0.0
 40
0.0
 40
0.2404645812
 40
1.0
 40
1.0
 40
1.0
 40
1.0
 10
41.9312281834
 20
68.7780389666
 30
0.0
 10
41.9162778986
 20
68.8950371141
 30
0.0
 10
41.8392985724
 20
69.3796515828
 30
0.0
 10
41.7070013887
 20
69.8548856074
 30
0.0
 10
41.5820995046
 20
70.205881837
 30
0.0
  0
SPLINE
  5
3A2
100
AcDbEntity
  8
0
100
AcDbSpline
 62
7
  6
BYLAYER
 70
0
 71
3
 72
9
 73
5
 74
0
 42
0.0000001
 43
0.0000001
 44
0.0000000001
 40
0.0
 40
0.0
 40
0.0
 40
0.0
 40
0.4987928484
 40
1.0
 40
1.0
 40
1.0
 40
1.0
 10
41.5820995046
 20
70.205881837
 30
0.0
 10
41.4265703901
 20
70.6429459625
 30
0.0
 10
41.0375138883
 20
71.4930009123
 30
0.0
 10
40.5178031548
 20
72.2699446596
 30
0.0
 10
40.2264898235
 20
72.6338668233
 30
0.0
  0
SPLINE
  5
3A3
100
AcDbEntity
  8
0
100
AcDbSpline
 62
7
  6
BYLAYER
 70
0
 71
3
 72
9
 73
5
 74
0
 42
0.0000001
 43
0.0000001
 44
0.0000000001
 40
0.0
 40
0.0
 40
0.0
 40
0.0
 40
0.2571156924
 40
1.0
 40
1.0
 40
1.0
 40
1.0
 10
42.7888990752
 20
55.9675429856
 30
0.0
 10
42.7772244787
 20
55.9926969212
 30
0.0
 10
42.7342527411
 20
56.0916222143
 30
0.0
 10
42.7011747778
 20
56.19497981
 30
0.0
 10
42.6837609757
 20
56.2731881954
 30
0.0
  0
SPLINE
  5
3A4
100
AcDbEntity
  8
0
100
AcDbSpline
 62
7
  6
BYLAYER
 70
0
 71
3
 72
9
 73
5
 74
0
 42
0.0000001
 43
0.0000001
 44
0.0000000001
 40
0.0
 40
0.0
 40
0.0
 40
0.0
 40
0.4729985185
 40
1.0
 40
1.0
 40
1.0
 40
1.0
 10
63.8810920231
 20
82.6187568618
 30
0.0
 10
63.8805499167
 20
82.641770937
 30
0.0
 10
63.8709791024
 20
82.6902241397
 30
0.0
 10
63.8509310748
 20
82.7349706683
 30
0.0
 10
63.8381102054
 20
82.7571851495
 30
0.0
  0
SPLINE
  5
3A5
100
AcDbEntity
  8
0
100
AcDbSpline
 62
7
  6
BYLAYER
 70
0
 71
3
 72
9
 73
5
 74
0
 42
0.0000001
 43
0.0000001
 44
0.0000000001
 40
0.0
 40
0.0
 40
0.0
 40
0.0
 40
0.2659604067
 40
1.0
 40
1.0
 40
1.0
 40
1.0
 10
63.175503129
 20
81.624369865
 30
0.0
 10
63.1883198535
 20
81.6242750864
 30
0.0
 10
63.2363924598
 20
81.6265945523
 30
0.0
 10
63.2847316474
 20
81.6390517522
 30
0.0
 10
63.3157584683
 20
81.6560428684
 30
0.0
  0
SPLINE
  5
3A6
100
AcDbEntity
  8
0
100
AcDbSpline
 62
7
  6
BYLAYER
 70
0
 71
3
 72
9
 73
5
 74
0
 42
0.0000001
 43
0.0000001
 44
0.0000000001
 40
0.0
 40
0.0
 40
0.0
 40
0.0
 40
0.2292520815
 40
1.0
 40
1.0
 40
1.0
 40
1.0
 10
63.0366992279
 20
81.6581696282
 30
0.0
 10
63.0462127047
 20
81.652677144
 30
0.0
 10
63.0897804207
 20
81.6323535683
 30
0.0
 10
63.1385719331
 20
81.6246429679
 30
0.0
 10
63.175503129
 20
81.624369865
 30
0.0
  0
SPLINE
  5
3A7
100
AcDbEntity
  8
0
100
AcDbSpline
 62
7
  6
BYLAYER
 70
0
 71
3
 72
9
 73
5
 74
0
 42
0.0000001
 43
0.0000001
 44
0.0000000001
 40
0.0
 40
0.0
 40
0.0
 40
0.0
 40
0.527049173
 40
1.0
 40
1.0
 40
1.0
 40
1.0
 10
63.8381102054
 20
82.7571851495
 30
0.0
 10
63.8252879594
 20
82.7794020159
 30
0.0
 10
63.796568602
 20
82.819148341
 30
0.0
 10
63.759376727
 20
82.8516462405
 30
0.0
 10
63.7397185398
 20
82.8636215584
 30
0.0
  0
SPLINE
  5
3A8
100
AcDbEntity
  8
0
100
AcDbSpline
 62
7
  6
BYLAYER
 70
0
 71
3
 72
9
 73
5
 74
0
 42
0.0000001
 43
0.0000001
 44
0.0000000001
 40
0.0
 40
0.0
 40
0.0
 40
0.0
 40
0.2428079541
 40
1.0
 40
1.0
 40
1.0
 40
1.0
 10
15.2590008942
 20
110.8533437411
 30
0.0
 10
15.2493387884
 20
110.8472282273
 30
0.0
 10
15.2099991918
 20
110.8213278983
 30
0.0
 10
15.1724511842
 20
110.792739564
 30
0.0
 10
15.145037538
 20
110.7699342498
 30
0.0
  0
SPLINE
  5
3A9
100
AcDbEntity
  8
0
100
AcDbSpline
 62
7
  6
BYLAYER
 70
0
 71
3
 72
9
 73
5
 74
0
 42
0.0000001
 43
0.0000001
 44
0.0000000001
 40
0.0
 40
0.0
 40
0.0
 40
0.0
 40
0.2445036667
 40
1.0
 40
1.0
 40
1.0
 40
1.0
 10
15.145037538
 20
110.7699342498
 30
0.0
 10
15.1355720564
 20
110.7620599495
 30
0.0
 10
15.0973441391
 20
110.7292741691
 30
0.0
 10
15.0610330047
 20
110.6942680997
 30
0.0
 10
15.0346923208
 20
110.6668166301
 30
0.0
  0
SPLINE
  5
3AA
100
AcDbEntity
  8
0
100
AcDbSpline
 62
7
  6
BYLAYER
 70
0
 71
3
 72
9
 73
5
 74
0
 42
0.0000001
 43
0.0000001
 44
0.0000000001
 40
0.0
 40
0.0
 40
0.0
 40
0.0
 40
0.5199067616
 40
1.0
 40
1.0
 40
1.0
 40
1.0
 10
63.3976736592
 20
82.5651047035
 30
0.0
 10
63.448038238
 20
82.6259310226
 30
0.0
 10
63.5538180154
 20
82.7358626561
 30
0.0
 10
63.6767264729
 20
82.8268806875
 30
0.0
 10
63.7397180768
 20
82.8636218374
 30
0.0
  0
SPLINE
  5
3AB
100
AcDbEntity
  8
0
100
AcDbSpline
 62
7
  6
BYLAYER
 70
0
 71
3
 72
9
 73
5
 74
0
 42
0.0000001
 43
0.0000001
 44
0.0000000001
 40
0.0
 40
0.0
 40
0.0
 40
0.0
 40
0.2516282616
 40
1.0
 40
1.0
 40
1.0
 40
1.0
 10
63.2415515835
 20
82.3412838222
 30
0.0
 10
63.2530994594
 20
82.3610626337
 30
0.0
 10
63.3005739468
 20
82.4387286456
 30
0.0
 10
63.3542314443
 20
82.5126389247
 30
0.0
 10
63.397673515
 20
82.565104791
 30
0.0
  0
SPLINE
  5
3AC
100
AcDbEntity
  8
0
100
AcDbSpline
 62
7
  6
BYLAYER
 70
0
 71
3
 72
9
 73
5
 74
0
 42
0.0000001
 43
0.0000001
 44
0.0000000001
 40
0.0
 40
0.0
 40
0.0
 40
0.0
 40
0.474397344
 40
1.0
 40
1.0
 40
1.0
 40
1.0
 10
63.0366987478
 20
81.6581699054
 30
0.0
 10
63.0366987478
 20
81.7718759225
 30
0.0
 10
63.0795484321
 20
82.0116631314
 30
0.0
 10
63.1780324544
 20
82.232490105
 30
0.0
 10
63.2415517125
 20
82.3412837428
 30
0.0
  0
SPLINE
  5
3AD
100
AcDbEntity
  8
0
100
AcDbSpline
 62
7
  6
BYLAYER
 70
0
 71
3
 72
9
 73
5
 74
0
 42
0.0000001
 43
0.0000001
 44
0.0000000001
 40
0.0
 40
0.0
 40
0.0
 40
0.0
 40
0.2575430863
 40
1.0
 40
1.0
 40
1.0
 40
1.0
 10
14.781278434
 20
110.3192026203
 30
0.0
 10
14.7605818809
 20
110.2817259381
 30
0.0
 10
14.6855698982
 20
110.1333856387
 30
0.0
 10
14.6314792878
 20
109.9739533638
 30
0.0
 10
14.607669045
 20
109.852852125
 30
0.0
  0
SPLINE
  5
3AE
100
AcDbEntity
  8
0
100
AcDbSpline
 62
7
  6
BYLAYER
 70
0
 71
3
 72
9
 73
5
 74
0
 42
0.0000001
 43
0.0000001
 44
0.0000000001
 40
0.0
 40
0.0
 40
0.0
 40
0.0
 40
0.2565091302
 40
1.0
 40
1.0
 40
1.0
 40
1.0
 10
14.607669045
 20
109.852852125
 30
0.0
 10
14.6051580269
 20
109.8400808396
 30
0.0
 10
14.5960917922
 20
109.7901547184
 30
0.0
 10
14.5899611807
 20
109.7396790497
 30
0.0
 10
14.5873454459
 20
109.7020435979
 30
0.0
  0
SPLINE
  5
3AF
100
AcDbEntity
  8
0
100
AcDbSpline
 62
7
  6
BYLAYER
 70
0
 71
3
 72
9
 73
5
 74
0
 42
0.0000001
 43
0.0000001
 44
0.0000000001
 40
0.0
 40
0.0
 40
0.0
 40
0.0
 40
0.5520648293
 40
1.0
 40
1.0
 40
1.0
 40
1.0
 10
15.2590004117
 20
110.853344008
 30
0.0
 10
15.2420097608
 20
110.8626399526
 30
0.0
 10
15.2083989233
 20
110.8758212499
 30
0.0
 10
15.1711514436
 20
110.8701501303
 30
0.0
 10
15.1575464863
 20
110.862285887
 30
0.0
  0
SPLINE
  5
3B0
100
AcDbEntity
  8
0
100
AcDbSpline
 62
7
  6
BYLAYER
 70
0
 71
3
 72
9
 73
5
 74
0
 42
0.0000001
 43
0.0000001
 44
0.0000000001
 40
0.0
 40
0.0
 40
0.0
 40
0.0
 40
0.4496615676
 40
1.0
 40
1.0
 40
1.0
 40
1.0
 10
14.5262868037
 20
109.711372601
 30
0.0
 10
14.5266280594
 20
109.6960005018
 30
0.0
 10
14.540540761
 20
109.6620389062
 30
0.0
 10
14.5685343277
 20
109.6406446323
 30
0.0
 10
14.5848316904
 20
109.6312355584
 30
0.0
  0
SPLINE
  5
3B1
100
AcDbEntity
  8
0
100
AcDbSpline
 62
7
  6
BYLAYER
 70
0
 71
3
 72
9
 73
5
 74
0
 42
0.0000001
 43
0.0000001
 44
0.0000000001
 40
0.0
 40
0.0
 40
0.0
 40
0.0
 40
0.2482857367
 40
1.0
 40
1.0
 40
1.0
 40
1.0
 10
46.1440502481
 20
68.7511402892
 30
0.0
 10
46.1099618506
 20
68.7314639629
 30
0.0
 10
45.9699319836
 20
68.657021636
 30
0.0
 10
45.8194271687
 20
68.6025242901
 30
0.0
 10
45.7039000663
 20
68.5733015717
 30
0.0
  0
SPLINE
  5
3B2
100
AcDbEntity
  8
0
100
AcDbSpline
 62
7
  6
BYLAYER
 70
0
 71
3
 72
11
 73
7
 74
0
 42
0.0000001
 43
0.0000001
 44
0.0000000001
 40
0.0
 40
0.0
 40
0.0
 40
0.0
 40
0.2755677298
 40
0.5304823596
 40
0.7695729579
 40
1.0
 40
1.0
 40
1.0
 40
1.0
 10
29.3286166438
 20
78.3236169443
 30
0.0
 10
29.4257454757
 20
78.7585966411
 30
0.0
 10
29.6753314102
 20
79.5843071236
 30
0.0
 10
30.2486315725
 20
80.6979682619
 30
0.0
 10
30.9974984317
 20
81.6113734299
 30
0.0
 10
31.6104668164
 20
82.0743479228
 30
0.0
 10
31.9332176996
 20
82.2606935598
 30
0.0
  0
SPLINE
  5
3B3
100
AcDbEntity
  8
0
100
AcDbSpline
 62
7
  6
BYLAYER
 70
0
 71
3
 72
12
 73
8
 74
0
 42
0.0000001
 43
0.0000001
 44
0.0000000001
 40
0.0
 40
0.0
 40
0.0
 40
0.0
 40
0.1123041765
 40
0.2327400013
 40
0.4895765757
 40
0.7520983415
 40
1.0
 40
1.0
 40
1.0
 40
1.0
 10
31.1167660676
 20
74.7905296637
 30
0.0
 10
31.1167660676
 20
74.9429455951
 30
0.0
 10
31.092354986
 20
75.2590935982
 30
0.0
 10
30.9578437564
 20
75.9110614406
 30
0.0
 10
30.6387743728
 20
76.7263308763
 30
0.0
 10
30.076986186
 20
77.6096526354
 30
0.0
 10
29.5913512072
 20
78.1134606015
 30
0.0
 10
29.3286166438
 20
78.3236169443
 30
0.0
  0
SPLINE
  5
3B4
100
AcDbEntity
  8
0
100
AcDbSpline
 62
7
  6
BYLAYER
 70
0
 71
3
 72
11
 73
7
 74
0
 42
0.0000001
 43
0.0000001
 44
0.0000000001
 40
0.0
 40
0.0
 40
0.0
 40
0.0
 40
0.2287710168
 40
0.4670275264
 40
0.7224542691
 40
1.0
 40
1.0
 40
1.0
 40
1.0
 10
46.5190485012
 20
68.101620385
 30
0.0
 10
46.6623580853
 20
68.1843403309
 30
0.0
 10
46.9339445919
 20
68.3924074586
 30
0.0
 10
47.2606416313
 20
68.8061147998
 30
0.0
 10
47.5044364977
 20
69.3120363082
 30
0.0
 10
47.6050183587
 20
69.6864191211
 30
0.0
 10
47.6424757265
 20
69.883641992
 30
0.0
  0
SPLINE
  5
3B5
100
AcDbEntity
  8
0
100
AcDbSpline
 62
7
  6
BYLAYER
 70
0
 71
3
 72
12
 73
8
 74
0
 42
0.0000001
 43
0.0000001
 44
0.0000000001
 40
0.0
 40
0.0
 40
0.0
 40
0.0
 40
0.2548782147
 40
0.5235291124
 40
0.7791380987
 40
0.8950213418
 40
1.0
 40
1.0
 40
1.0
 40
1.0
 10
38.6434940209
 20
58.0118505971
 30
0.0
 10
38.5230657042
 20
58.1081789
 30
0.0
 10
38.3044493627
 20
58.343015429
 30
0.0
 10
38.0660570979
 20
58.7532223922
 30
0.0
 10
37.9480894033
 20
59.1270414473
 30
0.0
 10
37.9214334132
 20
59.4150121497
 30
0.0
 10
37.9313134008
 20
59.5492314185
 30
0.0
 10
37.9428502725
 20
59.6116924233
 30
0.0
  0
SPLINE
  5
3B6
100
AcDbEntity
  8
0
100
AcDbSpline
 62
7
  6
BYLAYER
 70
0
 71
3
 72
15
 73
11
 74
0
 42
0.0000001
 43
0.0000001
 44
0.0000000001
 40
0.0
 40
0.0
 40
0.0
 40
0.0
 40
0.1448975546
 40
0.2745250287
 40
0.3911086762
 40
0.4999947748
 40
0.6088794465
 40
0.7254458539
 40
0.8551834328
 40
1.0
 40
1.0
 40
1.0
 40
1.0
 10
23.0421861328
 20
59.8562386338
 30
0.0
 10
23.0421876505
 20
59.7700761871
 30
0.0
 10
23.0291748879
 20
59.6062616154
 30
0.0
 10
22.9628292004
 20
59.3812374755
 30
0.0
 10
22.8510384847
 20
59.1985282103
 30
0.0
 10
22.6959051134
 20
59.068034634
 30
0.0
 10
22.5053544606
 20
58.9988856959
 30
0.0
 10
22.2911652527
 20
58.9934030385
 30
0.0
 10
22.0631330833
 20
59.0485494241
 30
0.0
 10
21.9147096385
 20
59.1191103517
 30
0.0
 10
21.8401320556
 20
59.1621667652
 30
0.0
  0
SPLINE
  5
3B7
100
AcDbEntity
  8
0
100
AcDbSpline
 62
7
  6
BYLAYER
 70
0
 71
3
 72
15
 73
11
 74
0
 42
0.0000001
 43
0.0000001
 44
0.0000000001
 40
0.0
 40
0.0
 40
0.0
 40
0.0
 40
0.1481410153
 40
0.2823539107
 40
0.4037558743
 40
0.5163671864
 40
0.6261983432
 40
0.740004629
 40
0.8634610097
 40
1.0
 40
1.0
 40
1.0
 40
1.0
 10
21.977850859
 20
59.4007036195
 30
0.0
 10
22.0380339823
 20
59.3659576631
 30
0.0
 10
22.1579130735
 20
59.3079799901
 30
0.0
 10
22.3418331203
 20
59.2576704433
 30
0.0
 10
22.5162936822
 20
59.2509635942
 30
0.0
 10
22.6753101714
 20
59.2897869224
 30
0.0
 10
22.8118985983
 20
59.3738051925
 30
0.0
 10
22.9195036469
 20
59.4990913385
 30
0.0
 10
22.9950556595
 20
59.659185434
 30
0.0
 10
23.022070255
 20
59.77906113
 30
0.0
 10
23.030819099
 20
59.8425113732
 30
0.0
  0
SPLINE
  5
3B8
100
AcDbEntity
  8
0
100
AcDbSpline
 62
7
  6
BYLAYER
 70
0
 71
3
 72
10
 73
6
 74
0
 42
0.0000001
 43
0.0000001
 44
0.0000000001
 40
0.0
 40
0.0
 40
0.0
 40
0.0
 40
0.512828604
 40
0.7611863898
 40
1.0
 40
1.0
 40
1.0
 40
1.0
 10
31.9332176996
 20
66.3776299562
 30
0.0
 10
31.2966238488
 20
67.4802367288
 30
0.0
 10
30.478995035
 20
69.1966531709
 30
0.0
 10
29.7043809549
 20
71.5575627009
 30
0.0
 10
29.4322491288
 20
72.7384054771
 30
0.0
 10
29.3286166438
 20
73.3221727751
 30
0.0
  0
SPLINE
  5
3B9
100
AcDbEntity
  8
0
100
AcDbSpline
 62
7
  6
BYLAYER
 70
0
 71
3
 72
10
 73
6
 74
0
 42
0.0000001
 43
0.0000001
 44
0.0000000001
 40
0.0
 40
0.0
 40
0.0
 40
0.0
 40
0.2388130254
 40
0.4871705976
 40
1.0
 40
1.0
 40
1.0
 40
1.0
 10
36.6450830694
 20
60.6497515415
 30
0.0
 10
36.1913418326
 20
61.0313781764
 30
0.0
 10
35.3047668098
 20
61.8574629848
 30
0.0
 10
33.6474611239
 20
63.7087381449
 30
0.0
 10
32.5698105222
 20
65.2750249646
 30
0.0
 10
31.9332176996
 20
66.3776299562
 30
0.0
  0
SPLINE
  5
3BA
100
AcDbEntity
  8
0
100
AcDbSpline
 62
7
  6
BYLAYER
 70
0
 71
3
 72
20
 73
16
 74
0
 42
0.0000001
 43
0.0000001
 44
0.0000000001
 40
0.0
 40
0.0
 40
0.0
 40
0.0
 40
0.0560279518
 40
0.1063606366
 40
0.1526637195
 40
0.197605317
 40
0.2442491006
 40
0.2951513142
 40
0.3517861696
 40
0.4145593503
 40
0.4830169337
 40
0.5561067703
 40
0.7098861413
 40
0.8623245275
 40
1.0
 40
1.0
 40
1.0
 40
1.0
 10
21.8305627942
 20
61.9319156498
 30
0.0
 10
21.7680717814
 20
61.9579040692
 30
0.0
 10
21.6445845225
 20
61.9970474414
 30
0.0
 10
21.458670274
 20
62.0108609419
 30
0.0
 10
21.2888028828
 20
61.9741026193
 30
0.0
 10
21.1434480335
 20
61.8865985872
 30
0.0
 10
21.0305877189
 20
61.7530674849
 30
0.0
 10
20.9537206647
 20
61.5812689456
 30
0.0
 10
20.9135788714
 20
61.378080072
 30
0.0
 10
20.9105466443
 20
61.150155474
 30
0.0
 10
20.9442192232
 20
60.9048423784
 30
0.0
 10
21.0379148652
 20
60.5598379693
 30
0.0
 10
21.2345843349
 20
60.1414073
 30
0.0
 10
21.5598589294
 20
59.7108963819
 30
0.0
 10
21.8338243188
 20
59.4838555001
 30
0.0
 10
21.977850859
 20
59.4007036195
 30
0.0
  0
SPLINE
  5
3BB
100
AcDbEntity
  8
0
100
AcDbSpline
 62
7
  6
BYLAYER
 70
0
 71
3
 72
15
 73
11
 74
0
 42
0.0000001
 43
0.0000001
 44
0.0000000001
 40
0.0
 40
0.0
 40
0.0
 40
0.0
 40
0.1481410153
 40
0.2823539107
 40
0.4037558743
 40
0.5163671864
 40
0.6261983432
 40
0.740004629
 40
0.8634610097
 40
1.0
 40
1.0
 40
1.0
 40
1.0
 10
26.2205092098
 20
61.8502735952
 30
0.0
 10
26.2806923332
 20
61.8155276388
 30
0.0
 10
26.4005714243
 20
61.7575499658
 30
0.0
 10
26.5844914712
 20
61.707240419
 30
0.0
 10
26.7589520331
 20
61.7005335698
 30
0.0
 10
26.9179685222
 20
61.739356898
 30
0.0
 10
27.0545569492
 20
61.8233751682
 30
0.0
 10
27.1621619978
 20
61.9486613141
 30
0.0
 10
27.2377140104
 20
62.1087554096
 30
0.0
 10
27.2647286059
 20
62.2286311056
 30
0.0
 10
27.2734774499
 20
62.2920813488
 30
0.0
  0
SPLINE
  5
3BC
100
AcDbEntity
  8
0
100
AcDbSpline
 62
7
  6
BYLAYER
 70
0
 71
3
 72
20
 73
16
 74
0
 42
0.0000001
 43
0.0000001
 44
0.0000000001
 40
0.0
 40
0.0
 40
0.0
 40
0.0
 40
0.0560279518
 40
0.1063606366
 40
0.1526637195
 40
0.197605317
 40
0.2442491006
 40
0.2951513142
 40
0.3517861696
 40
0.4145593503
 40
0.4830169337
 40
0.5561067703
 40
0.7098861413
 40
0.8623245275
 40
1.0
 40
1.0
 40
1.0
 40
1.0
 10
26.0732211451
 20
64.3814856255
 30
0.0
 10
26.0107301323
 20
64.4074740448
 30
0.0
 10
25.8872428734
 20
64.446617417
 30
0.0
 10
25.7013286249
 20
64.4604309175
 30
0.0
 10
25.5314612336
 20
64.423672595
 30
0.0
 10
25.3861063844
 20
64.3361685629
 30
0.0
 10
25.2732460698
 20
64.2026374606
 30
0.0
 10
25.1963790156
 20
64.0308389213
 30
0.0
 10
25.1562372223
 20
63.8276500476
 30
0.0
 10
25.1532049951
 20
63.5997254496
 30
0.0
 10
25.1868775741
 20
63.354412354
 30
0.0
 10
25.2805732161
 20
63.009407945
 30
0.0
 10
25.4772426857
 20
62.5909772756
 30
0.0
 10
25.8025172803
 20
62.1604663576
 30
0.0
 10
26.0764826697
 20
61.9334254758
 30
0.0
 10
26.2205092098
 20
61.8502735952
 30
0.0
  0
SPLINE
  5
3BD
100
AcDbEntity
  8
0
100
AcDbSpline
 62
7
  6
BYLAYER
 70
0
 71
3
 72
15
 73
11
 74
0
 42
0.0000001
 43
0.0000001
 44
0.0000000001
 40
0.0
 40
0.0
 40
0.0
 40
0.0
 40
0.1481410153
 40
0.2823539107
 40
0.4037558743
 40
0.5163671864
 40
0.6261983432
 40
0.740004629
 40
0.8634610097
 40
1.0
 40
1.0
 40
1.0
 40
1.0
 10
55.919117666
 20
39.8051474026
 30
0.0
 10
55.9793007894
 20
39.7704014461
 30
0.0
 10
56.0991798805
 20
39.7124237732
 30
0.0
 10
56.2830999274
 20
39.6621142263
 30
0.0
 10
56.4575604892
 20
39.6554073772
 30
0.0
 10
56.6165769784
 20
39.6942307054
 30
0.0
 10
56.7531654054
 20
39.7782489756
 30
0.0
 10
56.860770454
 20
39.9035351215
 30
0.0
 10
56.9363224666
 20
40.063629217
 30
0.0
 10
56.9633370621
 20
40.183504913
 30
0.0
 10
56.972085906
 20
40.2469551562
 30
0.0
  0
SPLINE
  5
3BE
100
AcDbEntity
  8
0
100
AcDbSpline
 62
7
  6
BYLAYER
 70
0
 71
3
 72
20
 73
16
 74
0
 42
0.0000001
 43
0.0000001
 44
0.0000000001
 40
0.0
 40
0.0
 40
0.0
 40
0.0
 40
0.0560279518
 40
0.1063606366
 40
0.1526637195
 40
0.197605317
 40
0.2442491006
 40
0.2951513142
 40
0.3517861696
 40
0.4145593503
 40
0.4830169337
 40
0.5561067703
 40
0.7098861413
 40
0.8623245275
 40
1.0
 40
1.0
 40
1.0
 40
1.0
 10
55.7718296013
 20
42.3363594328
 30
0.0
 10
55.7093385884
 20
42.3623478522
 30
0.0
 10
55.5858513295
 20
42.4014912244
 30
0.0
 10
55.399937081
 20
42.4153047249
 30
0.0
 10
55.2300696898
 20
42.3785464024
 30
0.0
 10
55.0847148405
 20
42.2910423703
 30
0.0
 10
54.971854526
 20
42.157511268
 30
0.0
 10
54.8949874718
 20
41.9857127287
 30
0.0
 10
54.8548456785
 20
41.782523855
 30
0.0
 10
54.8518134513
 20
41.554599257
 30
0.0
 10
54.8854860303
 20
41.3092861614
 30
0.0
 10
54.9791816722
 20
40.9642817523
 30
0.0
 10
55.1758511419
 20
40.545851083
 30
0.0
 10
55.5011257365
 20
40.1153401649
 30
0.0
 10
55.7750911259
 20
39.8882992831
 30
0.0
 10
55.919117666
 20
39.8051474026
 30
0.0
  0
SPLINE
  5
3BF
100
AcDbEntity
  8
0
100
AcDbSpline
 62
7
  6
BYLAYER
 70
0
 71
3
 72
11
 73
7
 74
0
 42
0.0000001
 43
0.0000001
 44
0.0000000001
 40
0.0
 40
0.0
 40
0.0
 40
0.0
 40
0.2897634497
 40
0.5490660779
 40
0.7822170403
 40
1.0
 40
1.0
 40
1.0
 40
1.0
 10
38.8107654592
 20
61.4642057816
 30
0.0
 10
38.6738740987
 20
61.5432382575
 30
0.0
 10
38.401639585
 20
61.6728058181
 30
0.0
 10
37.983147967
 20
61.7737797974
 30
0.0
 10
37.5905301125
 20
61.7638803935
 30
0.0
 10
37.3541260988
 20
61.678056976
 30
0.0
 10
37.2512467939
 20
61.6186454383
 30
0.0
  0
SPLINE
  5
3C0
100
AcDbEntity
  8
0
100
AcDbSpline
 62
7
  6
BYLAYER
 70
0
 71
3
 72
15
 73
11
 74
0
 42
0.0000001
 43
0.0000001
 44
0.0000000001
 40
0.0
 40
0.0
 40
0.0
 40
0.0
 40
0.1481410153
 40
0.2823539107
 40
0.4037558743
 40
0.5163671864
 40
0.6261983432
 40
0.740004629
 40
0.8634610097
 40
1.0
 40
1.0
 40
1.0
 40
1.0
 10
51.6764593151
 20
47.1536064325
 30
0.0
 10
51.7366424385
 20
47.118860476
 30
0.0
 10
51.8565215296
 20
47.0608828031
 30
0.0
 10
52.0404415765
 20
47.0105732562
 30
0.0
 10
52.2149021384
 20
47.0038664071
 30
0.0
 10
52.3739186275
 20
47.0426897353
 30
0.0
 10
52.5105070545
 20
47.1267080055
 30
0.0
 10
52.6181121031
 20
47.2519941514
 30
0.0
 10
52.6936641157
 20
47.4120882469
 30
0.0
 10
52.7206787112
 20
47.5319639429
 30
0.0
 10
52.7294275552
 20
47.5954141861
 30
0.0
  0
SPLINE
  5
3C1
100
AcDbEntity
  8
0
100
AcDbSpline
 62
7
  6
BYLAYER
 70
0
 71
3
 72
20
 73
16
 74
0
 42
0.0000001
 43
0.0000001
 44
0.0000000001
 40
0.0
 40
0.0
 40
0.0
 40
0.0
 40
0.0560279518
 40
0.1063606366
 40
0.1526637195
 40
0.197605317
 40
0.2442491006
 40
0.2951513142
 40
0.3517861696
 40
0.4145593503
 40
0.4830169337
 40
0.5561067703
 40
0.7098861413
 40
0.8623245275
 40
1.0
 40
1.0
 40
1.0
 40
1.0
 10
51.5291712504
 20
49.6848184627
 30
0.0
 10
51.4666802376
 20
49.7108068821
 30
0.0
 10
51.3431929787
 20
49.7499502543
 30
0.0
 10
51.1572787301
 20
49.7637637548
 30
0.0
 10
50.9874113389
 20
49.7270054323
 30
0.0
 10
50.8420564897
 20
49.6395014002
 30
0.0
 10
50.7291961751
 20
49.5059702979
 30
0.0
 10
50.6523291209
 20
49.3341717586
 30
0.0
 10
50.6121873276
 20
49.1309828849
 30
0.0
 10
50.6091551004
 20
48.9030582869
 30
0.0
 10
50.6428276794
 20
48.6577451913
 30
0.0
 10
50.7365233214
 20
48.3127407822
 30
0.0
 10
50.933192791
 20
47.8943101129
 30
0.0
 10
51.2584673856
 20
47.4637991948
 30
0.0
 10
51.532432775
 20
47.236758313
 30
0.0
 10
51.6764593151
 20
47.1536064325
 30
0.0
  0
SPLINE
  5
3C2
100
AcDbEntity
  8
0
100
AcDbSpline
 62
7
  6
BYLAYER
 70
0
 71
3
 72
12
 73
8
 74
0
 42
0.0000001
 43
0.0000001
 44
0.0000000001
 40
0.0
 40
0.0
 40
0.0
 40
0.0
 40
0.2479030355
 40
0.51042527
 40
0.7672613194
 40
0.8876965736
 40
1.0
 40
1.0
 40
1.0
 40
1.0
 10
40.9764478489
 20
58.1490934925
 30
0.0
 10
40.9258116881
 20
58.4817076211
 30
0.0
 10
40.7323145008
 20
59.1541844162
 30
0.0
 10
40.248225058
 20
60.0823666961
 30
0.0
 10
39.7017134384
 20
60.7663197444
 30
0.0
 10
39.2043477163
 20
61.2087884212
 30
0.0
 10
38.9427612658
 20
61.3879996911
 30
0.0
 10
38.8107654592
 20
61.4642057816
 30
0.0
  0
SPLINE
  5
3C3
100
AcDbEntity
  8
0
100
AcDbSpline
 62
7
  6
BYLAYER
 70
0
 71
3
 72
11
 73
7
 74
0
 42
0.0000001
 43
0.0000001
 44
0.0000000001
 40
0.0
 40
0.0
 40
0.0
 40
0.0
 40
0.230428137
 40
0.4695188913
 40
0.7244330428
 40
1.0
 40
1.0
 40
1.0
 40
1.0
 10
45.6883132187
 20
58.4363015124
 30
0.0
 10
45.3655631074
 20
58.249956321
 30
0.0
 10
44.6581418276
 20
57.9505809795
 30
0.0
 10
43.4926874712
 20
57.7587205416
 30
0.0
 10
42.2415878233
 20
57.819034242
 30
0.0
 10
41.4017133622
 20
58.015726937
 30
0.0
 10
40.9764478489
 20
58.1490934925
 30
0.0
  0
SPLINE
  5
3C4
100
AcDbEntity
  8
0
100
AcDbSpline
 62
7
  6
BYLAYER
 70
0
 71
3
 72
11
 73
7
 74
0
 42
0.0000001
 43
0.0000001
 44
0.0000000001
 40
0.0
 40
0.0
 40
0.0
 40
0.0
 40
0.228497127
 40
0.4665953291
 40
0.7222625558
 40
1.0
 40
1.0
 40
1.0
 40
1.0
 10
40.3702841244
 20
79.0783496339
 30
0.0
 10
40.4479584547
 20
79.1232056077
 30
0.0
 10
40.5951736884
 20
79.2361307694
 30
0.0
 10
40.7717897906
 20
79.4611657783
 30
0.0
 10
40.9029179542
 20
79.7364382565
 30
0.0
 10
40.956645309
 20
79.9400319248
 30
0.0
 10
40.9764478489
 20
80.0472435307
 30
0.0
  0
SPLINE
  5
3C5
100
AcDbEntity
  8
0
100
AcDbSpline
 62
7
  6
BYLAYER
 70
0
 71
3
 72
9
 73
5
 74
0
 42
0.0000001
 43
0.0000001
 44
0.0000000001
 40
0.0
 40
0.0
 40
0.0
 40
0.0
 40
0.4491881157
 40
1.0
 40
1.0
 40
1.0
 40
1.0
 10
20.2725071608
 20
80.2969015003
 30
0.0
 10
20.2859533583
 20
80.3047188567
 30
0.0
 10
20.3228085667
 20
80.3104070446
 30
0.0
 10
20.3558266206
 20
80.2966924289
 30
0.0
 10
20.3723438119
 20
80.2871564398
 30
0.0
  0
SPLINE
  5
3C6
100
AcDbEntity
  8
0
100
AcDbSpline
 62
7
  6
BYLAYER
 70
0
 71
3
 72
15
 73
11
 74
0
 42
0.0000001
 43
0.0000001
 44
0.0000000001
 40
0.0
 40
0.0
 40
0.0
 40
0.0
 40
0.1448975546
 40
0.2745250287
 40
0.3911086762
 40
0.4999947748
 40
0.6088794465
 40
0.7254458539
 40
0.8551834328
 40
1.0
 40
1.0
 40
1.0
 40
1.0
 10
27.2848444837
 20
62.3058086095
 30
0.0
 10
27.2848460014
 20
62.2196461627
 30
0.0
 10
27.2718332388
 20
62.055831591
 30
0.0
 10
27.2054875513
 20
61.8308074511
 30
0.0
 10
27.0936968355
 20
61.648098186
 30
0.0
 10
26.9385634643
 20
61.5176046096
 30
0.0
 10
26.7480128115
 20
61.4484556715
 30
0.0
 10
26.5338236036
 20
61.4429730142
 30
0.0
 10
26.3057914342
 20
61.4981193998
 30
0.0
 10
26.1573679894
 20
61.5686803274
 30
0.0
 10
26.0827904065
 20
61.6117367409
 30
0.0
  0
SPLINE
  5
3C7
100
AcDbEntity
  8
0
100
AcDbSpline
 62
7
  6
BYLAYER
 70
0
 71
3
 72
11
 73
7
 74
0
 42
0.0000001
 43
0.0000001
 44
0.0000000001
 40
0.0
 40
0.0
 40
0.0
 40
0.0
 40
0.2177819762
 40
0.4509325184
 40
0.7102355404
 40
1.0
 40
1.0
 40
1.0
 40
1.0
 10
30.470748023
 20
73.3626863793
 30
0.0
 10
30.5736421695
 20
73.4220774887
 30
0.0
 10
30.7661743264
 20
73.5839014368
 30
0.0
 10
30.971059943
 20
73.9189784398
 30
0.0
 10
31.0928597478
 20
74.331902423
 30
0.0
 10
31.1167660676
 20
74.6324572539
 30
0.0
 10
31.1167660676
 20
74.7905296637
 30
0.0
  0
LINE
  5
3C8
100
AcDbEntity
  8
0
100
AcDbLine
 62
7
  6
BYLAYER
 10
24.7641109314
 20
74.6630368455
 11
24.7639139742
 21
74.6867485933
  0
SPLINE
  5
3C9
100
AcDbEntity
  8
0
100
AcDbSpline
 62
7
  6
BYLAYER
 70
0
 71
3
 72
11
 73
7
 74
0
 42
0.0000001
 43
0.0000001
 44
0.0000000001
 40
0.0
 40
0.0
 40
0.0
 40
0.0
 40
0.2177829324
 40
0.4509338724
 40
0.710236536
 40
1.0
 40
1.0
 40
1.0
 40
1.0
 10
43.1909190219
 20
65.0478963391
 30
0.0
 10
43.2937983092
 20
65.1073078769
 30
0.0
 10
43.5302023084
 20
65.193131251
 30
0.0
 10
43.9228201471
 20
65.2030307029
 30
0.0
 10
44.3413117792
 20
65.1020567031
 30
0.0
 10
44.6135463249
 20
64.9724891537
 30
0.0
 10
44.7504376918
 20
64.8934566741
 30
0.0
  0
SPLINE
  5
3CA
100
AcDbEntity
  8
0
100
AcDbSpline
 62
7
  6
BYLAYER
 70
0
 71
3
 72
9
 73
5
 74
0
 42
0.0000001
 43
0.0000001
 44
0.0000000001
 40
0.0
 40
0.0
 40
0.0
 40
0.0
 40
0.4491892366
 40
1.0
 40
1.0
 40
1.0
 40
1.0
 10
14.8326657254
 20
76.422986212
 30
0.0
 10
14.8461119786
 20
76.4308036009
 30
0.0
 10
14.882967121
 20
76.4364930808
 30
0.0
 10
14.9159850429
 20
76.4227772847
 30
0.0
 10
14.9325022279
 20
76.4132412992
 30
0.0
  0
SPLINE
  5
3CB
100
AcDbEntity
  8
0
100
AcDbSpline
 62
7
  6
BYLAYER
 70
0
 71
3
 72
17
 73
13
 74
0
 42
0.0000001
 43
0.0000001
 44
0.0000000001
 40
0.0
 40
0.0
 40
0.0
 40
0.0
 40
0.1286838122
 40
0.2703019607
 40
0.4174417478
 40
0.5617801027
 40
0.6954476096
 40
0.8127118774
 40
0.8646786847
 40
0.9125085647
 40
0.9571391055
 40
1.0
 40
1.0
 40
1.0
 40
1.0
 10
28.9112293071
 20
75.0432400779
 30
0.0
 10
28.818703126
 20
75.096658885
 30
0.0
 10
28.6390886245
 20
75.2348973805
 30
0.0
 10
28.4091763335
 20
75.4964249379
 30
0.0
 10
28.2199754585
 20
75.8042107822
 30
0.0
 10
28.0870541287
 20
76.1331591081
 30
0.0
 10
28.0210759392
 20
76.4566031845
 30
0.0
 10
28.0270372455
 20
76.7114471357
 30
0.0
 10
28.0741458407
 20
76.8862717629
 30
0.0
 10
28.126737874
 20
76.9949579105
 30
0.0
 10
28.196978484
 20
77.0839009643
 30
0.0
 10
28.2554424851
 20
77.1285605264
 30
0.0
 10
28.2862594916
 20
77.1463542153
 30
0.0
  0
SPLINE
  5
3CC
100
AcDbEntity
  8
0
100
AcDbSpline
 62
7
  6
BYLAYER
 70
0
 71
3
 72
11
 73
7
 74
0
 42
0.0000001
 43
0.0000001
 44
0.0000000001
 40
0.0
 40
0.0
 40
0.0
 40
0.0
 40
0.2372238755
 40
0.500000753
 40
0.762778207
 40
1.0
 40
1.0
 40
1.0
 40
1.0
 10
17.9846484792
 20
74.6511237038
 30
0.0
 10
18.0846625401
 20
74.5933818573
 30
0.0
 10
18.2741083
 20
74.4343105288
 30
0.0
 10
18.4951256039
 20
74.1324572755
 30
0.0
 10
18.6460293488
 20
73.7901250907
 30
0.0
 10
18.6890673905
 20
73.5465257594
 30
0.0
 10
18.6890673905
 20
73.4310411325
 30
0.0
  0
SPLINE
  5
3CD
100
AcDbEntity
  8
0
100
AcDbSpline
 62
7
  6
BYLAYER
 70
0
 71
3
 72
11
 73
7
 74
0
 42
0.0000001
 43
0.0000001
 44
0.0000000001
 40
0.0
 40
0.0
 40
0.0
 40
0.0
 40
0.2372271668
 40
0.5000053202
 40
0.7627803154
 40
1.0
 40
1.0
 40
1.0
 40
1.0
 10
24.7639139746
 20
76.9383442592
 30
0.0
 10
24.7639139746
 20
77.0538315034
 30
0.0
 10
24.7208746281
 20
77.297433798
 30
0.0
 10
24.5699684835
 20
77.6397671843
 30
0.0
 10
24.3489509599
 20
77.9416169859
 30
0.0
 10
24.1595073584
 20
78.1006860035
 30
0.0
 10
24.0594950633
 20
78.1584268305
 30
0.0
  0
SPLINE
  5
3CE
100
AcDbEntity
  8
0
100
AcDbSpline
 62
7
  6
BYLAYER
 70
0
 71
3
 72
11
 73
7
 74
0
 42
0.0000001
 43
0.0000001
 44
0.0000000001
 40
0.0
 40
0.0
 40
0.0
 40
0.0
 40
0.273083824
 40
0.5275802074
 40
0.7676557817
 40
1.0
 40
1.0
 40
1.0
 40
1.0
 10
28.3452109292
 20
78.8520990353
 30
0.0
 10
28.2553724348
 20
78.8764210788
 30
0.0
 10
28.0779578062
 20
78.9108457083
 30
0.0
 10
27.8148359257
 20
78.9152159761
 30
0.0
 10
27.5695551249
 20
78.8692458257
 30
0.0
 10
27.420283964
 20
78.8046528401
 30
0.0
 10
27.3517078301
 20
78.7650547113
 30
0.0
  0
SPLINE
  5
3CF
100
AcDbEntity
  8
0
100
AcDbSpline
 62
7
  6
BYLAYER
 70
0
 71
3
 72
17
 73
13
 74
0
 42
0.0000001
 43
0.0000001
 44
0.0000000001
 40
0.0
 40
0.0
 40
0.0
 40
0.0
 40
0.1286838122
 40
0.2703019607
 40
0.4174417478
 40
0.5617801027
 40
0.6954476096
 40
0.8127118774
 40
0.8646786847
 40
0.9125085647
 40
0.9571391055
 40
1.0
 40
1.0
 40
1.0
 40
1.0
 10
48.7103016112
 20
63.6124989514
 30
0.0
 10
48.6177754302
 20
63.6659177584
 30
0.0
 10
48.4381609286
 20
63.8041562539
 30
0.0
 10
48.2082486376
 20
64.0656838114
 30
0.0
 10
48.0190477626
 20
64.3734696556
 30
0.0
 10
47.8861264328
 20
64.7024179816
 30
0.0
 10
47.8201482434
 20
65.0258620579
 30
0.0
 10
47.8261095496
 20
65.2807060091
 30
0.0
 10
47.8732181448
 20
65.4555306363
 30
0.0
 10
47.9258101781
 20
65.564216784
 30
0.0
 10
47.9960507881
 20
65.6531598378
 30
0.0
 10
48.0545147892
 20
65.6978193998
 30
0.0
 10
48.0853317957
 20
65.7156130888
 30
0.0
  0
SPLINE
  5
3D0
100
AcDbEntity
  8
0
100
AcDbSpline
 62
7
  6
BYLAYER
 70
0
 71
3
 72
11
 73
7
 74
0
 42
0.0000001
 43
0.0000001
 44
0.0000000001
 40
0.0
 40
0.0
 40
0.0
 40
0.0
 40
0.2774237279
 40
0.533314297
 40
0.7715545602
 40
1.0
 40
1.0
 40
1.0
 40
1.0
 10
37.9428502725
 20
82.4737601029
 30
0.0
 10
37.9507771584
 20
82.5166765256
 30
0.0
 10
37.9723736966
 20
82.5982295448
 30
0.0
 10
38.0248349765
 20
82.7085932789
 30
0.0
 10
38.0956524471
 20
82.7988134193
 30
0.0
 10
38.1546463782
 20
82.8440946717
 30
0.0
 10
38.1857709576
 20
82.8620601816
 30
0.0
  0
SPLINE
  5
3D1
100
AcDbEntity
  8
0
100
AcDbSpline
 62
7
  6
BYLAYER
 70
0
 71
3
 72
9
 73
5
 74
0
 42
0.0000001
 43
0.0000001
 44
0.0000000001
 40
0.0
 40
0.0
 40
0.0
 40
0.0
 40
0.2291274821
 40
1.0
 40
1.0
 40
1.0
 40
1.0
 10
69.2696757063
 20
51.8933570856
 30
0.0
 10
69.2696757063
 20
51.9045381263
 30
0.0
 10
69.2653667956
 20
51.9533083442
 30
0.0
 10
69.2471595328
 20
52.0002442953
 30
0.0
 10
69.228383446
 20
52.0328406104
 30
0.0
  0
SPLINE
  5
3D2
100
AcDbEntity
  8
0
100
AcDbSpline
 62
7
  6
BYLAYER
 70
0
 71
3
 72
9
 73
5
 74
0
 42
0.0000001
 43
0.0000001
 44
0.0000000001
 40
0.0
 40
0.0
 40
0.0
 40
0.0
 40
0.2671283433
 40
1.0
 40
1.0
 40
1.0
 40
1.0
 10
69.228383446
 20
52.0328406104
 30
0.0
 10
69.221888082
 20
52.0441169181
 30
0.0
 10
69.1952605436
 20
52.0848199595
 30
0.0
 10
69.1594471594
 20
52.1205464033
 30
0.0
 10
69.1285280436
 20
52.1383971593
 30
0.0
  0
SPLINE
  5
3D3
100
AcDbEntity
  8
0
100
AcDbSpline
 62
7
  6
BYLAYER
 70
0
 71
3
 72
15
 73
11
 74
0
 42
0.0000001
 43
0.0000001
 44
0.0000000001
 40
0.0
 40
0.0
 40
0.0
 40
0.0
 40
0.1448975546
 40
0.2745250287
 40
0.3911086762
 40
0.4999947748
 40
0.6088794465
 40
0.7254458539
 40
0.8551834328
 40
1.0
 40
1.0
 40
1.0
 40
1.0
 10
23.0421889394
 20
99.048353036
 30
0.0
 10
23.0421904572
 20
98.962190388
 30
0.0
 10
23.0291776642
 20
98.7983754338
 30
0.0
 10
22.9628318218
 20
98.5733507684
 30
0.0
 10
22.8510408451
 20
98.3906410766
 30
0.0
 10
22.6959071116
 20
98.2601471956
 30
0.0
 10
22.5053560139
 20
98.190998096
 30
0.0
 10
22.2911663059
 20
98.1855154258
 30
0.0
 10
22.063133604
 20
98.2406619401
 30
0.0
 10
21.9147098127
 20
98.3112230325
 30
0.0
 10
21.8401320556
 20
98.3542795465
 30
0.0
  0
SPLINE
  5
3D4
100
AcDbEntity
  8
0
100
AcDbSpline
 62
7
  6
BYLAYER
 70
0
 71
3
 72
15
 73
11
 74
0
 42
0.0000001
 43
0.0000001
 44
0.0000000001
 40
0.0
 40
0.0
 40
0.0
 40
0.0
 40
0.1448975546
 40
0.2745250287
 40
0.3911086762
 40
0.4999947748
 40
0.6088794465
 40
0.7254458539
 40
0.8551834328
 40
1.0
 40
1.0
 40
1.0
 40
1.0
 10
27.2848472903
 20
91.6998940061
 30
0.0
 10
27.2848488081
 20
91.6137313581
 30
0.0
 10
27.2718360151
 20
91.4499164039
 30
0.0
 10
27.2054901727
 20
91.2248917385
 30
0.0
 10
27.0936991959
 20
91.0421820467
 30
0.0
 10
26.9385654624
 20
90.9116881657
 30
0.0
 10
26.7480143648
 20
90.8425390661
 30
0.0
 10
26.5338246568
 20
90.8370563959
 30
0.0
 10
26.3057919549
 20
90.8922029102
 30
0.0
 10
26.1573681635
 20
90.9627640026
 30
0.0
 10
26.0827904065
 20
91.0058205166
 30
0.0
  0
SPLINE
  5
3D5
100
AcDbEntity
  8
0
100
AcDbSpline
 62
7
  6
BYLAYER
 70
0
 71
3
 72
15
 73
11
 74
0
 42
0.0000001
 43
0.0000001
 44
0.0000000001
 40
0.0
 40
0.0
 40
0.0
 40
0.0
 40
0.1089888495
 40
0.2155567428
 40
0.3240455133
 40
0.4386474541
 40
0.5623916153
 40
0.6970093806
 40
0.8430346141
 40
1.0
 40
1.0
 40
1.0
 40
1.0
 10
39.7748395763
 20
65.8727109827
 30
0.0
 10
39.9028309459
 20
65.8907353832
 30
0.0
 10
40.1531953475
 20
65.9555301824
 30
0.0
 10
40.4926313074
 20
66.1443748415
 30
0.0
 10
40.7776986856
 20
66.4178502547
 30
0.0
 10
41.0014502673
 20
66.766938386
 30
0.0
 10
41.1607110254
 20
67.1823513732
 30
0.0
 10
41.2534563552
 20
67.6549156468
 30
0.0
 10
41.278685614
 20
68.1747748681
 30
0.0
 10
41.2514498264
 20
68.5340156909
 30
0.0
 10
41.2275714767
 20
68.7186294542
 30
0.0
  0
SPLINE
  5
3D6
100
AcDbEntity
  8
0
100
AcDbSpline
 62
7
  6
BYLAYER
 70
0
 71
3
 72
11
 73
7
 74
0
 42
0.0000001
 43
0.0000001
 44
0.0000000001
 40
0.0
 40
0.0
 40
0.0
 40
0.0
 40
0.2359123839
 40
0.4860152365
 40
0.7432995595
 40
1.0
 40
1.0
 40
1.0
 40
1.0
 10
41.2275714767
 20
68.7186294542
 30
0.0
 10
41.1902669727
 20
69.0070465744
 30
0.0
 10
41.0645141878
 20
69.5954812577
 30
0.0
 10
40.7524171929
 20
70.4595289926
 30
0.0
 10
40.3235409325
 20
71.3007215123
 30
0.0
 10
39.968200132
 20
71.8276303251
 30
0.0
 10
39.7748395763
 20
72.0781293529
 30
0.0
  0
SPLINE
  5
3D7
100
AcDbEntity
  8
0
100
AcDbSpline
 62
7
  6
BYLAYER
 70
0
 71
3
 72
11
 73
7
 74
0
 42
0.0000001
 43
0.0000001
 44
0.0000000001
 40
0.0
 40
0.0
 40
0.0
 40
0.0
 40
0.2450043174
 40
0.4851290652
 40
0.7330766705
 40
1.0
 40
1.0
 40
1.0
 40
1.0
 10
36.4324836676
 20
74.0077957817
 30
0.0
 10
36.2884319244
 20
73.9875092948
 30
0.0
 10
36.0064200224
 20
73.9102727934
 30
0.0
 10
35.6321501434
 20
73.6764172299
 30
0.0
 10
35.3310028819
 20
73.3370278198
 30
0.0
 10
35.1906145317
 20
73.0618825602
 30
0.0
 10
35.1331312831
 20
72.9141867697
 30
0.0
  0
SPLINE
  5
3D8
100
AcDbEntity
  8
0
100
AcDbSpline
 62
7
  6
BYLAYER
 70
0
 71
3
 72
9
 73
5
 74
0
 42
0.0000001
 43
0.0000001
 44
0.0000000001
 40
0.0
 40
0.0
 40
0.0
 40
0.0
 40
0.2435089459
 40
1.0
 40
1.0
 40
1.0
 40
1.0
 10
35.1331312831
 20
72.9141867697
 30
0.0
 10
35.1215387737
 20
72.8844013126
 30
0.0
 10
35.0764251629
 20
72.7611205644
 30
0.0
 10
35.0410910491
 20
72.6343227821
 30
0.0
 10
35.0193640177
 20
72.537435567
 30
0.0
  0
SPLINE
  5
3D9
100
AcDbEntity
  8
0
100
AcDbSpline
 62
7
  6
BYLAYER
 70
0
 71
3
 72
9
 73
5
 74
0
 42
0.0000001
 43
0.0000001
 44
0.0000000001
 40
0.0
 40
0.0
 40
0.0
 40
0.0
 40
0.2767595007
 40
1.0
 40
1.0
 40
1.0
 40
1.0
 10
14.5848322148
 20
59.0388251412
 30
0.0
 10
14.5848322148
 20
59.0084317459
 30
0.0
 10
14.5899934516
 20
58.898966797
 30
0.0
 10
14.6180464979
 20
58.7884673971
 30
0.0
 10
14.6570484113
 20
58.7192774765
 30
0.0
  0
SPLINE
  5
3DA
100
AcDbEntity
  8
0
100
AcDbSpline
 62
7
  6
BYLAYER
 70
0
 71
3
 72
9
 73
5
 74
0
 42
0.0000001
 43
0.0000001
 44
0.0000000001
 40
0.0
 40
0.0
 40
0.0
 40
0.0
 40
0.2589863512
 40
1.0
 40
1.0
 40
1.0
 40
1.0
 10
14.6745982587
 20
58.6908211136
 30
0.0
 10
14.6817987988
 20
58.6801381709
 30
0.0
 10
14.7115129208
 20
58.6402308551
 30
0.0
 10
14.7497633347
 20
58.6065191971
 30
0.0
 10
14.7812784542
 20
58.5874001804
 30
0.0
  0
SPLINE
  5
3DB
100
AcDbEntity
  8
0
100
AcDbSpline
 62
7
  6
BYLAYER
 70
0
 71
3
 72
11
 73
7
 74
0
 42
0.0000001
 43
0.0000001
 44
0.0000000001
 40
0.0
 40
0.0
 40
0.0
 40
0.0
 40
0.2198352155
 40
0.4540901701
 40
0.7126747017
 40
1.0
 40
1.0
 40
1.0
 40
1.0
 10
63.2415515821
 20
30.6094812756
 30
0.0
 10
63.2088658552
 20
30.6292711294
 30
0.0
 10
63.1479490171
 20
30.6820226035
 30
0.0
 10
63.0830346696
 20
30.7894143928
 30
0.0
 10
63.0443726497
 20
30.9206132919
 30
0.0
 10
63.0366986175
 20
31.0158194341
 30
0.0
 10
63.0366986175
 20
31.0657598662
 30
0.0
  0
SPLINE
  5
3DC
100
AcDbEntity
  8
0
100
AcDbSpline
 62
7
  6
BYLAYER
 70
0
 71
3
 72
15
 73
11
 74
0
 42
0.0000001
 43
0.0000001
 44
0.0000000001
 40
0.0
 40
0.0
 40
0.0
 40
0.0
 40
0.1448975546
 40
0.2745250287
 40
0.3911086762
 40
0.4999947748
 40
0.6088794465
 40
0.7254458539
 40
0.8551834328
 40
1.0
 40
1.0
 40
1.0
 40
1.0
 10
56.9834557465
 20
79.452796819
 30
0.0
 10
56.9834572642
 20
79.366634171
 30
0.0
 10
56.9704444713
 20
79.2028192168
 30
0.0
 10
56.9040986289
 20
78.9777945514
 30
0.0
 10
56.7923076521
 20
78.7950848596
 30
0.0
 10
56.6371739186
 20
78.6645909786
 30
0.0
 10
56.4466228209
 20
78.595441879
 30
0.0
 10
56.2324331129
 20
78.5899592088
 30
0.0
 10
56.004400411
 20
78.6451057232
 30
0.0
 10
55.8559766197
 20
78.7156668155
 30
0.0
 10
55.7813988627
 20
78.7587233296
 30
0.0
  0
SPLINE
  5
3DD
100
AcDbEntity
  8
0
100
AcDbSpline
 62
7
  6
BYLAYER
 70
0
 71
3
 72
15
 73
11
 74
0
 42
0.0000001
 43
0.0000001
 44
0.0000000001
 40
0.0
 40
0.0
 40
0.0
 40
0.0
 40
0.1136746777
 40
0.2427001937
 40
0.3820161698
 40
0.524802819
 40
0.6636002349
 40
0.7916211485
 40
0.9040854754
 40
1.0
 40
1.0
 40
1.0
 40
1.0
 10
38.2964021911
 20
59.8158145002
 30
0.0
 10
38.2794879975
 20
59.7242404965
 30
0.0
 10
38.2743297098
 20
59.5228454658
 30
0.0
 10
38.3341630559
 20
59.213964378
 30
0.0
 10
38.4560672632
 20
58.8982391829
 30
0.0
 10
38.6309118423
 20
58.5993761145
 30
0.0
 10
38.8456648731
 20
58.3395094233
 30
0.0
 10
39.0848312162
 20
58.1379258188
 30
0.0
 10
39.3312930372
 20
58.0090887128
 30
0.0
 10
39.5036219683
 20
57.9776528681
 30
0.0
 10
39.5821247152
 20
57.9809924616
 30
0.0
  0
SPLINE
  5
3DE
100
AcDbEntity
  8
0
100
AcDbSpline
 62
7
  6
BYLAYER
 70
0
 71
3
 72
9
 73
5
 74
0
 42
0.0000001
 43
0.0000001
 44
0.0000000001
 40
0.0
 40
0.0
 40
0.0
 40
0.0
 40
0.5418985334
 40
1.0
 40
1.0
 40
1.0
 40
1.0
 10
38.9970459395
 20
81.0780403537
 30
0.0
 10
39.0802737871
 20
81.0114679932
 30
0.0
 10
39.2469517187
 20
80.9034635813
 30
0.0
 10
39.4409404233
 20
80.8478747138
 30
0.0
 10
39.530921326
 20
80.8433075821
 30
0.0
  0
SPLINE
  5
3DF
100
AcDbEntity
  8
0
100
AcDbSpline
 62
7
  6
BYLAYER
 70
0
 71
3
 72
12
 73
8
 74
0
 42
0.0000001
 43
0.0000001
 44
0.0000000001
 40
0.0
 40
0.0
 40
0.0
 40
0.0
 40
0.1049787367
 40
0.2208621326
 40
0.4764712208
 40
0.7451220423
 40
1.0
 40
1.0
 40
1.0
 40
1.0
 10
38.2964021911
 20
82.6778821798
 30
0.0
 10
38.2848653108
 20
82.6154211284
 30
0.0
 10
38.2749853877
 20
82.481201714
 30
0.0
 10
38.3016413523
 20
82.1932308104
 30
0.0
 10
38.4196092393
 20
81.819411686
 30
0.0
 10
38.6580015109
 20
81.4092049025
 30
0.0
 10
38.8766177445
 20
81.1743685593
 30
0.0
 10
38.9970459395
 20
81.0780403537
 30
0.0
  0
SPLINE
  5
3E0
100
AcDbEntity
  8
0
100
AcDbSpline
 62
7
  6
BYLAYER
 70
0
 71
3
 72
9
 73
5
 74
0
 42
0.0000001
 43
0.0000001
 44
0.0000000001
 40
0.0
 40
0.0
 40
0.0
 40
0.0
 40
0.2672880681
 40
1.0
 40
1.0
 40
1.0
 40
1.0
 10
63.1755031314
 20
31.0319597505
 30
0.0
 10
63.1627037412
 20
31.0320544008
 30
0.0
 10
63.114982951
 20
31.0350690044
 30
0.0
 10
63.0670876586
 20
31.0482154622
 30
0.0
 10
63.0367005126
 20
31.0657587721
 30
0.0
  0
SPLINE
  5
3E1
100
AcDbEntity
  8
0
100
AcDbSpline
 62
7
  6
BYLAYER
 70
0
 71
3
 72
15
 73
11
 74
0
 42
0.0000001
 43
0.0000001
 44
0.0000000001
 40
0.0
 40
0.0
 40
0.0
 40
0.0
 40
0.1481410153
 40
0.2823539107
 40
0.4037558743
 40
0.5163671864
 40
0.6261983432
 40
0.740004629
 40
0.8634610097
 40
1.0
 40
1.0
 40
1.0
 40
1.0
 10
51.6764593151
 20
76.5476906426
 30
0.0
 10
51.7366425759
 20
76.5129446068
 30
0.0
 10
51.8565219408
 20
76.4549668014
 30
0.0
 10
52.0404424077
 20
76.4046571397
 30
0.0
 10
52.2149033679
 20
76.3979502752
 30
0.0
 10
52.3739202202
 20
76.4367736921
 30
0.0
 10
52.5105089591
 20
76.5207921541
 30
0.0
 10
52.6181142534
 20
76.6460785862
 30
0.0
 10
52.6936664386
 20
76.8061730473
 30
0.0
 10
52.7206810957
 20
76.926049017
 30
0.0
 10
52.7294299597
 20
76.9894994051
 30
0.0
  0
SPLINE
  5
3E2
100
AcDbEntity
  8
0
100
AcDbSpline
 62
7
  6
BYLAYER
 70
0
 71
3
 72
20
 73
16
 74
0
 42
0.0000001
 43
0.0000001
 44
0.0000000001
 40
0.0
 40
0.0
 40
0.0
 40
0.0
 40
0.0560279574
 40
0.1063606465
 40
0.1526637318
 40
0.1976053294
 40
0.244249111
 40
0.2951513217
 40
0.3517861739
 40
0.4145593519
 40
0.4830169332
 40
0.5561067686
 40
0.7098861392
 40
0.8623245266
 40
1.0
 40
1.0
 40
1.0
 40
1.0
 10
51.5291710963
 20
79.0789083773
 30
0.0
 10
51.4666799356
 20
79.1048968707
 30
0.0
 10
51.343192384
 20
79.144040361
 30
0.0
 10
51.1572776894
 20
79.1578539353
 30
0.0
 10
50.9874098843
 20
79.1210955667
 30
0.0
 10
50.8420546731
 20
79.0335913649
 30
0.0
 10
50.729194071
 20
78.9000599771
 30
0.0
 10
50.6523268149
 20
78.7282610561
 30
0.0
 10
50.6121849076
 20
78.5250717219
 30
0.0
 10
50.6091526555
 20
78.2971466007
 30
0.0
 10
50.6428252977
 20
78.0518329367
 30
0.0
 10
50.7365211421
 20
77.7068277211
 30
0.0
 10
50.9331910591
 20
77.2883960678
 30
0.0
 10
51.2584664072
 20
76.8578841353
 30
0.0
 10
51.5324324373
 20
76.6308427181
 30
0.0
 10
51.6764593151
 20
76.5476906426
 30
0.0
  0
SPLINE
  5
3E3
100
AcDbEntity
  8
0
100
AcDbSpline
 62
7
  6
BYLAYER
 70
0
 71
3
 72
9
 73
5
 74
0
 42
0.0000001
 43
0.0000001
 44
0.0000000001
 40
0.0
 40
0.0
 40
0.0
 40
0.0
 40
0.230449714
 40
1.0
 40
1.0
 40
1.0
 40
1.0
 10
63.3157915145
 20
31.0636508551
 30
0.0
 10
63.30604403
 20
31.0583103869
 30
0.0
 10
63.2617805593
 20
31.0387870182
 30
0.0
 10
63.2126175196
 20
31.0316852932
 30
0.0
 10
63.1755031314
 20
31.0319597505
 30
0.0
  0
SPLINE
  5
3E4
100
AcDbEntity
  8
0
100
AcDbSpline
 62
7
  6
BYLAYER
 70
0
 71
3
 72
15
 73
11
 74
0
 42
0.0000001
 43
0.0000001
 44
0.0000000001
 40
0.0
 40
0.0
 40
0.0
 40
0.0
 40
0.1481410153
 40
0.2823539107
 40
0.4037558743
 40
0.5163671864
 40
0.6261983432
 40
0.740004629
 40
0.8634610097
 40
1.0
 40
1.0
 40
1.0
 40
1.0
 10
55.919117666
 20
78.9972606182
 30
0.0
 10
55.9793009268
 20
78.9625145824
 30
0.0
 10
56.0991802917
 20
78.9045367771
 30
0.0
 10
56.2831007586
 20
78.8542271154
 30
0.0
 10
56.4575617188
 20
78.8475202509
 30
0.0
 10
56.6165785711
 20
78.8863436678
 30
0.0
 10
56.75316731
 20
78.9703621298
 30
0.0
 10
56.8607726043
 20
79.0956485618
 30
0.0
 10
56.9363247894
 20
79.2557430229
 30
0.0
 10
56.9633394466
 20
79.3756189926
 30
0.0
 10
56.9720883106
 20
79.4390693808
 30
0.0
  0
SPLINE
  5
3E5
100
AcDbEntity
  8
0
100
AcDbSpline
 62
7
  6
BYLAYER
 70
0
 71
3
 72
20
 73
16
 74
0
 42
0.0000001
 43
0.0000001
 44
0.0000000001
 40
0.0
 40
0.0
 40
0.0
 40
0.0
 40
0.0560279574
 40
0.1063606465
 40
0.1526637318
 40
0.1976053294
 40
0.244249111
 40
0.2951513217
 40
0.3517861739
 40
0.4145593519
 40
0.4830169332
 40
0.5561067686
 40
0.7098861392
 40
0.8623245266
 40
1.0
 40
1.0
 40
1.0
 40
1.0
 10
55.7718294471
 20
81.5284783529
 30
0.0
 10
55.7093382865
 20
81.5544668464
 30
0.0
 10
55.5858507349
 20
81.5936103367
 30
0.0
 10
55.3999360403
 20
81.607423911
 30
0.0
 10
55.2300682351
 20
81.5706655424
 30
0.0
 10
55.084713024
 20
81.4831613405
 30
0.0
 10
54.9718524219
 20
81.3496299528
 30
0.0
 10
54.8949851657
 20
81.1778310318
 30
0.0
 10
54.8548432585
 20
80.9746416976
 30
0.0
 10
54.8518110064
 20
80.7467165763
 30
0.0
 10
54.8854836486
 20
80.5014029123
 30
0.0
 10
54.979179493
 20
80.1563976967
 30
0.0
 10
55.17584941
 20
79.7379660434
 30
0.0
 10
55.5011247581
 20
79.3074541109
 30
0.0
 10
55.7750907882
 20
79.0804126938
 30
0.0
 10
55.919117666
 20
78.9972606182
 30
0.0
  0
SPLINE
  5
3E6
100
AcDbEntity
  8
0
100
AcDbSpline
 62
7
  6
BYLAYER
 70
0
 71
3
 72
11
 73
7
 74
0
 42
0.0000001
 43
0.0000001
 44
0.0000000001
 40
0.0
 40
0.0
 40
0.0
 40
0.0
 40
0.2715530918
 40
0.5255380692
 40
0.7663038577
 40
1.0
 40
1.0
 40
1.0
 40
1.0
 10
35.8197837036
 20
83.9145876406
 30
0.0
 10
35.4066483253
 20
84.0139436368
 30
0.0
 10
34.5914838809
 20
84.1494526285
 30
0.0
 10
33.3858575113
 20
84.1419030753
 30
0.0
 10
32.2614174023
 20
83.9132659216
 30
0.0
 10
31.575304929
 20
83.6121163166
 30
0.0
 10
31.2586255628
 20
83.4292656463
 30
0.0
  0
SPLINE
  5
3E7
100
AcDbEntity
  8
0
100
AcDbSpline
 62
7
  6
BYLAYER
 70
0
 71
3
 72
9
 73
5
 74
0
 42
0.0000001
 43
0.0000001
 44
0.0000000001
 40
0.0
 40
0.0
 40
0.0
 40
0.0
 40
0.2431941888
 40
1.0
 40
1.0
 40
1.0
 40
1.0
 10
63.5372724693
 20
30.6716717306
 30
0.0
 10
63.54544291
 20
30.6689114957
 30
0.0
 10
63.5795367593
 20
30.6590498658
 30
0.0
 10
63.6152591872
 20
30.6551840453
 30
0.0
 10
63.6420968523
 20
30.6551754876
 30
0.0
  0
SPLINE
  5
3E8
100
AcDbEntity
  8
0
100
AcDbSpline
 62
7
  6
BYLAYER
 70
0
 71
3
 72
9
 73
5
 74
0
 42
0.0000001
 43
0.0000001
 44
0.0000000001
 40
0.0
 40
0.0
 40
0.0
 40
0.0
 40
0.235227226
 40
1.0
 40
1.0
 40
1.0
 40
1.0
 10
63.6420968523
 20
30.6551754876
 30
0.0
 10
63.6557123086
 20
30.6551711461
 30
0.0
 10
63.713596995
 20
30.6582983592
 30
0.0
 10
63.7704582141
 20
30.6733626212
 30
0.0
 10
63.8118102098
 20
30.689159847
 30
0.0
  0
SPLINE
  5
3E9
100
AcDbEntity
  8
0
100
AcDbSpline
 62
7
  6
BYLAYER
 70
0
 71
3
 72
9
 73
5
 74
0
 42
0.0000001
 43
0.0000001
 44
0.0000000001
 40
0.0
 40
0.0
 40
0.0
 40
0.0
 40
0.2442874055
 40
1.0
 40
1.0
 40
1.0
 40
1.0
 10
63.8118102098
 20
30.689159847
 30
0.0
 10
63.8175921749
 20
30.6913686643
 30
0.0
 10
63.8411235314
 20
30.7007677458
 30
0.0
 10
63.8640952756
 20
30.7115541866
 30
0.0
 10
63.8810942169
 20
30.7203667905
 30
0.0
  0
SPLINE
  5
3EA
100
AcDbEntity
  8
0
100
AcDbSpline
 62
7
  6
BYLAYER
 70
0
 71
3
 72
9
 73
5
 74
0
 42
0.0000001
 43
0.0000001
 44
0.0000000001
 40
0.0
 40
0.0
 40
0.0
 40
0.0
 40
0.5397538046
 40
1.0
 40
1.0
 40
1.0
 40
1.0
 10
63.3157900085
 20
31.0636433507
 30
0.0
 10
63.3161428272
 20
31.0031624118
 30
0.0
 10
63.3288878753
 20
30.8901339861
 30
0.0
 10
63.3830231345
 20
30.7872217469
 30
0.0
 10
63.4180819906
 20
30.7493981218
 30
0.0
  0
SPLINE
  5
3EB
100
AcDbEntity
  8
0
100
AcDbSpline
 62
7
  6
BYLAYER
 70
0
 71
3
 72
9
 73
5
 74
0
 42
0.0000001
 43
0.0000001
 44
0.0000000001
 40
0.0
 40
0.0
 40
0.0
 40
0.0
 40
0.2533112608
 40
1.0
 40
1.0
 40
1.0
 40
1.0
 10
63.4180819906
 20
30.7493981218
 30
0.0
 10
63.4262963451
 20
30.7405359769
 30
0.0
 10
63.4608223761
 20
30.7075267074
 30
0.0
 10
63.5036610497
 20
30.6834495247
 30
0.0
 10
63.5372853341
 20
30.6716971764
 30
0.0
  0
SPLINE
  5
3EC
100
AcDbEntity
  8
0
100
AcDbSpline
 62
7
  6
BYLAYER
 70
0
 71
3
 72
9
 73
5
 74
0
 42
0.0000001
 43
0.0000001
 44
0.0000000001
 40
0.0
 40
0.0
 40
0.0
 40
0.0
 40
0.2700886709
 40
1.0
 40
1.0
 40
1.0
 40
1.0
 10
43.4320725949
 20
67.904942511
 30
0.0
 10
43.4087370786
 20
67.8914698248
 30
0.0
 10
43.3214012887
 20
67.8432994199
 30
0.0
 10
43.2300629398
 20
67.8018403719
 30
0.0
 10
43.1611343525
 20
67.7783545756
 30
0.0
  0
SPLINE
  5
3ED
100
AcDbEntity
  8
0
100
AcDbSpline
 62
7
  6
BYLAYER
 70
0
 71
3
 72
11
 73
7
 74
0
 42
0.0000001
 43
0.0000001
 44
0.0000000001
 40
0.0
 40
0.0
 40
0.0
 40
0.0
 40
0.2952736519
 40
0.5549655423
 40
0.7855376804
 40
1.0
 40
1.0
 40
1.0
 40
1.0
 10
43.1611343525
 20
67.7783545756
 30
0.0
 10
43.1222250655
 20
67.7650971505
 30
0.0
 10
43.0475364559
 20
67.7442833222
 30
0.0
 10
42.938265601
 20
67.7319154937
 30
0.0
 10
42.8397395417
 20
67.7419423503
 30
0.0
 10
42.7811502628
 20
67.7649874181
 30
0.0
 10
42.7553040732
 20
67.7799322783
 30
0.0
  0
SPLINE
  5
3EE
100
AcDbEntity
  8
0
100
AcDbSpline
 62
7
  6
BYLAYER
 70
0
 71
3
 72
15
 73
11
 74
0
 42
0.0000001
 43
0.0000001
 44
0.0000000001
 40
0.0
 40
0.0
 40
0.0
 40
0.0
 40
0.1481410153
 40
0.2823539107
 40
0.4037558743
 40
0.5163671864
 40
0.6261983432
 40
0.740004629
 40
0.8634610097
 40
1.0
 40
1.0
 40
1.0
 40
1.0
 10
26.2205092098
 20
91.2443578053
 30
0.0
 10
26.2806924707
 20
91.2096117695
 30
0.0
 10
26.4005718355
 20
91.1516339642
 30
0.0
 10
26.5844923024
 20
91.1013243024
 30
0.0
 10
26.7589532626
 20
91.094617438
 30
0.0
 10
26.9179701149
 20
91.1334408549
 30
0.0
 10
27.0545588538
 20
91.2174593169
 30
0.0
 10
27.1621641481
 20
91.3427457489
 30
0.0
 10
27.2377163333
 20
91.50284021
 30
0.0
 10
27.2647309904
 20
91.6227161797
 30
0.0
 10
27.2734798544
 20
91.6861665678
 30
0.0
  0
SPLINE
  5
3EF
100
AcDbEntity
  8
0
100
AcDbSpline
 62
7
  6
BYLAYER
 70
0
 71
3
 72
20
 73
16
 74
0
 42
0.0000001
 43
0.0000001
 44
0.0000000001
 40
0.0
 40
0.0
 40
0.0
 40
0.0
 40
0.0560279574
 40
0.1063606465
 40
0.1526637318
 40
0.1976053294
 40
0.244249111
 40
0.2951513217
 40
0.3517861739
 40
0.4145593519
 40
0.4830169332
 40
0.5561067686
 40
0.7098861392
 40
0.8623245266
 40
1.0
 40
1.0
 40
1.0
 40
1.0
 10
26.073220991
 20
93.77557554
 30
0.0
 10
26.0107298303
 20
93.8015640335
 30
0.0
 10
25.8872422787
 20
93.8407075237
 30
0.0
 10
25.7013275841
 20
93.854521098
 30
0.0
 10
25.531459779
 20
93.8177627295
 30
0.0
 10
25.3861045678
 20
93.7302585276
 30
0.0
 10
25.2732439657
 20
93.5967271398
 30
0.0
 10
25.1963767096
 20
93.4249282189
 30
0.0
 10
25.1562348023
 20
93.2217388846
 30
0.0
 10
25.1532025502
 20
92.9938137634
 30
0.0
 10
25.1868751924
 20
92.7485000994
 30
0.0
 10
25.2805710368
 20
92.4034948838
 30
0.0
 10
25.4772409538
 20
91.9850632305
 30
0.0
 10
25.8025163019
 20
91.554551298
 30
0.0
 10
26.076482332
 20
91.3275098808
 30
0.0
 10
26.2205092098
 20
91.2443578053
 30
0.0
  0
SPLINE
  5
3F0
100
AcDbEntity
  8
0
100
AcDbSpline
 62
7
  6
BYLAYER
 70
0
 71
3
 72
15
 73
11
 74
0
 42
0.0000001
 43
0.0000001
 44
0.0000000001
 40
0.0
 40
0.0
 40
0.0
 40
0.0
 40
0.1481410153
 40
0.2823539107
 40
0.4037558743
 40
0.5163671864
 40
0.6261983432
 40
0.740004629
 40
0.8634610097
 40
1.0
 40
1.0
 40
1.0
 40
1.0
 10
21.977850859
 20
98.5928168352
 30
0.0
 10
22.0380341198
 20
98.5580707994
 30
0.0
 10
22.1579134846
 20
98.5000929941
 30
0.0
 10
22.3418339515
 20
98.4497833323
 30
0.0
 10
22.5162949118
 20
98.4430764679
 30
0.0
 10
22.675311764
 20
98.4818998848
 30
0.0
 10
22.8119005029
 20
98.5659183468
 30
0.0
 10
22.9195057973
 20
98.6912047788
 30
0.0
 10
22.9950579824
 20
98.8512992399
 30
0.0
 10
23.0220726396
 20
98.9711752096
 30
0.0
 10
23.0308215035
 20
99.0346255977
 30
0.0
  0
SPLINE
  5
3F1
100
AcDbEntity
  8
0
100
AcDbSpline
 62
7
  6
BYLAYER
 70
0
 71
3
 72
20
 73
16
 74
0
 42
0.0000001
 43
0.0000001
 44
0.0000000001
 40
0.0
 40
0.0
 40
0.0
 40
0.0
 40
0.0560279574
 40
0.1063606465
 40
0.1526637318
 40
0.1976053294
 40
0.244249111
 40
0.2951513217
 40
0.3517861739
 40
0.4145593519
 40
0.4830169332
 40
0.5561067686
 40
0.7098861392
 40
0.8623245266
 40
1.0
 40
1.0
 40
1.0
 40
1.0
 10
21.8305626401
 20
101.1240345699
 30
0.0
 10
21.7680714794
 20
101.1500230634
 30
0.0
 10
21.6445839279
 20
101.1891665536
 30
0.0
 10
21.4586692332
 20
101.2029801279
 30
0.0
 10
21.2888014281
 20
101.1662217594
 30
0.0
 10
21.1434462169
 20
101.0787175575
 30
0.0
 10
21.0305856148
 20
100.9451861697
 30
0.0
 10
20.9537183587
 20
100.7733872488
 30
0.0
 10
20.9135764514
 20
100.5701979145
 30
0.0
 10
20.9105441993
 20
100.3422727933
 30
0.0
 10
20.9442168415
 20
100.0969591293
 30
0.0
 10
21.0379126859
 20
99.7519539137
 30
0.0
 10
21.2345826029
 20
99.3335222604
 30
0.0
 10
21.559857951
 20
98.9030103279
 30
0.0
 10
21.8338239811
 20
98.6759689107
 30
0.0
 10
21.977850859
 20
98.5928168352
 30
0.0
  0
SPLINE
  5
3F2
100
AcDbEntity
  8
0
100
AcDbSpline
 62
7
  6
BYLAYER
 70
0
 71
3
 72
9
 73
5
 74
0
 42
0.0000001
 43
0.0000001
 44
0.0000000001
 40
0.0
 40
0.0
 40
0.0
 40
0.0
 40
0.2559078148
 40
1.0
 40
1.0
 40
1.0
 40
1.0
 10
46.9161200815
 20
61.5783443851
 30
0.0
 10
47.0021654317
 20
61.5513598974
 30
0.0
 10
47.3399615572
 20
61.4510005557
 30
0.0
 10
47.6840490923
 20
61.3714561144
 30
0.0
 10
47.94227429
 20
61.3259456673
 30
0.0
  0
SPLINE
  5
3F3
100
AcDbEntity
  8
0
100
AcDbSpline
 62
7
  6
BYLAYER
 70
0
 71
3
 72
12
 73
8
 74
0
 42
0.0000001
 43
0.0000001
 44
0.0000000001
 40
0.0
 40
0.0
 40
0.0
 40
0.0
 40
0.1123034041
 40
0.2327386196
 40
0.4895746488
 40
0.7520969007
 40
1.0
 40
1.0
 40
1.0
 40
1.0
 10
44.7504376918
 20
64.8934566741
 30
0.0
 10
44.8824334722
 20
64.8172505988
 30
0.0
 10
45.1440198683
 20
64.6380393967
 30
0.0
 10
45.6413855063
 20
64.1955707906
 30
0.0
 10
46.1878971391
 20
63.5116178298
 30
0.0
 10
46.6719866651
 20
62.583435497
 30
0.0
 10
46.8654839076
 20
61.9109585993
 30
0.0
 10
46.9161200815
 20
61.5783443851
 30
0.0
  0
SPLINE
  5
3F4
100
AcDbEntity
  8
0
100
AcDbSpline
 62
7
  6
BYLAYER
 70
0
 71
3
 72
9
 73
5
 74
0
 42
0.0000001
 43
0.0000001
 44
0.0000000001
 40
0.0
 40
0.0
 40
0.0
 40
0.0
 40
0.2539204534
 40
1.0
 40
1.0
 40
1.0
 40
1.0
 10
40.8672127052
 20
65.7226058675
 30
0.0
 10
40.9734622126
 20
65.6078363945
 30
0.0
 10
41.3970002502
 20
65.1606078969
 30
0.0
 10
41.8411134015
 20
64.7327744962
 30
0.0
 10
42.1838281153
 20
64.4266295187
 30
0.0
  0
SPLINE
  5
3F5
100
AcDbEntity
  8
0
100
AcDbSpline
 62
7
  6
BYLAYER
 70
0
 71
3
 72
9
 73
5
 74
0
 42
0.0000001
 43
0.0000001
 44
0.0000000001
 40
0.0
 40
0.0
 40
0.0
 40
0.0
 40
0.2459263803
 40
1.0
 40
1.0
 40
1.0
 40
1.0
 10
35.3688763785
 20
76.2304281886
 30
0.0
 10
35.3997837149
 20
76.082153493
 30
0.0
 10
35.5329664139
 20
75.4808114745
 30
0.0
 10
35.6954807776
 20
74.8860294857
 30
0.0
 10
35.8328700301
 20
74.4423959766
 30
0.0
  0
SPLINE
  5
3F6
100
AcDbEntity
  8
0
100
AcDbSpline
 62
7
  6
BYLAYER
 70
0
 71
3
 72
11
 73
7
 74
0
 42
0.0000001
 43
0.0000001
 44
0.0000000001
 40
0.0
 40
0.0
 40
0.0
 40
0.0
 40
0.2897644452
 40
0.5490674319
 40
0.7822179965
 40
1.0
 40
1.0
 40
1.0
 40
1.0
 10
37.0564383002
 20
78.2197805562
 30
0.0
 10
37.0564383002
 20
78.0617081538
 30
0.0
 10
37.0325320061
 20
77.7611533451
 30
0.0
 10
36.9107321907
 20
77.3482293843
 30
0.0
 10
36.7058466076
 20
77.0131523436
 30
0.0
 10
36.513314406
 20
76.8513284047
 30
0.0
 10
36.4104202506
 20
76.79193728
 30
0.0
  0
SPLINE
  5
3F7
100
AcDbEntity
  8
0
100
AcDbSpline
 62
7
  6
BYLAYER
 70
0
 71
3
 72
12
 73
8
 74
0
 42
0.0000001
 43
0.0000001
 44
0.0000000001
 40
0.0
 40
0.0
 40
0.0
 40
0.0
 40
0.2479015947
 40
0.5104233432
 40
0.7672599376
 40
0.8876958012
 40
1.0
 40
1.0
 40
1.0
 40
1.0
 10
35.2682888764
 20
81.7528678368
 30
0.0
 10
35.5310233722
 20
81.5427115481
 30
0.0
 10
36.0166582897
 20
81.0389036811
 30
0.0
 10
36.5784464723
 20
80.1555820206
 30
0.0
 10
36.8975159383
 20
79.3403125525
 30
0.0
 10
37.032027187
 20
78.688344602
 30
0.0
 10
37.0564383002
 20
78.3721965179
 30
0.0
 10
37.0564383002
 20
78.2197805562
 30
0.0
  0
SPLINE
  5
3F8
100
AcDbEntity
  8
0
100
AcDbSpline
 62
7
  6
BYLAYER
 70
0
 71
3
 72
9
 73
5
 74
0
 42
0.0000001
 43
0.0000001
 44
0.0000000001
 40
0.0
 40
0.0
 40
0.0
 40
0.0
 40
0.2442615354
 40
1.0
 40
1.0
 40
1.0
 40
1.0
 10
35.562828637
 20
82.7679190335
 30
0.0
 10
35.5333772383
 20
82.6870240858
 30
0.0
 10
35.4185583967
 20
82.353762366
 30
0.0
 10
35.3263358057
 20
82.0128239715
 30
0.0
 10
35.2682888764
 20
81.7528678368
 30
0.0
  0
SPLINE
  5
3F9
100
AcDbEntity
  8
0
100
AcDbSpline
 62
7
  6
BYLAYER
 70
0
 71
3
 72
21
 73
17
 74
0
 42
0.0000001
 43
0.0000001
 44
0.0000000001
 40
0.0
 40
0.0
 40
0.0
 40
0.0
 40
0.066591786
 40
0.1385221382
 40
0.2915402881
 40
0.444572231
 40
0.5164573611
 40
0.5830763787
 40
0.6434880253
 40
0.6975331238
 40
0.7461397768
 40
0.7915369359
 40
0.8369333329
 40
0.8855323511
 40
0.9396227527
 40
1.0
 40
1.0
 40
1.0
 40
1.0
 10
51.5387405118
 20
46.9150695781
 30
0.0
 10
51.4564858144
 20
46.9625582755
 30
0.0
 10
51.2939419998
 20
47.0765561662
 30
0.0
 10
50.9895574331
 20
47.361308273
 30
0.0
 10
50.6681314257
 20
47.8004837083
 30
0.0
 10
50.4486031754
 20
48.2983146208
 30
0.0
 10
50.3540672074
 20
48.7043688118
 30
0.0
 10
50.3291105026
 20
48.9880973936
 30
0.0
 10
50.349693777
 20
49.2470074782
 30
0.0
 10
50.4160364678
 20
49.4720962247
 30
0.0
 10
50.5278255443
 20
49.6547976354
 30
0.0
 10
50.6829586984
 20
49.7852994139
 30
0.0
 10
50.8735106368
 20
49.854451118
 30
0.0
 10
51.0877020656
 20
49.8599359457
 30
0.0
 10
51.3157369068
 20
49.8047897902
 30
0.0
 10
51.4641620614
 20
49.7342282289
 30
0.0
 10
51.5387405118
 20
49.6911713146
 30
0.0
  0
SPLINE
  5
3FA
100
AcDbEntity
  8
0
100
AcDbSpline
 62
7
  6
BYLAYER
 70
0
 71
3
 72
11
 73
7
 74
0
 42
0.0000001
 43
0.0000001
 44
0.0000000001
 40
0.0
 40
0.0
 40
0.0
 40
0.0
 40
0.2761488771
 40
0.5311786836
 40
0.770044323
 40
1.0
 40
1.0
 40
1.0
 40
1.0
 10
42.7395295723
 20
78.2578815255
 30
0.0
 10
42.5572896168
 20
78.3169073811
 30
0.0
 10
42.1973289428
 20
78.4046055292
 30
0.0
 10
41.6605537254
 20
78.4344773591
 30
0.0
 10
41.1605395828
 20
78.3549708938
 30
0.0
 10
40.8572486784
 20
78.2272393063
 30
0.0
 10
40.7190946033
 20
78.1474951797
 30
0.0
  0
SPLINE
  5
3FB
100
AcDbEntity
  8
0
100
AcDbSpline
 62
7
  6
BYLAYER
 70
0
 71
3
 72
15
 73
11
 74
0
 42
0.0000001
 43
0.0000001
 44
0.0000000001
 40
0.0
 40
0.0
 40
0.0
 40
0.0
 40
0.0869275784
 40
0.1863938711
 40
0.3037721736
 40
0.4375804988
 40
0.5820892159
 40
0.7293516965
 40
0.8712394989
 40
1.0
 40
1.0
 40
1.0
 40
1.0
 10
109.9327559868
 20
120.1327644159
 30
0.0
 10
109.9102874461
 20
120.1457534603
 30
0.0
 10
109.8694937227
 20
120.1874017975
 30
0.0
 10
109.8398170223
 20
120.2752186001
 30
0.0
 10
109.8372996948
 20
120.380991688
 30
0.0
 10
109.8610384789
 20
120.4975364106
 30
0.0
 10
109.9089090351
 20
120.615903947
 30
0.0
 10
109.9769988009
 20
120.7267606155
 30
0.0
 10
110.0598140045
 20
120.8208675519
 30
0.0
 10
110.1244565903
 20
120.8706770432
 30
0.0
 10
110.1577487117
 20
120.8898981436
 30
0.0
  0
SPLINE
  5
3FC
100
AcDbEntity
  8
0
100
AcDbSpline
 62
7
  6
BYLAYER
 70
0
 71
3
 72
11
 73
7
 74
0
 42
0.0000001
 43
0.0000001
 44
0.0000000001
 40
0.0
 40
0.0
 40
0.0
 40
0.0
 40
0.2026980553
 40
0.4306674977
 40
0.6970025958
 40
1.0
 40
1.0
 40
1.0
 40
1.0
 10
109.9327611805
 20
45.0145509622
 30
0.0
 10
109.9121523374
 20
45.0264805163
 30
0.0
 10
109.8743963155
 20
45.0631856776
 30
0.0
 10
109.8436042783
 20
45.1408697234
 30
0.0
 10
109.8361133611
 20
45.2352019318
 30
0.0
 10
109.84559332
 20
45.3019180836
 30
0.0
 10
109.8535961556
 20
45.3366023389
 30
0.0
  0
SPLINE
  5
3FD
100
AcDbEntity
  8
0
100
AcDbSpline
 62
7
  6
BYLAYER
 70
0
 71
3
 72
9
 73
5
 74
0
 42
0.0000001
 43
0.0000001
 44
0.0000000001
 40
0.0
 40
0.0
 40
0.0
 40
0.0
 40
0.5255658528
 40
1.0
 40
1.0
 40
1.0
 40
1.0
 10
112.1497674192
 20
46.8401015635
 30
0.0
 10
112.1754475749
 20
46.795622476
 30
0.0
 10
112.2336401336
 20
46.7160750741
 30
0.0
 10
112.3096162016
 20
46.6521557053
 30
0.0
 10
112.3497682519
 20
46.6289744327
 30
0.0
  0
SPLINE
  5
3FE
100
AcDbEntity
  8
0
100
AcDbSpline
 62
7
  6
BYLAYER
 70
0
 71
3
 72
9
 73
5
 74
0
 42
0.0000001
 43
0.0000001
 44
0.0000000001
 40
0.0
 40
0.0
 40
0.0
 40
0.0
 40
0.5255658528
 40
1.0
 40
1.0
 40
1.0
 40
1.0
 10
112.1497674192
 20
121.9583239394
 30
0.0
 10
112.1754475749
 20
121.9138448519
 30
0.0
 10
112.2336401336
 20
121.8342974501
 30
0.0
 10
112.3096162016
 20
121.7703780812
 30
0.0
 10
112.3497682519
 20
121.7471968086
 30
0.0
  0
SPLINE
  5
3FF
100
AcDbEntity
  8
0
100
AcDbSpline
 62
7
  6
BYLAYER
 70
0
 71
3
 72
15
 73
11
 74
0
 42
0.0000001
 43
0.0000001
 44
0.0000000001
 40
0.0
 40
0.0
 40
0.0
 40
0.0
 40
0.1136076542
 40
0.2468534659
 40
0.3928971388
 40
0.5418506704
 40
0.6830066319
 40
0.8075382535
 40
0.9115171151
 40
1.0
 40
1.0
 40
1.0
 40
1.0
 10
61.6287129005
 20
148.0809358315
 30
0.0
 10
61.617399165
 20
148.1169056142
 30
0.0
 10
61.6095790864
 20
148.2002819653
 30
0.0
 10
61.6322054693
 20
148.3296620753
 30
0.0
 10
61.6853120004
 20
148.4625322064
 30
0.0
 10
61.7634949743
 20
148.5853388779
 30
0.0
 10
61.8589587269
 20
148.6858713708
 30
0.0
 10
61.9625874619
 20
148.7539733555
 30
0.0
 10
62.0663315725
 20
148.7831686086
 30
0.0
 10
62.1324241793
 20
148.7688816081
 30
0.0
 10
62.1578628378
 20
148.7542065908
 30
0.0
  0
SPLINE
  5
400
100
AcDbEntity
  8
0
100
AcDbSpline
 62
7
  6
BYLAYER
 70
0
 71
3
 72
10
 73
6
 74
0
 42
0.0000001
 43
0.0000001
 44
0.0000000001
 40
0.0
 40
0.0
 40
0.0
 40
0.0
 40
0.5143663177
 40
0.7692434283
 40
1.0
 40
1.0
 40
1.0
 40
1.0
 10
109.8535961556
 20
45.3366023389
 30
0.0
 10
109.8744946417
 20
45.4271762881
 30
0.0
 10
109.9351958258
 20
45.5572187838
 30
0.0
 10
110.0518731573
 20
45.6958321604
 30
0.0
 10
110.1216343924
 20
45.7508252802
 30
0.0
 10
110.1577487117
 20
45.7716757677
 30
0.0
  0
SPLINE
  5
401
100
AcDbEntity
  8
0
100
AcDbSpline
 62
7
  6
BYLAYER
 70
0
 71
3
 72
15
 73
11
 74
0
 42
0.0000001
 43
0.0000001
 44
0.0000000001
 40
0.0
 40
0.0
 40
0.0
 40
0.0
 40
0.1136076542
 40
0.2468534659
 40
0.3928971388
 40
0.5418506704
 40
0.6830066319
 40
0.8075382535
 40
0.9115171151
 40
1.0
 40
1.0
 40
1.0
 40
1.0
 10
62.2370180128
 20
148.648047197
 30
0.0
 10
62.2483317483
 20
148.6120774142
 30
0.0
 10
62.2561518269
 20
148.5287010631
 30
0.0
 10
62.233525444
 20
148.3993209532
 30
0.0
 10
62.1804189129
 20
148.266450822
 30
0.0
 10
62.102235939
 20
148.1436441505
 30
0.0
 10
62.0067721864
 20
148.0431116576
 30
0.0
 10
61.9031434514
 20
147.975009673
 30
0.0
 10
61.7993993409
 20
147.9458144198
 30
0.0
 10
61.733306734
 20
147.9601014203
 30
0.0
 10
61.7078680755
 20
147.9747764376
 30
0.0
  0
SPLINE
  5
402
100
AcDbEntity
  8
0
100
AcDbSpline
 62
7
  6
BYLAYER
 70
0
 71
3
 72
11
 73
7
 74
0
 42
0.0000001
 43
0.0000001
 44
0.0000000001
 40
0.0
 40
0.0
 40
0.0
 40
0.0
 40
0.2892609603
 40
0.5490896058
 40
0.7823217011
 40
1.0
 40
1.0
 40
1.0
 40
1.0
 10
110.1577487117
 20
45.0368235923
 30
0.0
 10
110.1380344391
 20
45.0254416197
 30
0.0
 10
110.0987348912
 20
45.0068150203
 30
0.0
 10
110.0383786972
 20
44.9921379784
 30
0.0
 10
109.9816943793
 20
44.9935967986
 30
0.0
 10
109.9475871145
 20
45.0059688802
 30
0.0
 10
109.9327611805
 20
45.0145509622
 30
0.0
  0
SPLINE
  5
403
100
AcDbEntity
  8
0
100
AcDbSpline
 62
7
  6
BYLAYER
 70
0
 71
3
 72
9
 73
5
 74
0
 42
0.0000001
 43
0.0000001
 44
0.0000000001
 40
0.0
 40
0.0
 40
0.0
 40
0.0
 40
0.2781518743
 40
1.0
 40
1.0
 40
1.0
 40
1.0
 10
109.8820538487
 20
120.4800371493
 30
0.0
 10
109.881446083
 20
120.4650428765
 30
0.0
 10
109.8792343468
 20
120.4111373333
 30
0.0
 10
109.8768876481
 20
120.3572362232
 30
0.0
 10
109.8749048216
 20
120.31834227
 30
0.0
  0
ELLIPSE
  5
404
100
AcDbEntity
  8
0
100
AcDbEllipse
 62
7
  6
BYLAYER
 10
17.9792566215
 20
91.7324715853
 30
0.0
 11
-0.5038104394
 21
0.8726302617
 31
0.0
 40
0.5729876575
 41
-3.9231842081
 42
-3.2281977848
  0
ELLIPSE
  5
405
100
AcDbEntity
  8
0
100
AcDbEllipse
 62
7
  6
BYLAYER
 10
14.932828713
 20
92.8355907096
 30
0.0
 11
-0.0995699471
 21
0.1736698923
 31
0.0
 40
0.5786684949
 41
0.7900333124
 42
2.3585481658
  0
ELLIPSE
  5
406
100
AcDbEntity
  8
0
100
AcDbEllipse
 62
7
  6
BYLAYER
 10
60.349378134
 20
49.3727676406
 30
0.0
 11
-0.5038104394
 21
0.8726302617
 31
0.0
 40
0.5729876575
 41
0.0866047812
 42
0.7816085758
  0
ELLIPSE
  5
407
100
AcDbEntity
  8
0
100
AcDbEllipse
 62
7
  6
BYLAYER
 10
63.3958060425
 20
48.2696485163
 30
0.0
 11
-0.0995699471
 21
0.1736698923
 31
0.0
 40
0.5786684949
 41
-2.3515593412
 42
-0.7830444878
  0
ELLIPSE
  5
408
100
AcDbEntity
  8
0
100
AcDbEllipse
 62
7
  6
BYLAYER
 10
17.9792566215
 20
91.7324715853
 30
0.0
 11
-0.5038104394
 21
0.8726302617
 31
0.0
 40
0.5729876575
 41
-3.1415841429
 42
-2.3599840778
  0
ELLIPSE
  5
409
100
AcDbEntity
  8
0
100
AcDbEllipse
 62
7
  6
BYLAYER
 10
65.446772178
 20
53.4443904879
 30
0.0
 11
-0.5038104394
 21
0.8726302617
 31
0.0
 40
0.5729876575
 41
-0.7815915545
 42
0.0000085106
  0
ELLIPSE
  5
40A
100
AcDbEntity
  8
0
100
AcDbEllipse
 62
7
  6
BYLAYER
 10
60.349378134
 20
49.3727676406
 30
0.0
 11
-0.5038104394
 21
0.8726302617
 31
0.0
 40
0.5729876575
 41
-0.7815915545
 42
0.0000085106
  0
ENDSEC
  0
SECTION
  2
OBJECTS
  0
DICTIONARY
  5
C
100
AcDbDictionary
280
0
281
1
  3
ACAD_GROUP
350
D
  3
ACAD_MLINESTYLE
350
17
  3
ACAD_LAYOUT
350
1A
  3
ACAD_PLOTSETTINGS
350
19
  3
ACAD_PLOTSTYLENAME
350
E
  0
DICTIONARY
  5
D
102
{ACAD_REACTORS
330
C
102
}
100
AcDbDictionary
280
0
281
1
  0
ACDBDICTIONARYWDFLT
  5
E
102
{ACAD_REACTORS
330
C
102
}
100
AcDbDictionary
281
1
  3
Normal
350
F
100
AcDbDictionaryWithDefault
340
F
  0
DICTIONARY
  5
17
102
{ACAD_REACTORS
330
C
102
}
100
AcDbDictionary
280
0
281
1
  3
Standard
350
18
  0
DICTIONARY
  5
19
102
{ACAD_REACTORS
330
C
102
}
100
AcDbDictionary
281
1
  0
DICTIONARY
  5
1A
102
{ACAD_REACTORS
330
C
102
}
100
AcDbDictionary
281
1
  3
Model
350
40B
  3
Layout1
350
40C
  0
ACDBPLACEHOLDER
  5
F
102
{ACAD_REACTORS
330
E
102
}
  0
MLINESTYLE
  5
18
102
{ACAD_REACTORS
330
17
102
}
100
AcDbMlineStyle
  2
STANDARD
 70
0
  3

 62
256
 51
90.0
 52
90.0
 71
2
 49
0.5
 62
256
  6
BYLAYER
 49
-0.5
 62
256
  6
BYLAYER
  0
LAYOUT
  5
40B
102
{ACAD_REACTORS
330
1A
102
}
100
AcDbPlotSettings
  1

  2
none_device
  4

  6

 40
0.0
 41
0.0
 42
0.0
 43
0.0
 44
210.0
 45
297.0
 46
0.0
 47
0.0
 48
0.0
 49
0.0
140
0.0
141
0.0
142
1.0
143
1.0
 70
1024
 72
1
 73
0
 74
0
  7

 75
0
147
1.0
148
0.0
149
0.0
100
AcDbLayout
  1
Model
 70
0
 71
0
 10
0.0
 20
0.0
 11
210.0
 21
297.0
 12
0.0
 22
0.0
 32
0.0
 14
0.0
 24
0.0
 34
0.0
 15
0.0
 25
0.0
 35
0.0
146
0.0
 13
0.0
 23
0.0
 33
0.0
 16
1.0
 26
0.0
 36
0.0
 17
0.0
 27
1.0
 37
0.0
 76
0
330
210
345
0
346
0
  0
LAYOUT
  5
40C
102
{ACAD_REACTORS
330
1A
102
}
100
AcDbPlotSettings
  1

  2
none_device
  4

  6

 40
0.0
 41
0.0
 42
0.0
 43
0.0
 44
210.0
 45
297.0
 46
0.0
 47
0.0
 48
0.0
 49
0.0
140
0.0
141
0.0
142
1.0
143
1.0
 70
0
 72
1
 73
0
 74
0
  7

 75
0
147
1.0
148
0.0
149
0.0
100
AcDbLayout
  1
Layout1
 70
0
 71
1
 10
0.0
 20
0.0
 11
210.0
 21
297.0
 12
0.0
 22
0.0
 32
0.0
 14
0.0
 24
0.0
 34
0.0
 15
0.0
 25
0.0
 35
0.0
146
0.0
 13
0.0
 23
0.0
 33
0.0
 16
1.0
 26
0.0
 36
0.0
 17
0.0
 27
1.0
 37
0.0
 76
0
330
211
345
0
346
0
  0
ENDSEC
  0
EOF
