999
DXF file: C:\Users\sesa63760\Dev\_Creo\CAD\MCADID0001052_3D-CAD\drw0001_2.dxf
999
Pro/ENGINEER 2019471 by Parametric Technology Corporation
  0
SECTION
  2
HEADER
  9
$ACADVER
  1
AC1024
  9
$DWGCODEPAGE
  3
ANSI_1252
  9
$EXTMAX
 10
364.9809643274
 20
516.1873638344
 30
0.0
  9
$EXTMIN
 10
0.0
 20
0.0
 30
0.0
  9
$LIMMIN
 10
0.0
 20
0.0
  9
$LIMMAX
 10
364.9809643274
 20
516.1873638344
  9
$VIEWCTR
 10
182.4904821637
 20
258.0936819172
  9
$VIEWSIZE
 40
516.1873638344
  9
$CLAYER
  8
0
  9
$LTSCALE
 40
33.6477689018
  9
$CELTYPE
  6
BYLAYER
  9
$DIMSCALE
 40
1.0
  9
$DIMASZ
 40
4.3450114801
  9
$DIMEXO
 40
1.0
  9
$DIMDLI
 40
23.2475494231
  9
$DIMEXE
 40
1.0
  9
$DIMCEN
 40
5.5059985476
  9
$DIMLFAC
 40
1.0
  9
$DIMBLK
  1
_FILLED
  9
$DIMALT
 70
0
  9
$DIMALTF
 40
0.0393700787
  9
$DIMTXT
 40
6.0830160721
  9
$DIMTOL
 70
1
  9
$DIMLIM
 70
0
  9
$DIMTFAC
 40
1.0
  9
$DIMTP
 40
0.01
  9
$DIMTM
 40
0.01
  9
$DIMGAP
 40
0.625
  9
$DIMDSEP
 70
46
  9
$AUNITS
 70
0
  9
$PDMODE
 70
3
  9
$PDSIZE
 40
0.3125
  9
$HANDSEED
  5
38C
  9
$TILEMODE
 70
1
  9
$MEASUREMENT
 70
1
  9
$INSUNITS
 70
4
  0
ENDSEC
  0
SECTION
  2
CLASSES
  0
CLASS
  1
ACDBDICTIONARYWDFLT
  2
AcDbDictionaryWithDefault
  3
AutoCAD 2000
 90
0
 91
1
280
0
281
0
  0
CLASS
  1
ACDBPLACEHOLDER
  2
AcDbPlaceHolder
  3
AutoCAD 2000
 90
0
 91
1
280
0
281
0
  0
CLASS
  1
LAYOUT
  2
AcDbLayout
  3
AutoCAD 2000
 90
0
 91
0
280
0
281
0
  0
ENDSEC
  0
SECTION
  2
TABLES
  0
TABLE
  2
VPORT
  5
8
100
AcDbSymbolTable
 70
2
  0
VPORT
  5
1F4
100
AcDbSymbolTableRecord
100
AcDbViewportTableRecord
  2
*ACTIVE
 70
0
 10
0.0
 20
0.0
 11
1.0
 21
1.0
 12
182.4904821637
 22
258.0936819172
 13
0.0
 23
0.0
 14
1.0
 24
1.0
 15
0.0
 25
0.0
 16
0.0
 26
0.0
 36
1.0
 17
0.0
 27
0.0
 37
0.0
 40
516.1873638344
 41
0.7070707071
 42
50.0
 43
0.0
 44
0.0
 50
0.0
 51
0.0
 71
0
 72
100
 73
1
 74
1
 75
0
 76
0
 77
0
 78
0
  0
ENDTAB
  0
TABLE
  2
LTYPE
  5
5
100
AcDbSymbolTable
 70
6
  0
LTYPE
  5
14
100
AcDbSymbolTableRecord
100
AcDbLinetypeTableRecord
  2
BYBLOCK
 70
0
  3

 72
65
 73
0
 40
0.0
  0
LTYPE
  5
15
100
AcDbSymbolTableRecord
100
AcDbLinetypeTableRecord
  2
BYLAYER
 70
0
  3

 72
65
 73
0
 40
0.0
  0
LTYPE
  5
16
100
AcDbSymbolTableRecord
100
AcDbLinetypeTableRecord
  2
CONTINUOUS
 70
64
  3
Solid line
 72
65
 73
0
 40
0.0
  0
LTYPE
  5
1F5
100
AcDbSymbolTableRecord
100
AcDbLinetypeTableRecord
  2
CENTER
 70
64
  3
____ _ ____ _ ____ _ ____ _ ____ _ ____ _ ____
 72
65
 73
4
 40
0.6
 49
0.375
 74
0
 49
-0.075
 74
0
 49
0.075
 74
0
 49
-0.075
 74
0
  0
LTYPE
  5
1F6
100
AcDbSymbolTableRecord
100
AcDbLinetypeTableRecord
  2
HIDDEN
 70
64
  3
- - - - - - - - - - - - - - - - - - - -
 72
65
 73
2
 40
0.2
 49
0.1
 74
0
 49
-0.1
 74
0
  0
LTYPE
  5
1F7
100
AcDbSymbolTableRecord
100
AcDbLinetypeTableRecord
  2
PHANTOM
 70
64
  3
_____ _ _ _____ _ _ _____ _ _ _____
 72
65
 73
6
 40
0.8
 49
0.45
 74
0
 49
-0.05
 74
0
 49
0.1
 74
0
 49
-0.05
 74
0
 49
0.1
 74
0
 49
-0.05
 74
0
  0
LTYPE
  5
1F8
100
AcDbSymbolTableRecord
100
AcDbLinetypeTableRecord
  2
DOT
 70
64
  3
. . . . . . . . . . . . . . . . . . . .
 72
65
 73
2
 40
0.2
 49
0.1
 74
0
 49
-0.1
 74
0
  0
LTYPE
  5
1F9
100
AcDbSymbolTableRecord
100
AcDbLinetypeTableRecord
  2
DASHED
 70
64
  3
- - - - - - - - - - - - - - - - - - - -
 72
65
 73
2
 40
0.2
 49
0.1
 74
0
 49
-0.1
 74
0
  0
ENDTAB
  0
TABLE
  2
LAYER
  5
2
100
AcDbSymbolTable
 70
36
  0
LAYER
  5
10
100
AcDbSymbolTableRecord
100
AcDbLayerTableRecord
  2
0
 70
0
 62
7
  6
CONTINUOUS
370
-3
390
F
  0
LAYER
  5
1FA
100
AcDbSymbolTableRecord
100
AcDbLayerTableRecord
  2
DEFAULT_1
 70
0
 62
7
  6
CENTER
370
-3
390
F
  0
LAYER
  5
1FB
100
AcDbSymbolTableRecord
100
AcDbLayerTableRecord
  2
DEFAULT_2
 70
0
 62
8
  6
HIDDEN
370
-3
390
F
  0
LAYER
  5
1FC
100
AcDbSymbolTableRecord
100
AcDbLayerTableRecord
  2
DEFAULT_3
 70
0
 62
7
  6
PHANTOM
370
-3
390
F
  0
LAYER
  5
1FD
100
AcDbSymbolTableRecord
100
AcDbLayerTableRecord
  2
00_COMPONENTS
 70
0
 62
7
  6
CONTINUOUS
370
-3
390
F
  0
LAYER
  5
1FE
100
AcDbSymbolTableRecord
100
AcDbLayerTableRecord
  2
01_1_DEFAULT_DATUMS
 70
0
 62
7
  6
CONTINUOUS
370
-3
390
F
  0
LAYER
  5
1FF
100
AcDbSymbolTableRecord
100
AcDbLayerTableRecord
  2
01_PLANES
 70
0
 62
7
  6
CONTINUOUS
370
-3
390
F
  0
LAYER
  5
200
100
AcDbSymbolTableRecord
100
AcDbLayerTableRecord
  2
02_COORD_SYS
 70
0
 62
7
  6
CONTINUOUS
370
-3
390
F
  0
LAYER
  5
201
100
AcDbSymbolTableRecord
100
AcDbLayerTableRecord
  2
03_AXES
 70
0
 62
7
  6
CONTINUOUS
370
-3
390
F
  0
LAYER
  5
202
100
AcDbSymbolTableRecord
100
AcDbLayerTableRecord
  2
04_POINTS
 70
0
 62
7
  6
CONTINUOUS
370
-3
390
F
  0
LAYER
  5
203
100
AcDbSymbolTableRecord
100
AcDbLayerTableRecord
  2
05_CURVES
 70
0
 62
7
  6
CONTINUOUS
370
-3
390
F
  0
LAYER
  5
204
100
AcDbSymbolTableRecord
100
AcDbLayerTableRecord
  2
06_SURFS
 70
0
 62
7
  6
CONTINUOUS
370
-3
390
F
  0
LAYER
  5
205
100
AcDbSymbolTableRecord
100
AcDbLayerTableRecord
  2
07_COSMETICS
 70
0
 62
7
  6
CONTINUOUS
370
-3
390
F
  0
LAYER
  5
206
100
AcDbSymbolTableRecord
100
AcDbLayerTableRecord
  2
10_NOTES
 70
0
 62
7
  6
CONTINUOUS
370
-3
390
F
  0
LAYER
  5
207
100
AcDbSymbolTableRecord
100
AcDbLayerTableRecord
  2
11_NOTES_PUB
 70
0
 62
7
  6
CONTINUOUS
370
-3
390
F
  0
LAYER
  5
208
100
AcDbSymbolTableRecord
100
AcDbLayerTableRecord
  2
13_REF_GTOL
 70
0
 62
7
  6
CONTINUOUS
370
-3
390
F
  0
LAYER
  5
209
100
AcDbSymbolTableRecord
100
AcDbLayerTableRecord
  2
16_MISC
 70
0
 62
7
  6
CONTINUOUS
370
-3
390
F
  0
LAYER
  5
20A
100
AcDbSymbolTableRecord
100
AcDbLayerTableRecord
  2
17_NO_PRINT
 70
0
 62
7
  6
CONTINUOUS
370
-3
390
F
  0
LAYER
  5
20B
100
AcDbSymbolTableRecord
100
AcDbLayerTableRecord
  2
18_DATUM_CAMS_JOINTS
 70
0
 62
7
  6
CONTINUOUS
370
-3
390
F
  0
LAYER
  5
20C
100
AcDbSymbolTableRecord
100
AcDbLayerTableRecord
  2
19_DATUM_FUNCTIONAL
 70
0
 62
7
  6
CONTINUOUS
370
-3
390
F
  0
LAYER
  5
20D
100
AcDbSymbolTableRecord
100
AcDbLayerTableRecord
  2
20_DATUM_KINEMATIC_SCHEME
 70
0
 62
7
  6
CONTINUOUS
370
-3
390
F
  0
ENDTAB
  0
TABLE
  2
STYLE
  5
3
100
AcDbSymbolTable
 70
1
  0
STYLE
  5
11
100
AcDbSymbolTableRecord
100
AcDbTextStyleTableRecord
  2
STANDARD
 70
0
 40
0.0
 41
0.8
 50
0.0
 71
0
 42
0.2
  3
txt
  4

  0
STYLE
  5
20E
100
AcDbSymbolTableRecord
100
AcDbTextStyleTableRecord
  2
TEXTSTYLE_1
 70
0
 40
0.0
 41
0.8
 50
0.0
 71
0
 42
0.2
  3
gdt
  4

  0
ENDTAB
  0
TABLE
  2
VIEW
  5
6
100
AcDbSymbolTable
 70
0
  0
ENDTAB
  0
TABLE
  2
UCS
  5
7
100
AcDbSymbolTable
 70
0
  0
ENDTAB
  0
TABLE
  2
APPID
  5
9
100
AcDbSymbolTable
 70
1
  0
APPID
  5
20F
100
AcDbSymbolTableRecord
100
AcDbRegAppTableRecord
  2
ACAD
 70
0
  0
ENDTAB
  0
TABLE
  2
BLOCK_RECORD
  5
1
100
AcDbSymbolTable
 70
0
  0
BLOCK_RECORD
  5
210
100
AcDbSymbolTableRecord
100
AcDbBlockTableRecord
  2
*Model_Space
  0
BLOCK_RECORD
  5
211
100
AcDbSymbolTableRecord
100
AcDbBlockTableRecord
  2
*Paper_Space
  0
BLOCK_RECORD
  5
212
100
AcDbSymbolTableRecord
100
AcDbBlockTableRecord
  2
_FILLED
  0
ENDTAB
  0
TABLE
  2
DIMSTYLE
  5
A
100
AcDbSymbolTable
 70
1
100
AcDbDimStyleTable
 71
0
  0
DIMSTYLE
105
213
100
AcDbSymbolTableRecord
100
AcDbDimStyleTableRecord
  2
STANDARD
 70
0
  3

  4

 40
1.0
 41
4.3450114801
 42
1.0
 43
0.38
 44
1.0
 45
0.0
 46
0.0
 47
0.01
 48
0.01
140
6.0830160721
141
0.09
142
0.0
143
25.4
144
1.0
145
0.0
146
1.0
147
0.625
 71
1
 72
0
 73
0
 74
0
 75
0
 76
0
 77
1
 78
8
 79
2
170
0
171
1
172
0
173
0
174
0
175
0
176
0
177
0
178
0
270
2
179
2
271
2
272
2
273
2
274
2
275
0
280
0
281
0
282
0
283
1
284
8
285
0
286
0
287
3
288
0
340
11
278
46
341
212
342
212
343
212
344
212
  0
ENDTAB
  0
ENDSEC
  0
SECTION
  2
BLOCKS
  0
BLOCK
  5
20
100
AcDbEntity
  8
0
100
AcDbBlockBegin
  2
*Model_Space
 70
0
 10
0.0
 20
0.0
 30
0.0
  3
*Model_Space
  1

  0
ENDBLK
  5
21
100
AcDbEntity
  8
0
100
AcDbBlockEnd
  0
BLOCK
  5
1C
100
AcDbEntity
  8
0
100
AcDbBlockBegin
  2
*Paper_Space
 70
0
 10
0.0
 20
0.0
 30
0.0
  3
*Paper_Space
  1

  0
ENDBLK
  5
1D
100
AcDbEntity
  8
0
100
AcDbBlockEnd
  0
BLOCK
  5
214
100
AcDbEntity
  8
0
100
AcDbBlockBegin
  2
_FILLED
 70
64
 10
0.0
 20
0.0
  3
_FILLED
  1

  0
SOLID
  5
215
100
AcDbEntity
  8
0
  6
BYBLOCK
 62
0
100
AcDbTrace
 10
0.0
 20
0.0
 11
-1.0
 21
0.25
 12
-1.0
 22
-0.25
 13
-1.0
 23
-0.25
  0
ENDBLK
  5
216
100
AcDbEntity
  8
0
  6
BYBLOCK
 62
0
100
AcDbBlockEnd
  0
ENDSEC
  0
SECTION
  2
ENTITIES
  0
LINE
  5
217
100
AcDbEntity
  8
0
100
AcDbLine
 62
7
  6
CONTINUOUS
 10
59.5177152792
 20
95.8959694989
 11
310.5177152792
 21
95.8959694989
  0
LINE
  5
218
100
AcDbEntity
  8
0
100
AcDbLine
 62
7
  6
CONTINUOUS
 10
308.5177152792
 20
99.8959694989
 11
61.5177152792
 21
99.8959694989
  0
LINE
  5
219
100
AcDbEntity
  8
0
100
AcDbLine
 62
7
  6
CONTINUOUS
 10
40.0177152792
 20
246.8959694989
 11
40.0177152792
 21
418.3959694989
  0
LINE
  5
21A
100
AcDbEntity
  8
0
100
AcDbLine
 62
7
  6
CONTINUOUS
 10
271.0177152792
 20
106.8959694989
 11
99.0177152792
 21
106.8959694989
  0
LINE
  5
21B
100
AcDbEntity
  8
0
100
AcDbLine
 62
7
  6
CONTINUOUS
 10
59.5177152792
 20
110.8959694989
 11
61.5177152792
 21
110.8959694989
  0
LINE
  5
21C
100
AcDbEntity
  8
0
100
AcDbLine
 62
7
  6
CONTINUOUS
 10
308.5177152792
 20
110.8959694989
 11
310.5177152792
 21
110.8959694989
  0
LINE
  5
21D
100
AcDbEntity
  8
0
100
AcDbLine
 62
7
  6
CONTINUOUS
 10
99.0177152792
 20
112.8959694989
 11
271.0177152792
 21
112.8959694989
  0
LINE
  5
21E
100
AcDbEntity
  8
0
100
AcDbLine
 62
7
  6
CONTINUOUS
 10
49.5177152792
 20
210.8959694989
 11
49.5177152792
 21
220.8959694989
  0
LINE
  5
21F
100
AcDbEntity
  8
0
100
AcDbLine
 62
7
  6
CONTINUOUS
 10
49.5177152792
 20
230.8959694989
 11
49.5177152792
 21
240.8959694989
  0
LINE
  5
220
100
AcDbEntity
  8
0
100
AcDbLine
 62
7
  6
CONTINUOUS
 10
55.5177152792
 20
203.3959694989
 11
55.5177152792
 21
246.8959694989
  0
LINE
  5
221
100
AcDbEntity
  8
0
100
AcDbLine
 62
7
  6
CONTINUOUS
 10
271.0177152792
 20
115.3959694989
 11
99.0177152792
 21
115.3959694989
  0
LINE
  5
222
100
AcDbEntity
  8
0
100
AcDbLine
 62
7
  6
CONTINUOUS
 10
99.0177152792
 20
121.3959694989
 11
271.0177152792
 21
121.3959694989
  0
LINE
  5
223
100
AcDbEntity
  8
0
100
AcDbLine
 62
7
  6
CONTINUOUS
 10
281.0177152792
 20
127.3959694989
 11
89.0177152792
 21
127.3959694989
  0
LINE
  5
224
100
AcDbEntity
  8
0
100
AcDbLine
 62
7
  6
CONTINUOUS
 10
59.5177152792
 20
246.8959694989
 11
59.5177152792
 21
95.8959694989
  0
LINE
  5
225
100
AcDbEntity
  8
0
100
AcDbLine
 62
7
  6
CONTINUOUS
 10
61.5177152792
 20
99.8959694989
 11
61.5177152792
 21
110.8959694989
  0
LINE
  5
226
100
AcDbEntity
  8
0
100
AcDbLine
 62
7
  6
CONTINUOUS
 10
294.0177152792
 20
132.3959694989
 11
288.0177152792
 21
132.3959694989
  0
LINE
  5
227
100
AcDbEntity
  8
0
100
AcDbLine
 62
7
  6
CONTINUOUS
 10
271.0177152792
 20
132.3959694989
 11
99.0177152792
 21
132.3959694989
  0
LINE
  5
228
100
AcDbEntity
  8
0
100
AcDbLine
 62
7
  6
CONTINUOUS
 10
82.0177152792
 20
132.3959694989
 11
76.0177152792
 21
132.3959694989
  0
LINE
  5
229
100
AcDbEntity
  8
0
100
AcDbLine
 62
7
  6
CONTINUOUS
 10
76.0177152792
 20
138.3959694989
 11
82.0177152792
 21
138.3959694989
  0
LINE
  5
22A
100
AcDbEntity
  8
0
100
AcDbLine
 62
7
  6
CONTINUOUS
 10
99.0177152792
 20
138.3959694989
 11
271.0177152792
 21
138.3959694989
  0
LINE
  5
22B
100
AcDbEntity
  8
0
100
AcDbLine
 62
7
  6
CONTINUOUS
 10
288.0177152792
 20
138.3959694989
 11
294.0177152792
 21
138.3959694989
  0
LINE
  5
22C
100
AcDbEntity
  8
0
100
AcDbLine
 62
7
  6
CONTINUOUS
 10
294.0177152792
 20
140.8959694989
 11
288.0177152792
 21
140.8959694989
  0
LINE
  5
22D
100
AcDbEntity
  8
0
100
AcDbLine
 62
7
  6
CONTINUOUS
 10
271.0177152792
 20
140.8959694989
 11
99.0177152792
 21
140.8959694989
  0
LINE
  5
22E
100
AcDbEntity
  8
0
100
AcDbLine
 62
7
  6
CONTINUOUS
 10
82.0177152792
 20
140.8959694989
 11
76.0177152792
 21
140.8959694989
  0
LINE
  5
22F
100
AcDbEntity
  8
0
100
AcDbLine
 62
7
  6
CONTINUOUS
 10
80.0177152792
 20
246.8959694989
 11
80.0177152792
 21
418.3959694989
  0
LINE
  5
230
100
AcDbEntity
  8
0
100
AcDbLine
 62
7
  6
CONTINUOUS
 10
76.0177152792
 20
146.8959694989
 11
82.0177152792
 21
146.8959694989
  0
LINE
  5
231
100
AcDbEntity
  8
0
100
AcDbLine
 62
7
  6
CONTINUOUS
 10
99.0177152792
 20
146.8959694989
 11
271.0177152792
 21
146.8959694989
  0
LINE
  5
232
100
AcDbEntity
  8
0
100
AcDbLine
 62
7
  6
CONTINUOUS
 10
288.0177152792
 20
146.8959694989
 11
294.0177152792
 21
146.8959694989
  0
LINE
  5
233
100
AcDbEntity
  8
0
100
AcDbLine
 62
7
  6
CONTINUOUS
 10
294.0177152792
 20
149.3959694989
 11
288.0177152792
 21
149.3959694989
  0
LINE
  5
234
100
AcDbEntity
  8
0
100
AcDbLine
 62
7
  6
CONTINUOUS
 10
271.0177152792
 20
149.3959694989
 11
99.0177152792
 21
149.3959694989
  0
LINE
  5
235
100
AcDbEntity
  8
0
100
AcDbLine
 62
7
  6
CONTINUOUS
 10
82.0177152792
 20
149.3959694989
 11
76.0177152792
 21
149.3959694989
  0
LINE
  5
236
100
AcDbEntity
  8
0
100
AcDbLine
 62
7
  6
CONTINUOUS
 10
76.0177152792
 20
155.3959694989
 11
82.0177152792
 21
155.3959694989
  0
LINE
  5
237
100
AcDbEntity
  8
0
100
AcDbLine
 62
7
  6
CONTINUOUS
 10
99.0177152792
 20
155.3959694989
 11
271.0177152792
 21
155.3959694989
  0
LINE
  5
238
100
AcDbEntity
  8
0
100
AcDbLine
 62
7
  6
CONTINUOUS
 10
288.0177152792
 20
155.3959694989
 11
294.0177152792
 21
155.3959694989
  0
LINE
  5
239
100
AcDbEntity
  8
0
100
AcDbLine
 62
7
  6
CONTINUOUS
 10
89.0177152792
 20
99.8959694989
 11
89.0177152792
 21
246.8959694989
  0
LINE
  5
23A
100
AcDbEntity
  8
0
100
AcDbLine
 62
7
  6
CONTINUOUS
 10
294.0177152792
 20
157.8959694989
 11
288.0177152792
 21
157.8959694989
  0
LINE
  5
23B
100
AcDbEntity
  8
0
100
AcDbLine
 62
7
  6
CONTINUOUS
 10
271.0177152792
 20
157.8959694989
 11
99.0177152792
 21
157.8959694989
  0
LINE
  5
23C
100
AcDbEntity
  8
0
100
AcDbLine
 62
7
  6
CONTINUOUS
 10
82.0177152792
 20
157.8959694989
 11
76.0177152792
 21
157.8959694989
  0
LINE
  5
23D
100
AcDbEntity
  8
0
100
AcDbLine
 62
7
  6
CONTINUOUS
 10
76.0177152792
 20
163.8959694989
 11
82.0177152792
 21
163.8959694989
  0
LINE
  5
23E
100
AcDbEntity
  8
0
100
AcDbLine
 62
7
  6
CONTINUOUS
 10
99.0177152792
 20
163.8959694989
 11
271.0177152792
 21
163.8959694989
  0
LINE
  5
23F
100
AcDbEntity
  8
0
100
AcDbLine
 62
7
  6
CONTINUOUS
 10
288.0177152792
 20
163.8959694989
 11
294.0177152792
 21
163.8959694989
  0
LINE
  5
240
100
AcDbEntity
  8
0
100
AcDbLine
 62
7
  6
CONTINUOUS
 10
294.0177152792
 20
166.3959694989
 11
288.0177152792
 21
166.3959694989
  0
LINE
  5
241
100
AcDbEntity
  8
0
100
AcDbLine
 62
7
  6
CONTINUOUS
 10
271.0177152792
 20
166.3959694989
 11
99.0177152792
 21
166.3959694989
  0
LINE
  5
242
100
AcDbEntity
  8
0
100
AcDbLine
 62
7
  6
CONTINUOUS
 10
82.0177152792
 20
166.3959694989
 11
76.0177152792
 21
166.3959694989
  0
LINE
  5
243
100
AcDbEntity
  8
0
100
AcDbLine
 62
7
  6
CONTINUOUS
 10
76.0177152792
 20
172.3959694989
 11
82.0177152792
 21
172.3959694989
  0
LINE
  5
244
100
AcDbEntity
  8
0
100
AcDbLine
 62
7
  6
CONTINUOUS
 10
99.0177152792
 20
172.3959694989
 11
271.0177152792
 21
172.3959694989
  0
LINE
  5
245
100
AcDbEntity
  8
0
100
AcDbLine
 62
7
  6
CONTINUOUS
 10
288.0177152792
 20
172.3959694989
 11
294.0177152792
 21
172.3959694989
  0
LINE
  5
246
100
AcDbEntity
  8
0
100
AcDbLine
 62
7
  6
CONTINUOUS
 10
294.0177152792
 20
174.8959694989
 11
288.0177152792
 21
174.8959694989
  0
LINE
  5
247
100
AcDbEntity
  8
0
100
AcDbLine
 62
7
  6
CONTINUOUS
 10
271.0177152792
 20
174.8959694989
 11
99.0177152792
 21
174.8959694989
  0
LINE
  5
248
100
AcDbEntity
  8
0
100
AcDbLine
 62
7
  6
CONTINUOUS
 10
82.0177152792
 20
174.8959694989
 11
76.0177152792
 21
174.8959694989
  0
LINE
  5
249
100
AcDbEntity
  8
0
100
AcDbLine
 62
7
  6
CONTINUOUS
 10
76.0177152792
 20
180.8959694989
 11
82.0177152792
 21
180.8959694989
  0
LINE
  5
24A
100
AcDbEntity
  8
0
100
AcDbLine
 62
7
  6
CONTINUOUS
 10
99.0177152792
 20
180.8959694989
 11
271.0177152792
 21
180.8959694989
  0
LINE
  5
24B
100
AcDbEntity
  8
0
100
AcDbLine
 62
7
  6
CONTINUOUS
 10
288.0177152792
 20
180.8959694989
 11
294.0177152792
 21
180.8959694989
  0
LINE
  5
24C
100
AcDbEntity
  8
0
100
AcDbLine
 62
7
  6
CONTINUOUS
 10
294.0177152792
 20
183.3959694989
 11
288.0177152792
 21
183.3959694989
  0
LINE
  5
24D
100
AcDbEntity
  8
0
100
AcDbLine
 62
7
  6
CONTINUOUS
 10
271.0177152792
 20
183.3959694989
 11
99.0177152792
 21
183.3959694989
  0
LINE
  5
24E
100
AcDbEntity
  8
0
100
AcDbLine
 62
7
  6
CONTINUOUS
 10
82.0177152792
 20
183.3959694989
 11
76.0177152792
 21
183.3959694989
  0
LINE
  5
24F
100
AcDbEntity
  8
0
100
AcDbLine
 62
7
  6
CONTINUOUS
 10
192.1529701948
 20
169.3896768067
 11
197.3382233548
 21
166.3959694989
  0
LINE
  5
250
100
AcDbEntity
  8
0
100
AcDbLine
 62
7
  6
CONTINUOUS
 10
205.3098252037
 20
161.7935630256
 11
212.0606552191
 21
157.8959694989
  0
LINE
  5
251
100
AcDbEntity
  8
0
100
AcDbLine
 62
7
  6
CONTINUOUS
 10
218.341006994
 20
154.2700067111
 11
226.7830870834
 21
149.3959694989
  0
LINE
  5
252
100
AcDbEntity
  8
0
100
AcDbLine
 62
7
  6
CONTINUOUS
 10
231.3498810558
 20
146.7593297696
 11
240.0177152791
 21
141.7549533475
  0
LINE
  5
253
100
AcDbEntity
  8
0
100
AcDbLine
 62
7
  6
CONTINUOUS
 10
76.0177152792
 20
189.3959694989
 11
82.0177152792
 21
189.3959694989
  0
LINE
  5
254
100
AcDbEntity
  8
0
100
AcDbLine
 62
7
  6
CONTINUOUS
 10
99.0177152792
 20
189.3959694989
 11
271.0177152792
 21
189.3959694989
  0
LINE
  5
255
100
AcDbEntity
  8
0
100
AcDbLine
 62
7
  6
CONTINUOUS
 10
288.0177152792
 20
189.3959694989
 11
294.0177152792
 21
189.3959694989
  0
LINE
  5
256
100
AcDbEntity
  8
0
100
AcDbLine
 62
7
  6
CONTINUOUS
 10
294.0177152792
 20
191.8959694989
 11
288.0177152792
 21
191.8959694989
  0
LINE
  5
257
100
AcDbEntity
  8
0
100
AcDbLine
 62
7
  6
CONTINUOUS
 10
271.0177152792
 20
191.8959694989
 11
99.0177152792
 21
191.8959694989
  0
LINE
  5
258
100
AcDbEntity
  8
0
100
AcDbLine
 62
7
  6
CONTINUOUS
 10
82.0177152792
 20
191.8959694989
 11
76.0177152792
 21
191.8959694989
  0
LINE
  5
259
100
AcDbEntity
  8
0
100
AcDbLine
 62
7
  6
CONTINUOUS
 10
76.0177152792
 20
197.8959694989
 11
82.0177152792
 21
197.8959694989
  0
LINE
  5
25A
100
AcDbEntity
  8
0
100
AcDbLine
 62
7
  6
CONTINUOUS
 10
99.0177152792
 20
197.8959694989
 11
271.0177152792
 21
197.8959694989
  0
LINE
  5
25B
100
AcDbEntity
  8
0
100
AcDbLine
 62
7
  6
CONTINUOUS
 10
288.0177152792
 20
197.8959694989
 11
294.0177152792
 21
197.8959694989
  0
LINE
  5
25C
100
AcDbEntity
  8
0
100
AcDbLine
 62
7
  6
CONTINUOUS
 10
294.0177152792
 20
200.3959694989
 11
288.0177152792
 21
200.3959694989
  0
LINE
  5
25D
100
AcDbEntity
  8
0
100
AcDbLine
 62
7
  6
CONTINUOUS
 10
271.0177152792
 20
200.3959694989
 11
99.0177152792
 21
200.3959694989
  0
LINE
  5
25E
100
AcDbEntity
  8
0
100
AcDbLine
 62
7
  6
CONTINUOUS
 10
82.0177152792
 20
200.3959694989
 11
76.0177152792
 21
200.3959694989
  0
LINE
  5
25F
100
AcDbEntity
  8
0
100
AcDbLine
 62
7
  6
CONTINUOUS
 10
242.5177152791
 20
146.0850803664
 11
241.1132141023
 21
146.8959694989
  0
LINE
  5
260
100
AcDbEntity
  8
0
100
AcDbLine
 62
7
  6
CONTINUOUS
 10
236.7830870834
 20
149.3959694989
 11
233.8498810558
 21
151.0894567885
  0
LINE
  5
261
100
AcDbEntity
  8
0
100
AcDbLine
 62
7
  6
CONTINUOUS
 10
229.5148250091
 20
153.592302564
 11
226.390782238
 21
155.3959694989
  0
LINE
  5
262
100
AcDbEntity
  8
0
100
AcDbLine
 62
7
  6
CONTINUOUS
 10
222.0606552191
 20
157.8959694989
 11
220.841006994
 21
158.60013373
  0
LINE
  5
263
100
AcDbEntity
  8
0
100
AcDbLine
 62
7
  6
CONTINUOUS
 10
216.5011818353
 20
161.1057329536
 11
211.6683503737
 21
163.8959694989
  0
LINE
  5
264
100
AcDbEntity
  8
0
100
AcDbLine
 62
7
  6
CONTINUOUS
 10
203.4523741352
 20
168.6394655919
 11
196.9459185094
 21
172.3959694989
  0
LINE
  5
265
100
AcDbEntity
  8
0
100
AcDbLine
 62
7
  6
CONTINUOUS
 10
55.5177152792
 20
203.3959694989
 11
59.5177152792
 21
203.3959694989
  0
LINE
  5
266
100
AcDbEntity
  8
0
100
AcDbLine
 62
7
  6
CONTINUOUS
 10
310.5177152792
 20
203.3959694989
 11
314.5177152792
 21
203.3959694989
  0
LINE
  5
267
100
AcDbEntity
  8
0
100
AcDbLine
 62
7
  6
CONTINUOUS
 10
76.0177152792
 20
206.3959694989
 11
82.0177152792
 21
206.3959694989
  0
LINE
  5
268
100
AcDbEntity
  8
0
100
AcDbLine
 62
7
  6
CONTINUOUS
 10
99.0177152792
 20
206.3959694989
 11
271.0177152792
 21
206.3959694989
  0
LINE
  5
269
100
AcDbEntity
  8
0
100
AcDbLine
 62
7
  6
CONTINUOUS
 10
288.0177152792
 20
206.3959694989
 11
294.0177152792
 21
206.3959694989
  0
LINE
  5
26A
100
AcDbEntity
  8
0
100
AcDbLine
 62
7
  6
CONTINUOUS
 10
294.0177152792
 20
208.8959694989
 11
288.0177152792
 21
208.8959694989
  0
LINE
  5
26B
100
AcDbEntity
  8
0
100
AcDbLine
 62
7
  6
CONTINUOUS
 10
271.0177152792
 20
208.8959694989
 11
99.0177152792
 21
208.8959694989
  0
LINE
  5
26C
100
AcDbEntity
  8
0
100
AcDbLine
 62
7
  6
CONTINUOUS
 10
82.0177152792
 20
208.8959694989
 11
76.0177152792
 21
208.8959694989
  0
LINE
  5
26D
100
AcDbEntity
  8
0
100
AcDbLine
 62
7
  6
CONTINUOUS
 10
49.5177152792
 20
210.8959694989
 11
55.5177152792
 21
210.8959694989
  0
LINE
  5
26E
100
AcDbEntity
  8
0
100
AcDbLine
 62
7
  6
CONTINUOUS
 10
314.5177152792
 20
210.8959694989
 11
320.5177152792
 21
210.8959694989
  0
LINE
  5
26F
100
AcDbEntity
  8
0
100
AcDbLine
 62
7
  6
CONTINUOUS
 10
76.0177152792
 20
214.8959694989
 11
82.0177152792
 21
214.8959694989
  0
LINE
  5
270
100
AcDbEntity
  8
0
100
AcDbLine
 62
7
  6
CONTINUOUS
 10
99.0177152792
 20
214.8959694989
 11
271.0177152792
 21
214.8959694989
  0
LINE
  5
271
100
AcDbEntity
  8
0
100
AcDbLine
 62
7
  6
CONTINUOUS
 10
288.0177152792
 20
214.8959694989
 11
294.0177152792
 21
214.8959694989
  0
LINE
  5
272
100
AcDbEntity
  8
0
100
AcDbLine
 62
7
  6
CONTINUOUS
 10
294.0177152792
 20
217.3959694989
 11
288.0177152792
 21
217.3959694989
  0
LINE
  5
273
100
AcDbEntity
  8
0
100
AcDbLine
 62
7
  6
CONTINUOUS
 10
271.0177152792
 20
217.3959694989
 11
99.0177152792
 21
217.3959694989
  0
LINE
  5
274
100
AcDbEntity
  8
0
100
AcDbLine
 62
7
  6
CONTINUOUS
 10
82.0177152792
 20
217.3959694989
 11
76.0177152792
 21
217.3959694989
  0
LINE
  5
275
100
AcDbEntity
  8
0
100
AcDbLine
 62
7
  6
CONTINUOUS
 10
49.5177152792
 20
220.8959694989
 11
55.5177152792
 21
220.8959694989
  0
LINE
  5
276
100
AcDbEntity
  8
0
100
AcDbLine
 62
7
  6
CONTINUOUS
 10
314.5177152792
 20
220.8959694989
 11
320.5177152792
 21
220.8959694989
  0
LINE
  5
277
100
AcDbEntity
  8
0
100
AcDbLine
 62
7
  6
CONTINUOUS
 10
76.0177152792
 20
223.3959694989
 11
82.0177152792
 21
223.3959694989
  0
LINE
  5
278
100
AcDbEntity
  8
0
100
AcDbLine
 62
7
  6
CONTINUOUS
 10
99.0177152792
 20
223.3959694989
 11
271.0177152792
 21
223.3959694989
  0
LINE
  5
279
100
AcDbEntity
  8
0
100
AcDbLine
 62
7
  6
CONTINUOUS
 10
288.0177152792
 20
223.3959694989
 11
294.0177152792
 21
223.3959694989
  0
LINE
  5
27A
100
AcDbEntity
  8
0
100
AcDbLine
 62
7
  6
CONTINUOUS
 10
294.0177152792
 20
225.8959694989
 11
288.0177152792
 21
225.8959694989
  0
LINE
  5
27B
100
AcDbEntity
  8
0
100
AcDbLine
 62
7
  6
CONTINUOUS
 10
271.0177152792
 20
225.8959694989
 11
99.0177152792
 21
225.8959694989
  0
LINE
  5
27C
100
AcDbEntity
  8
0
100
AcDbLine
 62
7
  6
CONTINUOUS
 10
82.0177152792
 20
225.8959694989
 11
76.0177152792
 21
225.8959694989
  0
LINE
  5
27D
100
AcDbEntity
  8
0
100
AcDbLine
 62
7
  6
CONTINUOUS
 10
49.5177152792
 20
230.8959694989
 11
55.5177152792
 21
230.8959694989
  0
LINE
  5
27E
100
AcDbEntity
  8
0
100
AcDbLine
 62
7
  6
CONTINUOUS
 10
314.5177152792
 20
230.8959694989
 11
320.5177152792
 21
230.8959694989
  0
LINE
  5
27F
100
AcDbEntity
  8
0
100
AcDbLine
 62
7
  6
CONTINUOUS
 10
76.0177152792
 20
231.8959694989
 11
82.0177152792
 21
231.8959694989
  0
LINE
  5
280
100
AcDbEntity
  8
0
100
AcDbLine
 62
7
  6
CONTINUOUS
 10
99.0177152792
 20
231.8959694989
 11
271.0177152792
 21
231.8959694989
  0
LINE
  5
281
100
AcDbEntity
  8
0
100
AcDbLine
 62
7
  6
CONTINUOUS
 10
288.0177152792
 20
231.8959694989
 11
294.0177152792
 21
231.8959694989
  0
LINE
  5
282
100
AcDbEntity
  8
0
100
AcDbLine
 62
7
  6
CONTINUOUS
 10
271.0177152792
 20
234.3959694989
 11
99.0177152792
 21
234.3959694989
  0
LINE
  5
283
100
AcDbEntity
  8
0
100
AcDbLine
 62
7
  6
CONTINUOUS
 10
99.0177152792
 20
240.3959694989
 11
271.0177152792
 21
240.3959694989
  0
LINE
  5
284
100
AcDbEntity
  8
0
100
AcDbLine
 62
7
  6
CONTINUOUS
 10
49.5177152792
 20
240.8959694989
 11
55.5177152792
 21
240.8959694989
  0
LINE
  5
285
100
AcDbEntity
  8
0
100
AcDbLine
 62
7
  6
CONTINUOUS
 10
314.5177152792
 20
240.8959694989
 11
320.5177152792
 21
240.8959694989
  0
LINE
  5
286
100
AcDbEntity
  8
0
100
AcDbLine
 62
7
  6
CONTINUOUS
 10
271.0177152792
 20
242.8959694989
 11
99.0177152792
 21
242.8959694989
  0
LINE
  5
287
100
AcDbEntity
  8
0
100
AcDbLine
 62
7
  6
CONTINUOUS
 10
182.5177152792
 20
186.0784278644
 11
182.5177152792
 21
189.3959694989
  0
LINE
  5
288
100
AcDbEntity
  8
0
100
AcDbLine
 62
7
  6
CONTINUOUS
 10
182.5177152792
 20
191.8959694989
 11
182.5177152792
 21
196.2391043319
  0
LINE
  5
289
100
AcDbEntity
  8
0
100
AcDbLine
 62
7
  6
CONTINUOUS
 10
182.5177152792
 20
201.2706554266
 11
182.5177152792
 21
206.3959694989
  0
LINE
  5
28A
100
AcDbEntity
  8
0
100
AcDbLine
 62
7
  6
CONTINUOUS
 10
182.5177152792
 20
208.8959694989
 11
182.5177152792
 21
211.3065696083
  0
LINE
  5
28B
100
AcDbEntity
  8
0
100
AcDbLine
 62
7
  6
CONTINUOUS
 10
182.5177152792
 20
217.3959694989
 11
182.5177152792
 21
223.3959694989
  0
LINE
  5
28C
100
AcDbEntity
  8
0
100
AcDbLine
 62
7
  6
CONTINUOUS
 10
182.5177152792
 20
225.8959694989
 11
182.5177152792
 21
226.3334303875
  0
LINE
  5
28D
100
AcDbEntity
  8
0
100
AcDbLine
 62
7
  6
CONTINUOUS
 10
182.5177152792
 20
231.3391219385
 11
182.5177152792
 21
231.8959694989
  0
LINE
  5
28E
100
AcDbEntity
  8
0
100
AcDbLine
 62
7
  6
CONTINUOUS
 10
182.5177152792
 20
234.3959694989
 11
182.5177152792
 21
240.3959694989
  0
LINE
  5
28F
100
AcDbEntity
  8
0
100
AcDbLine
 62
7
  6
CONTINUOUS
 10
40.0177152792
 20
246.8959694989
 11
330.0177152792
 21
246.8959694989
  0
LINE
  5
290
100
AcDbEntity
  8
0
100
AcDbLine
 62
7
  6
CONTINUOUS
 10
187.5177152792
 20
240.3959694989
 11
187.5177152792
 21
234.3959694989
  0
LINE
  5
291
100
AcDbEntity
  8
0
100
AcDbLine
 62
7
  6
CONTINUOUS
 10
187.5177152792
 20
231.8959694989
 11
187.5177152792
 21
231.3391219385
  0
LINE
  5
292
100
AcDbEntity
  8
0
100
AcDbLine
 62
7
  6
CONTINUOUS
 10
187.5177152792
 20
226.3334303875
 11
187.5177152792
 21
225.8959694989
  0
LINE
  5
293
100
AcDbEntity
  8
0
100
AcDbLine
 62
7
  6
CONTINUOUS
 10
187.5177152792
 20
223.3959694989
 11
187.5177152792
 21
217.3959694989
  0
LINE
  5
294
100
AcDbEntity
  8
0
100
AcDbLine
 62
7
  6
CONTINUOUS
 10
187.5177152792
 20
211.3065696083
 11
187.5177152792
 21
208.8959694989
  0
LINE
  5
295
100
AcDbEntity
  8
0
100
AcDbLine
 62
7
  6
CONTINUOUS
 10
187.5177152792
 20
206.3959694989
 11
187.5177152792
 21
201.2706554266
  0
LINE
  5
296
100
AcDbEntity
  8
0
100
AcDbLine
 62
7
  6
CONTINUOUS
 10
187.5177152792
 20
196.2391043319
 11
187.5177152792
 21
191.8959694989
  0
LINE
  5
297
100
AcDbEntity
  8
0
100
AcDbLine
 62
7
  6
CONTINUOUS
 10
187.5177152792
 20
189.3959694989
 11
187.5177152792
 21
186.0784278644
  0
LINE
  5
298
100
AcDbEntity
  8
0
100
AcDbLine
 62
7
  6
CONTINUOUS
 10
173.0895120489
 20
172.3959694989
 11
166.5830564231
 21
168.6394655919
  0
LINE
  5
299
100
AcDbEntity
  8
0
100
AcDbLine
 62
7
  6
CONTINUOUS
 10
158.3670801846
 20
163.8959694989
 11
153.534248723
 21
161.1057329536
  0
LINE
  5
29A
100
AcDbEntity
  8
0
100
AcDbLine
 62
7
  6
CONTINUOUS
 10
149.1944235643
 20
158.60013373
 11
147.9747753392
 21
157.8959694989
  0
LINE
  5
29B
100
AcDbEntity
  8
0
100
AcDbLine
 62
7
  6
CONTINUOUS
 10
143.6446483203
 20
155.3959694989
 11
140.5206055492
 21
153.592302564
  0
LINE
  5
29C
100
AcDbEntity
  8
0
100
AcDbLine
 62
7
  6
CONTINUOUS
 10
136.1855495025
 20
151.0894567885
 11
133.2523434749
 21
149.3959694989
  0
LINE
  5
29D
100
AcDbEntity
  8
0
100
AcDbLine
 62
7
  6
CONTINUOUS
 10
128.922216456
 20
146.8959694989
 11
127.5177152792
 21
146.0850803664
  0
LINE
  5
29E
100
AcDbEntity
  8
0
100
AcDbLine
 62
7
  6
CONTINUOUS
 10
130.0177152792
 20
141.7549533475
 11
138.6855495025
 21
146.7593297696
  0
LINE
  5
29F
100
AcDbEntity
  8
0
100
AcDbLine
 62
7
  6
CONTINUOUS
 10
143.2523434749
 20
149.3959694989
 11
151.6944235643
 21
154.2700067111
  0
LINE
  5
2A0
100
AcDbEntity
  8
0
100
AcDbLine
 62
7
  6
CONTINUOUS
 10
157.9747753392
 20
157.8959694989
 11
164.7256053546
 21
161.7935630256
  0
LINE
  5
2A1
100
AcDbEntity
  8
0
100
AcDbLine
 62
7
  6
CONTINUOUS
 10
172.6972072035
 20
166.3959694989
 11
177.8824603635
 21
169.3896768067
  0
LINE
  5
2A2
100
AcDbEntity
  8
0
100
AcDbLine
 62
7
  6
CONTINUOUS
 10
281.0177152792
 20
99.8959694989
 11
281.0177152792
 21
246.8959694989
  0
LINE
  5
2A3
100
AcDbEntity
  8
0
100
AcDbLine
 62
7
  6
CONTINUOUS
 10
290.0177152792
 20
246.8959694989
 11
290.0177152792
 21
418.3959694989
  0
LINE
  5
2A4
100
AcDbEntity
  8
0
100
AcDbLine
 62
7
  6
CONTINUOUS
 10
308.5177152792
 20
110.8959694989
 11
308.5177152792
 21
99.8959694989
  0
LINE
  5
2A5
100
AcDbEntity
  8
0
100
AcDbLine
 62
7
  6
CONTINUOUS
 10
310.5177152792
 20
95.8959694989
 11
310.5177152792
 21
246.8959694989
  0
LINE
  5
2A6
100
AcDbEntity
  8
0
100
AcDbLine
 62
7
  6
CONTINUOUS
 10
314.5177152792
 20
246.8959694989
 11
314.5177152792
 21
203.3959694989
  0
LINE
  5
2A7
100
AcDbEntity
  8
0
100
AcDbLine
 62
7
  6
CONTINUOUS
 10
320.5177152792
 20
240.8959694989
 11
320.5177152792
 21
230.8959694989
  0
LINE
  5
2A8
100
AcDbEntity
  8
0
100
AcDbLine
 62
7
  6
CONTINUOUS
 10
320.5177152792
 20
220.8959694989
 11
320.5177152792
 21
210.8959694989
  0
LINE
  5
2A9
100
AcDbEntity
  8
0
100
AcDbLine
 62
7
  6
CONTINUOUS
 10
330.0177152792
 20
246.8959694989
 11
330.0177152792
 21
418.3959694989
  0
LINE
  5
2AA
100
AcDbEntity
  8
0
100
AcDbLine
 62
7
  6
CONTINUOUS
 10
40.0177152792
 20
418.3959694989
 11
330.0177152792
 21
418.3959694989
  0
ARC
  5
2AB
100
AcDbEntity
  8
0
100
AcDbCircle
 62
7
  6
CONTINUOUS
 10
99.0177152792
 20
169.3959694989
 40
3.0
100
AcDbArc
 50
90.0
 51
270.0
  0
ARC
  5
2AC
100
AcDbEntity
  8
0
100
AcDbCircle
 62
7
  6
CONTINUOUS
 10
99.0177152792
 20
160.8959694989
 40
3.0
100
AcDbArc
 50
90.0
 51
270.0
  0
ARC
  5
2AD
100
AcDbEntity
  8
0
100
AcDbCircle
 62
7
  6
CONTINUOUS
 10
99.0177152792
 20
109.8959694989
 40
3.0
100
AcDbArc
 50
90.0
 51
270.0
  0
ARC
  5
2AE
100
AcDbEntity
  8
0
100
AcDbCircle
 62
7
  6
CONTINUOUS
 10
99.0177152792
 20
118.3959694989
 40
3.0
100
AcDbArc
 50
90.0
 51
270.0
  0
ARC
  5
2AF
100
AcDbEntity
  8
0
100
AcDbCircle
 62
7
  6
CONTINUOUS
 10
99.0177152792
 20
152.3959694989
 40
3.0
100
AcDbArc
 50
90.0
 51
270.0
  0
ARC
  5
2B0
100
AcDbEntity
  8
0
100
AcDbCircle
 62
7
  6
CONTINUOUS
 10
76.0177152792
 20
135.3959694989
 40
3.0
100
AcDbArc
 50
90.0
 51
270.0
  0
ARC
  5
2B1
100
AcDbEntity
  8
0
100
AcDbCircle
 62
7
  6
CONTINUOUS
 10
82.0177152792
 20
135.3959694989
 40
3.0
100
AcDbArc
 50
270.0
 51
90.0
  0
ARC
  5
2B2
100
AcDbEntity
  8
0
100
AcDbCircle
 62
7
  6
CONTINUOUS
 10
76.0177152792
 20
143.8959694989
 40
3.0
100
AcDbArc
 50
90.0
 51
270.0
  0
ARC
  5
2B3
100
AcDbEntity
  8
0
100
AcDbCircle
 62
7
  6
CONTINUOUS
 10
82.0177152792
 20
143.8959694989
 40
3.0
100
AcDbArc
 50
270.0
 51
90.0
  0
ARC
  5
2B4
100
AcDbEntity
  8
0
100
AcDbCircle
 62
7
  6
CONTINUOUS
 10
76.0177152792
 20
152.3959694989
 40
3.0
100
AcDbArc
 50
90.0
 51
270.0
  0
ARC
  5
2B5
100
AcDbEntity
  8
0
100
AcDbCircle
 62
7
  6
CONTINUOUS
 10
82.0177152792
 20
152.3959694989
 40
3.0
100
AcDbArc
 50
270.0
 51
90.0
  0
ARC
  5
2B6
100
AcDbEntity
  8
0
100
AcDbCircle
 62
7
  6
CONTINUOUS
 10
76.0177152792
 20
160.8959694989
 40
3.0
100
AcDbArc
 50
90.0
 51
270.0
  0
ARC
  5
2B7
100
AcDbEntity
  8
0
100
AcDbCircle
 62
7
  6
CONTINUOUS
 10
82.0177152792
 20
160.8959694989
 40
3.0
100
AcDbArc
 50
270.0
 51
90.0
  0
ARC
  5
2B8
100
AcDbEntity
  8
0
100
AcDbCircle
 62
7
  6
CONTINUOUS
 10
76.0177152792
 20
169.3959694989
 40
3.0
100
AcDbArc
 50
90.0
 51
270.0
  0
ARC
  5
2B9
100
AcDbEntity
  8
0
100
AcDbCircle
 62
7
  6
CONTINUOUS
 10
82.0177152792
 20
169.3959694989
 40
3.0
100
AcDbArc
 50
270.0
 51
90.0
  0
ARC
  5
2BA
100
AcDbEntity
  8
0
100
AcDbCircle
 62
7
  6
CONTINUOUS
 10
99.0177152792
 20
143.8959694989
 40
3.0
100
AcDbArc
 50
90.0
 51
270.0
  0
ARC
  5
2BB
100
AcDbEntity
  8
0
100
AcDbCircle
 62
7
  6
CONTINUOUS
 10
99.0177152792
 20
135.3959694989
 40
3.0
100
AcDbArc
 50
90.0
 51
270.0
  0
ARC
  5
2BC
100
AcDbEntity
  8
0
100
AcDbCircle
 62
7
  6
CONTINUOUS
 10
76.0177152792
 20
177.8959694989
 40
3.0
100
AcDbArc
 50
90.0
 51
270.0
  0
ARC
  5
2BD
100
AcDbEntity
  8
0
100
AcDbCircle
 62
7
  6
CONTINUOUS
 10
82.0177152792
 20
177.8959694989
 40
3.0
100
AcDbArc
 50
270.0
 51
90.0
  0
ARC
  5
2BE
100
AcDbEntity
  8
0
100
AcDbCircle
 62
7
  6
CONTINUOUS
 10
76.0177152792
 20
186.3959694989
 40
3.0
100
AcDbArc
 50
90.0
 51
270.0
  0
ARC
  5
2BF
100
AcDbEntity
  8
0
100
AcDbCircle
 62
7
  6
CONTINUOUS
 10
82.0177152792
 20
186.3959694989
 40
3.0
100
AcDbArc
 50
270.0
 51
90.0
  0
ARC
  5
2C0
100
AcDbEntity
  8
0
100
AcDbCircle
 62
7
  6
CONTINUOUS
 10
76.0177152792
 20
194.8959694989
 40
3.0
100
AcDbArc
 50
90.0
 51
270.0
  0
ARC
  5
2C1
100
AcDbEntity
  8
0
100
AcDbCircle
 62
7
  6
CONTINUOUS
 10
82.0177152792
 20
194.8959694989
 40
3.0
100
AcDbArc
 50
270.0
 51
90.0
  0
ARC
  5
2C2
100
AcDbEntity
  8
0
100
AcDbCircle
 62
7
  6
CONTINUOUS
 10
76.0177152792
 20
203.3959694989
 40
3.0
100
AcDbArc
 50
90.0
 51
270.0
  0
ARC
  5
2C3
100
AcDbEntity
  8
0
100
AcDbCircle
 62
7
  6
CONTINUOUS
 10
82.0177152792
 20
203.3959694989
 40
3.0
100
AcDbArc
 50
270.0
 51
90.0
  0
ARC
  5
2C4
100
AcDbEntity
  8
0
100
AcDbCircle
 62
7
  6
CONTINUOUS
 10
76.0177152792
 20
211.8959694989
 40
3.0
100
AcDbArc
 50
90.0
 51
270.0
  0
ARC
  5
2C5
100
AcDbEntity
  8
0
100
AcDbCircle
 62
7
  6
CONTINUOUS
 10
82.0177152792
 20
211.8959694989
 40
3.0
100
AcDbArc
 50
270.0
 51
90.0
  0
ARC
  5
2C6
100
AcDbEntity
  8
0
100
AcDbCircle
 62
7
  6
CONTINUOUS
 10
76.0177152792
 20
220.3959694989
 40
3.0
100
AcDbArc
 50
90.0
 51
270.0
  0
ARC
  5
2C7
100
AcDbEntity
  8
0
100
AcDbCircle
 62
7
  6
CONTINUOUS
 10
82.0177152792
 20
220.3959694989
 40
3.0
100
AcDbArc
 50
270.0
 51
90.0
  0
ARC
  5
2C8
100
AcDbEntity
  8
0
100
AcDbCircle
 62
7
  6
CONTINUOUS
 10
76.0177152792
 20
228.8959694989
 40
3.0
100
AcDbArc
 50
90.0
 51
270.0
  0
ARC
  5
2C9
100
AcDbEntity
  8
0
100
AcDbCircle
 62
7
  6
CONTINUOUS
 10
82.0177152792
 20
228.8959694989
 40
3.0
100
AcDbArc
 50
270.0
 51
90.0
  0
ARC
  5
2CA
100
AcDbEntity
  8
0
100
AcDbCircle
 62
7
  6
CONTINUOUS
 10
99.0177152792
 20
203.3959694989
 40
3.0
100
AcDbArc
 50
90.0
 51
270.0
  0
ARC
  5
2CB
100
AcDbEntity
  8
0
100
AcDbCircle
 62
7
  6
CONTINUOUS
 10
99.0177152792
 20
194.8959694989
 40
3.0
100
AcDbArc
 50
90.0
 51
270.0
  0
ARC
  5
2CC
100
AcDbEntity
  8
0
100
AcDbCircle
 62
7
  6
CONTINUOUS
 10
99.0177152792
 20
186.3959694989
 40
3.0
100
AcDbArc
 50
90.0
 51
270.0
  0
ARC
  5
2CD
100
AcDbEntity
  8
0
100
AcDbCircle
 62
7
  6
CONTINUOUS
 10
99.0177152792
 20
177.8959694989
 40
3.0
100
AcDbArc
 50
90.0
 51
270.0
  0
ARC
  5
2CE
100
AcDbEntity
  8
0
100
AcDbCircle
 62
7
  6
CONTINUOUS
 10
99.0177152792
 20
245.8959694989
 40
3.0
100
AcDbArc
 50
158.5704414497
 51
270.0
  0
ARC
  5
2CF
100
AcDbEntity
  8
0
100
AcDbCircle
 62
7
  6
CONTINUOUS
 10
99.0177152792
 20
237.3959694989
 40
3.0
100
AcDbArc
 50
90.0
 51
270.0
  0
ARC
  5
2D0
100
AcDbEntity
  8
0
100
AcDbCircle
 62
7
  6
CONTINUOUS
 10
99.0177152792
 20
228.8959694989
 40
3.0
100
AcDbArc
 50
90.0
 51
270.0
  0
ARC
  5
2D1
100
AcDbEntity
  8
0
100
AcDbCircle
 62
7
  6
CONTINUOUS
 10
99.0177152792
 20
220.3959694989
 40
3.0
100
AcDbArc
 50
90.0
 51
270.0
  0
ARC
  5
2D2
100
AcDbEntity
  8
0
100
AcDbCircle
 62
7
  6
CONTINUOUS
 10
99.0177152792
 20
211.8959694989
 40
3.0
100
AcDbArc
 50
90.0
 51
270.0
  0
ARC
  5
2D3
100
AcDbEntity
  8
0
100
AcDbCircle
 62
7
  6
CONTINUOUS
 10
185.0177152792
 20
176.3959694989
 40
65.0
100
AcDbArc
 50
351.1449543122
 51
356.4434140033
  0
ARC
  5
2D4
100
AcDbEntity
  8
0
100
AcDbCircle
 62
7
  6
CONTINUOUS
 10
185.0177152792
 20
176.3959694989
 40
65.0
100
AcDbArc
 50
343.4269335936
 51
348.8890562531
  0
ARC
  5
2D5
100
AcDbEntity
  8
0
100
AcDbCircle
 62
7
  6
CONTINUOUS
 10
185.0177152792
 20
176.3959694989
 40
65.0
100
AcDbArc
 50
335.3969680047
 51
341.1422898402
  0
ARC
  5
2D6
100
AcDbEntity
  8
0
100
AcDbCircle
 62
7
  6
CONTINUOUS
 10
185.0177152792
 20
176.3959694989
 40
65.0
100
AcDbArc
 50
332.2042275039
 51
332.9884036753
  0
ARC
  5
2D7
100
AcDbEntity
  8
0
100
AcDbCircle
 62
7
  6
CONTINUOUS
 10
185.0177152792
 20
176.3959694989
 40
65.0
100
AcDbArc
 50
63.8276033186
 51
84.0663227096
  0
ARC
  5
2D8
100
AcDbEntity
  8
0
100
AcDbCircle
 62
7
  6
CONTINUOUS
 10
185.0177152792
 20
176.3959694989
 40
65.0
100
AcDbArc
 50
50.7268848014
 51
59.9667509522
  0
ARC
  5
2D9
100
AcDbEntity
  8
0
100
AcDbCircle
 62
7
  6
CONTINUOUS
 10
185.0177152792
 20
176.3959694989
 40
65.0
100
AcDbArc
 50
39.6025255548
 51
46.8659840284
  0
ARC
  5
2DA
100
AcDbEntity
  8
0
100
AcDbCircle
 62
7
  6
CONTINUOUS
 10
185.0177152792
 20
176.3959694989
 40
65.0
100
AcDbArc
 50
30.6249797863
 51
36.9539792868
  0
ARC
  5
2DB
100
AcDbEntity
  8
0
100
AcDbCircle
 62
7
  6
CONTINUOUS
 10
185.0177152792
 20
176.3959694989
 40
65.0
100
AcDbArc
 50
21.684897178
 51
27.9781533318
  0
ARC
  5
2DC
100
AcDbEntity
  8
0
100
AcDbCircle
 62
7
  6
CONTINUOUS
 10
185.0177152792
 20
176.3959694989
 40
65.0
100
AcDbArc
 50
14.0052431372
 51
19.4337778947
  0
ARC
  5
2DD
100
AcDbEntity
  8
0
100
AcDbCircle
 62
7
  6
CONTINUOUS
 10
185.0177152792
 20
176.3959694989
 40
65.0
100
AcDbArc
 50
6.354548686
 51
11.7497289658
  0
ARC
  5
2DE
100
AcDbEntity
  8
0
100
AcDbCircle
 62
7
  6
CONTINUOUS
 10
185.0177152792
 20
176.3959694989
 40
65.0
100
AcDbArc
 50
358.6629105447
 51
4.0961201466
  0
ARC
  5
2DF
100
AcDbEntity
  8
0
100
AcDbCircle
 62
7
  6
CONTINUOUS
 10
185.0177152792
 20
176.3959694989
 40
65.0
100
AcDbArc
 50
326.7239094291
 51
327.795772496
  0
ARC
  5
2E0
100
AcDbEntity
  8
0
100
AcDbCircle
 62
7
  6
CONTINUOUS
 10
185.0177152792
 20
176.3959694989
 40
65.0
100
AcDbArc
 50
316.2677118162
 51
323.6247001662
  0
ARC
  5
2E1
100
AcDbEntity
  8
0
100
AcDbCircle
 62
7
  6
CONTINUOUS
 10
185.0177152792
 20
176.3959694989
 40
65.0
100
AcDbArc
 50
287.6104491151
 51
301.2107803809
  0
ARC
  5
2E2
100
AcDbEntity
  8
0
100
AcDbCircle
 62
7
  6
CONTINUOUS
 10
185.0177152792
 20
176.3959694989
 40
65.0
100
AcDbArc
 50
258.0509339406
 51
281.9490660595
  0
ARC
  5
2E3
100
AcDbEntity
  8
0
100
AcDbCircle
 62
7
  6
CONTINUOUS
 10
185.0177152792
 20
176.3959694989
 40
65.0
100
AcDbArc
 50
238.7892196191
 51
252.3895508849
  0
ARC
  5
2E4
100
AcDbEntity
  8
0
100
AcDbCircle
 62
7
  6
CONTINUOUS
 10
185.0177152792
 20
176.3959694989
 40
65.0
100
AcDbArc
 50
216.3752998338
 51
223.7322881838
  0
ARC
  5
2E5
100
AcDbEntity
  8
0
100
AcDbCircle
 62
7
  6
CONTINUOUS
 10
185.0177152792
 20
176.3959694989
 40
65.0
100
AcDbArc
 50
212.204227504
 51
213.2760905709
  0
ARC
  5
2E6
100
AcDbEntity
  8
0
100
AcDbCircle
 62
7
  6
CONTINUOUS
 10
185.0177152792
 20
176.3959694989
 40
65.0
100
AcDbArc
 50
168.2501992414
 51
173.64539555
  0
ARC
  5
2E7
100
AcDbEntity
  8
0
100
AcDbCircle
 62
7
  6
CONTINUOUS
 10
185.0177152792
 20
176.3959694989
 40
65.0
100
AcDbArc
 50
160.566170993
 51
165.9946875985
  0
ARC
  5
2E8
100
AcDbEntity
  8
0
100
AcDbCircle
 62
7
  6
CONTINUOUS
 10
185.0177152792
 20
176.3959694989
 40
65.0
100
AcDbArc
 50
152.021826688
 51
158.3150642399
  0
ARC
  5
2E9
100
AcDbEntity
  8
0
100
AcDbCircle
 62
7
  6
CONTINUOUS
 10
185.0177152792
 20
176.3959694989
 40
65.0
100
AcDbArc
 50
143.0459181958
 51
149.374965851
  0
ARC
  5
2EA
100
AcDbEntity
  8
0
100
AcDbCircle
 62
7
  6
CONTINUOUS
 10
185.0177152792
 20
176.3959694989
 40
65.0
100
AcDbArc
 50
133.134161118
 51
140.3973617373
  0
ARC
  5
2EB
100
AcDbEntity
  8
0
100
AcDbCircle
 62
7
  6
CONTINUOUS
 10
185.0177152792
 20
176.3959694989
 40
65.0
100
AcDbArc
 50
120.0331339066
 51
129.2731687484
  0
ARC
  5
2EC
100
AcDbEntity
  8
0
100
AcDbCircle
 62
7
  6
CONTINUOUS
 10
185.0177152792
 20
176.3959694989
 40
65.0
100
AcDbArc
 50
95.9337339355
 51
116.1722319934
  0
ARC
  5
2ED
100
AcDbEntity
  8
0
100
AcDbCircle
 62
7
  6
CONTINUOUS
 10
185.0177152792
 20
176.3959694989
 40
65.0
100
AcDbArc
 50
207.0115963247
 51
207.7957724961
  0
ARC
  5
2EE
100
AcDbEntity
  8
0
100
AcDbCircle
 62
7
  6
CONTINUOUS
 10
185.0177152792
 20
176.3959694989
 40
65.0
100
AcDbArc
 50
198.8577101598
 51
204.6030319953
  0
ARC
  5
2EF
100
AcDbEntity
  8
0
100
AcDbCircle
 62
7
  6
CONTINUOUS
 10
185.0177152792
 20
176.3959694989
 40
65.0
100
AcDbArc
 50
191.1109437469
 51
196.5730664064
  0
ARC
  5
2F0
100
AcDbEntity
  8
0
100
AcDbCircle
 62
7
  6
CONTINUOUS
 10
185.0177152792
 20
176.3959694989
 40
65.0
100
AcDbArc
 50
183.5565859967
 51
188.8550456878
  0
ARC
  5
2F1
100
AcDbEntity
  8
0
100
AcDbCircle
 62
7
  6
CONTINUOUS
 10
185.0177152792
 20
176.3959694989
 40
65.0
100
AcDbArc
 50
175.9038396187
 51
181.3370894553
  0
ARC
  5
2F2
100
AcDbEntity
  8
0
100
AcDbCircle
 62
7
  6
CONTINUOUS
 10
185.0177152792
 20
176.3959694989
 40
55.0
100
AcDbArc
 50
7.4988932056
 51
13.8789155356
  0
ARC
  5
2F3
100
AcDbEntity
  8
0
100
AcDbCircle
 62
7
  6
CONTINUOUS
 10
185.0177152792
 20
176.3959694989
 40
55.0
100
AcDbArc
 50
16.5522069593
 51
23.1276123789
  0
ARC
  5
2F4
100
AcDbEntity
  8
0
100
AcDbCircle
 62
7
  6
CONTINUOUS
 10
185.0177152792
 20
176.3959694989
 40
55.0
100
AcDbArc
 50
26.2475341906
 51
33.7267834943
  0
ARC
  5
2F5
100
AcDbEntity
  8
0
100
AcDbCircle
 62
7
  6
CONTINUOUS
 10
185.0177152792
 20
176.3959694989
 40
55.0
100
AcDbArc
 50
36.8431745402
 51
44.6037577473
  0
ARC
  5
2F6
100
AcDbEntity
  8
0
100
AcDbCircle
 62
7
  6
CONTINUOUS
 10
185.0177152792
 20
176.3959694989
 40
55.0
100
AcDbArc
 50
49.1308445235
 51
59.9884095688
  0
ARC
  5
2F7
100
AcDbEntity
  8
0
100
AcDbCircle
 62
7
  6
CONTINUOUS
 10
185.0177152792
 20
176.3959694989
 40
55.0
100
AcDbArc
 50
64.5191361248
 51
87.3947487349
  0
ARC
  5
2F8
100
AcDbEntity
  8
0
100
AcDbCircle
 62
7
  6
CONTINUOUS
 10
185.0177152792
 20
176.3959694989
 40
55.0
100
AcDbArc
 50
332.605251265
 51
337.4919521062
  0
ARC
  5
2F9
100
AcDbEntity
  8
0
100
AcDbCircle
 62
7
  6
CONTINUOUS
 10
185.0177152792
 20
176.3959694989
 40
55.0
100
AcDbArc
 50
340.3125122467
 51
346.8214181559
  0
ARC
  5
2FA
100
AcDbEntity
  8
0
100
AcDbCircle
 62
7
  6
CONTINUOUS
 10
185.0177152792
 20
176.3959694989
 40
55.0
100
AcDbArc
 50
349.507232236
 51
355.8006787895
  0
ARC
  5
2FB
100
AcDbEntity
  8
0
100
AcDbCircle
 62
7
  6
CONTINUOUS
 10
185.0177152792
 20
176.3959694989
 40
55.0
100
AcDbArc
 50
358.4208068549
 51
4.8348741164
  0
ARC
  5
2FC
100
AcDbEntity
  8
0
100
AcDbCircle
 62
7
  6
CONTINUOUS
 10
185.0177152792
 20
176.3959694989
 40
55.0
100
AcDbArc
 50
212.6052512651
 51
221.2072081156
  0
ARC
  5
2FD
100
AcDbEntity
  8
0
100
AcDbCircle
 62
7
  6
CONTINUOUS
 10
185.0177152792
 20
176.3959694989
 40
55.0
100
AcDbArc
 50
224.838389759
 51
233.6024307385
  0
ARC
  5
2FE
100
AcDbEntity
  8
0
100
AcDbCircle
 62
7
  6
CONTINUOUS
 10
185.0177152792
 20
176.3959694989
 40
55.0
100
AcDbArc
 50
306.3975692615
 51
315.161610241
  0
ARC
  5
2FF
100
AcDbEntity
  8
0
100
AcDbCircle
 62
7
  6
CONTINUOUS
 10
185.0177152792
 20
176.3959694989
 40
55.0
100
AcDbArc
 50
318.7927918844
 51
327.3947487349
  0
ARC
  5
300
100
AcDbEntity
  8
0
100
AcDbCircle
 62
7
  6
CONTINUOUS
 10
185.0177152792
 20
176.3959694989
 40
55.0
100
AcDbArc
 50
184.1993212105
 51
190.492767764
  0
ARC
  5
301
100
AcDbEntity
  8
0
100
AcDbCircle
 62
7
  6
CONTINUOUS
 10
185.0177152792
 20
176.3959694989
 40
55.0
100
AcDbArc
 50
193.1785818441
 51
199.6874877533
  0
ARC
  5
302
100
AcDbEntity
  8
0
100
AcDbCircle
 62
7
  6
CONTINUOUS
 10
185.0177152792
 20
176.3959694989
 40
55.0
100
AcDbArc
 50
202.5080478938
 51
207.394748735
  0
ARC
  5
303
100
AcDbEntity
  8
0
100
AcDbCircle
 62
7
  6
CONTINUOUS
 10
185.0177152792
 20
176.3959694989
 40
55.0
100
AcDbArc
 50
92.6052512651
 51
115.4810353367
  0
ARC
  5
304
100
AcDbEntity
  8
0
100
AcDbCircle
 62
7
  6
CONTINUOUS
 10
185.0177152792
 20
176.3959694989
 40
55.0
100
AcDbArc
 50
120.0117069857
 51
130.8690727853
  0
ARC
  5
305
100
AcDbEntity
  8
0
100
AcDbCircle
 62
7
  6
CONTINUOUS
 10
185.0177152792
 20
176.3959694989
 40
55.0
100
AcDbArc
 50
135.3960522213
 51
143.1569262757
  0
ARC
  5
306
100
AcDbEntity
  8
0
100
AcDbCircle
 62
7
  6
CONTINUOUS
 10
185.0177152792
 20
176.3959694989
 40
55.0
100
AcDbArc
 50
146.2733020924
 51
153.7524638358
  0
ARC
  5
307
100
AcDbEntity
  8
0
100
AcDbCircle
 62
7
  6
CONTINUOUS
 10
185.0177152792
 20
176.3959694989
 40
55.0
100
AcDbArc
 50
156.8723400491
 51
163.4478545296
  0
ARC
  5
308
100
AcDbEntity
  8
0
100
AcDbCircle
 62
7
  6
CONTINUOUS
 10
185.0177152792
 20
176.3959694989
 40
55.0
100
AcDbArc
 50
166.1211527258
 51
172.501167734
  0
ARC
  5
309
100
AcDbEntity
  8
0
100
AcDbCircle
 62
7
  6
CONTINUOUS
 10
185.0177152792
 20
176.3959694989
 40
55.0
100
AcDbArc
 50
175.1651711953
 51
181.5791931451
  0
ARC
  5
30A
100
AcDbEntity
  8
0
100
AcDbCircle
 62
7
  6
CONTINUOUS
 10
185.0177152792
 20
176.3959694989
 40
50.0
100
AcDbArc
 50
348.4336861622
 51
355.3833693564
  0
ARC
  5
30B
100
AcDbEntity
  8
0
100
AcDbCircle
 62
7
  6
CONTINUOUS
 10
185.0177152792
 20
176.3959694989
 40
50.0
100
AcDbArc
 50
338.2265034558
 51
345.4783152597
  0
ARC
  5
30C
100
AcDbEntity
  8
0
100
AcDbCircle
 62
7
  6
CONTINUOUS
 10
185.0177152792
 20
176.3959694989
 40
50.0
100
AcDbArc
 50
332.8659839826
 51
335.1194062669
  0
ARC
  5
30D
100
AcDbEntity
  8
0
100
AcDbCircle
 62
7
  6
CONTINUOUS
 10
185.0177152792
 20
176.3959694989
 40
50.0
100
AcDbArc
 50
82.6536113489
 51
87.1340160174
  0
ARC
  5
30E
100
AcDbEntity
  8
0
100
AcDbCircle
 62
7
  6
CONTINUOUS
 10
185.0177152792
 20
176.3959694989
 40
50.0
100
AcDbArc
 50
57.1479163174
 51
67.5385451865
  0
ARC
  5
30F
100
AcDbEntity
  8
0
100
AcDbCircle
 62
7
  6
CONTINUOUS
 10
185.0177152792
 20
176.3959694989
 40
50.0
100
AcDbArc
 50
39.6573410989
 51
52.8082729969
  0
ARC
  5
310
100
AcDbEntity
  8
0
100
AcDbCircle
 62
7
  6
CONTINUOUS
 10
185.0177152792
 20
176.3959694989
 40
50.0
100
AcDbArc
 50
29.23007023
 51
34.5868216788
  0
ARC
  5
311
100
AcDbEntity
  8
0
100
AcDbCircle
 62
7
  6
CONTINUOUS
 10
185.0177152792
 20
176.3959694989
 40
50.0
100
AcDbArc
 50
21.6697158021
 51
27.0012359412
  0
ARC
  5
312
100
AcDbEntity
  8
0
100
AcDbCircle
 62
7
  6
CONTINUOUS
 10
185.0177152792
 20
176.3959694989
 40
50.0
100
AcDbArc
 50
11.3313316383
 51
19.4328517504
  0
ARC
  5
313
100
AcDbEntity
  8
0
100
AcDbCircle
 62
7
  6
CONTINUOUS
 10
185.0177152792
 20
176.3959694989
 40
50.0
100
AcDbArc
 50
358.2635861493
 51
7.3176457099
  0
ARC
  5
314
100
AcDbEntity
  8
0
100
AcDbCircle
 62
7
  6
CONTINUOUS
 10
185.0177152792
 20
176.3959694989
 40
50.0
100
AcDbArc
 50
313.6318566377
 51
323.2799966384
  0
ARC
  5
315
100
AcDbEntity
  8
0
100
AcDbCircle
 62
7
  6
CONTINUOUS
 10
185.0177152792
 20
176.3959694989
 40
50.0
100
AcDbArc
 50
296.3050813666
 51
309.5970107733
  0
ARC
  5
316
100
AcDbEntity
  8
0
100
AcDbCircle
 62
7
  6
CONTINUOUS
 10
185.0177152792
 20
176.3959694989
 40
50.0
100
AcDbArc
 50
230.4029892267
 51
243.6949186334
  0
ARC
  5
317
100
AcDbEntity
  8
0
100
AcDbCircle
 62
7
  6
CONTINUOUS
 10
185.0177152792
 20
176.3959694989
 40
50.0
100
AcDbArc
 50
216.7200033616
 51
226.3681433623
  0
ARC
  5
318
100
AcDbEntity
  8
0
100
AcDbCircle
 62
7
  6
CONTINUOUS
 10
185.0177152792
 20
176.3959694989
 40
50.0
100
AcDbArc
 50
160.5671482496
 51
168.6686683617
  0
ARC
  5
319
100
AcDbEntity
  8
0
100
AcDbCircle
 62
7
  6
CONTINUOUS
 10
185.0177152792
 20
176.3959694989
 40
50.0
100
AcDbArc
 50
152.9987640588
 51
158.3302841979
  0
ARC
  5
31A
100
AcDbEntity
  8
0
100
AcDbCircle
 62
7
  6
CONTINUOUS
 10
185.0177152792
 20
176.3959694989
 40
50.0
100
AcDbArc
 50
145.4131783212
 51
150.76992977
  0
ARC
  5
31B
100
AcDbEntity
  8
0
100
AcDbCircle
 62
7
  6
CONTINUOUS
 10
185.0177152792
 20
176.3959694989
 40
50.0
100
AcDbArc
 50
127.1917270031
 51
140.3426589011
  0
ARC
  5
31C
100
AcDbEntity
  8
0
100
AcDbCircle
 62
7
  6
CONTINUOUS
 10
185.0177152792
 20
176.3959694989
 40
50.0
100
AcDbArc
 50
112.4614548135
 51
122.8520836826
  0
ARC
  5
31D
100
AcDbEntity
  8
0
100
AcDbCircle
 62
7
  6
CONTINUOUS
 10
185.0177152792
 20
176.3959694989
 40
50.0
100
AcDbArc
 50
92.8659839826
 51
97.3463886511
  0
ARC
  5
31E
100
AcDbEntity
  8
0
100
AcDbCircle
 62
7
  6
CONTINUOUS
 10
185.0177152792
 20
176.3959694989
 40
50.0
100
AcDbArc
 50
204.8805937331
 51
207.1340160175
  0
ARC
  5
31F
100
AcDbEntity
  8
0
100
AcDbCircle
 62
7
  6
CONTINUOUS
 10
185.0177152792
 20
176.3959694989
 40
50.0
100
AcDbArc
 50
194.5216847403
 51
201.7734965442
  0
ARC
  5
320
100
AcDbEntity
  8
0
100
AcDbCircle
 62
7
  6
CONTINUOUS
 10
185.0177152792
 20
176.3959694989
 40
50.0
100
AcDbArc
 50
184.6166306436
 51
191.5663138378
  0
ARC
  5
321
100
AcDbEntity
  8
0
100
AcDbCircle
 62
7
  6
CONTINUOUS
 10
185.0177152792
 20
176.3959694989
 40
50.0
100
AcDbArc
 50
172.6823542901
 51
181.7364138507
  0
ARC
  5
322
100
AcDbEntity
  8
0
100
AcDbCircle
 62
7
  6
CONTINUOUS
 10
185.0177152792
 20
176.3959694989
 40
40.0
100
AcDbArc
 50
14.1345728871
 51
22.2639573966
  0
ARC
  5
323
100
AcDbEntity
  8
0
100
AcDbCircle
 62
7
  6
CONTINUOUS
 10
185.0177152792
 20
176.3959694989
 40
40.0
100
AcDbArc
 50
25.0343370035
 51
31.7072973071
  0
ARC
  5
324
100
AcDbEntity
  8
0
100
AcDbCircle
 62
7
  6
CONTINUOUS
 10
185.0177152792
 20
176.3959694989
 40
40.0
100
AcDbArc
 50
34.4896146262
 51
50.8414641671
  0
ARC
  5
325
100
AcDbEntity
  8
0
100
AcDbCircle
 62
7
  6
CONTINUOUS
 10
185.0177152792
 20
176.3959694989
 40
40.0
100
AcDbArc
 50
56.3914798812
 51
69.6267896662
  0
ARC
  5
326
100
AcDbEntity
  8
0
100
AcDbCircle
 62
7
  6
CONTINUOUS
 10
185.0177152792
 20
176.3959694989
 40
40.0
100
AcDbArc
 50
333.5833216984
 51
341.7760370351
  0
ARC
  5
327
100
AcDbEntity
  8
0
100
AcDbCircle
 62
7
  6
CONTINUOUS
 10
185.0177152792
 20
176.3959694989
 40
40.0
100
AcDbArc
 50
345.4825424554
 51
354.2373195583
  0
ARC
  5
328
100
AcDbEntity
  8
0
100
AcDbCircle
 62
7
  6
CONTINUOUS
 10
185.0177152792
 20
176.3959694989
 40
40.0
100
AcDbArc
 50
357.8317880225
 51
9.1241071245
  0
ARC
  5
329
100
AcDbEntity
  8
0
100
AcDbCircle
 62
7
  6
CONTINUOUS
 10
185.0177152792
 20
176.3959694989
 40
40.0
100
AcDbArc
 50
213.5833216985
 51
222.7608479156
  0
ARC
  5
32A
100
AcDbEntity
  8
0
100
AcDbCircle
 62
7
  6
CONTINUOUS
 10
185.0177152792
 20
176.3959694989
 40
40.0
100
AcDbArc
 50
227.4178340065
 51
241.5246951845
  0
ARC
  5
32B
100
AcDbEntity
  8
0
100
AcDbCircle
 62
7
  6
CONTINUOUS
 10
185.0177152792
 20
176.3959694989
 40
40.0
100
AcDbArc
 50
251.6254201035
 51
288.374113016
  0
ARC
  5
32C
100
AcDbEntity
  8
0
100
AcDbCircle
 62
7
  6
CONTINUOUS
 10
185.0177152792
 20
176.3959694989
 40
40.0
100
AcDbArc
 50
298.4754324829
 51
312.5819869596
  0
ARC
  5
32D
100
AcDbEntity
  8
0
100
AcDbCircle
 62
7
  6
CONTINUOUS
 10
185.0177152792
 20
176.3959694989
 40
40.0
100
AcDbArc
 50
317.2390134263
 51
326.4166783015
  0
ARC
  5
32E
100
AcDbEntity
  8
0
100
AcDbCircle
 62
7
  6
CONTINUOUS
 10
185.0177152792
 20
176.3959694989
 40
40.0
100
AcDbArc
 50
185.7626804417
 51
194.5174575446
  0
ARC
  5
32F
100
AcDbEntity
  8
0
100
AcDbCircle
 62
7
  6
CONTINUOUS
 10
185.0177152792
 20
176.3959694989
 40
40.0
100
AcDbArc
 50
198.2239629649
 51
206.4166783016
  0
ARC
  5
330
100
AcDbEntity
  8
0
100
AcDbCircle
 62
7
  6
CONTINUOUS
 10
185.0177152792
 20
176.3959694989
 40
40.0
100
AcDbArc
 50
110.3732103338
 51
123.6085201188
  0
ARC
  5
331
100
AcDbEntity
  8
0
100
AcDbCircle
 62
7
  6
CONTINUOUS
 10
185.0177152792
 20
176.3959694989
 40
40.0
100
AcDbArc
 50
129.1585358329
 51
145.5103853738
  0
ARC
  5
332
100
AcDbEntity
  8
0
100
AcDbCircle
 62
7
  6
CONTINUOUS
 10
185.0177152792
 20
176.3959694989
 40
40.0
100
AcDbArc
 50
148.2927026929
 51
154.9656629965
  0
ARC
  5
333
100
AcDbEntity
  8
0
100
AcDbCircle
 62
7
  6
CONTINUOUS
 10
185.0177152792
 20
176.3959694989
 40
40.0
100
AcDbArc
 50
157.7360426034
 51
165.8654271129
  0
ARC
  5
334
100
AcDbEntity
  8
0
100
AcDbCircle
 62
7
  6
CONTINUOUS
 10
185.0177152792
 20
176.3959694989
 40
40.0
100
AcDbArc
 50
170.8758928755
 51
182.1682119775
  0
ARC
  5
335
100
AcDbEntity
  8
0
100
AcDbCircle
 62
7
  6
CONTINUOUS
 10
185.0177152792
 20
176.3959694989
 40
35.0
100
AcDbArc
 50
343.3848136082
 51
353.4197623582
  0
ARC
  5
336
100
AcDbEntity
  8
0
100
AcDbCircle
 62
7
  6
CONTINUOUS
 10
185.0177152792
 20
176.3959694989
 40
35.0
100
AcDbArc
 50
334.0960437581
 51
339.0242717152
  0
ARC
  5
337
100
AcDbEntity
  8
0
100
AcDbCircle
 62
7
  6
CONTINUOUS
 10
185.0177152792
 20
176.3959694989
 40
35.0
100
AcDbArc
 50
66.0756503223
 51
85.9039562419
  0
ARC
  5
338
100
AcDbEntity
  8
0
100
AcDbCircle
 62
7
  6
CONTINUOUS
 10
185.0177152792
 20
176.3959694989
 40
35.0
100
AcDbArc
 50
43.8562177073
 51
60.0705742876
  0
ARC
  5
339
100
AcDbEntity
  8
0
100
AcDbCircle
 62
7
  6
CONTINUOUS
 10
185.0177152792
 20
176.3959694989
 40
35.0
100
AcDbArc
 50
27.4290824483
 51
36.0147759086
  0
ARC
  5
33A
100
AcDbEntity
  8
0
100
AcDbCircle
 62
7
  6
CONTINUOUS
 10
185.0177152792
 20
176.3959694989
 40
35.0
100
AcDbArc
 50
16.1474573249
 51
24.2672792534
  0
ARC
  5
33B
100
AcDbEntity
  8
0
100
AcDbCircle
 62
7
  6
CONTINUOUS
 10
185.0177152792
 20
176.3959694989
 40
35.0
100
AcDbArc
 50
357.5238264394
 51
10.4112799702
  0
ARC
  5
33C
100
AcDbEntity
  8
0
100
AcDbCircle
 62
7
  6
CONTINUOUS
 10
185.0177152792
 20
176.3959694989
 40
35.0
100
AcDbArc
 50
309.9711081285
 51
322.8897766898
  0
ARC
  5
33D
100
AcDbEntity
  8
0
100
AcDbCircle
 62
7
  6
CONTINUOUS
 10
185.0177152792
 20
176.3959694989
 40
35.0
100
AcDbArc
 50
235.4380723654
 51
304.5621353889
  0
ARC
  5
33E
100
AcDbEntity
  8
0
100
AcDbCircle
 62
7
  6
CONTINUOUS
 10
185.0177152792
 20
176.3959694989
 40
35.0
100
AcDbArc
 50
217.1102758582
 51
230.0290788214
  0
ARC
  5
33F
100
AcDbEntity
  8
0
100
AcDbCircle
 62
7
  6
CONTINUOUS
 10
185.0177152792
 20
176.3959694989
 40
35.0
100
AcDbArc
 50
155.7327207466
 51
163.8525426751
  0
ARC
  5
340
100
AcDbEntity
  8
0
100
AcDbCircle
 62
7
  6
CONTINUOUS
 10
185.0177152792
 20
176.3959694989
 40
35.0
100
AcDbArc
 50
143.9852240914
 51
152.5709175517
  0
ARC
  5
341
100
AcDbEntity
  8
0
100
AcDbCircle
 62
7
  6
CONTINUOUS
 10
185.0177152792
 20
176.3959694989
 40
35.0
100
AcDbArc
 50
119.9294257124
 51
136.1437822927
  0
ARC
  5
342
100
AcDbEntity
  8
0
100
AcDbCircle
 62
7
  6
CONTINUOUS
 10
185.0177152792
 20
176.3959694989
 40
35.0
100
AcDbArc
 50
94.0960437582
 51
113.9243496777
  0
ARC
  5
343
100
AcDbEntity
  8
0
100
AcDbCircle
 62
7
  6
CONTINUOUS
 10
185.0177152792
 20
176.3959694989
 40
35.0
100
AcDbArc
 50
200.9757282848
 51
205.9039562419
  0
ARC
  5
344
100
AcDbEntity
  8
0
100
AcDbCircle
 62
7
  6
CONTINUOUS
 10
185.0177152792
 20
176.3959694989
 40
35.0
100
AcDbArc
 50
186.5802376418
 51
196.6151863918
  0
ARC
  5
345
100
AcDbEntity
  8
0
100
AcDbCircle
 62
7
  6
CONTINUOUS
 10
185.0177152792
 20
176.3959694989
 40
35.0
100
AcDbArc
 50
169.5887200298
 51
182.4761735606
  0
ARC
  5
346
100
AcDbEntity
  8
0
100
AcDbCircle
 62
7
  6
CONTINUOUS
 10
185.0177152792
 20
176.3959694989
 40
25.0
100
AcDbArc
 50
16.7106425584
 51
31.9087340996
  0
ARC
  5
347
100
AcDbEntity
  8
0
100
AcDbCircle
 62
7
  6
CONTINUOUS
 10
185.0177152792
 20
176.3959694989
 40
25.0
100
AcDbArc
 50
39.7364904775
 51
61.1751561331
  0
ARC
  5
348
100
AcDbEntity
  8
0
100
AcDbCircle
 62
7
  6
CONTINUOUS
 10
185.0177152792
 20
176.3959694989
 40
25.0
100
AcDbArc
 50
78.2151081654
 51
84.2608295227
  0
ARC
  5
349
100
AcDbEntity
  8
0
100
AcDbCircle
 62
7
  6
CONTINUOUS
 10
185.0177152792
 20
176.3959694989
 40
25.0
100
AcDbArc
 50
336.4085605396
 51
350.7819699853
  0
ARC
  5
34A
100
AcDbEntity
  8
0
100
AcDbCircle
 62
7
  6
CONTINUOUS
 10
185.0177152792
 20
176.3959694989
 40
25.0
100
AcDbArc
 50
356.5405653409
 51
10.7891914936
  0
ARC
  5
34B
100
AcDbEntity
  8
0
100
AcDbCircle
 62
7
  6
CONTINUOUS
 10
185.0177152792
 20
176.3959694989
 40
25.0
100
AcDbArc
 50
215.7391704773
 51
229.5881830497
  0
ARC
  5
34C
100
AcDbEntity
  8
0
100
AcDbCircle
 62
7
  6
CONTINUOUS
 10
185.0177152792
 20
176.3959694989
 40
25.0
100
AcDbArc
 50
238.4656865551
 51
301.5346687428
  0
ARC
  5
34D
100
AcDbEntity
  8
0
100
AcDbCircle
 62
7
  6
CONTINUOUS
 10
185.0177152792
 20
176.3959694989
 40
25.0
100
AcDbArc
 50
310.4121047612
 51
324.2608295227
  0
ARC
  5
34E
100
AcDbEntity
  8
0
100
AcDbCircle
 62
7
  6
CONTINUOUS
 10
185.0177152792
 20
176.3959694989
 40
25.0
100
AcDbArc
 50
189.2180300147
 51
203.5914394604
  0
ARC
  5
34F
100
AcDbEntity
  8
0
100
AcDbCircle
 62
7
  6
CONTINUOUS
 10
185.0177152792
 20
176.3959694989
 40
25.0
100
AcDbArc
 50
95.7391704773
 51
101.7849707884
  0
ARC
  5
350
100
AcDbEntity
  8
0
100
AcDbCircle
 62
7
  6
CONTINUOUS
 10
185.0177152792
 20
176.3959694989
 40
25.0
100
AcDbArc
 50
118.8255479987
 51
140.263353536
  0
ARC
  5
351
100
AcDbEntity
  8
0
100
AcDbCircle
 62
7
  6
CONTINUOUS
 10
185.0177152792
 20
176.3959694989
 40
25.0
100
AcDbArc
 50
148.0913943942
 51
163.2891084924
  0
ARC
  5
352
100
AcDbEntity
  8
0
100
AcDbCircle
 62
7
  6
CONTINUOUS
 10
185.0177152792
 20
176.3959694989
 40
25.0
100
AcDbArc
 50
169.2105786681
 51
183.4594346591
  0
ARC
  5
353
100
AcDbEntity
  8
0
100
AcDbCircle
 62
7
  6
CONTINUOUS
 10
185.0177152792
 20
176.3959694989
 40
20.0
100
AcDbArc
 50
337.1807557814
 51
348.4372625719
  0
ARC
  5
354
100
AcDbEntity
  8
0
100
AcDbCircle
 62
7
  6
CONTINUOUS
 10
185.0177152792
 20
176.3959694989
 40
20.0
100
AcDbArc
 50
51.6484112646
 51
82.8192442185
  0
ARC
  5
355
100
AcDbEntity
  8
0
100
AcDbCircle
 62
7
  6
CONTINUOUS
 10
185.0177152792
 20
176.3959694989
 40
20.0
100
AcDbArc
 50
20.8660946745
 51
41.990481036
  0
ARC
  5
356
100
AcDbEntity
  8
0
100
AcDbCircle
 62
7
  6
CONTINUOUS
 10
185.0177152792
 20
176.3959694989
 40
20.0
100
AcDbArc
 50
355.6823656022
 51
13.4283812062
  0
ARC
  5
357
100
AcDbEntity
  8
0
100
AcDbCircle
 62
7
  6
CONTINUOUS
 10
185.0177152792
 20
176.3959694989
 40
20.0
100
AcDbArc
 50
287.5280054
 51
320.4288699928
  0
ARC
  5
358
100
AcDbEntity
  8
0
100
AcDbCircle
 62
7
  6
CONTINUOUS
 10
185.0177152792
 20
176.3959694989
 40
20.0
100
AcDbArc
 50
219.5711300072
 51
252.4719946
  0
ARC
  5
359
100
AcDbEntity
  8
0
100
AcDbCircle
 62
7
  6
CONTINUOUS
 10
185.0177152792
 20
176.3959694989
 40
20.0
100
AcDbArc
 50
138.0097460718
 51
159.1341138731
  0
ARC
  5
35A
100
AcDbEntity
  8
0
100
AcDbCircle
 62
7
  6
CONTINUOUS
 10
185.0177152792
 20
176.3959694989
 40
20.0
100
AcDbArc
 50
97.1807557814
 51
128.3519140644
  0
ARC
  5
35B
100
AcDbEntity
  8
0
100
AcDbCircle
 62
7
  6
CONTINUOUS
 10
185.0177152792
 20
176.3959694989
 40
20.0
100
AcDbArc
 50
191.5627374281
 51
202.8192442186
  0
ARC
  5
35C
100
AcDbEntity
  8
0
100
AcDbCircle
 62
7
  6
CONTINUOUS
 10
185.0177152792
 20
176.3959694989
 40
20.0
100
AcDbArc
 50
166.5718553502
 51
184.3176343978
  0
ARC
  5
35D
100
AcDbEntity
  8
0
100
AcDbCircle
 62
7
  6
CONTINUOUS
 10
185.0177152792
 20
176.3959694989
 40
10.0
100
AcDbArc
 50
49.0021932003
 51
75.5224878141
  0
ARC
  5
35E
100
AcDbEntity
  8
0
100
AcDbCircle
 62
7
  6
CONTINUOUS
 10
185.0177152792
 20
176.3959694989
 40
10.0
100
AcDbArc
 50
351.365210549
 51
22.5325647803
  0
ARC
  5
35F
100
AcDbEntity
  8
0
100
AcDbCircle
 62
7
  6
CONTINUOUS
 10
185.0177152792
 20
176.3959694989
 40
10.0
100
AcDbArc
 50
224.477512186
 51
315.522487814
  0
ARC
  5
360
100
AcDbEntity
  8
0
100
AcDbCircle
 62
7
  6
CONTINUOUS
 10
185.0177152792
 20
176.3959694989
 40
10.0
100
AcDbArc
 50
104.4775121859
 51
130.9967018085
  0
ARC
  5
361
100
AcDbEntity
  8
0
100
AcDbCircle
 62
7
  6
CONTINUOUS
 10
185.0177152792
 20
176.3959694989
 40
10.0
100
AcDbArc
 50
157.4678116054
 51
188.634789451
  0
ARC
  5
362
100
AcDbEntity
  8
0
100
AcDbCircle
 62
7
  6
CONTINUOUS
 10
271.0177152792
 20
109.8959694989
 40
3.0
100
AcDbArc
 50
270.0
 51
90.0
  0
ARC
  5
363
100
AcDbEntity
  8
0
100
AcDbCircle
 62
7
  6
CONTINUOUS
 10
271.0177152792
 20
118.3959694989
 40
3.0
100
AcDbArc
 50
270.0
 51
90.0
  0
ARC
  5
364
100
AcDbEntity
  8
0
100
AcDbCircle
 62
7
  6
CONTINUOUS
 10
271.0177152792
 20
135.3959694989
 40
3.0
100
AcDbArc
 50
270.0
 51
90.0
  0
ARC
  5
365
100
AcDbEntity
  8
0
100
AcDbCircle
 62
7
  6
CONTINUOUS
 10
288.0177152792
 20
135.3959694989
 40
3.0
100
AcDbArc
 50
90.0
 51
270.0
  0
ARC
  5
366
100
AcDbEntity
  8
0
100
AcDbCircle
 62
7
  6
CONTINUOUS
 10
294.0177152792
 20
135.3959694989
 40
3.0
100
AcDbArc
 50
270.0
 51
90.0
  0
ARC
  5
367
100
AcDbEntity
  8
0
100
AcDbCircle
 62
7
  6
CONTINUOUS
 10
271.0177152792
 20
169.3959694989
 40
3.0
100
AcDbArc
 50
270.0
 51
90.0
  0
ARC
  5
368
100
AcDbEntity
  8
0
100
AcDbCircle
 62
7
  6
CONTINUOUS
 10
271.0177152792
 20
160.8959694989
 40
3.0
100
AcDbArc
 50
270.0
 51
90.0
  0
ARC
  5
369
100
AcDbEntity
  8
0
100
AcDbCircle
 62
7
  6
CONTINUOUS
 10
271.0177152792
 20
152.3959694989
 40
3.0
100
AcDbArc
 50
270.0
 51
90.0
  0
ARC
  5
36A
100
AcDbEntity
  8
0
100
AcDbCircle
 62
7
  6
CONTINUOUS
 10
271.0177152792
 20
143.8959694989
 40
3.0
100
AcDbArc
 50
270.0
 51
90.0
  0
ARC
  5
36B
100
AcDbEntity
  8
0
100
AcDbCircle
 62
7
  6
CONTINUOUS
 10
288.0177152792
 20
169.3959694989
 40
3.0
100
AcDbArc
 50
90.0
 51
270.0
  0
ARC
  5
36C
100
AcDbEntity
  8
0
100
AcDbCircle
 62
7
  6
CONTINUOUS
 10
294.0177152792
 20
169.3959694989
 40
3.0
100
AcDbArc
 50
270.0
 51
90.0
  0
ARC
  5
36D
100
AcDbEntity
  8
0
100
AcDbCircle
 62
7
  6
CONTINUOUS
 10
288.0177152792
 20
160.8959694989
 40
3.0
100
AcDbArc
 50
90.0
 51
270.0
  0
ARC
  5
36E
100
AcDbEntity
  8
0
100
AcDbCircle
 62
7
  6
CONTINUOUS
 10
294.0177152792
 20
160.8959694989
 40
3.0
100
AcDbArc
 50
270.0
 51
90.0
  0
ARC
  5
36F
100
AcDbEntity
  8
0
100
AcDbCircle
 62
7
  6
CONTINUOUS
 10
288.0177152792
 20
152.3959694989
 40
3.0
100
AcDbArc
 50
90.0
 51
270.0
  0
ARC
  5
370
100
AcDbEntity
  8
0
100
AcDbCircle
 62
7
  6
CONTINUOUS
 10
294.0177152792
 20
152.3959694989
 40
3.0
100
AcDbArc
 50
270.0
 51
90.0
  0
ARC
  5
371
100
AcDbEntity
  8
0
100
AcDbCircle
 62
7
  6
CONTINUOUS
 10
288.0177152792
 20
143.8959694989
 40
3.0
100
AcDbArc
 50
90.0
 51
270.0
  0
ARC
  5
372
100
AcDbEntity
  8
0
100
AcDbCircle
 62
7
  6
CONTINUOUS
 10
294.0177152792
 20
143.8959694989
 40
3.0
100
AcDbArc
 50
270.0
 51
90.0
  0
ARC
  5
373
100
AcDbEntity
  8
0
100
AcDbCircle
 62
7
  6
CONTINUOUS
 10
271.0177152792
 20
203.3959694989
 40
3.0
100
AcDbArc
 50
270.0
 51
90.0
  0
ARC
  5
374
100
AcDbEntity
  8
0
100
AcDbCircle
 62
7
  6
CONTINUOUS
 10
271.0177152792
 20
194.8959694989
 40
3.0
100
AcDbArc
 50
270.0
 51
90.0
  0
ARC
  5
375
100
AcDbEntity
  8
0
100
AcDbCircle
 62
7
  6
CONTINUOUS
 10
271.0177152792
 20
186.3959694989
 40
3.0
100
AcDbArc
 50
270.0
 51
90.0
  0
ARC
  5
376
100
AcDbEntity
  8
0
100
AcDbCircle
 62
7
  6
CONTINUOUS
 10
271.0177152792
 20
177.8959694989
 40
3.0
100
AcDbArc
 50
270.0
 51
90.0
  0
ARC
  5
377
100
AcDbEntity
  8
0
100
AcDbCircle
 62
7
  6
CONTINUOUS
 10
271.0177152792
 20
245.8959694989
 40
3.0
100
AcDbArc
 50
270.0
 51
21.4295585503
  0
ARC
  5
378
100
AcDbEntity
  8
0
100
AcDbCircle
 62
7
  6
CONTINUOUS
 10
271.0177152792
 20
237.3959694989
 40
3.0
100
AcDbArc
 50
270.0
 51
90.0
  0
ARC
  5
379
100
AcDbEntity
  8
0
100
AcDbCircle
 62
7
  6
CONTINUOUS
 10
271.0177152792
 20
228.8959694989
 40
3.0
100
AcDbArc
 50
270.0
 51
90.0
  0
ARC
  5
37A
100
AcDbEntity
  8
0
100
AcDbCircle
 62
7
  6
CONTINUOUS
 10
271.0177152792
 20
220.3959694989
 40
3.0
100
AcDbArc
 50
270.0
 51
90.0
  0
ARC
  5
37B
100
AcDbEntity
  8
0
100
AcDbCircle
 62
7
  6
CONTINUOUS
 10
271.0177152792
 20
211.8959694989
 40
3.0
100
AcDbArc
 50
270.0
 51
90.0
  0
ARC
  5
37C
100
AcDbEntity
  8
0
100
AcDbCircle
 62
7
  6
CONTINUOUS
 10
288.0177152792
 20
203.3959694989
 40
3.0
100
AcDbArc
 50
90.0
 51
270.0
  0
ARC
  5
37D
100
AcDbEntity
  8
0
100
AcDbCircle
 62
7
  6
CONTINUOUS
 10
294.0177152792
 20
203.3959694989
 40
3.0
100
AcDbArc
 50
270.0
 51
90.0
  0
ARC
  5
37E
100
AcDbEntity
  8
0
100
AcDbCircle
 62
7
  6
CONTINUOUS
 10
288.0177152792
 20
194.8959694989
 40
3.0
100
AcDbArc
 50
90.0
 51
270.0
  0
ARC
  5
37F
100
AcDbEntity
  8
0
100
AcDbCircle
 62
7
  6
CONTINUOUS
 10
294.0177152792
 20
194.8959694989
 40
3.0
100
AcDbArc
 50
270.0
 51
90.0
  0
ARC
  5
380
100
AcDbEntity
  8
0
100
AcDbCircle
 62
7
  6
CONTINUOUS
 10
288.0177152792
 20
186.3959694989
 40
3.0
100
AcDbArc
 50
90.0
 51
270.0
  0
ARC
  5
381
100
AcDbEntity
  8
0
100
AcDbCircle
 62
7
  6
CONTINUOUS
 10
294.0177152792
 20
186.3959694989
 40
3.0
100
AcDbArc
 50
270.0
 51
90.0
  0
ARC
  5
382
100
AcDbEntity
  8
0
100
AcDbCircle
 62
7
  6
CONTINUOUS
 10
288.0177152792
 20
177.8959694989
 40
3.0
100
AcDbArc
 50
90.0
 51
270.0
  0
ARC
  5
383
100
AcDbEntity
  8
0
100
AcDbCircle
 62
7
  6
CONTINUOUS
 10
294.0177152792
 20
177.8959694989
 40
3.0
100
AcDbArc
 50
270.0
 51
90.0
  0
ARC
  5
384
100
AcDbEntity
  8
0
100
AcDbCircle
 62
7
  6
CONTINUOUS
 10
288.0177152792
 20
228.8959694989
 40
3.0
100
AcDbArc
 50
90.0
 51
270.0
  0
ARC
  5
385
100
AcDbEntity
  8
0
100
AcDbCircle
 62
7
  6
CONTINUOUS
 10
294.0177152792
 20
228.8959694989
 40
3.0
100
AcDbArc
 50
270.0
 51
90.0
  0
ARC
  5
386
100
AcDbEntity
  8
0
100
AcDbCircle
 62
7
  6
CONTINUOUS
 10
288.0177152792
 20
220.3959694989
 40
3.0
100
AcDbArc
 50
90.0
 51
270.0
  0
ARC
  5
387
100
AcDbEntity
  8
0
100
AcDbCircle
 62
7
  6
CONTINUOUS
 10
294.0177152792
 20
220.3959694989
 40
3.0
100
AcDbArc
 50
270.0
 51
90.0
  0
ARC
  5
388
100
AcDbEntity
  8
0
100
AcDbCircle
 62
7
  6
CONTINUOUS
 10
288.0177152792
 20
211.8959694989
 40
3.0
100
AcDbArc
 50
90.0
 51
270.0
  0
ARC
  5
389
100
AcDbEntity
  8
0
100
AcDbCircle
 62
7
  6
CONTINUOUS
 10
294.0177152792
 20
211.8959694989
 40
3.0
100
AcDbArc
 50
270.0
 51
90.0
  0
ENDSEC
  0
SECTION
  2
OBJECTS
  0
DICTIONARY
  5
C
100
AcDbDictionary
280
0
281
1
  3
ACAD_GROUP
350
D
  3
ACAD_MLINESTYLE
350
17
  3
ACAD_LAYOUT
350
1A
  3
ACAD_PLOTSETTINGS
350
19
  3
ACAD_PLOTSTYLENAME
350
E
  0
DICTIONARY
  5
D
102
{ACAD_REACTORS
330
C
102
}
100
AcDbDictionary
280
0
281
1
  0
ACDBDICTIONARYWDFLT
  5
E
102
{ACAD_REACTORS
330
C
102
}
100
AcDbDictionary
281
1
  3
Normal
350
F
100
AcDbDictionaryWithDefault
340
F
  0
DICTIONARY
  5
17
102
{ACAD_REACTORS
330
C
102
}
100
AcDbDictionary
280
0
281
1
  3
Standard
350
18
  0
DICTIONARY
  5
19
102
{ACAD_REACTORS
330
C
102
}
100
AcDbDictionary
281
1
  0
DICTIONARY
  5
1A
102
{ACAD_REACTORS
330
C
102
}
100
AcDbDictionary
281
1
  3
Model
350
38A
  3
Layout1
350
38B
  0
ACDBPLACEHOLDER
  5
F
102
{ACAD_REACTORS
330
E
102
}
  0
MLINESTYLE
  5
18
102
{ACAD_REACTORS
330
17
102
}
100
AcDbMlineStyle
  2
STANDARD
 70
0
  3

 62
256
 51
90.0
 52
90.0
 71
2
 49
0.5
 62
256
  6
BYLAYER
 49
-0.5
 62
256
  6
BYLAYER
  0
LAYOUT
  5
38A
102
{ACAD_REACTORS
330
1A
102
}
100
AcDbPlotSettings
  1

  2
none_device
  4

  6

 40
0.0
 41
0.0
 42
0.0
 43
0.0
 44
210.0
 45
297.0
 46
0.0
 47
0.0
 48
0.0
 49
0.0
140
0.0
141
0.0
142
1.0
143
1.0
 70
1024
 72
1
 73
0
 74
0
  7

 75
0
147
1.0
148
0.0
149
0.0
100
AcDbLayout
  1
Model
 70
0
 71
0
 10
0.0
 20
0.0
 11
210.0
 21
297.0
 12
0.0
 22
0.0
 32
0.0
 14
0.0
 24
0.0
 34
0.0
 15
0.0
 25
0.0
 35
0.0
146
0.0
 13
0.0
 23
0.0
 33
0.0
 16
1.0
 26
0.0
 36
0.0
 17
0.0
 27
1.0
 37
0.0
 76
0
330
210
345
0
346
0
  0
LAYOUT
  5
38B
102
{ACAD_REACTORS
330
1A
102
}
100
AcDbPlotSettings
  1

  2
none_device
  4

  6

 40
0.0
 41
0.0
 42
0.0
 43
0.0
 44
210.0
 45
297.0
 46
0.0
 47
0.0
 48
0.0
 49
0.0
140
0.0
141
0.0
142
1.0
143
1.0
 70
0
 72
1
 73
0
 74
0
  7

 75
0
147
1.0
148
0.0
149
0.0
100
AcDbLayout
  1
Layout1
 70
0
 71
1
 10
0.0
 20
0.0
 11
210.0
 21
297.0
 12
0.0
 22
0.0
 32
0.0
 14
0.0
 24
0.0
 34
0.0
 15
0.0
 25
0.0
 35
0.0
146
0.0
 13
0.0
 23
0.0
 33
0.0
 16
1.0
 26
0.0
 36
0.0
 17
0.0
 27
1.0
 37
0.0
 76
0
330
211
345
0
346
0
  0
ENDSEC
  0
EOF
