999
DXF file: C:\Users\sesa63760\Dev\_Creo\CAD\MCADPE0010584_3D-CAD\drw0001_1.dxf
999
Pro/ENGINEER 2019471 by Parametric Technology Corporation
  0
SECTION
  2
HEADER
  9
$ACADVER
  1
AC1024
  9
$DWGCODEPAGE
  3
ANSI_1252
  9
$EXTMAX
 10
70.2858376868
 20
99.4042561571
 30
0.0
  9
$EXTMIN
 10
0.0
 20
0.0
 30
0.0
  9
$LIMMIN
 10
0.0
 20
0.0
  9
$LIMMAX
 10
70.2858376868
 20
99.4042561571
  9
$VIEWCTR
 10
35.1429188434
 20
49.7021280785
  9
$VIEWSIZE
 40
99.4042561571
  9
$CLAYER
  8
0
  9
$LTSCALE
 40
6.4796848458
  9
$CELTYPE
  6
BYLAYER
  9
$DIMSCALE
 40
1.0
  9
$DIMASZ
 40
0.8367361629
  9
$DIMEXO
 40
1.0
  9
$DIMDLI
 40
4.4768731662
  9
$DIMEXE
 40
1.0
  9
$DIMCEN
 40
1.0603120657
  9
$DIMLFAC
 40
1.0
  9
$DIMBLK
  1
_FILLED
  9
$DIMALT
 70
0
  9
$DIMALTF
 40
0.0393700787
  9
$DIMTXT
 40
1.1714306281
  9
$DIMTOL
 70
1
  9
$DIMLIM
 70
0
  9
$DIMTFAC
 40
1.0
  9
$DIMTP
 40
0.01
  9
$DIMTM
 40
0.01
  9
$DIMGAP
 40
0.625
  9
$DIMDSEP
 70
46
  9
$AUNITS
 70
0
  9
$PDMODE
 70
3
  9
$PDSIZE
 40
0.3125
  9
$HANDSEED
  5
28A
  9
$TILEMODE
 70
1
  9
$MEASUREMENT
 70
1
  9
$INSUNITS
 70
4
  0
ENDSEC
  0
SECTION
  2
CLASSES
  0
CLASS
  1
ACDBDICTIONARYWDFLT
  2
AcDbDictionaryWithDefault
  3
AutoCAD 2000
 90
0
 91
1
280
0
281
0
  0
CLASS
  1
ACDBPLACEHOLDER
  2
AcDbPlaceHolder
  3
AutoCAD 2000
 90
0
 91
1
280
0
281
0
  0
CLASS
  1
LAYOUT
  2
AcDbLayout
  3
AutoCAD 2000
 90
0
 91
0
280
0
281
0
  0
ENDSEC
  0
SECTION
  2
TABLES
  0
TABLE
  2
VPORT
  5
8
100
AcDbSymbolTable
 70
2
  0
VPORT
  5
1F4
100
AcDbSymbolTableRecord
100
AcDbViewportTableRecord
  2
*ACTIVE
 70
0
 10
0.0
 20
0.0
 11
1.0
 21
1.0
 12
35.1429188434
 22
49.7021280785
 13
0.0
 23
0.0
 14
1.0
 24
1.0
 15
0.0
 25
0.0
 16
0.0
 26
0.0
 36
1.0
 17
0.0
 27
0.0
 37
0.0
 40
99.4042561571
 41
0.7070707071
 42
50.0
 43
0.0
 44
0.0
 50
0.0
 51
0.0
 71
0
 72
100
 73
1
 74
1
 75
0
 76
0
 77
0
 78
0
  0
ENDTAB
  0
TABLE
  2
LTYPE
  5
5
100
AcDbSymbolTable
 70
6
  0
LTYPE
  5
14
100
AcDbSymbolTableRecord
100
AcDbLinetypeTableRecord
  2
BYBLOCK
 70
0
  3

 72
65
 73
0
 40
0.0
  0
LTYPE
  5
15
100
AcDbSymbolTableRecord
100
AcDbLinetypeTableRecord
  2
BYLAYER
 70
0
  3

 72
65
 73
0
 40
0.0
  0
LTYPE
  5
16
100
AcDbSymbolTableRecord
100
AcDbLinetypeTableRecord
  2
CONTINUOUS
 70
64
  3
Solid line
 72
65
 73
0
 40
0.0
  0
LTYPE
  5
1F5
100
AcDbSymbolTableRecord
100
AcDbLinetypeTableRecord
  2
CENTER
 70
64
  3
____ _ ____ _ ____ _ ____ _ ____ _ ____ _ ____
 72
65
 73
4
 40
0.6
 49
0.375
 74
0
 49
-0.075
 74
0
 49
0.075
 74
0
 49
-0.075
 74
0
  0
LTYPE
  5
1F6
100
AcDbSymbolTableRecord
100
AcDbLinetypeTableRecord
  2
HIDDEN
 70
64
  3
- - - - - - - - - - - - - - - - - - - -
 72
65
 73
2
 40
0.2
 49
0.1
 74
0
 49
-0.1
 74
0
  0
LTYPE
  5
1F7
100
AcDbSymbolTableRecord
100
AcDbLinetypeTableRecord
  2
PHANTOM
 70
64
  3
_____ _ _ _____ _ _ _____ _ _ _____
 72
65
 73
6
 40
0.8
 49
0.45
 74
0
 49
-0.05
 74
0
 49
0.1
 74
0
 49
-0.05
 74
0
 49
0.1
 74
0
 49
-0.05
 74
0
  0
LTYPE
  5
1F8
100
AcDbSymbolTableRecord
100
AcDbLinetypeTableRecord
  2
DOT
 70
64
  3
. . . . . . . . . . . . . . . . . . . .
 72
65
 73
2
 40
0.2
 49
0.1
 74
0
 49
-0.1
 74
0
  0
LTYPE
  5
1F9
100
AcDbSymbolTableRecord
100
AcDbLinetypeTableRecord
  2
DASHED
 70
64
  3
- - - - - - - - - - - - - - - - - - - -
 72
65
 73
2
 40
0.2
 49
0.1
 74
0
 49
-0.1
 74
0
  0
ENDTAB
  0
TABLE
  2
LAYER
  5
2
100
AcDbSymbolTable
 70
36
  0
LAYER
  5
10
100
AcDbSymbolTableRecord
100
AcDbLayerTableRecord
  2
0
 70
0
 62
7
  6
CONTINUOUS
370
-3
390
F
  0
LAYER
  5
1FA
100
AcDbSymbolTableRecord
100
AcDbLayerTableRecord
  2
DEFAULT_1
 70
0
 62
7
  6
CENTER
370
-3
390
F
  0
LAYER
  5
1FB
100
AcDbSymbolTableRecord
100
AcDbLayerTableRecord
  2
DEFAULT_2
 70
0
 62
7
  6
HIDDEN
370
-3
390
F
  0
LAYER
  5
1FC
100
AcDbSymbolTableRecord
100
AcDbLayerTableRecord
  2
DEFAULT_3
 70
0
 62
7
  6
PHANTOM
370
-3
390
F
  0
LAYER
  5
1FD
100
AcDbSymbolTableRecord
100
AcDbLayerTableRecord
  2
00_COMPONENTS
 70
0
 62
7
  6
CONTINUOUS
370
-3
390
F
  0
LAYER
  5
1FE
100
AcDbSymbolTableRecord
100
AcDbLayerTableRecord
  2
01_1_DEFAULT_DATUMS
 70
0
 62
7
  6
CONTINUOUS
370
-3
390
F
  0
LAYER
  5
1FF
100
AcDbSymbolTableRecord
100
AcDbLayerTableRecord
  2
01_PLANES
 70
0
 62
7
  6
CONTINUOUS
370
-3
390
F
  0
LAYER
  5
200
100
AcDbSymbolTableRecord
100
AcDbLayerTableRecord
  2
02_COORD_SYS
 70
0
 62
7
  6
CONTINUOUS
370
-3
390
F
  0
LAYER
  5
201
100
AcDbSymbolTableRecord
100
AcDbLayerTableRecord
  2
03_AXES
 70
0
 62
7
  6
CONTINUOUS
370
-3
390
F
  0
LAYER
  5
202
100
AcDbSymbolTableRecord
100
AcDbLayerTableRecord
  2
04_POINTS
 70
0
 62
7
  6
CONTINUOUS
370
-3
390
F
  0
LAYER
  5
203
100
AcDbSymbolTableRecord
100
AcDbLayerTableRecord
  2
05_CURVES
 70
0
 62
7
  6
CONTINUOUS
370
-3
390
F
  0
LAYER
  5
204
100
AcDbSymbolTableRecord
100
AcDbLayerTableRecord
  2
06_SURFS
 70
0
 62
7
  6
CONTINUOUS
370
-3
390
F
  0
LAYER
  5
205
100
AcDbSymbolTableRecord
100
AcDbLayerTableRecord
  2
07_COSMETICS
 70
0
 62
7
  6
CONTINUOUS
370
-3
390
F
  0
LAYER
  5
206
100
AcDbSymbolTableRecord
100
AcDbLayerTableRecord
  2
10_NOTES
 70
0
 62
7
  6
CONTINUOUS
370
-3
390
F
  0
LAYER
  5
207
100
AcDbSymbolTableRecord
100
AcDbLayerTableRecord
  2
11_NOTES_PUB
 70
0
 62
7
  6
CONTINUOUS
370
-3
390
F
  0
LAYER
  5
208
100
AcDbSymbolTableRecord
100
AcDbLayerTableRecord
  2
13_REF_GTOL
 70
0
 62
7
  6
CONTINUOUS
370
-3
390
F
  0
LAYER
  5
209
100
AcDbSymbolTableRecord
100
AcDbLayerTableRecord
  2
16_MISC
 70
0
 62
7
  6
CONTINUOUS
370
-3
390
F
  0
LAYER
  5
20A
100
AcDbSymbolTableRecord
100
AcDbLayerTableRecord
  2
17_NO_PRINT
 70
0
 62
7
  6
CONTINUOUS
370
-3
390
F
  0
LAYER
  5
20B
100
AcDbSymbolTableRecord
100
AcDbLayerTableRecord
  2
18_DATUM_CAMS_JOINTS
 70
0
 62
7
  6
CONTINUOUS
370
-3
390
F
  0
LAYER
  5
20C
100
AcDbSymbolTableRecord
100
AcDbLayerTableRecord
  2
19_DATUM_FUNCTIONAL
 70
0
 62
7
  6
CONTINUOUS
370
-3
390
F
  0
LAYER
  5
20D
100
AcDbSymbolTableRecord
100
AcDbLayerTableRecord
  2
20_DATUM_KINEMATIC_SCHEME
 70
0
 62
7
  6
CONTINUOUS
370
-3
390
F
  0
ENDTAB
  0
TABLE
  2
STYLE
  5
3
100
AcDbSymbolTable
 70
1
  0
STYLE
  5
11
100
AcDbSymbolTableRecord
100
AcDbTextStyleTableRecord
  2
STANDARD
 70
0
 40
0.0
 41
1.0
 50
0.0
 71
0
 42
0.2
  3
ARIAL.TTF
  4

  0
STYLE
  5
20E
100
AcDbSymbolTableRecord
100
AcDbTextStyleTableRecord
  2
TEXTSTYLE_1
 70
0
 40
0.0
 41
0.8
 50
0.0
 71
0
 42
0.2
  3
gdt
  4

  0
ENDTAB
  0
TABLE
  2
VIEW
  5
6
100
AcDbSymbolTable
 70
0
  0
ENDTAB
  0
TABLE
  2
UCS
  5
7
100
AcDbSymbolTable
 70
0
  0
ENDTAB
  0
TABLE
  2
APPID
  5
9
100
AcDbSymbolTable
 70
1
  0
APPID
  5
20F
100
AcDbSymbolTableRecord
100
AcDbRegAppTableRecord
  2
ACAD
 70
0
  0
ENDTAB
  0
TABLE
  2
BLOCK_RECORD
  5
1
100
AcDbSymbolTable
 70
0
  0
BLOCK_RECORD
  5
210
100
AcDbSymbolTableRecord
100
AcDbBlockTableRecord
  2
*Model_Space
  0
BLOCK_RECORD
  5
211
100
AcDbSymbolTableRecord
100
AcDbBlockTableRecord
  2
*Paper_Space
  0
BLOCK_RECORD
  5
212
100
AcDbSymbolTableRecord
100
AcDbBlockTableRecord
  2
_FILLED
  0
ENDTAB
  0
TABLE
  2
DIMSTYLE
  5
A
100
AcDbSymbolTable
 70
1
100
AcDbDimStyleTable
 71
0
  0
DIMSTYLE
105
213
100
AcDbSymbolTableRecord
100
AcDbDimStyleTableRecord
  2
STANDARD
 70
0
  3

  4

 40
1.0
 41
0.8367361629
 42
1.0
 43
0.38
 44
1.0
 45
0.0
 46
0.0
 47
0.01
 48
0.01
140
1.1714306281
141
0.09
142
0.0
143
25.4
144
1.0
145
0.0
146
1.0
147
0.625
 71
1
 72
0
 73
0
 74
0
 75
0
 76
0
 77
1
 78
8
 79
2
170
0
171
1
172
0
173
0
174
0
175
0
176
0
177
0
178
0
270
2
179
2
271
2
272
2
273
2
274
2
275
0
280
0
281
0
282
0
283
1
284
8
285
0
286
0
287
3
288
0
340
11
278
46
341
212
342
212
343
212
344
212
  0
ENDTAB
  0
ENDSEC
  0
SECTION
  2
BLOCKS
  0
BLOCK
  5
20
100
AcDbEntity
  8
0
100
AcDbBlockBegin
  2
*Model_Space
 70
0
 10
0.0
 20
0.0
 30
0.0
  3
*Model_Space
  1

  0
ENDBLK
  5
21
100
AcDbEntity
  8
0
100
AcDbBlockEnd
  0
BLOCK
  5
1C
100
AcDbEntity
  8
0
100
AcDbBlockBegin
  2
*Paper_Space
 70
0
 10
0.0
 20
0.0
 30
0.0
  3
*Paper_Space
  1

  0
ENDBLK
  5
1D
100
AcDbEntity
  8
0
100
AcDbBlockEnd
  0
BLOCK
  5
214
100
AcDbEntity
  8
0
100
AcDbBlockBegin
  2
_FILLED
 70
64
 10
0.0
 20
0.0
  3
_FILLED
  1

  0
SOLID
  5
215
100
AcDbEntity
  8
0
  6
BYBLOCK
 62
0
100
AcDbTrace
 10
0.0
 20
0.0
 11
-1.0
 21
0.25
 12
-1.0
 22
-0.25
 13
-1.0
 23
-0.25
  0
ENDBLK
  5
216
100
AcDbEntity
  8
0
  6
BYBLOCK
 62
0
100
AcDbBlockEnd
  0
ENDSEC
  0
SECTION
  2
ENTITIES
  0
LINE
  5
217
100
AcDbEntity
  8
0
100
AcDbLine
 62
7
  6
BYLAYER
 10
28.0236778621
 20
12.0808233581
 11
19.4677214318
 21
16.4013055218
  0
LINE
  5
218
100
AcDbEntity
  8
0
100
AcDbLine
 62
7
  6
BYLAYER
 10
19.4677214318
 20
16.4013055218
 11
8.1539658294
 21
22.9331575941
  0
LINE
  5
219
100
AcDbEntity
  8
0
100
AcDbLine
 62
7
  6
BYLAYER
 10
28.3633406698
 20
16.6370495085
 11
29.579306304
 21
16.5284304786
  0
LINE
  5
21A
100
AcDbEntity
  8
0
100
AcDbLine
 62
7
  6
BYLAYER
 10
8.9671420134
 20
26.9544440206
 11
18.6545452479
 21
21.3615456837
  0
LINE
  5
21B
100
AcDbEntity
  8
0
100
AcDbLine
 62
7
  6
BYLAYER
 10
29.579306304
 20
16.5284304786
 11
28.3633406698
 21
17.2304526829
  0
LINE
  5
21C
100
AcDbEntity
  8
0
100
AcDbLine
 62
7
  6
BYLAYER
 10
13.8107965272
 20
70.011531513
 11
12.0110461579
 21
66.5932663326
  0
LINE
  5
21D
100
AcDbEntity
  8
0
100
AcDbLine
 62
7
  6
BYLAYER
 10
9.0804388734
 20
61.0271650505
 11
8.1539658294
 21
59.2675151564
  0
LINE
  5
21E
100
AcDbEntity
  8
0
100
AcDbLine
 62
7
  6
BYLAYER
 10
44.2162615273
 20
87.5660301295
 11
36.0845673994
 21
82.8712223599
  0
LINE
  5
21F
100
AcDbEntity
  8
0
100
AcDbLine
 62
7
  6
BYLAYER
 10
21.9424906551
 20
74.7063392825
 11
13.8107965272
 21
70.011531513
  0
LINE
  5
220
100
AcDbEntity
  8
0
100
AcDbLine
 62
7
  6
BYLAYER
 10
8.1539658294
 20
59.2675151564
 11
8.1539658294
 21
22.9331575941
  0
LINE
  5
221
100
AcDbEntity
  8
0
100
AcDbLine
 62
7
  6
BYLAYER
 10
8.9671420134
 20
52.2660189516
 11
8.9671420134
 21
26.9544440206
  0
LINE
  5
222
100
AcDbEntity
  8
0
100
AcDbLine
 62
7
  6
BYLAYER
 10
13.5144737713
 20
65.7252816318
 11
10.678082809
 21
60.338125374
  0
LINE
  5
223
100
AcDbEntity
  8
0
100
AcDbLine
 62
7
  6
BYLAYER
 10
13.2097650366
 20
45.8634986579
 11
13.2097650366
 21
36.8819720695
  0
LINE
  5
224
100
AcDbEntity
  8
0
100
AcDbLine
 62
7
  6
BYLAYER
 10
14.1643631656
 20
38.179544607
 11
14.1643631656
 21
45.3123736393
  0
LINE
  5
225
100
AcDbEntity
  8
0
100
AcDbLine
 62
7
  6
BYLAYER
 10
13.2097650366
 20
36.8819720695
 11
18.6545452479
 21
33.7384978637
  0
LINE
  5
226
100
AcDbEntity
  8
0
100
AcDbLine
 62
7
  6
BYLAYER
 10
16.792684126
 20
35.6299010747
 11
18.6545452479
 21
34.5549793728
  0
LINE
  5
227
100
AcDbEntity
  8
0
100
AcDbLine
 62
7
  6
BYLAYER
 10
18.6545452479
 20
34.9632305814
 11
16.9220852057
 21
35.9634442252
  0
LINE
  5
228
100
AcDbEntity
  8
0
100
AcDbLine
 62
7
  6
BYLAYER
 10
14.1643631656
 20
38.179544607
 11
16.0855802888
 21
35.2216569208
  0
LINE
  5
229
100
AcDbEntity
  8
0
100
AcDbLine
 62
7
  6
BYLAYER
 10
16.792684126
 20
35.6299010747
 11
14.8714670028
 21
38.5877887609
  0
LINE
  5
22A
100
AcDbEntity
  8
0
100
AcDbLine
 62
7
  6
BYLAYER
 10
15.2250218654
 20
38.5762268703
 11
16.9220852057
 21
35.9634442252
  0
LINE
  5
22B
100
AcDbEntity
  8
0
100
AcDbLine
 62
7
  6
BYLAYER
 10
14.8714670028
 20
45.0843250128
 11
14.8714670028
 21
38.5877887609
  0
LINE
  5
22C
100
AcDbEntity
  8
0
100
AcDbLine
 62
7
  6
BYLAYER
 10
15.2250218654
 20
44.8802046355
 11
15.2250218654
 21
38.5762268703
  0
LINE
  5
22D
100
AcDbEntity
  8
0
100
AcDbLine
 62
7
  6
BYLAYER
 10
8.9671420134
 20
52.2660189516
 11
13.2097650366
 21
45.8634986579
  0
LINE
  5
22E
100
AcDbEntity
  8
0
100
AcDbLine
 62
7
  6
BYLAYER
 10
14.1643631656
 20
45.3123736393
 11
13.9709773188
 21
45.6042112129
  0
LINE
  5
22F
100
AcDbEntity
  8
0
100
AcDbLine
 62
7
  6
BYLAYER
 10
18.6545452479
 20
46.6731206147
 11
18.6545452479
 21
21.3615456837
  0
LINE
  5
230
100
AcDbEntity
  8
0
100
AcDbLine
 62
7
  6
BYLAYER
 10
19.4677214318
 20
52.7356630841
 11
19.4677214318
 21
16.4013055218
  0
LINE
  5
231
100
AcDbEntity
  8
0
100
AcDbLine
 62
7
  6
BYLAYER
 10
13.2097650366
 20
36.8819720695
 11
8.9671420134
 21
26.9544440206
  0
LINE
  5
232
100
AcDbEntity
  8
0
100
AcDbLine
 62
7
  6
BYLAYER
 10
19.4677214318
 20
52.7356630841
 11
20.3941944758
 21
54.4953129782
  0
LINE
  5
233
100
AcDbEntity
  8
0
100
AcDbLine
 62
7
  6
BYLAYER
 10
23.3248017602
 20
60.0614142603
 11
25.1245521295
 21
63.4796794407
  0
LINE
  5
234
100
AcDbEntity
  8
0
100
AcDbLine
 62
7
  6
BYLAYER
 10
33.6097039691
 20
69.603082773
 11
32.1957588487
 21
68.78674605
  0
LINE
  5
235
100
AcDbEntity
  8
0
100
AcDbLine
 62
7
  6
BYLAYER
 10
55.5300171297
 20
81.0341780571
 11
47.3983230017
 21
76.3393702876
  0
LINE
  5
236
100
AcDbEntity
  8
0
100
AcDbLine
 62
7
  6
BYLAYER
 10
33.2562462575
 20
68.1744872102
 11
25.1245521295
 21
63.4796794407
  0
LINE
  5
237
100
AcDbEntity
  8
0
100
AcDbLine
 62
7
  6
BYLAYER
 10
34.2107598946
 20
67.5006355786
 11
35.7310331446
 21
68.3783605094
  0
LINE
  5
238
100
AcDbEntity
  8
0
100
AcDbLine
 62
7
  6
BYLAYER
 10
36.0845673994
 20
82.8712223599
 11
33.6097039691
 21
77.7681069443
  0
LINE
  5
239
100
AcDbEntity
  8
0
100
AcDbLine
 62
7
  6
BYLAYER
 10
21.9918384113
 20
53.8062733017
 11
24.9224456958
 21
59.3723745838
  0
LINE
  5
23A
100
AcDbEntity
  8
0
100
AcDbLine
 62
7
  6
BYLAYER
 10
13.2097650366
 20
45.8634986579
 11
14.1643631656
 21
45.3123736393
  0
LINE
  5
23B
100
AcDbEntity
  8
0
100
AcDbLine
 62
7
  6
BYLAYER
 10
18.6545452479
 20
42.9002131809
 11
13.9709773188
 21
45.6042112129
  0
LINE
  5
23C
100
AcDbEntity
  8
0
100
AcDbLine
 62
7
  6
BYLAYER
 10
51.6977672979
 20
25.7489836788
 11
46.5357771039
 21
28.7291926855
  0
LINE
  5
23D
100
AcDbEntity
  8
0
100
AcDbLine
 62
7
  6
BYLAYER
 10
36.7916977323
 20
61.8055317326
 11
35.7311096877
 21
61.1932045947
  0
LINE
  5
23E
100
AcDbEntity
  8
0
100
AcDbLine
 62
7
  6
BYLAYER
 10
41.281857146
 20
63.4182280334
 11
42.8021303961
 21
64.2959529642
  0
LINE
  5
23F
100
AcDbEntity
  8
0
100
AcDbLine
 62
7
  6
BYLAYER
 10
8.9671420134
 20
52.2660189516
 11
18.6545452479
 21
46.6731206147
  0
LINE
  5
240
100
AcDbEntity
  8
0
100
AcDbLine
 62
7
  6
BYLAYER
 10
28.3633406698
 20
16.6370495085
 11
28.3633406698
 21
18.2373942461
  0
LINE
  5
241
100
AcDbEntity
  8
0
100
AcDbLine
 62
7
  6
BYLAYER
 10
29.579306304
 20
14.8954256443
 11
29.579306304
 21
16.5284304786
  0
LINE
  5
242
100
AcDbEntity
  8
0
100
AcDbLine
 62
7
  6
BYLAYER
 10
42.519299165
 20
62.703806713
 11
36.3674957813
 21
59.1520825743
  0
LINE
  5
243
100
AcDbEntity
  8
0
100
AcDbLine
 62
7
  6
BYLAYER
 10
44.9234595715
 20
63.0712307007
 11
35.7311096877
 21
57.7640567003
  0
LINE
  5
244
100
AcDbEntity
  8
0
100
AcDbLine
 62
7
  6
BYLAYER
 10
19.4677214318
 20
52.7356630841
 11
8.1539658294
 21
59.2675151564
  0
LINE
  5
245
100
AcDbEntity
  8
0
100
AcDbLine
 62
7
  6
BYLAYER
 10
20.3941944758
 20
54.4953129782
 11
9.0804388734
 21
61.0271650505
  0
LINE
  5
246
100
AcDbEntity
  8
0
100
AcDbLine
 62
7
  6
BYLAYER
 10
21.9918384113
 20
53.8062733017
 11
10.678082809
 21
60.338125374
  0
LINE
  5
247
100
AcDbEntity
  8
0
100
AcDbLine
 62
7
  6
BYLAYER
 10
33.6097039691
 20
77.7681069443
 11
33.6097039691
 21
69.603082773
  0
LINE
  5
248
100
AcDbEntity
  8
0
100
AcDbLine
 62
7
  6
BYLAYER
 10
34.2107598946
 20
67.3084713546
 11
34.2107598946
 21
67.5006355786
  0
LINE
  5
249
100
AcDbEntity
  8
0
100
AcDbLine
 62
7
  6
BYLAYER
 10
35.3775577691
 20
44.716351602
 11
35.3775577691
 21
35.7348250135
  0
LINE
  5
24A
100
AcDbEntity
  8
0
100
AcDbLine
 62
7
  6
BYLAYER
 10
35.7311096877
 20
57.7640567003
 11
35.7310331446
 21
68.3783605094
  0
LINE
  5
24B
100
AcDbEntity
  8
0
100
AcDbLine
 62
7
  6
BYLAYER
 10
44.9234595715
 20
71.236254872
 11
47.3983230017
 21
76.3393702876
  0
LINE
  5
24C
100
AcDbEntity
  8
0
100
AcDbLine
 62
7
  6
BYLAYER
 10
14.1643631656
 20
38.179544607
 11
14.8714670028
 21
38.5877887609
  0
LINE
  5
24D
100
AcDbEntity
  8
0
100
AcDbLine
 62
7
  6
BYLAYER
 10
18.6545452479
 20
40.5562512992
 11
15.2250218654
 21
38.5762268703
  0
LINE
  5
24E
100
AcDbEntity
  8
0
100
AcDbLine
 62
7
  6
BYLAYER
 10
20.3941944758
 20
54.4953129782
 11
21.9918384113
 21
53.8062733017
  0
LINE
  5
24F
100
AcDbEntity
  8
0
100
AcDbLine
 62
7
  6
BYLAYER
 10
10.678082809
 20
60.338125374
 11
9.0804388734
 21
61.0271650505
  0
LINE
  5
250
100
AcDbEntity
  8
0
100
AcDbLine
 62
7
  6
BYLAYER
 10
42.4485725895
 20
43.0832061858
 11
45.2770114901
 21
41.4502431677
  0
LINE
  5
251
100
AcDbEntity
  8
0
100
AcDbLine
 62
7
  6
BYLAYER
 10
60.7486964142
 20
33.0157648912
 11
58.9237590799
 21
34.0693691167
  0
LINE
  5
252
100
AcDbEntity
  8
0
100
AcDbLine
 62
7
  6
BYLAYER
 10
36.7916977323
 20
61.8055317326
 11
36.7916977323
 21
59.396994223
  0
LINE
  5
253
100
AcDbEntity
  8
0
100
AcDbLine
 62
7
  6
BYLAYER
 10
57.329767499
 20
79.6940731922
 11
55.7321235634
 21
77.160244215
  0
LINE
  5
254
100
AcDbEntity
  8
0
100
AcDbLine
 62
7
  6
BYLAYER
 10
16.9220852057
 20
35.9634442252
 11
18.6545452479
 21
36.9636745263
  0
LINE
  5
255
100
AcDbEntity
  8
0
100
AcDbLine
 62
7
  6
BYLAYER
 10
16.0855802888
 20
35.2216569208
 11
16.792684126
 21
35.6299010747
  0
LINE
  5
256
100
AcDbEntity
  8
0
100
AcDbLine
 62
7
  6
BYLAYER
 10
62.1629040887
 20
37.0982628674
 11
58.3859211169
 21
39.2788556713
  0
LINE
  5
257
100
AcDbEntity
  8
0
100
AcDbLine
 62
7
  6
BYLAYER
 10
23.3248017602
 20
60.0614142603
 11
12.0110461579
 21
66.5932663326
  0
LINE
  5
258
100
AcDbEntity
  8
0
100
AcDbLine
 62
7
  6
BYLAYER
 10
63.2235598445
 20
37.7106290982
 11
59.4465768727
 21
39.8912219021
  0
LINE
  5
259
100
AcDbEntity
  8
0
100
AcDbLine
 62
7
  6
BYLAYER
 10
41.281857146
 20
61.9893734948
 11
41.281857146
 21
63.4182280334
  0
LINE
  5
25A
100
AcDbEntity
  8
0
100
AcDbLine
 62
7
  6
BYLAYER
 10
58.6627308479
 20
74.9780965426
 11
60.2603747834
 21
77.5119255197
  0
LINE
  5
25B
100
AcDbEntity
  8
0
100
AcDbLine
 62
7
  6
BYLAYER
 10
45.2770114901
 20
50.4317697562
 11
35.3775577691
 21
44.716351602
  0
LINE
  5
25C
100
AcDbEntity
  8
0
100
AcDbLine
 62
7
  6
BYLAYER
 10
24.9224456958
 20
59.3723745838
 11
23.3248017602
 21
60.0614142603
  0
LINE
  5
25D
100
AcDbEntity
  8
0
100
AcDbLine
 62
7
  6
BYLAYER
 10
25.1245521295
 20
63.4796794407
 11
13.8107965272
 21
70.011531513
  0
LINE
  5
25E
100
AcDbEntity
  8
0
100
AcDbLine
 62
7
  6
BYLAYER
 10
42.4485725895
 20
43.0832061858
 11
42.4485725895
 21
48.7987795432
  0
LINE
  5
25F
100
AcDbEntity
  8
0
100
AcDbLine
 62
7
  6
BYLAYER
 10
44.9234595715
 20
71.236254872
 11
44.9234595715
 21
63.0712307007
  0
LINE
  5
260
100
AcDbEntity
  8
0
100
AcDbLine
 62
7
  6
BYLAYER
 10
45.2770114901
 20
41.4502431677
 11
45.2770114901
 21
50.4317697562
  0
LINE
  5
261
100
AcDbEntity
  8
0
100
AcDbLine
 62
7
  6
BYLAYER
 10
35.3775577691
 20
39.0007782446
 11
42.4485725895
 21
43.0832061858
  0
LINE
  5
262
100
AcDbEntity
  8
0
100
AcDbLine
 62
7
  6
BYLAYER
 10
36.3674957813
 20
59.1520825743
 11
35.7311096877
 21
59.5194919448
  0
LINE
  5
263
100
AcDbEntity
  8
0
100
AcDbLine
 62
7
  6
BYLAYER
 10
29.579306304
 20
14.8954256443
 11
28.0236778621
 21
12.0808233581
  0
LINE
  5
264
100
AcDbEntity
  8
0
100
AcDbLine
 62
7
  6
BYLAYER
 10
35.3775577691
 20
35.7348250135
 11
45.2770114901
 21
41.4502431677
  0
LINE
  5
265
100
AcDbEntity
  8
0
100
AcDbLine
 62
7
  6
BYLAYER
 10
36.7916977323
 20
61.8055317326
 11
35.7310331446
 21
62.4178928644
  0
LINE
  5
266
100
AcDbEntity
  8
0
100
AcDbLine
 62
7
  6
BYLAYER
 10
33.2562462575
 20
68.1744872102
 11
35.7311096877
 21
65.9290808716
  0
LINE
  5
267
100
AcDbEntity
  8
0
100
AcDbLine
 62
7
  6
BYLAYER
 10
33.6283518318
 20
67.8368814236
 11
34.2107598946
 21
67.5006355786
  0
LINE
  5
268
100
AcDbEntity
  8
0
100
AcDbLine
 62
7
  6
BYLAYER
 10
41.281857146
 20
63.4182280334
 11
42.519299165
 21
62.703806713
  0
LINE
  5
269
100
AcDbEntity
  8
0
100
AcDbLine
 62
7
  6
BYLAYER
 10
33.2562462575
 20
68.1744872102
 11
21.9424906551
 21
74.7063392825
  0
LINE
  5
26A
100
AcDbEntity
  8
0
100
AcDbLine
 62
7
  6
BYLAYER
 10
51.6977672979
 20
31.7094513238
 11
51.6977672979
 21
25.7489836788
  0
LINE
  5
26B
100
AcDbEntity
  8
0
100
AcDbLine
 62
7
  6
BYLAYER
 10
44.9234595715
 20
63.0712307007
 11
42.8021303961
 21
64.2959529642
  0
LINE
  5
26C
100
AcDbEntity
  8
0
100
AcDbLine
 62
7
  6
BYLAYER
 10
35.7310331446
 20
68.3783605094
 11
33.6097039691
 21
69.603082773
  0
LINE
  5
26D
100
AcDbEntity
  8
0
100
AcDbLine
 62
7
  6
BYLAYER
 10
58.3584324786
 20
39.2629851933
 11
59.772640153
 21
40.079473501
  0
LINE
  5
26E
100
AcDbEntity
  8
0
100
AcDbLine
 62
7
  6
BYLAYER
 10
28.3633406698
 20
18.2373942461
 11
51.6977672979
 21
31.7094513238
  0
LINE
  5
26F
100
AcDbEntity
  8
0
100
AcDbLine
 62
7
  6
BYLAYER
 10
63.2235598445
 20
37.7106290982
 11
62.1629040887
 21
37.0982628674
  0
LINE
  5
270
100
AcDbEntity
  8
0
100
AcDbLine
 62
7
  6
BYLAYER
 10
44.9234595715
 20
71.236254872
 11
33.6097039691
 21
77.7681069443
  0
LINE
  5
271
100
AcDbEntity
  8
0
100
AcDbLine
 62
7
  6
BYLAYER
 10
61.1868478274
 20
44.9784738944
 11
61.1868478274
 21
76.8220681625
  0
LINE
  5
272
100
AcDbEntity
  8
0
100
AcDbLine
 62
7
  6
BYLAYER
 10
63.2235598445
 20
32.4033633869
 11
63.2235598445
 21
37.7106290982
  0
LINE
  5
273
100
AcDbEntity
  8
0
100
AcDbLine
 62
7
  6
BYLAYER
 10
61.1868478274
 20
44.9784738944
 11
59.772640153
 21
40.079473501
  0
LINE
  5
274
100
AcDbEntity
  8
0
100
AcDbLine
 62
7
  6
BYLAYER
 10
60.7486964142
 20
33.0157648912
 11
58.9809368212
 21
31.9951545065
  0
LINE
  5
275
100
AcDbEntity
  8
0
100
AcDbLine
 62
7
  6
BYLAYER
 10
60.7486964142
 20
33.0157648912
 11
62.1629040887
 21
37.0982628674
  0
LINE
  5
276
100
AcDbEntity
  8
0
100
AcDbLine
 62
7
  6
BYLAYER
 10
51.6977672979
 20
25.7489836788
 11
63.2235598445
 21
32.4033633869
  0
LINE
  5
277
100
AcDbEntity
  8
0
100
AcDbLine
 62
7
  6
BYLAYER
 10
47.3983230017
 20
76.3393702876
 11
36.0845673994
 21
82.8712223599
  0
LINE
  5
278
100
AcDbEntity
  8
0
100
AcDbLine
 62
7
  6
BYLAYER
 10
55.7321235634
 20
77.160244215
 11
58.6627308479
 21
74.9780965426
  0
LINE
  5
279
100
AcDbEntity
  8
0
100
AcDbLine
 62
7
  6
BYLAYER
 10
60.2603747834
 20
77.5119255197
 11
57.1031713361
 21
79.3346965434
  0
LINE
  5
27A
100
AcDbEntity
  8
0
100
AcDbLine
 62
7
  6
BYLAYER
 10
55.5300171297
 20
81.0341780571
 11
44.2162615273
 21
87.5660301295
  0
LINE
  5
27B
100
AcDbEntity
  8
0
100
AcDbLine
 62
7
  6
BYLAYER
 10
55.5300171297
 20
81.0341780571
 11
57.329767499
 21
79.6940731922
  0
LINE
  5
27C
100
AcDbEntity
  8
0
100
AcDbLine
 62
7
  6
BYLAYER
 10
60.2603747834
 20
77.5119255197
 11
61.1868478274
 21
76.8220681625
  0
SPLINE
  5
27D
100
AcDbEntity
  8
0
100
AcDbSpline
 62
7
  6
BYLAYER
 70
0
 71
3
 72
21
 73
17
 74
0
 42
0.0000001
 43
0.0000001
 44
0.0000000001
 40
0.0
 40
0.0
 40
0.0
 40
0.0
 40
0.042823855
 40
0.0874171342
 40
0.1352107795
 40
0.1871349155
 40
0.2435952398
 40
0.3045671911
 40
0.3696828635
 40
0.438307596
 40
0.5825379234
 40
0.7295820614
 40
0.8015871701
 40
0.8712091851
 40
0.937618314
 40
1.0
 40
1.0
 40
1.0
 40
1.0
 10
21.5563273068
 20
69.82784884
 30
0.0
 10
21.5563431745
 20
69.7353337133
 30
0.0
 10
21.581035065
 20
69.5456706506
 30
0.0
 10
21.6898688371
 20
69.2718480289
 30
0.0
 10
21.8663088247
 20
69.0122061026
 30
0.0
 10
22.105561266
 20
68.7720038851
 30
0.0
 10
22.4019791664
 20
68.5553966865
 30
0.0
 10
22.7492817453
 20
68.3664691247
 30
0.0
 10
23.1402445028
 20
68.2089894691
 30
0.0
 10
23.7181060761
 20
68.0424725702
 30
0.0
 10
24.4923816484
 20
67.9338806515
 30
0.0
 10
25.280817637
 20
67.9555798917
 30
0.0
 10
25.8974702601
 20
68.0532534717
 30
0.0
 10
26.3337860046
 20
68.1639926037
 30
0.0
 10
26.7374183657
 20
68.3103586897
 30
0.0
 10
26.9877029405
 20
68.4336831039
 30
0.0
 10
27.104414906
 20
68.5010663864
 30
0.0
  0
SPLINE
  5
27E
100
AcDbEntity
  8
0
100
AcDbSpline
 62
7
  6
BYLAYER
 70
0
 71
3
 72
21
 73
17
 74
0
 42
0.0000001
 43
0.0000001
 44
0.0000000001
 40
0.0
 40
0.0
 40
0.0
 40
0.0
 40
0.042823855
 40
0.0874171342
 40
0.1352107795
 40
0.1871349155
 40
0.2435952398
 40
0.3045671911
 40
0.3696828635
 40
0.438307596
 40
0.5825379234
 40
0.7295820614
 40
0.8015871701
 40
0.8712091851
 40
0.937618314
 40
1.0
 40
1.0
 40
1.0
 40
1.0
 10
41.3552347488
 20
81.2586851484
 30
0.0
 10
41.3552506165
 20
81.1661700217
 30
0.0
 10
41.379942507
 20
80.976506959
 30
0.0
 10
41.4887762791
 20
80.7026843373
 30
0.0
 10
41.6652162667
 20
80.443042411
 30
0.0
 10
41.904468708
 20
80.2028401935
 30
0.0
 10
42.2008866084
 20
79.9862329949
 30
0.0
 10
42.5481891873
 20
79.7973054331
 30
0.0
 10
42.9391519448
 20
79.6398257775
 30
0.0
 10
43.5170135181
 20
79.4733088787
 30
0.0
 10
44.2912890904
 20
79.3647169599
 30
0.0
 10
45.079725079
 20
79.3864162001
 30
0.0
 10
45.6963777021
 20
79.4840897801
 30
0.0
 10
46.1326934466
 20
79.5948289121
 30
0.0
 10
46.5363258077
 20
79.7411949981
 30
0.0
 10
46.7866103825
 20
79.8645194123
 30
0.0
 10
46.903322348
 20
79.9319026948
 30
0.0
  0
SPLINE
  5
27F
100
AcDbEntity
  8
0
100
AcDbSpline
 62
7
  6
BYLAYER
 70
0
 71
3
 72
9
 73
5
 74
0
 42
0.0000001
 43
0.0000001
 44
0.0000000001
 40
0.0
 40
0.0
 40
0.0
 40
0.0
 40
0.4872885388
 40
1.0
 40
1.0
 40
1.0
 40
1.0
 10
58.3584324786
 20
39.2629851933
 30
0.0
 10
58.5708015574
 20
38.0961256346
 30
0.0
 10
58.8845632676
 20
35.6782747221
 30
0.0
 10
58.9809368212
 20
33.2430599651
 30
0.0
 10
58.9809368212
 20
31.9951545065
 30
0.0
  0
SPLINE
  5
280
100
AcDbEntity
  8
0
100
AcDbSpline
 62
7
  6
BYLAYER
 70
0
 71
3
 72
13
 73
9
 74
0
 42
0.0000001
 43
0.0000001
 44
0.0000000001
 40
0.0
 40
0.0
 40
0.0
 40
0.0
 40
0.2893482524
 40
0.5483238612
 40
0.6677499351
 40
0.7817640446
 40
0.8919050503
 40
1.0
 40
1.0
 40
1.0
 40
1.0
 10
27.104414906
 20
68.5010663864
 30
0.0
 10
27.2470417545
 20
68.5834115442
 30
0.0
 10
27.5057106362
 20
68.7614418926
 30
0.0
 10
27.7702550192
 20
69.0397277096
 30
0.0
 10
27.9192223046
 20
69.278148716
 30
0.0
 10
27.9978676087
 20
69.4580429469
 30
0.0
 10
28.0456101481
 20
69.641854163
 30
0.0
 10
28.0562998443
 20
69.7663234238
 30
0.0
 10
28.0562892918
 20
69.8278488371
 30
0.0
  0
SPLINE
  5
281
100
AcDbEntity
  8
0
100
AcDbSpline
 62
7
  6
BYLAYER
 70
0
 71
3
 72
13
 73
9
 74
0
 42
0.0000001
 43
0.0000001
 44
0.0000000001
 40
0.0
 40
0.0
 40
0.0
 40
0.0
 40
0.2893482524
 40
0.5483238612
 40
0.6677499351
 40
0.7817640446
 40
0.8919050503
 40
1.0
 40
1.0
 40
1.0
 40
1.0
 10
46.903322348
 20
79.9319026948
 30
0.0
 10
47.0459491965
 20
80.0142478526
 30
0.0
 10
47.3046180782
 20
80.192278201
 30
0.0
 10
47.5691624612
 20
80.470564018
 30
0.0
 10
47.7181297466
 20
80.7089850244
 30
0.0
 10
47.7967750507
 20
80.8888792553
 30
0.0
 10
47.8445175901
 20
81.0726904714
 30
0.0
 10
47.8552072863
 20
81.1971597322
 30
0.0
 10
47.8551967338
 20
81.2586851455
 30
0.0
  0
SPLINE
  5
282
100
AcDbEntity
  8
0
100
AcDbSpline
 62
7
  6
BYLAYER
 70
0
 71
3
 72
13
 73
9
 74
0
 42
0.0000001
 43
0.0000001
 44
0.0000000001
 40
0.0
 40
0.0
 40
0.0
 40
0.0
 40
0.2893482524
 40
0.5483238612
 40
0.6677499351
 40
0.7817640446
 40
0.8919050503
 40
1.0
 40
1.0
 40
1.0
 40
1.0
 10
22.5082016926
 20
71.1546312907
 30
0.0
 10
22.3655748441
 20
71.0722861329
 30
0.0
 10
22.1069059624
 20
70.8942557845
 30
0.0
 10
21.8423615794
 20
70.6159699675
 30
0.0
 10
21.6933942939
 20
70.3775489611
 30
0.0
 10
21.6147489899
 20
70.1976547302
 30
0.0
 10
21.5670064505
 20
70.0138435141
 30
0.0
 10
21.5563167543
 20
69.8893742533
 30
0.0
 10
21.5563273068
 20
69.82784884
 30
0.0
  0
SPLINE
  5
283
100
AcDbEntity
  8
0
100
AcDbSpline
 62
7
  6
BYLAYER
 70
0
 71
3
 72
13
 73
9
 74
0
 42
0.0000001
 43
0.0000001
 44
0.0000000001
 40
0.0
 40
0.0
 40
0.0
 40
0.0
 40
0.2893482524
 40
0.5483238612
 40
0.6677499351
 40
0.7817640446
 40
0.8919050503
 40
1.0
 40
1.0
 40
1.0
 40
1.0
 10
42.3071091346
 20
82.5854675991
 30
0.0
 10
42.1644822861
 20
82.5031224413
 30
0.0
 10
41.9058134044
 20
82.3250920929
 30
0.0
 10
41.6412690213
 20
82.0468062759
 30
0.0
 10
41.4923017359
 20
81.8083852695
 30
0.0
 10
41.4136564318
 20
81.6284910386
 30
0.0
 10
41.3659138925
 20
81.4446798225
 30
0.0
 10
41.3552241962
 20
81.3202105617
 30
0.0
 10
41.3552347488
 20
81.2586851484
 30
0.0
  0
SPLINE
  5
284
100
AcDbEntity
  8
0
100
AcDbSpline
 62
7
  6
BYLAYER
 70
0
 71
3
 72
9
 73
5
 74
0
 42
0.0000001
 43
0.0000001
 44
0.0000000001
 40
0.0
 40
0.0
 40
0.0
 40
0.0
 40
0.5001477009
 40
1.0
 40
1.0
 40
1.0
 40
1.0
 10
23.7895596101
 20
68.0990634654
 30
0.0
 10
24.1267693422
 20
68.1631823844
 30
0.0
 10
24.8148414178
 20
68.2243391829
 30
0.0
 10
25.5027331063
 20
68.1610677722
 30
0.0
 10
25.8395311026
 20
68.0958787221
 30
0.0
  0
SPLINE
  5
285
100
AcDbEntity
  8
0
100
AcDbSpline
 62
7
  6
BYLAYER
 70
0
 71
3
 72
21
 73
17
 74
0
 42
0.0000001
 43
0.0000001
 44
0.0000000001
 40
0.0
 40
0.0
 40
0.0
 40
0.0
 40
0.042823855
 40
0.0874171342
 40
0.1352107795
 40
0.1871349155
 40
0.2435952398
 40
0.3045671911
 40
0.3696828635
 40
0.438307596
 40
0.5825379234
 40
0.7295820614
 40
0.8015871701
 40
0.8712091851
 40
0.937618314
 40
1.0
 40
1.0
 40
1.0
 40
1.0
 10
47.8551967338
 20
81.2586851455
 30
0.0
 10
47.8551808661
 20
81.3512002722
 30
0.0
 10
47.8304889756
 20
81.5408633349
 30
0.0
 10
47.7216552035
 20
81.8146859566
 30
0.0
 10
47.5452152159
 20
82.0743278829
 30
0.0
 10
47.3059627745
 20
82.3145301004
 30
0.0
 10
47.0095448742
 20
82.531137299
 30
0.0
 10
46.6622422953
 20
82.7200648608
 30
0.0
 10
46.2712795377
 20
82.8775445164
 30
0.0
 10
45.6934179644
 20
83.0440614152
 30
0.0
 10
44.9191423922
 20
83.152653334
 30
0.0
 10
44.1307064035
 20
83.1309540938
 30
0.0
 10
43.5140537805
 20
83.0332805138
 30
0.0
 10
43.0777380359
 20
82.9225413818
 30
0.0
 10
42.6741056749
 20
82.7761752958
 30
0.0
 10
42.4238211
 20
82.6528508816
 30
0.0
 10
42.3071091346
 20
82.5854675991
 30
0.0
  0
SPLINE
  5
286
100
AcDbEntity
  8
0
100
AcDbSpline
 62
7
  6
BYLAYER
 70
0
 71
3
 72
21
 73
17
 74
0
 42
0.0000001
 43
0.0000001
 44
0.0000000001
 40
0.0
 40
0.0
 40
0.0
 40
0.0
 40
0.042823855
 40
0.0874171342
 40
0.1352107795
 40
0.1871349155
 40
0.2435952398
 40
0.3045671911
 40
0.3696828635
 40
0.438307596
 40
0.5825379234
 40
0.7295820614
 40
0.8015871701
 40
0.8712091851
 40
0.937618314
 40
1.0
 40
1.0
 40
1.0
 40
1.0
 10
28.0562892918
 20
69.8278488371
 30
0.0
 10
28.0562734241
 20
69.9203639638
 30
0.0
 10
28.0315815336
 20
70.1100270265
 30
0.0
 10
27.9227477615
 20
70.3838496482
 30
0.0
 10
27.7463077739
 20
70.6434915745
 30
0.0
 10
27.5070553326
 20
70.883693792
 30
0.0
 10
27.2106374322
 20
71.1003009906
 30
0.0
 10
26.8633348533
 20
71.2892285524
 30
0.0
 10
26.4723720958
 20
71.446708208
 30
0.0
 10
25.8945105225
 20
71.6132251068
 30
0.0
 10
25.1202349502
 20
71.7218170256
 30
0.0
 10
24.3317989615
 20
71.7001177854
 30
0.0
 10
23.7151463385
 20
71.6024442054
 30
0.0
 10
23.278830594
 20
71.4917050734
 30
0.0
 10
22.8751982329
 20
71.3453389874
 30
0.0
 10
22.6249136581
 20
71.2220145732
 30
0.0
 10
22.5082016926
 20
71.1546312907
 30
0.0
  0
SPLINE
  5
287
100
AcDbEntity
  8
0
100
AcDbSpline
 62
7
  6
BYLAYER
 70
0
 71
3
 72
9
 73
5
 74
0
 42
0.0000001
 43
0.0000001
 44
0.0000000001
 40
0.0
 40
0.0
 40
0.0
 40
0.0
 40
0.5001477009
 40
1.0
 40
1.0
 40
1.0
 40
1.0
 10
43.5884670521
 20
79.5298997738
 30
0.0
 10
43.9256767842
 20
79.5940186928
 30
0.0
 10
44.6137488598
 20
79.6551754913
 30
0.0
 10
45.3016405483
 20
79.5919040806
 30
0.0
 10
45.6384385446
 20
79.5267150305
 30
0.0
  0
ENDSEC
  0
SECTION
  2
OBJECTS
  0
DICTIONARY
  5
C
100
AcDbDictionary
280
0
281
1
  3
ACAD_GROUP
350
D
  3
ACAD_MLINESTYLE
350
17
  3
ACAD_LAYOUT
350
1A
  3
ACAD_PLOTSETTINGS
350
19
  3
ACAD_PLOTSTYLENAME
350
E
  0
DICTIONARY
  5
D
102
{ACAD_REACTORS
330
C
102
}
100
AcDbDictionary
280
0
281
1
  0
ACDBDICTIONARYWDFLT
  5
E
102
{ACAD_REACTORS
330
C
102
}
100
AcDbDictionary
281
1
  3
Normal
350
F
100
AcDbDictionaryWithDefault
340
F
  0
DICTIONARY
  5
17
102
{ACAD_REACTORS
330
C
102
}
100
AcDbDictionary
280
0
281
1
  3
Standard
350
18
  0
DICTIONARY
  5
19
102
{ACAD_REACTORS
330
C
102
}
100
AcDbDictionary
281
1
  0
DICTIONARY
  5
1A
102
{ACAD_REACTORS
330
C
102
}
100
AcDbDictionary
281
1
  3
Model
350
288
  3
Layout1
350
289
  0
ACDBPLACEHOLDER
  5
F
102
{ACAD_REACTORS
330
E
102
}
  0
MLINESTYLE
  5
18
102
{ACAD_REACTORS
330
17
102
}
100
AcDbMlineStyle
  2
STANDARD
 70
0
  3

 62
256
 51
90.0
 52
90.0
 71
2
 49
0.5
 62
256
  6
BYLAYER
 49
-0.5
 62
256
  6
BYLAYER
  0
LAYOUT
  5
288
102
{ACAD_REACTORS
330
1A
102
}
100
AcDbPlotSettings
  1

  2
none_device
  4

  6

 40
0.0
 41
0.0
 42
0.0
 43
0.0
 44
210.0
 45
297.0
 46
0.0
 47
0.0
 48
0.0
 49
0.0
140
0.0
141
0.0
142
1.0
143
1.0
 70
1024
 72
1
 73
0
 74
0
  7

 75
0
147
1.0
148
0.0
149
0.0
100
AcDbLayout
  1
Model
 70
0
 71
0
 10
0.0
 20
0.0
 11
210.0
 21
297.0
 12
0.0
 22
0.0
 32
0.0
 14
0.0
 24
0.0
 34
0.0
 15
0.0
 25
0.0
 35
0.0
146
0.0
 13
0.0
 23
0.0
 33
0.0
 16
1.0
 26
0.0
 36
0.0
 17
0.0
 27
1.0
 37
0.0
 76
0
330
210
345
0
346
0
  0
LAYOUT
  5
289
102
{ACAD_REACTORS
330
1A
102
}
100
AcDbPlotSettings
  1

  2
none_device
  4

  6

 40
0.0
 41
0.0
 42
0.0
 43
0.0
 44
210.0
 45
297.0
 46
0.0
 47
0.0
 48
0.0
 49
0.0
140
0.0
141
0.0
142
1.0
143
1.0
 70
0
 72
1
 73
0
 74
0
  7

 75
0
147
1.0
148
0.0
149
0.0
100
AcDbLayout
  1
Layout1
 70
0
 71
1
 10
0.0
 20
0.0
 11
210.0
 21
297.0
 12
0.0
 22
0.0
 32
0.0
 14
0.0
 24
0.0
 34
0.0
 15
0.0
 25
0.0
 35
0.0
146
0.0
 13
0.0
 23
0.0
 33
0.0
 16
1.0
 26
0.0
 36
0.0
 17
0.0
 27
1.0
 37
0.0
 76
0
330
211
345
0
346
0
  0
ENDSEC
  0
EOF
