999
DXF file: C:\Users\sesa63760\Dev\_Creo\CAD\MCADPD0004193_3D-CAD\drw0001_1.dxf
999
Pro/ENGINEER 2019471 by Parametric Technology Corporation
  0
SECTION
  2
HEADER
  9
$ACADVER
  1
AC1024
  9
$DWGCODEPAGE
  3
ANSI_1252
  9
$EXTMAX
 10
82.8753739262
 20
117.2094574099
 30
0.0
  9
$EXTMIN
 10
-0.0
 20
0.0
 30
0.0
  9
$LIMMIN
 10
-0.0
 20
0.0
  9
$LIMMAX
 10
82.8753739262
 20
117.2094574099
  9
$VIEWCTR
 10
41.4376869631
 20
58.6047287049
  9
$VIEWSIZE
 40
117.2094574099
  9
$CLAYER
  8
0
  9
$LTSCALE
 40
7.6403201867
  9
$CELTYPE
  6
BYLAYER
  9
$DIMSCALE
 40
1.0
  9
$DIMASZ
 40
0.9866115944
  9
$DIMEXO
 40
1.0
  9
$DIMDLI
 40
5.2787666745
  9
$DIMEXE
 40
1.0
  9
$DIMCEN
 40
1.2502342124
  9
$DIMLFAC
 40
1.0
  9
$DIMBLK
  1
_FILLED
  9
$DIMALT
 70
0
  9
$DIMALTF
 40
0.0393700787
  9
$DIMTXT
 40
1.3812562321
  9
$DIMTOL
 70
1
  9
$DIMLIM
 70
0
  9
$DIMTFAC
 40
1.0
  9
$DIMTP
 40
0.01
  9
$DIMTM
 40
0.01
  9
$DIMGAP
 40
0.625
  9
$DIMDSEP
 70
46
  9
$AUNITS
 70
0
  9
$PDMODE
 70
3
  9
$PDSIZE
 40
0.3125
  9
$HANDSEED
  5
34F
  9
$TILEMODE
 70
1
  9
$MEASUREMENT
 70
1
  9
$INSUNITS
 70
4
  0
ENDSEC
  0
SECTION
  2
CLASSES
  0
CLASS
  1
ACDBDICTIONARYWDFLT
  2
AcDbDictionaryWithDefault
  3
AutoCAD 2000
 90
0
 91
1
280
0
281
0
  0
CLASS
  1
ACDBPLACEHOLDER
  2
AcDbPlaceHolder
  3
AutoCAD 2000
 90
0
 91
1
280
0
281
0
  0
CLASS
  1
LAYOUT
  2
AcDbLayout
  3
AutoCAD 2000
 90
0
 91
0
280
0
281
0
  0
ENDSEC
  0
SECTION
  2
TABLES
  0
TABLE
  2
VPORT
  5
8
100
AcDbSymbolTable
 70
2
  0
VPORT
  5
1F4
100
AcDbSymbolTableRecord
100
AcDbViewportTableRecord
  2
*ACTIVE
 70
0
 10
0.0
 20
0.0
 11
1.0
 21
1.0
 12
41.4376869631
 22
58.6047287049
 13
0.0
 23
0.0
 14
1.0
 24
1.0
 15
0.0
 25
0.0
 16
0.0
 26
0.0
 36
1.0
 17
0.0
 27
0.0
 37
0.0
 40
117.2094574099
 41
0.7070707071
 42
50.0
 43
0.0
 44
0.0
 50
0.0
 51
0.0
 71
0
 72
100
 73
1
 74
1
 75
0
 76
0
 77
0
 78
0
  0
ENDTAB
  0
TABLE
  2
LTYPE
  5
5
100
AcDbSymbolTable
 70
6
  0
LTYPE
  5
14
100
AcDbSymbolTableRecord
100
AcDbLinetypeTableRecord
  2
BYBLOCK
 70
0
  3

 72
65
 73
0
 40
0.0
  0
LTYPE
  5
15
100
AcDbSymbolTableRecord
100
AcDbLinetypeTableRecord
  2
BYLAYER
 70
0
  3

 72
65
 73
0
 40
0.0
  0
LTYPE
  5
16
100
AcDbSymbolTableRecord
100
AcDbLinetypeTableRecord
  2
CONTINUOUS
 70
64
  3
Solid line
 72
65
 73
0
 40
0.0
  0
LTYPE
  5
1F5
100
AcDbSymbolTableRecord
100
AcDbLinetypeTableRecord
  2
CENTER
 70
64
  3
____ _ ____ _ ____ _ ____ _ ____ _ ____ _ ____
 72
65
 73
4
 40
0.6
 49
0.375
 74
0
 49
-0.075
 74
0
 49
0.075
 74
0
 49
-0.075
 74
0
  0
LTYPE
  5
1F6
100
AcDbSymbolTableRecord
100
AcDbLinetypeTableRecord
  2
HIDDEN
 70
64
  3
- - - - - - - - - - - - - - - - - - - -
 72
65
 73
2
 40
0.2
 49
0.1
 74
0
 49
-0.1
 74
0
  0
LTYPE
  5
1F7
100
AcDbSymbolTableRecord
100
AcDbLinetypeTableRecord
  2
PHANTOM
 70
64
  3
_____ _ _ _____ _ _ _____ _ _ _____
 72
65
 73
6
 40
0.8
 49
0.45
 74
0
 49
-0.05
 74
0
 49
0.1
 74
0
 49
-0.05
 74
0
 49
0.1
 74
0
 49
-0.05
 74
0
  0
LTYPE
  5
1F8
100
AcDbSymbolTableRecord
100
AcDbLinetypeTableRecord
  2
DOT
 70
64
  3
. . . . . . . . . . . . . . . . . . . .
 72
65
 73
2
 40
0.2
 49
0.1
 74
0
 49
-0.1
 74
0
  0
LTYPE
  5
1F9
100
AcDbSymbolTableRecord
100
AcDbLinetypeTableRecord
  2
DASHED
 70
64
  3
- - - - - - - - - - - - - - - - - - - -
 72
65
 73
2
 40
0.2
 49
0.1
 74
0
 49
-0.1
 74
0
  0
ENDTAB
  0
TABLE
  2
LAYER
  5
2
100
AcDbSymbolTable
 70
36
  0
LAYER
  5
10
100
AcDbSymbolTableRecord
100
AcDbLayerTableRecord
  2
0
 70
0
 62
7
  6
CONTINUOUS
370
-3
390
F
  0
LAYER
  5
1FA
100
AcDbSymbolTableRecord
100
AcDbLayerTableRecord
  2
DEFAULT_1
 70
0
 62
7
  6
CENTER
370
-3
390
F
  0
LAYER
  5
1FB
100
AcDbSymbolTableRecord
100
AcDbLayerTableRecord
  2
DEFAULT_2
 70
0
 62
7
  6
HIDDEN
370
-3
390
F
  0
LAYER
  5
1FC
100
AcDbSymbolTableRecord
100
AcDbLayerTableRecord
  2
DEFAULT_3
 70
0
 62
7
  6
PHANTOM
370
-3
390
F
  0
LAYER
  5
1FD
100
AcDbSymbolTableRecord
100
AcDbLayerTableRecord
  2
00_COMPONENTS
 70
0
 62
7
  6
CONTINUOUS
370
-3
390
F
  0
LAYER
  5
1FE
100
AcDbSymbolTableRecord
100
AcDbLayerTableRecord
  2
01_1_DEFAULT_DATUMS
 70
0
 62
7
  6
CONTINUOUS
370
-3
390
F
  0
LAYER
  5
1FF
100
AcDbSymbolTableRecord
100
AcDbLayerTableRecord
  2
01_PLANES
 70
0
 62
7
  6
CONTINUOUS
370
-3
390
F
  0
LAYER
  5
200
100
AcDbSymbolTableRecord
100
AcDbLayerTableRecord
  2
02_COORD_SYS
 70
0
 62
7
  6
CONTINUOUS
370
-3
390
F
  0
LAYER
  5
201
100
AcDbSymbolTableRecord
100
AcDbLayerTableRecord
  2
03_AXES
 70
0
 62
7
  6
CONTINUOUS
370
-3
390
F
  0
LAYER
  5
202
100
AcDbSymbolTableRecord
100
AcDbLayerTableRecord
  2
04_POINTS
 70
0
 62
7
  6
CONTINUOUS
370
-3
390
F
  0
LAYER
  5
203
100
AcDbSymbolTableRecord
100
AcDbLayerTableRecord
  2
05_CURVES
 70
0
 62
7
  6
CONTINUOUS
370
-3
390
F
  0
LAYER
  5
204
100
AcDbSymbolTableRecord
100
AcDbLayerTableRecord
  2
06_SURFS
 70
0
 62
7
  6
CONTINUOUS
370
-3
390
F
  0
LAYER
  5
205
100
AcDbSymbolTableRecord
100
AcDbLayerTableRecord
  2
07_COSMETICS
 70
0
 62
7
  6
CONTINUOUS
370
-3
390
F
  0
LAYER
  5
206
100
AcDbSymbolTableRecord
100
AcDbLayerTableRecord
  2
10_NOTES
 70
0
 62
7
  6
CONTINUOUS
370
-3
390
F
  0
LAYER
  5
207
100
AcDbSymbolTableRecord
100
AcDbLayerTableRecord
  2
11_NOTES_PUB
 70
0
 62
7
  6
CONTINUOUS
370
-3
390
F
  0
LAYER
  5
208
100
AcDbSymbolTableRecord
100
AcDbLayerTableRecord
  2
13_REF_GTOL
 70
0
 62
7
  6
CONTINUOUS
370
-3
390
F
  0
LAYER
  5
209
100
AcDbSymbolTableRecord
100
AcDbLayerTableRecord
  2
16_MISC
 70
0
 62
7
  6
CONTINUOUS
370
-3
390
F
  0
LAYER
  5
20A
100
AcDbSymbolTableRecord
100
AcDbLayerTableRecord
  2
17_NO_PRINT
 70
0
 62
7
  6
CONTINUOUS
370
-3
390
F
  0
LAYER
  5
20B
100
AcDbSymbolTableRecord
100
AcDbLayerTableRecord
  2
18_DATUM_CAMS_JOINTS
 70
0
 62
7
  6
CONTINUOUS
370
-3
390
F
  0
LAYER
  5
20C
100
AcDbSymbolTableRecord
100
AcDbLayerTableRecord
  2
19_DATUM_FUNCTIONAL
 70
0
 62
7
  6
CONTINUOUS
370
-3
390
F
  0
LAYER
  5
20D
100
AcDbSymbolTableRecord
100
AcDbLayerTableRecord
  2
20_DATUM_KINEMATIC_SCHEME
 70
0
 62
7
  6
CONTINUOUS
370
-3
390
F
  0
ENDTAB
  0
TABLE
  2
STYLE
  5
3
100
AcDbSymbolTable
 70
1
  0
STYLE
  5
11
100
AcDbSymbolTableRecord
100
AcDbTextStyleTableRecord
  2
STANDARD
 70
0
 40
0.0
 41
1.0
 50
0.0
 71
0
 42
0.2
  3
ARIAL.TTF
  4

  0
STYLE
  5
20E
100
AcDbSymbolTableRecord
100
AcDbTextStyleTableRecord
  2
TEXTSTYLE_1
 70
0
 40
0.0
 41
0.8
 50
0.0
 71
0
 42
0.2
  3
gdt
  4

  0
ENDTAB
  0
TABLE
  2
VIEW
  5
6
100
AcDbSymbolTable
 70
0
  0
ENDTAB
  0
TABLE
  2
UCS
  5
7
100
AcDbSymbolTable
 70
0
  0
ENDTAB
  0
TABLE
  2
APPID
  5
9
100
AcDbSymbolTable
 70
1
  0
APPID
  5
20F
100
AcDbSymbolTableRecord
100
AcDbRegAppTableRecord
  2
ACAD
 70
0
  0
ENDTAB
  0
TABLE
  2
BLOCK_RECORD
  5
1
100
AcDbSymbolTable
 70
0
  0
BLOCK_RECORD
  5
210
100
AcDbSymbolTableRecord
100
AcDbBlockTableRecord
  2
*Model_Space
  0
BLOCK_RECORD
  5
211
100
AcDbSymbolTableRecord
100
AcDbBlockTableRecord
  2
*Paper_Space
  0
BLOCK_RECORD
  5
212
100
AcDbSymbolTableRecord
100
AcDbBlockTableRecord
  2
_FILLED
  0
ENDTAB
  0
TABLE
  2
DIMSTYLE
  5
A
100
AcDbSymbolTable
 70
1
100
AcDbDimStyleTable
 71
0
  0
DIMSTYLE
105
213
100
AcDbSymbolTableRecord
100
AcDbDimStyleTableRecord
  2
STANDARD
 70
0
  3

  4

 40
1.0
 41
0.9866115944
 42
1.0
 43
0.38
 44
1.0
 45
0.0
 46
0.0
 47
0.01
 48
0.01
140
1.3812562321
141
0.09
142
0.0
143
25.4
144
1.0
145
0.0
146
1.0
147
0.625
 71
1
 72
0
 73
0
 74
0
 75
0
 76
0
 77
1
 78
8
 79
2
170
0
171
1
172
0
173
0
174
0
175
0
176
0
177
0
178
0
270
2
179
2
271
2
272
2
273
2
274
2
275
0
280
0
281
0
282
0
283
1
284
8
285
0
286
0
287
3
288
0
340
11
278
46
341
212
342
212
343
212
344
212
  0
ENDTAB
  0
ENDSEC
  0
SECTION
  2
BLOCKS
  0
BLOCK
  5
20
100
AcDbEntity
  8
0
100
AcDbBlockBegin
  2
*Model_Space
 70
0
 10
0.0
 20
0.0
 30
0.0
  3
*Model_Space
  1

  0
ENDBLK
  5
21
100
AcDbEntity
  8
0
100
AcDbBlockEnd
  0
BLOCK
  5
1C
100
AcDbEntity
  8
0
100
AcDbBlockBegin
  2
*Paper_Space
 70
0
 10
0.0
 20
0.0
 30
0.0
  3
*Paper_Space
  1

  0
ENDBLK
  5
1D
100
AcDbEntity
  8
0
100
AcDbBlockEnd
  0
BLOCK
  5
214
100
AcDbEntity
  8
0
100
AcDbBlockBegin
  2
_FILLED
 70
64
 10
0.0
 20
0.0
  3
_FILLED
  1

  0
SOLID
  5
215
100
AcDbEntity
  8
0
  6
BYBLOCK
 62
0
100
AcDbTrace
 10
0.0
 20
0.0
 11
-1.0
 21
0.25
 12
-1.0
 22
-0.25
 13
-1.0
 23
-0.25
  0
ENDBLK
  5
216
100
AcDbEntity
  8
0
  6
BYBLOCK
 62
0
100
AcDbBlockEnd
  0
ENDSEC
  0
SECTION
  2
ENTITIES
  0
LINE
  5
217
100
AcDbEntity
  8
0
100
AcDbLine
 62
7
  6
BYLAYER
 10
9.6144968793
 20
54.3445246015
 11
9.6144968793
 21
62.0604724434
  0
LINE
  5
218
100
AcDbEntity
  8
0
100
AcDbLine
 62
7
  6
BYLAYER
 10
10.2723762792
 20
70.9479398953
 11
10.2517985977
 21
70.8362611939
  0
LINE
  5
219
100
AcDbEntity
  8
0
100
AcDbLine
 62
7
  6
BYLAYER
 10
10.2519324215
 20
62.2441845222
 11
10.2519324215
 21
70.8362841368
  0
LINE
  5
21A
100
AcDbEntity
  8
0
100
AcDbLine
 62
7
  6
BYLAYER
 10
10.4276701192
 20
61.9992380299
 11
10.4276701192
 21
70.3683878055
  0
LINE
  5
21B
100
AcDbEntity
  8
0
100
AcDbLine
 62
7
  6
BYLAYER
 10
10.6751526351
 20
71.2869391749
 11
10.6751526351
 21
71.2461147595
  0
LINE
  5
21C
100
AcDbEntity
  8
0
100
AcDbLine
 62
7
  6
BYLAYER
 10
15.0587147328
 20
64.5067087371
 11
15.0586039583
 21
65.1799649532
  0
LINE
  5
21D
100
AcDbEntity
  8
0
100
AcDbLine
 62
7
  6
BYLAYER
 10
15.6254389091
 20
61.9822099884
 11
15.6255857554
 21
61.0896923185
  0
LINE
  5
21E
100
AcDbEntity
  8
0
100
AcDbLine
 62
7
  6
BYLAYER
 10
15.0585678929
 20
61.4170528284
 11
15.0587147331
 21
62.3094009415
  0
LINE
  5
21F
100
AcDbEntity
  8
0
100
AcDbLine
 62
7
  6
BYLAYER
 10
15.6255056833
 20
64.5852860452
 11
15.6254389092
 21
64.1795177837
  0
LINE
  5
220
100
AcDbEntity
  8
0
100
AcDbLine
 62
7
  6
BYLAYER
 10
14.8476978845
 20
64.0808427147
 11
15.0587147328
 21
64.5067087371
  0
LINE
  5
221
100
AcDbEntity
  8
0
100
AcDbLine
 62
7
  6
BYLAYER
 10
13.5858585673
 20
64.1325544864
 11
13.4962280571
 21
63.9585677179
  0
LINE
  5
222
100
AcDbEntity
  8
0
100
AcDbLine
 62
7
  6
BYLAYER
 10
10.6751526351
 20
71.2869391749
 11
41.0735465969
 21
88.8373553498
  0
LINE
  5
223
100
AcDbEntity
  8
0
100
AcDbLine
 62
7
  6
BYLAYER
 10
10.7105081213
 20
71.2665271372
 11
10.4276665864
 21
71.1032294756
  0
LINE
  5
224
100
AcDbEntity
  8
0
100
AcDbLine
 62
7
  6
BYLAYER
 10
15.8364557576
 20
62.4080760111
 11
15.6254389091
 21
61.9822099884
  0
LINE
  5
225
100
AcDbEntity
  8
0
100
AcDbLine
 62
7
  6
BYLAYER
 10
44.4959438888
 20
88.7720447836
 11
43.1241624447
 21
87.9800511251
  0
LINE
  5
226
100
AcDbEntity
  8
0
100
AcDbLine
 62
7
  6
BYLAYER
 10
15.0587147331
 20
62.3094009415
 11
14.8476978845
 21
62.978922721
  0
LINE
  5
227
100
AcDbEntity
  8
0
100
AcDbLine
 62
7
  6
BYLAYER
 10
15.6254389092
 20
64.1795177837
 11
15.8364557576
 21
63.5099960048
  0
LINE
  5
228
100
AcDbEntity
  8
0
100
AcDbLine
 62
7
  6
BYLAYER
 10
15.2997509117
 20
61.993606234
 11
15.7446997902
 21
62.4900959194
  0
LINE
  5
229
100
AcDbEntity
  8
0
100
AcDbLine
 62
7
  6
BYLAYER
 10
22.5540778194
 20
60.1793567392
 11
22.5539670448
 21
60.8526129553
  0
LINE
  5
22A
100
AcDbEntity
  8
0
100
AcDbLine
 62
7
  6
BYLAYER
 10
23.1208019957
 20
57.6548579905
 11
23.1209488419
 21
56.7623403206
  0
LINE
  5
22B
100
AcDbEntity
  8
0
100
AcDbLine
 62
7
  6
BYLAYER
 10
22.5539309794
 20
57.0897008305
 11
22.5540778197
 21
57.9820489436
  0
LINE
  5
22C
100
AcDbEntity
  8
0
100
AcDbLine
 62
7
  6
BYLAYER
 10
23.1208687699
 20
60.2579340473
 11
23.1208019957
 21
59.8521657858
  0
LINE
  5
22D
100
AcDbEntity
  8
0
100
AcDbLine
 62
7
  6
BYLAYER
 10
22.343060971
 20
59.7534907168
 11
22.5540778194
 21
60.1793567392
  0
LINE
  5
22E
100
AcDbEntity
  8
0
100
AcDbLine
 62
7
  6
BYLAYER
 10
21.0812216539
 20
59.8052024885
 11
20.9915911436
 21
59.6312157199
  0
LINE
  5
22F
100
AcDbEntity
  8
0
100
AcDbLine
 62
7
  6
BYLAYER
 10
16.0479373891
 20
62.4051696296
 11
16.6463523503
 21
62.9141254945
  0
LINE
  5
230
100
AcDbEntity
  8
0
100
AcDbLine
 62
7
  6
BYLAYER
 10
15.8364557576
 20
62.4080760111
 11
16.5703326428
 21
62.9671117393
  0
LINE
  5
231
100
AcDbEntity
  8
0
100
AcDbLine
 62
7
  6
BYLAYER
 10
15.0587147331
 20
62.3094009415
 11
16.2090516212
 21
63.1756927159
  0
LINE
  5
232
100
AcDbEntity
  8
0
100
AcDbLine
 62
7
  6
BYLAYER
 10
9.6144968793
 20
62.0604724434
 11
10.2519324215
 21
62.4284938285
  0
LINE
  5
233
100
AcDbEntity
  8
0
100
AcDbLine
 62
7
  6
BYLAYER
 10
41.4344345109
 20
35.9736906481
 11
9.6144968793
 21
54.3445246015
  0
LINE
  5
234
100
AcDbEntity
  8
0
100
AcDbLine
 62
7
  6
BYLAYER
 10
14.8476978845
 20
62.978922721
 11
14.636216253
 21
63.2202087689
  0
LINE
  5
235
100
AcDbEntity
  8
0
100
AcDbLine
 62
7
  6
BYLAYER
 10
13.4962280571
 20
63.9585677179
 11
13.6162923939
 21
63.8090487616
  0
LINE
  5
236
100
AcDbEntity
  8
0
100
AcDbLine
 62
7
  6
BYLAYER
 10
22.5540778197
 20
57.9820489436
 11
22.343060971
 21
58.6515707231
  0
LINE
  5
237
100
AcDbEntity
  8
0
100
AcDbLine
 62
7
  6
BYLAYER
 10
23.1208019957
 20
59.8521657858
 11
23.3318188442
 21
59.1826440069
  0
LINE
  5
238
100
AcDbEntity
  8
0
100
AcDbLine
 62
7
  6
BYLAYER
 10
25.3607461002
 20
45.2536290386
 11
25.3607461002
 21
44.7913390201
  0
LINE
  5
239
100
AcDbEntity
  8
0
100
AcDbLine
 62
7
  6
BYLAYER
 10
23.3318188442
 20
58.0807240131
 11
23.1208019957
 21
57.6548579905
  0
LINE
  5
23A
100
AcDbEntity
  8
0
100
AcDbLine
 62
7
  6
BYLAYER
 10
14.8476978845
 20
62.978922721
 11
15.8204727544
 21
63.537815072
  0
LINE
  5
23B
100
AcDbEntity
  8
0
100
AcDbLine
 62
7
  6
BYLAYER
 10
14.636216253
 20
63.2202087689
 11
15.5463618909
 21
63.6163964424
  0
LINE
  5
23C
100
AcDbEntity
  8
0
100
AcDbLine
 62
7
  6
BYLAYER
 10
14.8476978845
 20
64.0808427147
 11
15.6254762642
 21
64.4065138661
  0
LINE
  5
23D
100
AcDbEntity
  8
0
100
AcDbLine
 62
7
  6
BYLAYER
 10
15.5463618909
 20
63.6163964424
 11
15.2596719974
 21
63.943489963
  0
LINE
  5
23E
100
AcDbEntity
  8
0
100
AcDbLine
 62
7
  6
BYLAYER
 10
15.8364557576
 20
63.5099960048
 11
16.0479373891
 21
63.2687099569
  0
LINE
  5
23F
100
AcDbEntity
  8
0
100
AcDbLine
 62
7
  6
BYLAYER
 10
22.343060971
 20
58.6515707231
 11
22.1315793396
 21
58.892856771
  0
LINE
  5
240
100
AcDbEntity
  8
0
100
AcDbLine
 62
7
  6
BYLAYER
 10
20.9915911436
 20
59.6312157199
 11
21.1116554805
 21
59.4816967637
  0
LINE
  5
241
100
AcDbEntity
  8
0
100
AcDbLine
 62
7
  6
BYLAYER
 10
30.0494409059
 20
55.8520047413
 11
30.0493301314
 21
56.5252609574
  0
LINE
  5
242
100
AcDbEntity
  8
0
100
AcDbLine
 62
7
  6
BYLAYER
 10
30.6161650823
 20
53.3275059926
 11
30.6163119285
 21
52.4349883227
  0
LINE
  5
243
100
AcDbEntity
  8
0
100
AcDbLine
 62
7
  6
BYLAYER
 10
30.049294066
 20
52.7623488326
 11
30.0494409062
 21
53.6546969456
  0
LINE
  5
244
100
AcDbEntity
  8
0
100
AcDbLine
 62
7
  6
BYLAYER
 10
30.6162318564
 20
55.9305820494
 11
30.6161650823
 21
55.5248137878
  0
LINE
  5
245
100
AcDbEntity
  8
0
100
AcDbLine
 62
7
  6
BYLAYER
 10
22.7951139983
 20
57.6662542361
 11
23.2400628768
 21
58.1627439215
  0
LINE
  5
246
100
AcDbEntity
  8
0
100
AcDbLine
 62
7
  6
BYLAYER
 10
23.5433004757
 20
58.0778176317
 11
24.1417154368
 21
58.5867734966
  0
LINE
  5
247
100
AcDbEntity
  8
0
100
AcDbLine
 62
7
  6
BYLAYER
 10
54.9965233073
 20
82.709669579
 11
53.6247418631
 21
81.9176759205
  0
LINE
  5
248
100
AcDbEntity
  8
0
100
AcDbLine
 62
7
  6
BYLAYER
 10
15.2596719974
 20
63.943489963
 11
15.6592998198
 21
64.0813915848
  0
LINE
  5
249
100
AcDbEntity
  8
0
100
AcDbLine
 62
7
  6
BYLAYER
 10
15.0587504823
 20
64.5066869997
 11
15.547013956
 21
64.6739361052
  0
LINE
  5
24A
100
AcDbEntity
  8
0
100
AcDbLine
 62
7
  6
BYLAYER
 10
41.4344345109
 20
43.68963849
 11
9.6144968793
 21
62.0604724434
  0
LINE
  5
24B
100
AcDbEntity
  8
0
100
AcDbLine
 62
7
  6
BYLAYER
 10
10.4276701192
 20
61.9992380299
 11
41.3283651081
 21
44.1591170573
  0
LINE
  5
24C
100
AcDbEntity
  8
0
100
AcDbLine
 62
7
  6
BYLAYER
 10
42.4950902667
 20
44.3020047208
 11
42.4597347804
 21
44.3224167585
  0
LINE
  5
24D
100
AcDbEntity
  8
0
100
AcDbLine
 62
7
  6
BYLAYER
 10
52.5359254162
 20
39.2804179783
 11
52.2530180834
 21
39.4437773073
  0
LINE
  5
24E
100
AcDbEntity
  8
0
100
AcDbLine
 62
7
  6
BYLAYER
 10
23.0417249775
 20
59.2890444445
 11
22.7550350839
 21
59.616137965
  0
LINE
  5
24F
100
AcDbEntity
  8
0
100
AcDbLine
 62
7
  6
BYLAYER
 10
23.3318188442
 20
59.1826440069
 11
23.5433004757
 21
58.941357959
  0
LINE
  5
250
100
AcDbEntity
  8
0
100
AcDbLine
 62
7
  6
BYLAYER
 10
29.8384240576
 20
54.3242187252
 11
29.6269424261
 21
54.5655047731
  0
LINE
  5
251
100
AcDbEntity
  8
0
100
AcDbLine
 62
7
  6
BYLAYER
 10
28.4869542302
 20
55.303863722
 11
28.607018567
 21
55.1543447657
  0
LINE
  5
252
100
AcDbEntity
  8
0
100
AcDbLine
 62
7
  6
BYLAYER
 10
30.0494409062
 20
53.6546969456
 11
29.8384240576
 21
54.3242187252
  0
LINE
  5
253
100
AcDbEntity
  8
0
100
AcDbLine
 62
7
  6
BYLAYER
 10
30.6161650823
 20
55.5248137878
 11
30.8271819307
 21
54.8552920089
  0
LINE
  5
254
100
AcDbEntity
  8
0
100
AcDbLine
 62
7
  6
BYLAYER
 10
29.8384240576
 20
55.4261387189
 11
30.0494409059
 21
55.8520047413
  0
LINE
  5
255
100
AcDbEntity
  8
0
100
AcDbLine
 62
7
  6
BYLAYER
 10
28.5765847404
 20
55.4778504906
 11
28.4869542302
 21
55.303863722
  0
LINE
  5
256
100
AcDbEntity
  8
0
100
AcDbLine
 62
7
  6
BYLAYER
 10
23.3318188442
 20
58.0807240132
 11
24.0656957293
 21
58.6397597414
  0
LINE
  5
257
100
AcDbEntity
  8
0
100
AcDbLine
 62
7
  6
BYLAYER
 10
22.5540778197
 20
57.9820489435
 11
23.7044147077
 21
58.8483407179
  0
LINE
  5
258
100
AcDbEntity
  8
0
100
AcDbLine
 62
7
  6
BYLAYER
 10
22.343060971
 20
58.6515707231
 11
23.3158358409
 21
59.2104630741
  0
LINE
  5
259
100
AcDbEntity
  8
0
100
AcDbLine
 62
7
  6
BYLAYER
 10
22.343060971
 20
59.7534907168
 11
23.1208393507
 21
60.0791618682
  0
LINE
  5
25A
100
AcDbEntity
  8
0
100
AcDbLine
 62
7
  6
BYLAYER
 10
38.5340266488
 20
49.4231136358
 11
38.3225450173
 21
49.4260200173
  0
LINE
  5
25B
100
AcDbEntity
  8
0
100
AcDbLine
 62
7
  6
BYLAYER
 10
39.3426307952
 20
48.9562763586
 11
38.5340266488
 21
49.4231136358
  0
LINE
  5
25C
100
AcDbEntity
  8
0
100
AcDbLine
 62
7
  6
BYLAYER
 10
37.1223055127
 20
50.2381527751
 11
36.102381688
 21
50.8269927272
  0
LINE
  5
25D
100
AcDbEntity
  8
0
100
AcDbLine
 62
7
  6
BYLAYER
 10
31.8472677087
 20
53.2836283565
 11
31.0386635622
 21
53.7504656338
  0
LINE
  5
25E
100
AcDbEntity
  8
0
100
AcDbLine
 62
7
  6
BYLAYER
 10
24.3519046221
 20
57.6109803544
 11
23.5433004757
 21
58.0778176317
  0
LINE
  5
25F
100
AcDbEntity
  8
0
100
AcDbLine
 62
7
  6
BYLAYER
 10
16.8565415355
 20
61.9383323523
 11
16.0479373891
 21
62.4051696296
  0
LINE
  5
260
100
AcDbEntity
  8
0
100
AcDbLine
 62
7
  6
BYLAYER
 10
29.6269424261
 20
54.5655047731
 11
28.6070186014
 21
55.1543447252
  0
LINE
  5
261
100
AcDbEntity
  8
0
100
AcDbLine
 62
7
  6
BYLAYER
 10
22.1315793396
 20
58.892856771
 11
21.1116555149
 21
59.4816967231
  0
LINE
  5
262
100
AcDbEntity
  8
0
100
AcDbLine
 62
7
  6
BYLAYER
 10
14.636216253
 20
63.2202087689
 11
13.6162924283
 21
63.809048721
  0
LINE
  5
263
100
AcDbEntity
  8
0
100
AcDbLine
 62
7
  6
BYLAYER
 10
48.0529264272
 20
44.0406684974
 11
47.345816702
 21
44.4489092519
  0
LINE
  5
264
100
AcDbEntity
  8
0
100
AcDbLine
 62
7
  6
BYLAYER
 10
39.1261203107
 20
49.9448162611
 11
38.5340266488
 21
50.2866539631
  0
LINE
  5
265
100
AcDbEntity
  8
0
100
AcDbLine
 62
7
  6
BYLAYER
 10
37.1223055127
 20
51.1016931024
 11
36.1023842373
 21
51.6905316035
  0
LINE
  5
266
100
AcDbEntity
  8
0
100
AcDbLine
 62
7
  6
BYLAYER
 10
31.6307572241
 20
54.272168259
 11
31.0386635622
 21
54.614005961
  0
LINE
  5
267
100
AcDbEntity
  8
0
100
AcDbLine
 62
7
  6
BYLAYER
 10
29.6269424261
 20
55.4290451003
 11
28.6070211507
 21
56.0178836014
  0
LINE
  5
268
100
AcDbEntity
  8
0
100
AcDbLine
 62
7
  6
BYLAYER
 10
24.1353941376
 20
58.599520257
 11
23.5433004757
 21
58.941357959
  0
LINE
  5
269
100
AcDbEntity
  8
0
100
AcDbLine
 62
7
  6
BYLAYER
 10
22.1315793396
 20
59.7563970983
 11
21.1116580641
 21
60.3452355993
  0
LINE
  5
26A
100
AcDbEntity
  8
0
100
AcDbLine
 62
7
  6
BYLAYER
 10
16.640031051
 20
62.9268722549
 11
16.0479373891
 21
63.2687099569
  0
LINE
  5
26B
100
AcDbEntity
  8
0
100
AcDbLine
 62
7
  6
BYLAYER
 10
14.636216253
 20
64.0837490962
 11
13.6162949776
 21
64.6725875972
  0
LINE
  5
26C
100
AcDbEntity
  8
0
100
AcDbLine
 62
7
  6
BYLAYER
 10
14.7393193044
 20
64.0823321561
 11
15.5463618909
 21
63.6163964424
  0
LINE
  5
26D
100
AcDbEntity
  8
0
100
AcDbLine
 62
7
  6
BYLAYER
 10
22.234682391
 20
59.7549801582
 11
23.0417249775
 21
59.2890444445
  0
LINE
  5
26E
100
AcDbEntity
  8
0
100
AcDbLine
 62
7
  6
BYLAYER
 10
29.7300454775
 20
55.4276281603
 11
30.537088064
 21
54.9616924466
  0
LINE
  5
26F
100
AcDbEntity
  8
0
100
AcDbLine
 62
7
  6
BYLAYER
 10
37.2254085641
 20
51.1002761624
 11
38.0324511506
 21
50.6343404487
  0
LINE
  5
270
100
AcDbEntity
  8
0
100
AcDbLine
 62
7
  6
BYLAYER
 10
15.2596719974
 20
63.943489963
 11
15.0422755554
 21
64.0778387696
  0
LINE
  5
271
100
AcDbEntity
  8
0
100
AcDbLine
 62
7
  6
BYLAYER
 10
22.7550350839
 20
59.616137965
 11
22.5376386419
 21
59.7504867717
  0
LINE
  5
272
100
AcDbEntity
  8
0
100
AcDbLine
 62
7
  6
BYLAYER
 10
30.2503981705
 20
55.2887859671
 11
30.0330017285
 21
55.4231347738
  0
LINE
  5
273
100
AcDbEntity
  8
0
100
AcDbLine
 62
7
  6
BYLAYER
 10
37.7457612571
 20
50.9614339692
 11
37.5283648151
 21
51.0957827758
  0
LINE
  5
274
100
AcDbEntity
  8
0
100
AcDbLine
 62
7
  6
BYLAYER
 10
30.537088064
 20
54.9616924466
 11
30.2503981705
 21
55.2887859671
  0
LINE
  5
275
100
AcDbEntity
  8
0
100
AcDbLine
 62
7
  6
BYLAYER
 10
30.8271819307
 20
54.8552920089
 11
31.0386635622
 21
54.614005961
  0
LINE
  5
276
100
AcDbEntity
  8
0
100
AcDbLine
 62
7
  6
BYLAYER
 10
37.3337871442
 20
49.9968667272
 11
37.1223055127
 21
50.2381527751
  0
LINE
  5
277
100
AcDbEntity
  8
0
100
AcDbLine
 62
7
  6
BYLAYER
 10
35.9823173167
 20
50.9765117241
 11
36.1023816536
 21
50.8269927678
  0
LINE
  5
278
100
AcDbEntity
  8
0
100
AcDbLine
 62
7
  6
BYLAYER
 10
30.8271819307
 20
53.7533720152
 11
30.6161650823
 21
53.3275059926
  0
LINE
  5
279
100
AcDbEntity
  8
0
100
AcDbLine
 62
7
  6
BYLAYER
 10
62.2797534763
 20
78.5047898074
 11
60.9079720321
 21
77.7127961489
  0
LINE
  5
27A
100
AcDbEntity
  8
0
100
AcDbLine
 62
7
  6
BYLAYER
 10
22.1315793396
 20
58.892856771
 11
23.0417249774
 21
59.2890444445
  0
LINE
  5
27B
100
AcDbEntity
  8
0
100
AcDbLine
 62
7
  6
BYLAYER
 10
22.7550350839
 20
59.6161379651
 11
23.1546629063
 21
59.7540395869
  0
LINE
  5
27C
100
AcDbEntity
  8
0
100
AcDbLine
 62
7
  6
BYLAYER
 10
22.5541135688
 20
60.1793350018
 11
23.0423770426
 21
60.3465841073
  0
LINE
  5
27D
100
AcDbEntity
  8
0
100
AcDbLine
 62
7
  6
BYLAYER
 10
37.1223055127
 20
51.1016931024
 11
37.3337871442
 21
51.098786721
  0
LINE
  5
27E
100
AcDbEntity
  8
0
100
AcDbLine
 62
7
  6
BYLAYER
 10
10.4276701192
 20
70.3683878055
 11
41.3283651081
 21
52.5282668329
  0
LINE
  5
27F
100
AcDbEntity
  8
0
100
AcDbLine
 62
7
  6
BYLAYER
 10
38.0324511506
 20
50.6343404487
 11
37.7457612571
 21
50.9614339692
  0
LINE
  5
280
100
AcDbEntity
  8
0
100
AcDbLine
 62
7
  6
BYLAYER
 10
38.3225450173
 20
50.527940011
 11
38.5340266488
 21
50.2866539631
  0
LINE
  5
281
100
AcDbEntity
  8
0
100
AcDbLine
 62
7
  6
BYLAYER
 10
37.5448039928
 20
49.3273449477
 11
37.3337871442
 21
49.9968667272
  0
LINE
  5
282
100
AcDbEntity
  8
0
100
AcDbLine
 62
7
  6
BYLAYER
 10
38.1115281688
 20
51.1974617899
 11
38.3225450173
 21
50.527940011
  0
LINE
  5
283
100
AcDbEntity
  8
0
100
AcDbLine
 62
7
  6
BYLAYER
 10
37.5448039925
 20
51.5246527433
 11
37.5446932179
 21
52.1979089595
  0
LINE
  5
284
100
AcDbEntity
  8
0
100
AcDbLine
 62
7
  6
BYLAYER
 10
38.1115281688
 20
49.0001539947
 11
38.111675015
 21
48.1076363248
  0
LINE
  5
285
100
AcDbEntity
  8
0
100
AcDbLine
 62
7
  6
BYLAYER
 10
37.5446571526
 20
48.4349968346
 11
37.5448039928
 21
49.3273449477
  0
LINE
  5
286
100
AcDbEntity
  8
0
100
AcDbLine
 62
7
  6
BYLAYER
 10
38.111594943
 20
51.6032300514
 11
38.1115281688
 21
51.1974617899
  0
LINE
  5
287
100
AcDbEntity
  8
0
100
AcDbLine
 62
7
  6
BYLAYER
 10
30.2904770848
 20
53.3389022381
 11
30.7354259634
 21
53.8353919235
  0
LINE
  5
288
100
AcDbEntity
  8
0
100
AcDbLine
 62
7
  6
BYLAYER
 10
31.0386635622
 20
53.7504656337
 11
31.6370785234
 21
54.2594214987
  0
LINE
  5
289
100
AcDbEntity
  8
0
100
AcDbLine
 62
7
  6
BYLAYER
 10
30.8271819307
 20
53.7533720152
 11
31.5610588159
 21
54.3124077435
  0
LINE
  5
28A
100
AcDbEntity
  8
0
100
AcDbLine
 62
7
  6
BYLAYER
 10
30.0494409062
 20
53.6546969456
 11
31.1997777943
 21
54.52098872
  0
LINE
  5
28B
100
AcDbEntity
  8
0
100
AcDbLine
 62
7
  6
BYLAYER
 10
31.0386635622
 20
53.7504656338
 11
30.8271819307
 21
53.7533720152
  0
LINE
  5
28C
100
AcDbEntity
  8
0
100
AcDbLine
 62
7
  6
BYLAYER
 10
29.6269424261
 20
55.4290451003
 11
29.8384240576
 21
55.4261387189
  0
LINE
  5
28D
100
AcDbEntity
  8
0
100
AcDbLine
 62
7
  6
BYLAYER
 10
41.9079212504
 20
52.6835626857
 11
10.2723762792
 21
70.9479398953
  0
LINE
  5
28E
100
AcDbEntity
  8
0
100
AcDbLine
 62
7
  6
BYLAYER
 10
42.4950902667
 20
52.9161052215
 11
42.4597347804
 21
52.9365172592
  0
LINE
  5
28F
100
AcDbEntity
  8
0
100
AcDbLine
 62
7
  6
BYLAYER
 10
10.7105081213
 20
71.2665271372
 11
10.6751526351
 21
71.2869391749
  0
LINE
  5
290
100
AcDbEntity
  8
0
100
AcDbLine
 62
7
  6
BYLAYER
 10
58.0513094996
 20
45.5673906293
 11
59.5716393979
 21
44.6896476104
  0
LINE
  5
291
100
AcDbEntity
  8
0
100
AcDbLine
 62
7
  6
BYLAYER
 10
41.3283651081
 20
52.5282668329
 11
41.3283651081
 21
44.1591170573
  0
LINE
  5
292
100
AcDbEntity
  8
0
100
AcDbLine
 62
7
  6
BYLAYER
 10
41.4344345109
 20
35.9736906481
 11
41.4344345109
 21
43.68963849
  0
LINE
  5
293
100
AcDbEntity
  8
0
100
AcDbLine
 62
7
  6
BYLAYER
 10
42.1768932455
 20
44.159119097
 11
42.1768932455
 21
52.7732195977
  0
LINE
  5
294
100
AcDbEntity
  8
0
100
AcDbLine
 62
7
  6
BYLAYER
 10
42.4597347804
 20
52.9365172592
 11
42.4597347804
 21
44.3224167585
  0
LINE
  5
295
100
AcDbEntity
  8
0
100
AcDbLine
 62
7
  6
BYLAYER
 10
37.3337871442
 20
51.098786721
 11
37.5448039925
 21
51.5246527433
  0
LINE
  5
296
100
AcDbEntity
  8
0
100
AcDbLine
 62
7
  6
BYLAYER
 10
36.071947827
 20
51.1504984927
 11
35.9823173167
 21
50.9765117241
  0
LINE
  5
297
100
AcDbEntity
  8
0
100
AcDbLine
 62
7
  6
BYLAYER
 10
29.8384240576
 20
54.3242187252
 11
30.8111989275
 21
54.8831110762
  0
LINE
  5
298
100
AcDbEntity
  8
0
100
AcDbLine
 62
7
  6
BYLAYER
 10
29.6269424261
 20
54.5655047731
 11
30.537088064
 21
54.9616924466
  0
LINE
  5
299
100
AcDbEntity
  8
0
100
AcDbLine
 62
7
  6
BYLAYER
 10
29.8384240576
 20
55.4261387189
 11
30.6162024373
 21
55.7518098703
  0
LINE
  5
29A
100
AcDbEntity
  8
0
100
AcDbLine
 62
7
  6
BYLAYER
 10
30.2503981705
 20
55.2887859671
 11
30.6500259929
 21
55.426687589
  0
LINE
  5
29B
100
AcDbEntity
  8
0
100
AcDbLine
 62
7
  6
BYLAYER
 10
30.0494766554
 20
55.8519830038
 11
30.5377401291
 21
56.0192321093
  0
LINE
  5
29C
100
AcDbEntity
  8
0
100
AcDbLine
 62
7
  6
BYLAYER
 10
23.5433004757
 20
58.0778176317
 11
23.3318188442
 21
58.0807240131
  0
LINE
  5
29D
100
AcDbEntity
  8
0
100
AcDbLine
 62
7
  6
BYLAYER
 10
42.4950902667
 20
52.9161052215
 11
42.4950902667
 21
44.3020047208
  0
LINE
  5
29E
100
AcDbEntity
  8
0
100
AcDbLine
 62
7
  6
BYLAYER
 10
38.3225450173
 20
49.4260200173
 11
38.1115281688
 21
49.0001539947
  0
LINE
  5
29F
100
AcDbEntity
  8
0
100
AcDbLine
 62
7
  6
BYLAYER
 10
37.7858401714
 20
49.0115502402
 11
38.2307890499
 21
49.5080399256
  0
LINE
  5
2A0
100
AcDbEntity
  8
0
100
AcDbLine
 62
7
  6
BYLAYER
 10
22.1315793396
 20
59.7563970983
 11
22.343060971
 21
59.7534907168
  0
LINE
  5
2A1
100
AcDbEntity
  8
0
100
AcDbLine
 62
7
  6
BYLAYER
 10
16.0479373891
 20
62.4051696296
 11
15.8364557576
 21
62.4080760111
  0
LINE
  5
2A2
100
AcDbEntity
  8
0
100
AcDbLine
 62
7
  6
BYLAYER
 10
46.4972979853
 20
43.1425313589
 11
46.4972979853
 21
44.2856347429
  0
LINE
  5
2A3
100
AcDbEntity
  8
0
100
AcDbLine
 62
7
  6
BYLAYER
 10
47.345816702
 20
44.7755243281
 11
47.345816702
 21
44.4489092519
  0
LINE
  5
2A4
100
AcDbEntity
  8
0
100
AcDbLine
 62
7
  6
BYLAYER
 10
48.0529264272
 20
45.1837718814
 11
48.0529264272
 21
44.0406684974
  0
LINE
  5
2A5
100
AcDbEntity
  8
0
100
AcDbLine
 62
7
  6
BYLAYER
 10
38.5340266488
 20
49.4231136358
 11
39.1324416099
 21
49.9320695007
  0
LINE
  5
2A6
100
AcDbEntity
  8
0
100
AcDbLine
 62
7
  6
BYLAYER
 10
38.3225450173
 20
49.4260200173
 11
39.0564219025
 21
49.9850557456
  0
LINE
  5
2A7
100
AcDbEntity
  8
0
100
AcDbLine
 62
7
  6
BYLAYER
 10
37.5448039928
 20
49.3273449477
 11
38.6951408809
 21
50.1936367221
  0
LINE
  5
2A8
100
AcDbEntity
  8
0
100
AcDbLine
 62
7
  6
BYLAYER
 10
72.7803328947
 20
72.4424146028
 11
71.4085514505
 21
71.6504209443
  0
LINE
  5
2A9
100
AcDbEntity
  8
0
100
AcDbLine
 62
7
  6
BYLAYER
 10
42.4597347804
 20
52.9365172592
 11
42.1768932455
 21
52.7732195977
  0
LINE
  5
2AA
100
AcDbEntity
  8
0
100
AcDbLine
 62
7
  6
BYLAYER
 10
42.4950902667
 20
52.9161052215
 11
72.8934842285
 21
70.4665213964
  0
LINE
  5
2AB
100
AcDbEntity
  8
0
100
AcDbLine
 62
7
  6
BYLAYER
 10
37.3337871442
 20
49.9968667272
 11
38.306562014
 21
50.5557590783
  0
LINE
  5
2AC
100
AcDbEntity
  8
0
100
AcDbLine
 62
7
  6
BYLAYER
 10
37.1223055127
 20
50.2381527751
 11
38.0324511506
 21
50.6343404487
  0
LINE
  5
2AD
100
AcDbEntity
  8
0
100
AcDbLine
 62
7
  6
BYLAYER
 10
37.3337871442
 20
51.098786721
 11
38.1115655238
 21
51.4244578724
  0
LINE
  5
2AE
100
AcDbEntity
  8
0
100
AcDbLine
 62
7
  6
BYLAYER
 10
37.745761257
 20
50.9614339692
 11
38.1453890794
 21
51.0993355911
  0
LINE
  5
2AF
100
AcDbEntity
  8
0
100
AcDbLine
 62
7
  6
BYLAYER
 10
37.544839742
 20
51.5246310059
 11
38.0331032157
 21
51.6918801114
  0
LINE
  5
2B0
100
AcDbEntity
  8
0
100
AcDbLine
 62
7
  6
BYLAYER
 10
14.636216253
 20
64.0837490962
 11
14.8476978845
 21
64.0808427147
  0
LINE
  5
2B1
100
AcDbEntity
  8
0
100
AcDbLine
 62
7
  6
BYLAYER
 10
51.8137595459
 20
41.9661609808
 11
51.8137595459
 21
40.0560940525
  0
LINE
  5
2B2
100
AcDbEntity
  8
0
100
AcDbLine
 62
7
  6
BYLAYER
 10
52.5137595459
 20
29.1148940465
 11
52.5137595459
 21
39.2932172284
  0
LINE
  5
2B3
100
AcDbEntity
  8
0
100
AcDbLine
 62
7
  6
BYLAYER
 10
54.1137595459
 20
29.1148940465
 11
54.1137595459
 21
39.2932172308
  0
LINE
  5
2B4
100
AcDbEntity
  8
0
100
AcDbLine
 62
7
  6
BYLAYER
 10
69.6054513855
 20
56.4839503074
 11
68.8983416603
 21
56.8921910619
  0
LINE
  5
2B5
100
AcDbEntity
  8
0
100
AcDbLine
 62
7
  6
BYLAYER
 10
54.8137595459
 20
43.6982014495
 11
54.8137595459
 21
40.0560940525
  0
LINE
  5
2B6
100
AcDbEntity
  8
0
100
AcDbLine
 62
7
  6
BYLAYER
 10
54.9965233073
 20
82.709669579
 11
54.9965233073
 21
81.1256954514
  0
LINE
  5
2B7
100
AcDbEntity
  8
0
100
AcDbLine
 62
7
  6
BYLAYER
 10
42.1768932455
 20
44.159119097
 11
42.4597347804
 21
44.3224167585
  0
LINE
  5
2B8
100
AcDbEntity
  8
0
100
AcDbLine
 62
7
  6
BYLAYER
 10
41.4344345109
 20
43.68963849
 11
42.4950902667
 21
44.3020047208
  0
LINE
  5
2B9
100
AcDbEntity
  8
0
100
AcDbLine
 62
7
  6
BYLAYER
 10
74.5481072076
 20
60.5623305687
 11
72.8934842285
 21
59.6070392486
  0
LINE
  5
2BA
100
AcDbEntity
  8
0
100
AcDbLine
 62
7
  6
BYLAYER
 10
46.4972979853
 20
44.2856347429
 11
48.0529264272
 21
45.1837718814
  0
LINE
  5
2BB
100
AcDbEntity
  8
0
100
AcDbLine
 62
7
  6
BYLAYER
 10
68.0498229436
 20
56.7289165529
 11
69.6054513855
 21
57.6270536914
  0
LINE
  5
2BC
100
AcDbEntity
  8
0
100
AcDbLine
 62
7
  6
BYLAYER
 10
68.8983416603
 20
56.8921910619
 11
68.0498229436
 21
56.4023014767
  0
LINE
  5
2BD
100
AcDbEntity
  8
0
100
AcDbLine
 62
7
  6
BYLAYER
 10
47.345816702
 20
44.4489092519
 11
46.4972979853
 21
43.9590196667
  0
LINE
  5
2BE
100
AcDbEntity
  8
0
100
AcDbLine
 62
7
  6
BYLAYER
 10
59.5716393979
 20
46.4451482658
 11
59.5716393979
 21
44.6896476104
  0
LINE
  5
2BF
100
AcDbEntity
  8
0
100
AcDbLine
 62
7
  6
BYLAYER
 10
71.2914040178
 20
71.4871246425
 11
71.4085514505
 21
71.6504209443
  0
LINE
  5
2C0
100
AcDbEntity
  8
0
100
AcDbLine
 62
7
  6
BYLAYER
 10
69.6054513855
 20
56.4839503074
 11
68.0498229436
 21
55.5858131689
  0
LINE
  5
2C1
100
AcDbEntity
  8
0
100
AcDbLine
 62
7
  6
BYLAYER
 10
48.0529264272
 20
44.0406684974
 11
46.4972979853
 21
43.1425313589
  0
LINE
  5
2C2
100
AcDbEntity
  8
0
100
AcDbLine
 62
7
  6
BYLAYER
 10
74.5481072076
 20
60.5623305687
 11
72.8934842285
 21
61.5176059798
  0
LINE
  5
2C3
100
AcDbEntity
  8
0
100
AcDbLine
 62
7
  6
BYLAYER
 10
60.6322951537
 20
47.0575144966
 11
60.6322951537
 21
45.3020138412
  0
LINE
  5
2C4
100
AcDbEntity
  8
0
100
AcDbLine
 62
7
  6
BYLAYER
 10
73.1338995332
 20
54.2752760662
 11
41.4344345109
 21
35.9736906481
  0
LINE
  5
2C5
100
AcDbEntity
  8
0
100
AcDbLine
 62
7
  6
BYLAYER
 10
59.5716393979
 20
44.6896476104
 11
60.6322951537
 21
45.3020138412
  0
LINE
  5
2C6
100
AcDbEntity
  8
0
100
AcDbLine
 62
7
  6
BYLAYER
 10
54.0915373039
 20
39.2803854299
 11
54.3744241336
 21
39.4437329207
  0
LINE
  5
2C7
100
AcDbEntity
  8
0
100
AcDbLine
 62
7
  6
BYLAYER
 10
68.0498229436
 20
55.5858131689
 11
68.0498229436
 21
56.7289165529
  0
LINE
  5
2C8
100
AcDbEntity
  8
0
100
AcDbLine
 62
7
  6
BYLAYER
 10
68.8983416603
 20
57.2188061381
 11
68.8983416603
 21
56.8921910619
  0
LINE
  5
2C9
100
AcDbEntity
  8
0
100
AcDbLine
 62
7
  6
BYLAYER
 10
72.8934842285
 20
70.4665213964
 11
71.4085538057
 21
71.3238269809
  0
LINE
  5
2CA
100
AcDbEntity
  8
0
100
AcDbLine
 62
7
  6
BYLAYER
 10
41.0735465969
 20
88.8373553498
 11
42.5584770197
 21
87.9800497654
  0
LINE
  5
2CB
100
AcDbEntity
  8
0
100
AcDbLine
 62
7
  6
BYLAYER
 10
53.6247418631
 20
81.9176759205
 11
60.9079720321
 21
77.7127961489
  0
LINE
  5
2CC
100
AcDbEntity
  8
0
100
AcDbLine
 62
7
  6
BYLAYER
 10
69.6054513855
 20
57.6270536914
 11
69.6054513855
 21
56.4839503074
  0
LINE
  5
2CD
100
AcDbEntity
  8
0
100
AcDbLine
 62
7
  6
BYLAYER
 10
71.4085514505
 20
71.3238269809
 11
71.4085514505
 21
71.6504209443
  0
LINE
  5
2CE
100
AcDbEntity
  8
0
100
AcDbLine
 62
7
  6
BYLAYER
 10
73.1338995332
 20
54.2752760662
 11
74.5481072076
 21
56.0345801545
  0
LINE
  5
2CF
100
AcDbEntity
  8
0
100
AcDbLine
 62
7
  6
BYLAYER
 10
72.7803328947
 20
72.4424146028
 11
62.2797534763
 21
78.5047898074
  0
LINE
  5
2D0
100
AcDbEntity
  8
0
100
AcDbLine
 62
7
  6
BYLAYER
 10
54.9965233073
 20
82.709669579
 11
44.4959438888
 21
88.7720447836
  0
LINE
  5
2D1
100
AcDbEntity
  8
0
100
AcDbLine
 62
7
  6
BYLAYER
 10
72.7803328947
 20
72.4424146028
 11
72.7803328947
 21
70.5318478716
  0
LINE
  5
2D2
100
AcDbEntity
  8
0
100
AcDbLine
 62
7
  6
BYLAYER
 10
72.8934842285
 20
59.6070392486
 11
72.8934842285
 21
70.4665213964
  0
LINE
  5
2D3
100
AcDbEntity
  8
0
100
AcDbLine
 62
7
  6
BYLAYER
 10
74.5481072076
 20
60.5623305687
 11
74.5481072076
 21
56.0345801545
  0
LINE
  5
2D4
100
AcDbEntity
  8
0
100
AcDbLine
 62
7
  6
BYLAYER
 10
71.4085538057
 20
71.3238269809
 11
71.2914040178
 21
71.4871246425
  0
ARC
  5
2D5
100
AcDbEntity
  8
0
100
AcDbCircle
 62
7
  6
BYLAYER
 10
-168.5095004266
 20
232.2580588726
 40
267.4569308115
100
AcDbArc
 50
318.1557379572
 51
318.3364436706
  0
ARC
  5
2D6
100
AcDbEntity
  8
0
100
AcDbCircle
 62
7
  6
BYLAYER
 10
-176.0048635105
 20
236.5854108681
 40
267.4569308079
100
AcDbArc
 50
318.1557379572
 51
318.3364436706
  0
ARC
  5
2D7
100
AcDbEntity
  8
0
100
AcDbCircle
 62
7
  6
BYLAYER
 10
-161.014137335
 20
227.9307068701
 40
267.4569308047
100
AcDbArc
 50
318.1557379572
 51
318.3364436706
  0
ARC
  5
2D8
100
AcDbEntity
  8
0
100
AcDbCircle
 62
7
  6
BYLAYER
 10
-183.5002265926
 20
240.9127628621
 40
267.456930802
100
AcDbArc
 50
318.1557379572
 51
318.3364436706
  0
ARC
  5
2D9
100
AcDbEntity
  8
0
100
AcDbCircle
 62
7
  6
BYLAYER
 10
45.2171576178
 20
-110.0075198437
 40
176.6811455552
100
AcDbArc
 50
99.6416276326
 51
99.8335829309
  0
ARC
  5
2DA
100
AcDbEntity
  8
0
100
AcDbCircle
 62
7
  6
BYLAYER
 10
60.2078836404
 20
-118.6622229641
 40
176.681144667
100
AcDbArc
 50
99.641627632
 51
99.8335829313
  0
ARC
  5
2DB
100
AcDbEntity
  8
0
100
AcDbCircle
 62
7
  6
BYLAYER
 10
67.7032467237
 20
-122.9895749435
 40
176.6811446483
100
AcDbArc
 50
99.641627632
 51
99.8335829313
  0
ARC
  5
2DC
100
AcDbEntity
  8
0
100
AcDbCircle
 62
7
  6
BYLAYER
 10
52.7125205492
 20
-114.3348709395
 40
176.68114464
100
AcDbArc
 50
99.6416276319
 51
99.8335829313
  0
ARC
  5
2DD
100
AcDbEntity
  8
0
100
AcDbCircle
 62
7
  6
BYLAYER
 10
16.4495721328
 20
63.1208001192
 40
2.2124826998
100
AcDbArc
 50
240.35523099
 51
244.1948131394
  0
ARC
  5
2DE
100
AcDbEntity
  8
0
100
AcDbCircle
 62
7
  6
BYLAYER
 10
38.9356613925
 20
50.1387441255
 40
2.2124826998
100
AcDbArc
 50
240.35523099
 51
244.1948131395
  0
ARC
  5
2DF
100
AcDbEntity
  8
0
100
AcDbCircle
 62
7
  6
BYLAYER
 10
23.9449352194
 20
58.7934481213
 40
2.2124826998
100
AcDbArc
 50
240.35523099
 51
244.1948131394
  0
ARC
  5
2E0
100
AcDbEntity
  8
0
100
AcDbCircle
 62
7
  6
BYLAYER
 10
31.4402983059
 20
54.4660961234
 40
2.2124826998
100
AcDbArc
 50
240.35523099
 51
244.1948131395
  0
ARC
  5
2E1
100
AcDbEntity
  8
0
100
AcDbCircle
 62
7
  6
BYLAYER
 10
16.3858379128
 20
63.0178591569
 40
2.0729409291
100
AcDbArc
 50
242.757401916
 51
244.7156950718
  0
ARC
  5
2E2
100
AcDbEntity
  8
0
100
AcDbCircle
 62
7
  6
BYLAYER
 10
38.8719271725
 20
50.0358031632
 40
2.0729409291
100
AcDbArc
 50
242.757401916
 51
244.7156950718
  0
ARC
  5
2E3
100
AcDbEntity
  8
0
100
AcDbCircle
 62
7
  6
BYLAYER
 10
23.8812009993
 20
58.6905071589
 40
2.072940929
100
AcDbArc
 50
242.757401916
 51
244.7156950718
  0
ARC
  5
2E4
100
AcDbEntity
  8
0
100
AcDbCircle
 62
7
  6
BYLAYER
 10
31.3765640859
 20
54.363155161
 40
2.0729409291
100
AcDbArc
 50
242.757401916
 51
244.7156950718
  0
ARC
  5
2E5
100
AcDbEntity
  8
0
100
AcDbCircle
 62
7
  6
BYLAYER
 10
16.3075167133
 20
62.8475889271
 40
1.8855318396
100
AcDbArc
 50
244.6577726167
 51
248.7975125887
  0
ARC
  5
2E6
100
AcDbEntity
  8
0
100
AcDbCircle
 62
7
  6
BYLAYER
 10
38.793605973
 20
49.8655329334
 40
1.8855318396
100
AcDbArc
 50
244.6577726167
 51
248.7975125888
  0
ARC
  5
2E7
100
AcDbEntity
  8
0
100
AcDbCircle
 62
7
  6
BYLAYER
 10
23.8028797999
 20
58.5202369292
 40
1.8855318396
100
AcDbArc
 50
244.6577726167
 51
248.7975125888
  0
ARC
  5
2E8
100
AcDbEntity
  8
0
100
AcDbCircle
 62
7
  6
BYLAYER
 10
31.2982428865
 20
54.1928849313
 40
1.8855318396
100
AcDbArc
 50
244.6577726167
 51
248.7975125888
  0
ARC
  5
2E9
100
AcDbEntity
  8
0
100
AcDbCircle
 62
7
  6
BYLAYER
 10
16.5120785303
 20
63.4198488874
 40
1.8697240564
100
AcDbArc
 50
238.3506108507
 51
239.9935495196
  0
ARC
  5
2EA
100
AcDbEntity
  8
0
100
AcDbCircle
 62
7
  6
BYLAYER
 10
24.0074416168
 20
59.0924968894
 40
1.8697240563
100
AcDbArc
 50
238.3506108506
 51
239.9935495196
  0
ARC
  5
2EB
100
AcDbEntity
  8
0
100
AcDbCircle
 62
7
  6
BYLAYER
 10
38.99816779
 20
50.4377928935
 40
1.8697240563
100
AcDbArc
 50
238.3506108505
 51
239.9935495196
  0
ARC
  5
2EC
100
AcDbEntity
  8
0
100
AcDbCircle
 62
7
  6
BYLAYER
 10
31.5028047034
 20
54.7651448914
 40
1.8697240562
100
AcDbArc
 50
238.3506108505
 51
239.9935495196
  0
ARC
  5
2ED
100
AcDbEntity
  8
0
100
AcDbCircle
 62
7
  6
BYLAYER
 10
39.3356650677
 20
51.3690898044
 40
1.8278487178
100
AcDbArc
 50
186.010764922
 51
188.5993356057
  0
ARC
  5
2EE
100
AcDbEntity
  8
0
100
AcDbCircle
 62
7
  6
BYLAYER
 10
24.3449388946
 20
60.0237938003
 40
1.8278487178
100
AcDbArc
 50
186.0107649221
 51
188.5993356056
  0
ARC
  5
2EF
100
AcDbEntity
  8
0
100
AcDbCircle
 62
7
  6
BYLAYER
 10
31.8403019811
 20
55.6964418023
 40
1.8278487178
100
AcDbArc
 50
186.010764922
 51
188.5993356057
  0
ARC
  5
2F0
100
AcDbEntity
  8
0
100
AcDbCircle
 62
7
  6
BYLAYER
 10
16.8495758075
 20
64.3511457981
 40
1.8278487173
100
AcDbArc
 50
186.010764922
 51
188.5993356062
  0
ARC
  5
2F1
100
AcDbEntity
  8
0
100
AcDbCircle
 62
7
  6
BYLAYER
 10
31.4555992431
 20
54.6833535242
 40
1.7752879266
100
AcDbArc
 50
239.9927366127
 51
241.7832134641
  0
ARC
  5
2F2
100
AcDbEntity
  8
0
100
AcDbCircle
 62
7
  6
BYLAYER
 10
16.4648730699
 20
63.3380575199
 40
1.7752879265
100
AcDbArc
 50
239.9927366126
 51
241.7832134641
  0
ARC
  5
2F3
100
AcDbEntity
  8
0
100
AcDbCircle
 62
7
  6
BYLAYER
 10
23.9602361565
 20
59.010705522
 40
1.7752879266
100
AcDbArc
 50
239.9927366126
 51
241.7832134642
  0
ARC
  5
2F4
100
AcDbEntity
  8
0
100
AcDbCircle
 62
7
  6
BYLAYER
 10
38.9509623295
 20
50.3560015261
 40
1.7752879265
100
AcDbArc
 50
239.9927366126
 51
241.7832134642
  0
SPLINE
  5
2F5
100
AcDbEntity
  8
0
100
AcDbSpline
 62
7
  6
BYLAYER
 70
0
 71
3
 72
15
 73
11
 74
0
 42
0.0000001
 43
0.0000001
 44
0.0000000001
 40
0.0
 40
0.0
 40
0.0
 40
0.0
 40
0.1218748909
 40
0.2486081223
 40
0.3782826942
 40
0.5089069518
 40
0.6382542869
 40
0.764225417
 40
0.8852579561
 40
1.0
 40
1.0
 40
1.0
 40
1.0
 10
20.991556986
 20
59.6312127845
 30
0.0
 10
21.0139695116
 20
59.4852497351
 30
0.0
 10
21.0787794193
 20
59.1902114922
 30
0.0
 10
21.2265953673
 20
58.7554785048
 30
0.0
 10
21.4231572621
 20
58.3287951507
 30
0.0
 10
21.6629298198
 20
57.9211746775
 30
0.0
 10
21.9398139995
 20
57.5433145691
 30
0.0
 10
22.2468712537
 20
57.2049264225
 30
0.0
 10
22.5770639398
 20
56.9151998379
 30
0.0
 10
22.8148342953
 20
56.7548909395
 30
0.0
 10
22.935686979
 20
56.686157798
 30
0.0
  0
SPLINE
  5
2F6
100
AcDbEntity
  8
0
100
AcDbSpline
 62
7
  6
BYLAYER
 70
0
 71
3
 72
11
 73
7
 74
0
 42
0.0000001
 43
0.0000001
 44
0.0000000001
 40
0.0
 40
0.0
 40
0.0
 40
0.0
 40
0.2675875016
 40
0.5213146253
 40
0.7642081855
 40
1.0
 40
1.0
 40
1.0
 40
1.0
 10
22.935686979
 20
56.686157798
 30
0.0
 10
23.0444116919
 20
56.624322257
 30
0.0
 10
23.2649428347
 20
56.518155199
 30
0.0
 10
23.609783673
 20
56.4178048983
 30
0.0
 10
23.9533433351
 20
56.3884178229
 30
0.0
 10
24.1773831216
 20
56.4211696619
 30
0.0
 10
24.2834519623
 20
56.4511207967
 30
0.0
  0
SPLINE
  5
2F7
100
AcDbEntity
  8
0
100
AcDbSpline
 62
7
  6
BYLAYER
 70
0
 71
3
 72
10
 73
6
 74
0
 42
0.0000001
 43
0.0000001
 44
0.0000000001
 40
0.0
 40
0.0
 40
0.0
 40
0.0
 40
0.2416366576
 40
0.4877627441
 40
1.0
 40
1.0
 40
1.0
 40
1.0
 10
21.4275732278
 20
61.4050307394
 30
0.0
 10
21.3704309801
 20
61.349728387
 30
0.0
 10
21.2653266377
 20
61.2269969455
 30
0.0
 10
21.096799388
 20
60.9429666941
 30
0.0
 10
21.0221562994
 20
60.7002233086
 30
0.0
 10
20.9919854885
 20
60.5343714213
 30
0.0
  0
LINE
  5
2F8
100
AcDbEntity
  8
0
100
AcDbLine
 62
7
  6
BYLAYER
 10
13.5858585673
 20
64.1325544864
 11
14.0124445912
 21
64.4438753916
  0
SPLINE
  5
2F9
100
AcDbEntity
  8
0
100
AcDbSpline
 62
7
  6
BYLAYER
 70
0
 71
3
 72
14
 73
10
 74
0
 42
0.0000001
 43
0.0000001
 44
0.0000000001
 40
0.0
 40
0.0
 40
0.0
 40
0.0
 40
0.1012111365
 40
0.2056752943
 40
0.3161461453
 40
0.434610935
 40
0.5622053395
 40
0.6992936983
 40
1.0
 40
1.0
 40
1.0
 40
1.0
 10
20.5053544757
 20
61.3234306948
 30
0.0
 10
20.5755195716
 20
61.3639395794
 30
0.0
 10
20.7279672149
 20
61.4302929708
 30
0.0
 10
20.9781739616
 20
61.4786770972
 30
0.0
 10
21.2466187066
 20
61.4766797944
 30
0.0
 10
21.5285392513
 20
61.4249660522
 30
0.0
 10
21.8195487929
 20
61.3249407083
 30
0.0
 10
22.2259248577
 20
61.1236415192
 30
0.0
 10
22.5113210219
 20
60.9147552642
 30
0.0
 10
22.6930141184
 20
60.7568595186
 30
0.0
  0
SPLINE
  5
2FA
100
AcDbEntity
  8
0
100
AcDbSpline
 62
7
  6
BYLAYER
 70
0
 71
3
 72
9
 73
5
 74
0
 42
0.0000001
 43
0.0000001
 44
0.0000000001
 40
0.0
 40
0.0
 40
0.0
 40
0.0
 40
0.2449724228
 40
1.0
 40
1.0
 40
1.0
 40
1.0
 10
22.6930141184
 20
60.7568595186
 30
0.0
 10
22.7261162174
 20
60.7280929847
 30
0.0
 10
22.8594017225
 20
60.6085579438
 30
0.0
 10
22.9854195394
 20
60.4809705508
 30
0.0
 10
23.0763934931
 20
60.3810037014
 30
0.0
  0
SPLINE
  5
2FB
100
AcDbEntity
  8
0
100
AcDbSpline
 62
7
  6
BYLAYER
 70
0
 71
3
 72
12
 73
8
 74
0
 42
0.0000001
 43
0.0000001
 44
0.0000000001
 40
0.0
 40
0.0
 40
0.0
 40
0.0
 40
0.2579978011
 40
0.5196990152
 40
0.7709979188
 40
0.8889915684
 40
1.0
 40
1.0
 40
1.0
 40
1.0
 10
23.0763934931
 20
60.3810037014
 30
0.0
 10
23.2813996438
 20
60.1557324215
 30
0.0
 10
23.6535141783
 20
59.6634094475
 30
0.0
 10
24.0793394256
 20
58.854953858
 30
0.0
 10
24.3141887458
 20
58.1431888513
 30
0.0
 10
24.4111352465
 20
57.5836785563
 30
0.0
 10
24.4284426771
 20
57.3131360847
 30
0.0
 10
24.4284426771
 20
57.1820807589
 30
0.0
  0
SPLINE
  5
2FC
100
AcDbEntity
  8
0
100
AcDbSpline
 62
7
  6
BYLAYER
 70
0
 71
3
 72
15
 73
11
 74
0
 42
0.0000001
 43
0.0000001
 44
0.0000000001
 40
0.0
 40
0.0
 40
0.0
 40
0.0
 40
0.1218748909
 40
0.2486081223
 40
0.3782826942
 40
0.5089069518
 40
0.6382542869
 40
0.764225417
 40
0.8852579561
 40
1.0
 40
1.0
 40
1.0
 40
1.0
 10
28.4869200726
 20
55.3038607866
 30
0.0
 10
28.5093325981
 20
55.1578977372
 30
0.0
 10
28.5741425059
 20
54.8628594943
 30
0.0
 10
28.7219584539
 20
54.4281265069
 30
0.0
 10
28.9185203487
 20
54.0014431527
 30
0.0
 10
29.1582929064
 20
53.5938226796
 30
0.0
 10
29.4351770861
 20
53.2159625712
 30
0.0
 10
29.7422343402
 20
52.8775744246
 30
0.0
 10
30.0724270264
 20
52.58784784
 30
0.0
 10
30.3101973818
 20
52.4275389416
 30
0.0
 10
30.4310500655
 20
52.3588058001
 30
0.0
  0
SPLINE
  5
2FD
100
AcDbEntity
  8
0
100
AcDbSpline
 62
7
  6
BYLAYER
 70
0
 71
3
 72
11
 73
7
 74
0
 42
0.0000001
 43
0.0000001
 44
0.0000000001
 40
0.0
 40
0.0
 40
0.0
 40
0.0
 40
0.2675875016
 40
0.5213146253
 40
0.7642081855
 40
1.0
 40
1.0
 40
1.0
 40
1.0
 10
30.4310500655
 20
52.3588058001
 30
0.0
 10
30.5397747784
 20
52.2969702591
 30
0.0
 10
30.7603059213
 20
52.1908032011
 30
0.0
 10
31.1051467595
 20
52.0904529004
 30
0.0
 10
31.4487064217
 20
52.061065825
 30
0.0
 10
31.6727462082
 20
52.093817664
 30
0.0
 10
31.7788150488
 20
52.1237687988
 30
0.0
  0
SPLINE
  5
2FE
100
AcDbEntity
  8
0
100
AcDbSpline
 62
7
  6
BYLAYER
 70
0
 71
3
 72
10
 73
6
 74
0
 42
0.0000001
 43
0.0000001
 44
0.0000000001
 40
0.0
 40
0.0
 40
0.0
 40
0.0
 40
0.2416366576
 40
0.4877627441
 40
1.0
 40
1.0
 40
1.0
 40
1.0
 10
28.9229363143
 20
57.0776787415
 30
0.0
 10
28.8657940667
 20
57.0223763891
 30
0.0
 10
28.7606897242
 20
56.8996449476
 30
0.0
 10
28.5921624746
 20
56.6156146962
 30
0.0
 10
28.517519386
 20
56.3728713107
 30
0.0
 10
28.4873485751
 20
56.2070194234
 30
0.0
  0
SPLINE
  5
2FF
100
AcDbEntity
  8
0
100
AcDbSpline
 62
7
  6
BYLAYER
 70
0
 71
3
 72
14
 73
10
 74
0
 42
0.0000001
 43
0.0000001
 44
0.0000000001
 40
0.0
 40
0.0
 40
0.0
 40
0.0
 40
0.1012111365
 40
0.2056752943
 40
0.3161461453
 40
0.434610935
 40
0.5622053395
 40
0.6992936983
 40
1.0
 40
1.0
 40
1.0
 40
1.0
 10
28.0007175623
 20
56.9960786969
 30
0.0
 10
28.0708826582
 20
57.0365875815
 30
0.0
 10
28.2233303014
 20
57.1029409728
 30
0.0
 10
28.4735370482
 20
57.1513250993
 30
0.0
 10
28.7419817932
 20
57.1493277965
 30
0.0
 10
29.0239023378
 20
57.0976140543
 30
0.0
 10
29.3149118795
 20
56.9975887104
 30
0.0
 10
29.7212879443
 20
56.7962895213
 30
0.0
 10
30.0066841085
 20
56.5874032663
 30
0.0
 10
30.188377205
 20
56.4295075206
 30
0.0
  0
SPLINE
  5
300
100
AcDbEntity
  8
0
100
AcDbSpline
 62
7
  6
BYLAYER
 70
0
 71
3
 72
9
 73
5
 74
0
 42
0.0000001
 43
0.0000001
 44
0.0000000001
 40
0.0
 40
0.0
 40
0.0
 40
0.0
 40
0.2449724228
 40
1.0
 40
1.0
 40
1.0
 40
1.0
 10
30.188377205
 20
56.4295075206
 30
0.0
 10
30.2214793039
 20
56.4007409868
 30
0.0
 10
30.3547648091
 20
56.2812059459
 30
0.0
 10
30.4807826259
 20
56.1536185528
 30
0.0
 10
30.5717565796
 20
56.0536517035
 30
0.0
  0
SPLINE
  5
301
100
AcDbEntity
  8
0
100
AcDbSpline
 62
7
  6
BYLAYER
 70
0
 71
3
 72
12
 73
8
 74
0
 42
0.0000001
 43
0.0000001
 44
0.0000000001
 40
0.0
 40
0.0
 40
0.0
 40
0.0
 40
0.2579978011
 40
0.5196990152
 40
0.7709979188
 40
0.8889915684
 40
1.0
 40
1.0
 40
1.0
 40
1.0
 10
30.5717565796
 20
56.0536517035
 30
0.0
 10
30.7767627304
 20
55.8283804235
 30
0.0
 10
31.1488772649
 20
55.3360574496
 30
0.0
 10
31.5747025121
 20
54.5276018601
 30
0.0
 10
31.8095518324
 20
53.8158368533
 30
0.0
 10
31.906498333
 20
53.2563265584
 30
0.0
 10
31.9238057637
 20
52.9857840868
 30
0.0
 10
31.9238057637
 20
52.854728761
 30
0.0
  0
SPLINE
  5
302
100
AcDbEntity
  8
0
100
AcDbSpline
 62
7
  6
BYLAYER
 70
0
 71
3
 72
13
 73
9
 74
0
 42
0.0000001
 43
0.0000001
 44
0.0000000001
 40
0.0
 40
0.0
 40
0.0
 40
0.0
 40
0.2893758472
 40
0.5483125318
 40
0.667742305
 40
0.7817675149
 40
0.8919067191
 40
1.0
 40
1.0
 40
1.0
 40
1.0
 10
39.4191688502
 20
48.5273767631
 30
0.0
 10
39.4191688502
 20
48.3626634446
 30
0.0
 10
39.3943397523
 20
48.0496279328
 30
0.0
 10
39.2855956605
 20
47.6813698006
 30
0.0
 10
39.1535679769
 20
47.4331727877
 30
0.0
 10
39.0371249234
 20
47.2750801827
 30
0.0
 10
38.9017999281
 20
47.1418148483
 30
0.0
 10
38.7993280223
 20
47.0703546464
 30
0.0
 10
38.7460438382
 20
47.0395917316
 30
0.0
  0
SPLINE
  5
303
100
AcDbEntity
  8
0
100
AcDbSpline
 62
7
  6
BYLAYER
 70
0
 71
3
 72
13
 73
9
 74
0
 42
0.0000001
 43
0.0000001
 44
0.0000000001
 40
0.0
 40
0.0
 40
0.0
 40
0.0
 40
0.2893758472
 40
0.5483125318
 40
0.667742305
 40
0.7817675149
 40
0.8919067191
 40
1.0
 40
1.0
 40
1.0
 40
1.0
 10
31.9238057637
 20
52.854728761
 30
0.0
 10
31.9238057637
 20
52.6900154425
 30
0.0
 10
31.8989766658
 20
52.3769799307
 30
0.0
 10
31.7902325739
 20
52.0087217985
 30
0.0
 10
31.6582048903
 20
51.7605247856
 30
0.0
 10
31.5417618368
 20
51.6024321806
 30
0.0
 10
31.4064368416
 20
51.4691668463
 30
0.0
 10
31.3039649357
 20
51.3977066443
 30
0.0
 10
31.2506807516
 20
51.3669437295
 30
0.0
  0
SPLINE
  5
304
100
AcDbEntity
  8
0
100
AcDbSpline
 62
7
  6
BYLAYER
 70
0
 71
3
 72
13
 73
9
 74
0
 42
0.0000001
 43
0.0000001
 44
0.0000000001
 40
0.0
 40
0.0
 40
0.0
 40
0.0
 40
0.2893758472
 40
0.5483125318
 40
0.667742305
 40
0.7817675149
 40
0.8919067191
 40
1.0
 40
1.0
 40
1.0
 40
1.0
 10
24.4284426771
 20
57.1820807589
 30
0.0
 10
24.4284426771
 20
57.0173674404
 30
0.0
 10
24.4036135792
 20
56.7043319286
 30
0.0
 10
24.2948694874
 20
56.3360737964
 30
0.0
 10
24.1628418038
 20
56.0878767835
 30
0.0
 10
24.0463987503
 20
55.9297841785
 30
0.0
 10
23.911073755
 20
55.7965188442
 30
0.0
 10
23.8086018492
 20
55.7250586422
 30
0.0
 10
23.7553176651
 20
55.6942957274
 30
0.0
  0
SPLINE
  5
305
100
AcDbEntity
  8
0
100
AcDbSpline
 62
7
  6
BYLAYER
 70
0
 71
3
 72
13
 73
9
 74
0
 42
0.0000001
 43
0.0000001
 44
0.0000000001
 40
0.0
 40
0.0
 40
0.0
 40
0.0
 40
0.2893758472
 40
0.5483125318
 40
0.667742305
 40
0.7817675149
 40
0.8919067191
 40
1.0
 40
1.0
 40
1.0
 40
1.0
 10
16.9330795906
 20
61.5094327568
 30
0.0
 10
16.9330795906
 20
61.3447194383
 30
0.0
 10
16.9082504927
 20
61.0316839265
 30
0.0
 10
16.7995064008
 20
60.6634257943
 30
0.0
 10
16.6674787172
 20
60.4152287814
 30
0.0
 10
16.5510356637
 20
60.2571361764
 30
0.0
 10
16.4157106684
 20
60.1238708421
 30
0.0
 10
16.3132387626
 20
60.0524106401
 30
0.0
 10
16.2599545785
 20
60.0216477253
 30
0.0
  0
SPLINE
  5
306
100
AcDbEntity
  8
0
100
AcDbSpline
 62
7
  6
BYLAYER
 70
0
 71
3
 72
15
 73
11
 74
0
 42
0.0000001
 43
0.0000001
 44
0.0000000001
 40
0.0
 40
0.0
 40
0.0
 40
0.0
 40
0.1218748909
 40
0.2486081223
 40
0.3782826942
 40
0.5089069518
 40
0.6382542869
 40
0.764225417
 40
0.8852579561
 40
1.0
 40
1.0
 40
1.0
 40
1.0
 10
35.9822831591
 20
50.9765087886
 30
0.0
 10
36.0046956847
 20
50.8305457393
 30
0.0
 10
36.0695055924
 20
50.5355074964
 30
0.0
 10
36.2173215404
 20
50.100774509
 30
0.0
 10
36.4138834352
 20
49.6740911548
 30
0.0
 10
36.6536559929
 20
49.2664706817
 30
0.0
 10
36.9305401726
 20
48.8886105733
 30
0.0
 10
37.2375974268
 20
48.5502224267
 30
0.0
 10
37.5677901129
 20
48.2604958421
 30
0.0
 10
37.8055604684
 20
48.1001869437
 30
0.0
 10
37.9264131521
 20
48.0314538022
 30
0.0
  0
SPLINE
  5
307
100
AcDbEntity
  8
0
100
AcDbSpline
 62
7
  6
BYLAYER
 70
0
 71
3
 72
11
 73
7
 74
0
 42
0.0000001
 43
0.0000001
 44
0.0000000001
 40
0.0
 40
0.0
 40
0.0
 40
0.0
 40
0.2675875016
 40
0.5213146253
 40
0.7642081855
 40
1.0
 40
1.0
 40
1.0
 40
1.0
 10
37.9264131521
 20
48.0314538022
 30
0.0
 10
38.035137865
 20
47.9696182611
 30
0.0
 10
38.2556690078
 20
47.8634512032
 30
0.0
 10
38.6005098461
 20
47.7631009025
 30
0.0
 10
38.9440695082
 20
47.7337138271
 30
0.0
 10
39.1681092948
 20
47.7664656661
 30
0.0
 10
39.2741781354
 20
47.7964168008
 30
0.0
  0
SPLINE
  5
308
100
AcDbEntity
  8
0
100
AcDbSpline
 62
7
  6
BYLAYER
 70
0
 71
3
 72
9
 73
5
 74
0
 42
0.0000001
 43
0.0000001
 44
0.0000000001
 40
0.0
 40
0.0
 40
0.0
 40
0.0
 40
0.2798206107
 40
1.0
 40
1.0
 40
1.0
 40
1.0
 10
10.4276665864
 20
71.1032294756
 30
0.0
 10
10.4097842782
 20
71.0929051818
 30
0.0
 10
10.3481288311
 20
71.0528015562
 30
0.0
 10
10.2947484249
 20
70.9961452833
 30
0.0
 10
10.2723762792
 20
70.9479398953
 30
0.0
  0
SPLINE
  5
309
100
AcDbEntity
  8
0
100
AcDbSpline
 62
7
  6
BYLAYER
 70
0
 71
3
 72
11
 73
7
 74
0
 42
0.0000001
 43
0.0000001
 44
0.0000000001
 40
0.0
 40
0.0
 40
0.0
 40
0.0
 40
0.2372428732
 40
0.4999994739
 40
0.7627563609
 40
1.0
 40
1.0
 40
1.0
 40
1.0
 10
43.1241624447
 20
87.9800511251
 30
0.0
 10
43.0840064504
 20
87.9568671894
 30
0.0
 10
42.9906238513
 20
87.9230404983
 30
0.0
 10
42.8413201769
 20
87.906832298
 30
0.0
 10
42.6920162772
 20
87.923039817
 30
0.0
 10
42.5986333108
 20
87.9568660444
 30
0.0
 10
42.5584770197
 20
87.9800497654
 30
0.0
  0
SPLINE
  5
30A
100
AcDbEntity
  8
0
100
AcDbSpline
 62
7
  6
BYLAYER
 70
0
 71
3
 72
10
 73
6
 74
0
 42
0.0000001
 43
0.0000001
 44
0.0000000001
 40
0.0
 40
0.0
 40
0.0
 40
0.0
 40
0.2416366576
 40
0.4877627441
 40
1.0
 40
1.0
 40
1.0
 40
1.0
 10
36.4182994009
 20
52.7503267436
 30
0.0
 10
36.3611571533
 20
52.6950243912
 30
0.0
 10
36.2560528108
 20
52.5722929496
 30
0.0
 10
36.0875255612
 20
52.2882626982
 30
0.0
 10
36.0128824725
 20
52.0455193128
 30
0.0
 10
35.9827116616
 20
51.8796674254
 30
0.0
  0
SPLINE
  5
30B
100
AcDbEntity
  8
0
100
AcDbSpline
 62
7
  6
BYLAYER
 70
0
 71
3
 72
18
 73
14
 74
0
 42
0.0000001
 43
0.0000001
 44
0.0000000001
 40
0.0
 40
0.0
 40
0.0
 40
0.0
 40
0.1286581296
 40
0.2702067865
 40
0.4173258058
 40
0.5616289458
 40
0.6952630981
 40
0.7562687893
 40
0.8127604333
 40
0.8647095426
 40
0.9125329568
 40
0.9571493345
 40
1.0
 40
1.0
 40
1.0
 40
1.0
 10
17.4422015366
 20
56.7247448737
 30
0.0
 10
17.5717477196
 20
56.6499530421
 30
0.0
 10
17.823210524
 20
56.4564538566
 30
0.0
 10
18.1450359126
 20
56.0902981446
 30
0.0
 10
18.4099784162
 20
55.6593583724
 30
0.0
 10
18.5960026976
 20
55.199076346
 30
0.0
 10
18.6753986207
 20
54.8098670027
 30
0.0
 10
18.682917244
 20
54.5172929512
 30
0.0
 10
18.6617069045
 20
54.3207348804
 30
0.0
 10
18.6140711829
 20
54.1445111058
 30
0.0
 10
18.5405581214
 20
53.9922900427
 30
0.0
 10
18.4421029135
 20
53.8678628478
 30
0.0
 10
18.3603432769
 20
53.805230363
 30
0.0
 10
18.3171936133
 20
53.7803259043
 30
0.0
  0
SPLINE
  5
30C
100
AcDbEntity
  8
0
100
AcDbSpline
 62
7
  6
BYLAYER
 70
0
 71
3
 72
14
 73
10
 74
0
 42
0.0000001
 43
0.0000001
 44
0.0000000001
 40
0.0
 40
0.0
 40
0.0
 40
0.0
 40
0.1012111365
 40
0.2056752943
 40
0.3161461453
 40
0.434610935
 40
0.5622053395
 40
0.6992936983
 40
1.0
 40
1.0
 40
1.0
 40
1.0
 10
35.4960806488
 20
52.6687266989
 30
0.0
 10
35.5662457448
 20
52.7092355836
 30
0.0
 10
35.718693388
 20
52.7755889749
 30
0.0
 10
35.9689001347
 20
52.8239731014
 30
0.0
 10
36.2373448797
 20
52.8219757985
 30
0.0
 10
36.5192654244
 20
52.7702620564
 30
0.0
 10
36.810274966
 20
52.6702367125
 30
0.0
 10
37.2166510308
 20
52.4689375234
 30
0.0
 10
37.502047195
 20
52.2600512684
 30
0.0
 10
37.6837402915
 20
52.1021555227
 30
0.0
  0
SPLINE
  5
30D
100
AcDbEntity
  8
0
100
AcDbSpline
 62
7
  6
BYLAYER
 70
0
 71
3
 72
9
 73
5
 74
0
 42
0.0000001
 43
0.0000001
 44
0.0000000001
 40
0.0
 40
0.0
 40
0.0
 40
0.0
 40
0.2449724228
 40
1.0
 40
1.0
 40
1.0
 40
1.0
 10
37.6837402915
 20
52.1021555227
 30
0.0
 10
37.7168423905
 20
52.0733889889
 30
0.0
 10
37.8501278956
 20
51.953853948
 30
0.0
 10
37.9761457125
 20
51.8262665549
 30
0.0
 10
38.0671196662
 20
51.7262997056
 30
0.0
  0
SPLINE
  5
30E
100
AcDbEntity
  8
0
100
AcDbSpline
 62
7
  6
BYLAYER
 70
0
 71
3
 72
12
 73
8
 74
0
 42
0.0000001
 43
0.0000001
 44
0.0000000001
 40
0.0
 40
0.0
 40
0.0
 40
0.0
 40
0.2579978011
 40
0.5196990152
 40
0.7709979188
 40
0.8889915684
 40
1.0
 40
1.0
 40
1.0
 40
1.0
 10
38.0671196662
 20
51.7262997056
 30
0.0
 10
38.272125817
 20
51.5010284256
 30
0.0
 10
38.6442403514
 20
51.0087054517
 30
0.0
 10
39.0700655987
 20
50.2002498622
 30
0.0
 10
39.3049149189
 20
49.4884848554
 30
0.0
 10
39.4018614196
 20
48.9289745605
 30
0.0
 10
39.4191688502
 20
48.6584320889
 30
0.0
 10
39.4191688502
 20
48.5273767631
 30
0.0
  0
SPLINE
  5
30F
100
AcDbEntity
  8
0
100
AcDbSpline
 62
7
  6
BYLAYER
 70
0
 71
3
 72
11
 73
7
 74
0
 42
0.0000001
 43
0.0000001
 44
0.0000000001
 40
0.0
 40
0.0
 40
0.0
 40
0.0
 40
0.2177849011
 40
0.4509184398
 40
0.7103088704
 40
1.0
 40
1.0
 40
1.0
 40
1.0
 10
16.56720946
 20
56.8114053832
 30
0.0
 10
16.6249395009
 20
56.8447251196
 30
0.0
 10
16.7575671554
 20
56.8928720143
 30
0.0
 10
16.9778751303
 20
56.8984452409
 30
0.0
 10
17.2126621977
 20
56.841744375
 30
0.0
 10
17.3654164569
 20
56.7690757573
 30
0.0
 10
17.4422015366
 20
56.7247448737
 30
0.0
  0
SPLINE
  5
310
100
AcDbEntity
  8
0
100
AcDbSpline
 62
7
  6
BYLAYER
 70
0
 71
3
 72
17
 73
13
 74
0
 42
0.0000001
 43
0.0000001
 44
0.0000000001
 40
0.0
 40
0.0
 40
0.0
 40
0.0
 40
0.0428562083
 40
0.0874835942
 40
0.1353101945
 40
0.1872756535
 40
0.3045352252
 40
0.4381974174
 40
0.5825364891
 40
0.729684431
 40
0.8713141331
 40
1.0
 40
1.0
 40
1.0
 40
1.0
 10
54.1137266488
 20
29.1148940662
 30
0.0
 10
54.1137270655
 20
29.0921223038
 30
0.0
 10
54.1076824412
 20
29.0454316367
 30
0.0
 10
54.0808635804
 20
28.9780457733
 30
0.0
 10
54.0374600331
 20
28.9141179897
 30
0.0
 10
53.9556391152
 20
28.832070284
 30
0.0
 10
53.8163080666
 20
28.7472162262
 30
0.0
 10
53.6159314273
 20
28.6802823249
 30
0.0
 10
53.3910763527
 20
28.6486877712
 30
0.0
 10
53.1599311615
 20
28.6550550195
 30
0.0
 10
52.9413961545
 20
28.6987952128
 30
0.0
 10
52.8072935356
 20
28.7541105116
 30
0.0
 10
52.7480764761
 20
28.7882987234
 30
0.0
  0
SPLINE
  5
311
100
AcDbEntity
  8
0
100
AcDbSpline
 62
7
  6
BYLAYER
 70
0
 71
3
 72
11
 73
7
 74
0
 42
0.0000001
 43
0.0000001
 44
0.0000000001
 40
0.0
 40
0.0
 40
0.0
 40
0.0
 40
0.2897943355
 40
0.5490371038
 40
0.7822196522
 40
1.0
 40
1.0
 40
1.0
 40
1.0
 10
52.2530180834
 20
39.4437773073
 30
0.0
 10
52.1871891519
 20
39.4817889769
 30
0.0
 10
52.0677837629
 20
39.5640005302
 30
0.0
 10
51.9251555957
 20
39.7140266225
 30
0.0
 10
51.8348539779
 20
39.8798784463
 30
0.0
 10
51.8137557399
 20
39.9989685331
 30
0.0
 10
51.8137595461
 20
40.0560940525
 30
0.0
  0
SPLINE
  5
312
100
AcDbEntity
  8
0
100
AcDbSpline
 62
7
  6
BYLAYER
 70
0
 71
3
 72
11
 73
7
 74
0
 42
0.0000001
 43
0.0000001
 44
0.0000000001
 40
0.0
 40
0.0
 40
0.0
 40
0.0
 40
0.2177841245
 40
0.4509134161
 40
0.7102981486
 40
1.0
 40
1.0
 40
1.0
 40
1.0
 10
54.8137595456
 20
40.0560940525
 30
0.0
 10
54.8137557389
 20
39.9989612266
 30
0.0
 10
54.7926442246
 20
39.8798789407
 30
0.0
 10
54.7023673533
 20
39.7139586138
 30
0.0
 10
54.5596521465
 20
39.5639773179
 30
0.0
 10
54.4402417273
 20
39.4817324993
 30
0.0
 10
54.3744241279
 20
39.4437329174
 30
0.0
  0
SPLINE
  5
313
100
AcDbEntity
  8
0
100
AcDbSpline
 62
7
  6
BYLAYER
 70
0
 71
3
 72
12
 73
8
 74
0
 42
0.0000001
 43
0.0000001
 44
0.0000000001
 40
0.0
 40
0.0
 40
0.0
 40
0.0
 40
0.2370205141
 40
0.499627205
 40
0.7622465782
 40
0.8857432489
 40
1.0
 40
1.0
 40
1.0
 40
1.0
 10
26.7268089501
 20
44.464970751
 30
0.0
 10
26.6465202851
 20
44.4185562378
 30
0.0
 10
26.4596894394
 20
44.3508033632
 30
0.0
 10
26.1612355079
 20
44.3183093539
 30
0.0
 10
25.9062782482
 20
44.3458713917
 30
0.0
 10
25.7185447181
 20
44.4029747654
 30
0.0
 10
25.6337792382
 20
44.4423913897
 30
0.0
 10
25.5950630305
 20
44.464743697
 30
0.0
  0
SPLINE
  5
314
100
AcDbEntity
  8
0
100
AcDbSpline
 62
7
  6
BYLAYER
 70
0
 71
3
 72
11
 73
7
 74
0
 42
0.0000001
 43
0.0000001
 44
0.0000000001
 40
0.0
 40
0.0
 40
0.0
 40
0.0
 40
0.2895473313
 40
0.5491390889
 40
0.7822792833
 40
1.0
 40
1.0
 40
1.0
 40
1.0
 10
25.5950630305
 20
44.464743697
 30
0.0
 10
25.5599791034
 20
44.4849989535
 30
0.0
 10
25.4963125817
 20
44.5288985941
 30
0.0
 10
25.4201534435
 20
44.6088511243
 30
0.0
 10
25.3719803407
 20
44.6973662097
 30
0.0
 10
25.3607795548
 20
44.7608772188
 30
0.0
 10
25.3607789974
 20
44.7913390005
 30
0.0
  0
SPLINE
  5
315
100
AcDbEntity
  8
0
100
AcDbSpline
 62
7
  6
BYLAYER
 70
0
 71
3
 72
13
 73
9
 74
0
 42
0.0000001
 43
0.0000001
 44
0.0000000001
 40
0.0
 40
0.0
 40
0.0
 40
0.0
 40
0.1142089208
 40
0.2375744571
 40
0.5000109676
 40
0.7624670947
 40
0.8857503838
 40
1.0
 40
1.0
 40
1.0
 40
1.0
 10
54.0915373039
 20
39.2803854299
 30
0.0
 10
54.0383130251
 20
39.2496565617
 30
0.0
 10
53.9218413567
 20
39.1954544804
 30
0.0
 10
53.663789624
 20
39.1170170678
 30
0.0
 10
53.3137008472
 20
39.0789895515
 30
0.0
 10
52.9636759269
 20
39.1170652566
 30
0.0
 10
52.7056138022
 20
39.1954403109
 30
0.0
 10
52.589186235
 20
39.2496864645
 30
0.0
 10
52.535944593
 20
39.2804290566
 30
0.0
  0
SPLINE
  5
316
100
AcDbEntity
  8
0
100
AcDbSpline
 62
7
  6
BYLAYER
 70
0
 71
3
 72
11
 73
7
 74
0
 42
0.0000001
 43
0.0000001
 44
0.0000000001
 40
0.0
 40
0.0
 40
0.0
 40
0.0
 40
0.2895473313
 40
0.5491390889
 40
0.7822792833
 40
1.0
 40
1.0
 40
1.0
 40
1.0
 10
52.7480764761
 20
28.7882987234
 30
0.0
 10
52.712992549
 20
28.8085539799
 30
0.0
 10
52.6493260274
 20
28.8524536206
 30
0.0
 10
52.5731668892
 20
28.9324061507
 30
0.0
 10
52.5249937863
 20
29.0209212361
 30
0.0
 10
52.5137930005
 20
29.0844322453
 30
0.0
 10
52.513792443
 20
29.1148940269
 30
0.0
  0
SPLINE
  5
317
100
AcDbEntity
  8
0
100
AcDbSpline
 62
7
  6
BYLAYER
 70
0
 71
3
 72
14
 73
10
 74
0
 42
0.0000001
 43
0.0000001
 44
0.0000000001
 40
0.0
 40
0.0
 40
0.0
 40
0.0
 40
0.1012111365
 40
0.2056752943
 40
0.3161461453
 40
0.434610935
 40
0.5622053395
 40
0.6992936983
 40
1.0
 40
1.0
 40
1.0
 40
1.0
 10
13.0099913892
 20
65.6507826927
 30
0.0
 10
13.0801564851
 20
65.6912915773
 30
0.0
 10
13.2326041283
 20
65.7576449687
 30
0.0
 10
13.482810875
 20
65.8060290951
 30
0.0
 10
13.7512556201
 20
65.8040317923
 30
0.0
 10
14.0331761647
 20
65.7523180501
 30
0.0
 10
14.3241857063
 20
65.6522927062
 30
0.0
 10
14.7305617711
 20
65.4509935171
 30
0.0
 10
15.0159579354
 20
65.2421072621
 30
0.0
 10
15.1976510318
 20
65.0842115165
 30
0.0
  0
SPLINE
  5
318
100
AcDbEntity
  8
0
100
AcDbSpline
 62
7
  6
BYLAYER
 70
0
 71
3
 72
9
 73
5
 74
0
 42
0.0000001
 43
0.0000001
 44
0.0000000001
 40
0.0
 40
0.0
 40
0.0
 40
0.0
 40
0.2449724228
 40
1.0
 40
1.0
 40
1.0
 40
1.0
 10
15.1976510318
 20
65.0842115165
 30
0.0
 10
15.2307531308
 20
65.0554449827
 30
0.0
 10
15.364038636
 20
64.9359099417
 30
0.0
 10
15.4900564528
 20
64.8083225487
 30
0.0
 10
15.5810304065
 20
64.7083556993
 30
0.0
  0
SPLINE
  5
319
100
AcDbEntity
  8
0
100
AcDbSpline
 62
7
  6
BYLAYER
 70
0
 71
3
 72
12
 73
8
 74
0
 42
0.0000001
 43
0.0000001
 44
0.0000000001
 40
0.0
 40
0.0
 40
0.0
 40
0.0
 40
0.2579978011
 40
0.5196990152
 40
0.7709979188
 40
0.8889915684
 40
1.0
 40
1.0
 40
1.0
 40
1.0
 10
15.5810304065
 20
64.7083556993
 30
0.0
 10
15.7860365573
 20
64.4830844194
 30
0.0
 10
16.1581510917
 20
63.9907614454
 30
0.0
 10
16.583976339
 20
63.1823058559
 30
0.0
 10
16.8188256593
 20
62.4705408492
 30
0.0
 10
16.9157721599
 20
61.9110305543
 30
0.0
 10
16.9330795906
 20
61.6404880827
 30
0.0
 10
16.9330795906
 20
61.5094327568
 30
0.0
  0
SPLINE
  5
31A
100
AcDbEntity
  8
0
100
AcDbSpline
 62
7
  6
BYLAYER
 70
0
 71
3
 72
11
 73
7
 74
0
 42
0.0000001
 43
0.0000001
 44
0.0000000001
 40
0.0
 40
0.0
 40
0.0
 40
0.0
 40
0.2675875016
 40
0.5213146253
 40
0.7642081855
 40
1.0
 40
1.0
 40
1.0
 40
1.0
 10
15.4403238924
 20
61.0135097959
 30
0.0
 10
15.5490486053
 20
60.9516742549
 30
0.0
 10
15.7695797481
 20
60.8455071969
 30
0.0
 10
16.1144205864
 20
60.7451568962
 30
0.0
 10
16.4579802486
 20
60.7157698208
 30
0.0
 10
16.6820200351
 20
60.7485216598
 30
0.0
 10
16.7880888757
 20
60.7784727946
 30
0.0
  0
SPLINE
  5
31B
100
AcDbEntity
  8
0
100
AcDbSpline
 62
7
  6
BYLAYER
 70
0
 71
3
 72
15
 73
11
 74
0
 42
0.0000001
 43
0.0000001
 44
0.0000000001
 40
0.0
 40
0.0
 40
0.0
 40
0.0
 40
0.1218748909
 40
0.2486081223
 40
0.3782826942
 40
0.5089069518
 40
0.6382542869
 40
0.764225417
 40
0.8852579561
 40
1.0
 40
1.0
 40
1.0
 40
1.0
 10
13.4961938994
 20
63.9585647824
 30
0.0
 10
13.518606425
 20
63.812601733
 30
0.0
 10
13.5834163328
 20
63.5175634901
 30
0.0
 10
13.7312322808
 20
63.0828305027
 30
0.0
 10
13.9277941755
 20
62.6561471486
 30
0.0
 10
14.1675667333
 20
62.2485266755
 30
0.0
 10
14.444450913
 20
61.870666567
 30
0.0
 10
14.7515081671
 20
61.5322784204
 30
0.0
 10
15.0817008532
 20
61.2425518359
 30
0.0
 10
15.3194712087
 20
61.0822429374
 30
0.0
 10
15.4403238924
 20
61.0135097959
 30
0.0
  0
SPLINE
  5
31C
100
AcDbEntity
  8
0
100
AcDbSpline
 62
7
  6
BYLAYER
 70
0
 71
3
 72
10
 73
6
 74
0
 42
0.0000001
 43
0.0000001
 44
0.0000000001
 40
0.0
 40
0.0
 40
0.0
 40
0.0
 40
0.2416366576
 40
0.4877627441
 40
1.0
 40
1.0
 40
1.0
 40
1.0
 10
13.9322101412
 20
65.7323827373
 30
0.0
 10
13.8750678936
 20
65.677080385
 30
0.0
 10
13.7699635511
 20
65.5543489434
 30
0.0
 10
13.6014363015
 20
65.270318692
 30
0.0
 10
13.5267932128
 20
65.0275753066
 30
0.0
 10
13.496622402
 20
64.8617234192
 30
0.0
  0
SPLINE
  5
31D
100
AcDbEntity
  8
0
100
AcDbSpline
 62
7
  6
BYLAYER
 70
0
 71
3
 72
11
 73
7
 74
0
 42
0.0000001
 43
0.0000001
 44
0.0000000001
 40
0.0
 40
0.0
 40
0.0
 40
0.0
 40
0.295096
 40
0.55478397
 40
0.7841828197
 40
1.0
 40
1.0
 40
1.0
 40
1.0
 10
13.6162949776
 20
64.6725875972
 30
0.0
 10
13.5960396649
 20
64.6842817429
 30
0.0
 10
13.559702424
 20
64.7096425289
 30
0.0
 10
13.5176902578
 20
64.7564230004
 30
0.0
 10
13.4944121094
 20
64.8084731239
 30
0.0
 10
13.4935681933
 20
64.8448947485
 30
0.0
 10
13.4966320685
 20
64.8617233275
 30
0.0
  0
LINE
  5
31E
100
AcDbEntity
  8
0
100
AcDbLine
 62
7
  6
BYLAYER
 10
36.071947827
 20
51.1504984927
 11
36.4985338508
 21
51.4618193979
  0
SPLINE
  5
31F
100
AcDbEntity
  8
0
100
AcDbSpline
 62
7
  6
BYLAYER
 70
0
 71
3
 72
11
 73
7
 74
0
 42
0.0000001
 43
0.0000001
 44
0.0000000001
 40
0.0
 40
0.0
 40
0.0
 40
0.0
 40
0.295096
 40
0.55478397
 40
0.7841828197
 40
1.0
 40
1.0
 40
1.0
 40
1.0
 10
36.1023842373
 20
51.6905316035
 30
0.0
 10
36.0821289246
 20
51.7022257491
 30
0.0
 10
36.0457916836
 20
51.7275865351
 30
0.0
 10
36.0037795175
 20
51.7743670067
 30
0.0
 10
35.9805013691
 20
51.8264171301
 30
0.0
 10
35.979657453
 20
51.8628387548
 30
0.0
 10
35.9827213282
 20
51.8796673338
 30
0.0
  0
SPLINE
  5
320
100
AcDbEntity
  8
0
100
AcDbSpline
 62
7
  6
BYLAYER
 70
0
 71
3
 72
11
 73
7
 74
0
 42
0.0000001
 43
0.0000001
 44
0.0000000001
 40
0.0
 40
0.0
 40
0.0
 40
0.0
 40
0.295096
 40
0.55478397
 40
0.7841828197
 40
1.0
 40
1.0
 40
1.0
 40
1.0
 10
21.1116580641
 20
60.3452355993
 30
0.0
 10
21.0914027515
 20
60.356929745
 30
0.0
 10
21.0550655105
 20
60.382290531
 30
0.0
 10
21.0130533444
 20
60.4290710025
 30
0.0
 10
20.9897751959
 20
60.4811211259
 30
0.0
 10
20.9889312799
 20
60.5175427506
 30
0.0
 10
20.9919951551
 20
60.5343713296
 30
0.0
  0
LINE
  5
321
100
AcDbEntity
  8
0
100
AcDbLine
 62
7
  6
BYLAYER
 10
21.0812216539
 20
59.8052024885
 11
21.5078076777
 21
60.1165233937
  0
LINE
  5
322
100
AcDbEntity
  8
0
100
AcDbLine
 62
7
  6
BYLAYER
 10
28.5765847404
 20
55.4778504906
 11
29.0031707643
 21
55.7891713958
  0
SPLINE
  5
323
100
AcDbEntity
  8
0
100
AcDbSpline
 62
7
  6
BYLAYER
 70
0
 71
3
 72
11
 73
7
 74
0
 42
0.0000001
 43
0.0000001
 44
0.0000000001
 40
0.0
 40
0.0
 40
0.0
 40
0.0
 40
0.295096
 40
0.55478397
 40
0.7841828197
 40
1.0
 40
1.0
 40
1.0
 40
1.0
 10
28.6070211507
 20
56.0178836014
 30
0.0
 10
28.5867658381
 20
56.0295777471
 30
0.0
 10
28.5504285971
 20
56.054938533
 30
0.0
 10
28.5084164309
 20
56.1017190046
 30
0.0
 10
28.4851382825
 20
56.153769128
 30
0.0
 10
28.4842943664
 20
56.1901907527
 30
0.0
 10
28.4873582417
 20
56.2070193317
 30
0.0
  0
SPLINE
  5
324
100
AcDbEntity
  8
0
100
AcDbSpline
 62
7
  6
BYLAYER
 70
0
 71
3
 72
9
 73
5
 74
0
 42
0.0000001
 43
0.0000001
 44
0.0000000001
 40
0.0
 40
0.0
 40
0.0
 40
0.0
 40
0.2404205211
 40
1.0
 40
1.0
 40
1.0
 40
1.0
 10
15.4369304193
 20
61.174856535
 30
0.0
 10
15.4048931684
 20
61.1913418567
 30
0.0
 10
15.2733757427
 20
61.2632702604
 30
0.0
 10
15.1488828247
 20
61.3477640424
 30
0.0
 10
15.0585678929
 20
61.4170528284
 30
0.0
  0
SPLINE
  5
325
100
AcDbEntity
  8
0
100
AcDbSpline
 62
7
  6
BYLAYER
 70
0
 71
3
 72
21
 73
17
 74
0
 42
0.0000001
 43
0.0000001
 44
0.0000000001
 40
0.0
 40
0.0
 40
0.0
 40
0.0
 40
0.0428242151
 40
0.0874184501
 40
0.1352151148
 40
0.1871374984
 40
0.2436001344
 40
0.3045743552
 40
0.3696885587
 40
0.4383156914
 40
0.5825454457
 40
0.729584429
 40
0.8015927152
 40
0.8712098638
 40
0.9376095462
 40
1.0
 40
1.0
 40
1.0
 40
1.0
 10
31.2506807516
 20
51.3669437295
 30
0.0
 10
31.1705589861
 20
51.3206864941
 30
0.0
 10
30.9939464761
 20
51.2472662504
 30
0.0
 10
30.7023919508
 20
51.2045343574
 30
0.0
 10
30.3893133279
 20
51.2276034315
 30
0.0
 10
30.0616452693
 20
51.3146288347
 30
0.0
 10
29.7258410336
 20
51.4630481686
 30
0.0
 10
29.3885915277
 20
51.6693928786
 30
0.0
 10
29.0566815714
 20
51.9291898095
 30
0.0
 10
28.6235819207
 20
52.3464206285
 30
0.0
 10
28.1423690915
 20
52.9626281169
 30
0.0
 10
27.7669580592
 20
53.6562920644
 30
0.0
 10
27.5432376062
 20
54.2391582769
 30
0.0
 10
27.4210023574
 20
54.6723684189
 30
0.0
 10
27.3459096643
 20
55.0950908927
 30
0.0
 10
27.3275925502
 20
55.3735072697
 30
0.0
 10
27.3275925502
 20
55.5082936654
 30
0.0
  0
SPLINE
  5
326
100
AcDbEntity
  8
0
100
AcDbSpline
 62
7
  6
BYLAYER
 70
0
 71
3
 72
15
 73
11
 74
0
 42
0.0000001
 43
0.0000001
 44
0.0000000001
 40
0.0
 40
0.0
 40
0.0
 40
0.0
 40
0.1483273353
 40
0.2857268036
 40
0.4131741131
 40
0.5327393334
 40
0.6474215043
 40
0.7609662909
 40
0.8773071735
 40
1.0
 40
1.0
 40
1.0
 40
1.0
 10
15.4864505331
 20
61.1289475943
 30
0.0
 10
15.5617344405
 20
61.0926296191
 30
0.0
 10
15.7111884979
 20
61.031226305
 30
0.0
 10
15.9379816499
 20
60.9746050712
 30
0.0
 10
16.1551944303
 20
60.9581868207
 30
0.0
 10
16.3590048418
 20
60.9829205614
 30
0.0
 10
16.5453232549
 20
61.0490139989
 30
0.0
 10
16.7098479826
 20
61.1554545851
 30
0.0
 10
16.848830974
 20
61.2996288315
 30
0.0
 10
16.9205181659
 20
61.4148792139
 30
0.0
 10
16.9516491782
 20
61.4766147471
 30
0.0
  0
SPLINE
  5
327
100
AcDbEntity
  8
0
100
AcDbSpline
 62
7
  6
BYLAYER
 70
0
 71
3
 72
15
 73
11
 74
0
 42
0.0000001
 43
0.0000001
 44
0.0000000001
 40
0.0
 40
0.0
 40
0.0
 40
0.0
 40
0.1218366395
 40
0.249418457
 40
0.3803284421
 40
0.5121608316
 40
0.6423473203
 40
0.7684208496
 40
0.8882667679
 40
1.0
 40
1.0
 40
1.0
 40
1.0
 10
13.6162924283
 20
63.809048721
 30
0.0
 10
13.6381705124
 20
63.6798214596
 30
0.0
 10
13.6995852401
 20
63.4179038975
 30
0.0
 10
13.8357726293
 20
63.0313635338
 30
0.0
 10
14.0149535572
 20
62.650844624
 30
0.0
 10
14.2318581141
 20
62.2872625665
 30
0.0
 10
14.4804258924
 20
61.9509682253
 30
0.0
 10
14.7535605538
 20
61.6514084158
 30
0.0
 10
15.0435161566
 20
61.3972731008
 30
0.0
 10
15.2507499165
 20
61.2573344403
 30
0.0
 10
15.3552314839
 20
61.1979121243
 30
0.0
  0
SPLINE
  5
328
100
AcDbEntity
  8
0
100
AcDbSpline
 62
7
  6
BYLAYER
 70
0
 71
3
 72
15
 73
11
 74
0
 42
0.0000001
 43
0.0000001
 44
0.0000000001
 40
0.0
 40
0.0
 40
0.0
 40
0.0
 40
0.1141226176
 40
0.2373458846
 40
0.3669742974
 40
0.5000043558
 40
0.6330303002
 40
0.7626767631
 40
0.8858464581
 40
1.0
 40
1.0
 40
1.0
 40
1.0
 10
54.3744241279
 20
39.4437329174
 30
0.0
 10
54.3018309212
 20
39.4018214601
 30
0.0
 10
54.1430230839
 20
39.3279055938
 30
0.0
 10
53.8844698621
 20
39.2492702749
 30
0.0
 10
53.6044945024
 20
39.2009297536
 30
0.0
 10
53.3137087271
 20
39.184587179
 30
0.0
 10
53.0229065627
 20
39.2009276513
 30
0.0
 10
52.7429715395
 20
39.2493189054
 30
0.0
 10
52.4844089116
 20
39.3279102648
 30
0.0
 10
52.3256283125
 20
39.4018499059
 30
0.0
 10
52.2530180834
 20
39.4437773073
 30
0.0
  0
SPLINE
  5
329
100
AcDbEntity
  8
0
100
AcDbSpline
 62
7
  6
BYLAYER
 70
0
 71
3
 72
10
 73
6
 74
0
 42
0.0000001
 43
0.0000001
 44
0.0000000001
 40
0.0
 40
0.0
 40
0.0
 40
0.0
 40
0.2289678154
 40
0.4768118066
 40
1.0
 40
1.0
 40
1.0
 40
1.0
 10
10.2519217507
 20
70.8362912985
 30
0.0
 10
10.2518644591
 20
70.7976642412
 30
0.0
 10
10.2625239516
 20
70.7171820728
 30
0.0
 10
10.3123225618
 20
70.5556270808
 30
0.0
 10
10.3762187732
 20
70.4401025554
 30
0.0
 10
10.4276701192
 20
70.3683878055
 30
0.0
  0
SPLINE
  5
32A
100
AcDbEntity
  8
0
100
AcDbSpline
 62
7
  6
BYLAYER
 70
0
 71
3
 72
21
 73
17
 74
0
 42
0.0000001
 43
0.0000001
 44
0.0000000001
 40
0.0
 40
0.0
 40
0.0
 40
0.0
 40
0.0428242151
 40
0.0874184501
 40
0.1352151148
 40
0.1871374984
 40
0.2436001344
 40
0.3045743552
 40
0.3696885587
 40
0.4383156914
 40
0.5825454457
 40
0.729584429
 40
0.8015927152
 40
0.8712098638
 40
0.9376095462
 40
1.0
 40
1.0
 40
1.0
 40
1.0
 10
16.2599545785
 20
60.0216477253
 30
0.0
 10
16.179832813
 20
59.9753904899
 30
0.0
 10
16.0032203029
 20
59.9019702463
 30
0.0
 10
15.7116657777
 20
59.8592383532
 30
0.0
 10
15.3985871548
 20
59.8823074273
 30
0.0
 10
15.0709190962
 20
59.9693328305
 30
0.0
 10
14.7351148605
 20
60.1177521644
 30
0.0
 10
14.3978653546
 20
60.3240968745
 30
0.0
 10
14.0659553982
 20
60.5838938054
 30
0.0
 10
13.6328557476
 20
61.0011246244
 30
0.0
 10
13.1516429184
 20
61.6173321127
 30
0.0
 10
12.7762318861
 20
62.3109960602
 30
0.0
 10
12.5525114331
 20
62.8938622727
 30
0.0
 10
12.4302761842
 20
63.3270724147
 30
0.0
 10
12.3551834912
 20
63.7497948886
 30
0.0
 10
12.3368663771
 20
64.0282112655
 30
0.0
 10
12.3368663771
 20
64.1629976612
 30
0.0
  0
SPLINE
  5
32B
100
AcDbEntity
  8
0
100
AcDbSpline
 62
7
  6
BYLAYER
 70
0
 71
3
 72
13
 73
9
 74
0
 42
0.0000001
 43
0.0000001
 44
0.0000000001
 40
0.0
 40
0.0
 40
0.0
 40
0.0
 40
0.2893758472
 40
0.5483125318
 40
0.667742305
 40
0.7817675149
 40
0.8919067191
 40
1.0
 40
1.0
 40
1.0
 40
1.0
 10
34.8229556368
 20
51.1809416675
 30
0.0
 10
34.8229556368
 20
51.3456549859
 30
0.0
 10
34.8477847347
 20
51.6586904977
 30
0.0
 10
34.9565288265
 20
52.0269486299
 30
0.0
 10
35.0885565101
 20
52.2751456428
 30
0.0
 10
35.2049995636
 20
52.4332382479
 30
0.0
 10
35.3403245589
 20
52.5665035822
 30
0.0
 10
35.4427964647
 20
52.6379637841
 30
0.0
 10
35.4960806488
 20
52.6687266989
 30
0.0
  0
SPLINE
  5
32C
100
AcDbEntity
  8
0
100
AcDbSpline
 62
7
  6
BYLAYER
 70
0
 71
3
 72
13
 73
9
 74
0
 42
0.0000001
 43
0.0000001
 44
0.0000000001
 40
0.0
 40
0.0
 40
0.0
 40
0.0
 40
0.2893758472
 40
0.5483125318
 40
0.667742305
 40
0.7817675149
 40
0.8919067191
 40
1.0
 40
1.0
 40
1.0
 40
1.0
 10
27.3275925502
 20
55.5082936654
 30
0.0
 10
27.3275925502
 20
55.6730069839
 30
0.0
 10
27.3524216481
 20
55.9860424957
 30
0.0
 10
27.46116574
 20
56.3543006278
 30
0.0
 10
27.5931934236
 20
56.6024976408
 30
0.0
 10
27.7096364771
 20
56.7605902458
 30
0.0
 10
27.8449614723
 20
56.8938555801
 30
0.0
 10
27.9474333782
 20
56.965315782
 30
0.0
 10
28.0007175623
 20
56.9960786969
 30
0.0
  0
SPLINE
  5
32D
100
AcDbEntity
  8
0
100
AcDbSpline
 62
7
  6
BYLAYER
 70
0
 71
3
 72
13
 73
9
 74
0
 42
0.0000001
 43
0.0000001
 44
0.0000000001
 40
0.0
 40
0.0
 40
0.0
 40
0.0
 40
0.2893758472
 40
0.5483125318
 40
0.667742305
 40
0.7817675149
 40
0.8919067191
 40
1.0
 40
1.0
 40
1.0
 40
1.0
 10
19.8322294637
 20
59.8356456633
 30
0.0
 10
19.8322294637
 20
60.0003589818
 30
0.0
 10
19.8570585616
 20
60.3133944936
 30
0.0
 10
19.9658026534
 20
60.6816526258
 30
0.0
 10
20.097830337
 20
60.9298496387
 30
0.0
 10
20.2142733905
 20
61.0879422437
 30
0.0
 10
20.3495983858
 20
61.221207578
 30
0.0
 10
20.4520702916
 20
61.29266778
 30
0.0
 10
20.5053544757
 20
61.3234306948
 30
0.0
  0
SPLINE
  5
32E
100
AcDbEntity
  8
0
100
AcDbSpline
 62
7
  6
BYLAYER
 70
0
 71
3
 72
13
 73
9
 74
0
 42
0.0000001
 43
0.0000001
 44
0.0000000001
 40
0.0
 40
0.0
 40
0.0
 40
0.0
 40
0.2893758472
 40
0.5483125318
 40
0.667742305
 40
0.7817675149
 40
0.8919067191
 40
1.0
 40
1.0
 40
1.0
 40
1.0
 10
12.3368663771
 20
64.1629976612
 30
0.0
 10
12.3368663771
 20
64.3277109797
 30
0.0
 10
12.361695475
 20
64.6407464915
 30
0.0
 10
12.4704395669
 20
65.0090046237
 30
0.0
 10
12.6024672505
 20
65.2572016366
 30
0.0
 10
12.718910304
 20
65.4152942416
 30
0.0
 10
12.8542352992
 20
65.5485595759
 30
0.0
 10
12.9567072051
 20
65.6200197779
 30
0.0
 10
13.0099913892
 20
65.6507826927
 30
0.0
  0
SPLINE
  5
32F
100
AcDbEntity
  8
0
100
AcDbSpline
 62
7
  6
BYLAYER
 70
0
 71
3
 72
11
 73
7
 74
0
 42
0.0000001
 43
0.0000001
 44
0.0000000001
 40
0.0
 40
0.0
 40
0.0
 40
0.0
 40
0.2895421522
 40
0.5491196247
 40
0.782256727
 40
1.0
 40
1.0
 40
1.0
 40
1.0
 10
10.4276701192
 20
61.9992380299
 30
0.0
 10
10.401357799
 20
62.0144291114
 30
0.0
 10
10.3536096244
 20
62.0473526095
 30
0.0
 10
10.2964932947
 20
62.1073144922
 30
0.0
 10
10.2603565217
 20
62.1736988136
 30
0.0
 10
10.2519659882
 20
62.2213359529
 30
0.0
 10
10.2519659933
 20
62.244184522
 30
0.0
  0
SPLINE
  5
330
100
AcDbEntity
  8
0
100
AcDbSpline
 62
7
  6
BYLAYER
 70
0
 71
3
 72
11
 73
7
 74
0
 42
0.0000001
 43
0.0000001
 44
0.0000000001
 40
0.0
 40
0.0
 40
0.0
 40
0.0
 40
0.2372524156
 40
0.4999996414
 40
0.7627470637
 40
1.0
 40
1.0
 40
1.0
 40
1.0
 10
42.1768932455
 20
44.159119097
 30
0.0
 10
42.1166567986
 20
44.1243417757
 30
0.0
 10
41.9765862019
 20
44.0735852202
 30
0.0
 10
41.7526297208
 20
44.0493186739
 30
0.0
 10
41.5286729794
 20
44.0735842462
 30
0.0
 10
41.388601938
 20
44.1243400942
 30
0.0
 10
41.3283651081
 20
44.1591170573
 30
0.0
  0
SPLINE
  5
331
100
AcDbEntity
  8
0
100
AcDbSpline
 62
7
  6
BYLAYER
 70
0
 71
3
 72
11
 73
7
 74
0
 42
0.0000001
 43
0.0000001
 44
0.0000000001
 40
0.0
 40
0.0
 40
0.0
 40
0.0
 40
0.2281043706
 40
0.4781426029
 40
0.7396602402
 40
1.0
 40
1.0
 40
1.0
 40
1.0
 10
15.0585321564
 20
61.4170841383
 30
0.0
 10
15.0585441139
 20
61.4655166711
 30
0.0
 10
15.071388719
 20
61.5671597991
 30
0.0
 10
15.1201406319
 20
61.7172103956
 30
0.0
 10
15.1961292643
 20
61.8632108569
 30
0.0
 10
15.2628336471
 20
61.9524643211
 30
0.0
 10
15.2997509117
 20
61.993606234
 30
0.0
  0
SPLINE
  5
332
100
AcDbEntity
  8
0
100
AcDbSpline
 62
7
  6
BYLAYER
 70
0
 71
3
 72
9
 73
5
 74
0
 42
0.0000001
 43
0.0000001
 44
0.0000000001
 40
0.0
 40
0.0
 40
0.0
 40
0.0
 40
0.5226159594
 40
1.0
 40
1.0
 40
1.0
 40
1.0
 10
41.9079212504
 20
52.6835626857
 30
0.0
 10
41.9569345925
 20
52.6911450939
 30
0.0
 10
42.0497939643
 20
52.712776397
 30
0.0
 10
42.1376588956
 20
52.7505677704
 30
0.0
 10
42.1768932455
 20
52.7732195977
 30
0.0
  0
SPLINE
  5
333
100
AcDbEntity
  8
0
100
AcDbSpline
 62
7
  6
BYLAYER
 70
0
 71
3
 72
9
 73
5
 74
0
 42
0.0000001
 43
0.0000001
 44
0.0000000001
 40
0.0
 40
0.0
 40
0.0
 40
0.0
 40
0.2430456724
 40
1.0
 40
1.0
 40
1.0
 40
1.0
 10
15.5309971056
 20
61.8281996531
 30
0.0
 10
15.5113794365
 20
61.8402885739
 30
0.0
 10
15.43156343
 20
61.8914814476
 30
0.0
 10
15.3553446369
 20
61.9482202028
 30
0.0
 10
15.2997509117
 20
61.993606234
 30
0.0
  0
SPLINE
  5
334
100
AcDbEntity
  8
0
100
AcDbSpline
 62
7
  6
BYLAYER
 70
0
 71
3
 72
11
 73
7
 74
0
 42
0.0000001
 43
0.0000001
 44
0.0000000001
 40
0.0
 40
0.0
 40
0.0
 40
0.0
 40
0.2927084129
 40
0.5658600558
 40
0.8036060733
 40
1.0
 40
1.0
 40
1.0
 40
1.0
 10
41.9079212504
 20
52.6835626857
 30
0.0
 10
41.8500430511
 20
52.674608876
 30
0.0
 10
41.7397448147
 20
52.6477864986
 30
0.0
 10
41.5856114822
 20
52.6022044232
 30
0.0
 10
41.4502581299
 20
52.5608825176
 30
0.0
 10
41.3665828703
 20
52.5374070621
 30
0.0
 10
41.3283651081
 20
52.5282668329
 30
0.0
  0
SPLINE
  5
335
100
AcDbEntity
  8
0
100
AcDbSpline
 62
7
  6
BYLAYER
 70
0
 71
3
 72
9
 73
5
 74
0
 42
0.0000001
 43
0.0000001
 44
0.0000000001
 40
0.0
 40
0.0
 40
0.0
 40
0.0
 40
0.2430456724
 40
1.0
 40
1.0
 40
1.0
 40
1.0
 10
23.0263601921
 20
57.5008476552
 30
0.0
 10
23.0067425231
 20
57.512936576
 30
0.0
 10
22.9269265165
 20
57.5641294496
 30
0.0
 10
22.8507077235
 20
57.6208682049
 30
0.0
 10
22.7951139983
 20
57.6662542361
 30
0.0
  0
SPLINE
  5
336
100
AcDbEntity
  8
0
100
AcDbSpline
 62
7
  6
BYLAYER
 70
0
 71
3
 72
14
 73
10
 74
0
 42
0.0000001
 43
0.0000001
 44
0.0000000001
 40
0.0
 40
0.0
 40
0.0
 40
0.0
 40
0.1226579204
 40
0.2411695491
 40
0.3579792182
 40
0.4757098807
 40
0.596908401
 40
0.7238101983
 40
1.0
 40
1.0
 40
1.0
 40
1.0
 10
21.9866003528
 20
61.1950178833
 30
0.0
 10
21.9327863635
 20
61.191907988
 30
0.0
 10
21.82720095
 20
61.1774758214
 30
0.0
 10
21.6766497527
 20
61.1290409799
 30
0.0
 10
21.5394365349
 20
61.0546871853
 30
0.0
 10
21.4174288186
 20
60.9555554312
 30
0.0
 10
21.3122037924
 20
60.8329143064
 30
0.0
 10
21.1925336629
 20
60.6350772393
 30
0.0
 10
21.1366499439
 20
60.4640112637
 30
0.0
 10
21.1116555081
 20
60.3452370969
 30
0.0
  0
SPLINE
  5
337
100
AcDbEntity
  8
0
100
AcDbSpline
 62
7
  6
BYLAYER
 70
0
 71
3
 72
9
 73
5
 74
0
 42
0.0000001
 43
0.0000001
 44
0.0000000001
 40
0.0
 40
0.0
 40
0.0
 40
0.0
 40
0.2404205211
 40
1.0
 40
1.0
 40
1.0
 40
1.0
 10
37.923019679
 20
48.1928005412
 30
0.0
 10
37.890982428
 20
48.2092858629
 30
0.0
 10
37.7594650023
 20
48.2812142667
 30
0.0
 10
37.6349720844
 20
48.3657080487
 30
0.0
 10
37.5446571526
 20
48.4349968346
 30
0.0
  0
SPLINE
  5
338
100
AcDbEntity
  8
0
100
AcDbSpline
 62
7
  6
BYLAYER
 70
0
 71
3
 72
15
 73
11
 74
0
 42
0.0000001
 43
0.0000001
 44
0.0000000001
 40
0.0
 40
0.0
 40
0.0
 40
0.0
 40
0.1483273353
 40
0.2857268036
 40
0.4131741131
 40
0.5327393334
 40
0.6474215043
 40
0.7609662909
 40
0.8773071735
 40
1.0
 40
1.0
 40
1.0
 40
1.0
 10
37.9725397927
 20
48.1468916006
 30
0.0
 10
38.0478237002
 20
48.1105736253
 30
0.0
 10
38.1972777576
 20
48.0491703112
 30
0.0
 10
38.4240709096
 20
47.9925490774
 30
0.0
 10
38.64128369
 20
47.9761308269
 30
0.0
 10
38.8450941014
 20
48.0008645676
 30
0.0
 10
39.0314125145
 20
48.0669580052
 30
0.0
 10
39.1959372423
 20
48.1733985913
 30
0.0
 10
39.3349202337
 20
48.3175728377
 30
0.0
 10
39.4066074256
 20
48.4328232201
 30
0.0
 10
39.4377384379
 20
48.4945587533
 30
0.0
  0
SPLINE
  5
339
100
AcDbEntity
  8
0
100
AcDbSpline
 62
7
  6
BYLAYER
 70
0
 71
3
 72
15
 73
11
 74
0
 42
0.0000001
 43
0.0000001
 44
0.0000000001
 40
0.0
 40
0.0
 40
0.0
 40
0.0
 40
0.1218366395
 40
0.249418457
 40
0.3803284421
 40
0.5121608316
 40
0.6423473203
 40
0.7684208496
 40
0.8882667679
 40
1.0
 40
1.0
 40
1.0
 40
1.0
 10
36.102381688
 20
50.8269927272
 30
0.0
 10
36.124259772
 20
50.6977654659
 30
0.0
 10
36.1856744998
 20
50.4358479037
 30
0.0
 10
36.321861889
 20
50.04930754
 30
0.0
 10
36.5010428168
 20
49.6687886303
 30
0.0
 10
36.7179473738
 20
49.3052065728
 30
0.0
 10
36.966515152
 20
48.9689122315
 30
0.0
 10
37.2396498135
 20
48.6693524221
 30
0.0
 10
37.5296054163
 20
48.4152171071
 30
0.0
 10
37.7368391762
 20
48.2752784465
 30
0.0
 10
37.8413207435
 20
48.2158561306
 30
0.0
  0
SPLINE
  5
33A
100
AcDbEntity
  8
0
100
AcDbSpline
 62
7
  6
BYLAYER
 70
0
 71
3
 72
11
 73
7
 74
0
 42
0.0000001
 43
0.0000001
 44
0.0000000001
 40
0.0
 40
0.0
 40
0.0
 40
0.0
 40
0.2281043706
 40
0.4781426029
 40
0.7396602402
 40
1.0
 40
1.0
 40
1.0
 40
1.0
 10
37.5446214161
 20
48.4350281445
 30
0.0
 10
37.5446333736
 20
48.4834606773
 30
0.0
 10
37.5574779787
 20
48.5851038053
 30
0.0
 10
37.6062298916
 20
48.7351544018
 30
0.0
 10
37.6822185239
 20
48.8811548632
 30
0.0
 10
37.7489229068
 20
48.9704083274
 30
0.0
 10
37.7858401714
 20
49.0115502402
 30
0.0
  0
SPLINE
  5
33B
100
AcDbEntity
  8
0
100
AcDbSpline
 62
7
  6
BYLAYER
 70
0
 71
3
 72
21
 73
17
 74
0
 42
0.0000001
 43
0.0000001
 44
0.0000000001
 40
0.0
 40
0.0
 40
0.0
 40
0.0
 40
0.0428242151
 40
0.0874184501
 40
0.1352151148
 40
0.1871374984
 40
0.2436001344
 40
0.3045743552
 40
0.3696885587
 40
0.4383156914
 40
0.5825454457
 40
0.729584429
 40
0.8015927152
 40
0.8712098638
 40
0.9376095462
 40
1.0
 40
1.0
 40
1.0
 40
1.0
 10
23.7553176651
 20
55.6942957274
 30
0.0
 10
23.6751958995
 20
55.648038492
 30
0.0
 10
23.4985833895
 20
55.5746182483
 30
0.0
 10
23.2070288642
 20
55.5318863553
 30
0.0
 10
22.8939502414
 20
55.5549554294
 30
0.0
 10
22.5662821828
 20
55.6419808326
 30
0.0
 10
22.230477947
 20
55.7904001665
 30
0.0
 10
21.8932284411
 20
55.9967448765
 30
0.0
 10
21.5613184848
 20
56.2565418075
 30
0.0
 10
21.1282188342
 20
56.6737726265
 30
0.0
 10
20.647006005
 20
57.2899801148
 30
0.0
 10
20.2715949726
 20
57.9836440623
 30
0.0
 10
20.0478745196
 20
58.5665102748
 30
0.0
 10
19.9256392708
 20
58.9997204168
 30
0.0
 10
19.8505465778
 20
59.4224428906
 30
0.0
 10
19.8322294637
 20
59.7008592676
 30
0.0
 10
19.8322294637
 20
59.8356456633
 30
0.0
  0
SPLINE
  5
33C
100
AcDbEntity
  8
0
100
AcDbSpline
 62
7
  6
BYLAYER
 70
0
 71
3
 72
14
 73
10
 74
0
 42
0.0000001
 43
0.0000001
 44
0.0000000001
 40
0.0
 40
0.0
 40
0.0
 40
0.0
 40
0.1226579204
 40
0.2411695491
 40
0.3579792182
 40
0.4757098807
 40
0.596908401
 40
0.7238101983
 40
1.0
 40
1.0
 40
1.0
 40
1.0
 10
36.9773265259
 20
52.5403138875
 30
0.0
 10
36.9235125367
 20
52.5372039921
 30
0.0
 10
36.8179271231
 20
52.5227718256
 30
0.0
 10
36.6673759258
 20
52.474336984
 30
0.0
 10
36.530162708
 20
52.3999831894
 30
0.0
 10
36.4081549917
 20
52.3008514354
 30
0.0
 10
36.3029299655
 20
52.1782103105
 30
0.0
 10
36.183259836
 20
51.9803732435
 30
0.0
 10
36.127376117
 20
51.8093072679
 30
0.0
 10
36.1023816812
 20
51.690533101
 30
0.0
  0
SPLINE
  5
33D
100
AcDbEntity
  8
0
100
AcDbSpline
 62
7
  6
BYLAYER
 70
0
 71
3
 72
14
 73
10
 74
0
 42
0.0000001
 43
0.0000001
 44
0.0000000001
 40
0.0
 40
0.0
 40
0.0
 40
0.0
 40
0.1226579204
 40
0.2411695491
 40
0.3579792182
 40
0.4757098807
 40
0.596908401
 40
0.7238101983
 40
1.0
 40
1.0
 40
1.0
 40
1.0
 10
14.4912372663
 20
65.5223698812
 30
0.0
 10
14.437423277
 20
65.5192599859
 30
0.0
 10
14.3318378635
 20
65.5048278193
 30
0.0
 10
14.1812866661
 20
65.4563929778
 30
0.0
 10
14.0440734484
 20
65.3820391832
 30
0.0
 10
13.922065732
 20
65.2829074291
 30
0.0
 10
13.8168407059
 20
65.1602663043
 30
0.0
 10
13.6971705763
 20
64.9624292373
 30
0.0
 10
13.6412868573
 20
64.7913632616
 30
0.0
 10
13.6162924215
 20
64.6725890948
 30
0.0
  0
SPLINE
  5
33E
100
AcDbEntity
  8
0
100
AcDbSpline
 62
7
  6
BYLAYER
 70
0
 71
3
 72
18
 73
14
 74
0
 42
0.0000001
 43
0.0000001
 44
0.0000000001
 40
0.0
 40
0.0
 40
0.0
 40
0.0
 40
0.1286581296
 40
0.2702067865
 40
0.4173258058
 40
0.5616289458
 40
0.6952630981
 40
0.7562687893
 40
0.8127604333
 40
0.8647095426
 40
0.9125329568
 40
0.9571493345
 40
1.0
 40
1.0
 40
1.0
 40
1.0
 10
17.4422015366
 20
53.8669864138
 30
0.0
 10
17.3126553536
 20
53.9417782454
 30
0.0
 10
17.0611925493
 20
54.1352774309
 30
0.0
 10
16.7393671606
 20
54.5014331429
 30
0.0
 10
16.474424657
 20
54.9323729151
 30
0.0
 10
16.2884003757
 20
55.3926549414
 30
0.0
 10
16.2090044526
 20
55.7818642848
 30
0.0
 10
16.2014858292
 20
56.0744383363
 30
0.0
 10
16.2226961687
 20
56.2709964071
 30
0.0
 10
16.2703318904
 20
56.4472201817
 30
0.0
 10
16.3438449518
 20
56.5994412448
 30
0.0
 10
16.4423001598
 20
56.7238684397
 30
0.0
 10
16.5240597963
 20
56.7865009245
 30
0.0
 10
16.56720946
 20
56.8114053832
 30
0.0
  0
SPLINE
  5
33F
100
AcDbEntity
  8
0
100
AcDbSpline
 62
7
  6
BYLAYER
 70
0
 71
3
 72
11
 73
7
 74
0
 42
0.0000001
 43
0.0000001
 44
0.0000000001
 40
0.0
 40
0.0
 40
0.0
 40
0.0
 40
0.2281043706
 40
0.4781426029
 40
0.7396602402
 40
1.0
 40
1.0
 40
1.0
 40
1.0
 10
22.553895243
 20
57.0897321404
 30
0.0
 10
22.5539072005
 20
57.1381646731
 30
0.0
 10
22.5667518056
 20
57.2398078012
 30
0.0
 10
22.6155037184
 20
57.3898583977
 30
0.0
 10
22.6914923508
 20
57.535858859
 30
0.0
 10
22.7581967337
 20
57.6251123232
 30
0.0
 10
22.7951139983
 20
57.6662542361
 30
0.0
  0
SPLINE
  5
340
100
AcDbEntity
  8
0
100
AcDbSpline
 62
7
  6
BYLAYER
 70
0
 71
3
 72
15
 73
11
 74
0
 42
0.0000001
 43
0.0000001
 44
0.0000000001
 40
0.0
 40
0.0
 40
0.0
 40
0.0
 40
0.1218366395
 40
0.249418457
 40
0.3803284421
 40
0.5121608316
 40
0.6423473203
 40
0.7684208496
 40
0.8882667679
 40
1.0
 40
1.0
 40
1.0
 40
1.0
 10
21.1116555149
 20
59.4816967231
 30
0.0
 10
21.1335335989
 20
59.3524694617
 30
0.0
 10
21.1949483267
 20
59.0905518996
 30
0.0
 10
21.3311357159
 20
58.7040115359
 30
0.0
 10
21.5103166437
 20
58.3234926261
 30
0.0
 10
21.7272212006
 20
57.9599105686
 30
0.0
 10
21.9757889789
 20
57.6236162273
 30
0.0
 10
22.2489236403
 20
57.3240564179
 30
0.0
 10
22.5388792432
 20
57.0699211029
 30
0.0
 10
22.7461130031
 20
56.9299824424
 30
0.0
 10
22.8505945704
 20
56.8705601264
 30
0.0
  0
SPLINE
  5
341
100
AcDbEntity
  8
0
100
AcDbSpline
 62
7
  6
BYLAYER
 70
0
 71
3
 72
15
 73
11
 74
0
 42
0.0000001
 43
0.0000001
 44
0.0000000001
 40
0.0
 40
0.0
 40
0.0
 40
0.0
 40
0.1483273353
 40
0.2857268036
 40
0.4131741131
 40
0.5327393334
 40
0.6474215043
 40
0.7609662909
 40
0.8773071735
 40
1.0
 40
1.0
 40
1.0
 40
1.0
 10
22.9818136196
 20
56.8015955964
 30
0.0
 10
23.0570975271
 20
56.7652776212
 30
0.0
 10
23.2065515845
 20
56.703874307
 30
0.0
 10
23.4333447365
 20
56.6472530732
 30
0.0
 10
23.6505575169
 20
56.6308348227
 30
0.0
 10
23.8543679283
 20
56.6555685634
 30
0.0
 10
24.0406863414
 20
56.721662001
 30
0.0
 10
24.2052110691
 20
56.8281025871
 30
0.0
 10
24.3441940606
 20
56.9722768335
 30
0.0
 10
24.4158812525
 20
57.087527216
 30
0.0
 10
24.4470122648
 20
57.1492627492
 30
0.0
  0
SPLINE
  5
342
100
AcDbEntity
  8
0
100
AcDbSpline
 62
7
  6
BYLAYER
 70
0
 71
3
 72
9
 73
5
 74
0
 42
0.0000001
 43
0.0000001
 44
0.0000000001
 40
0.0
 40
0.0
 40
0.0
 40
0.0
 40
0.2430456724
 40
1.0
 40
1.0
 40
1.0
 40
1.0
 10
38.0170863652
 20
48.8461436594
 30
0.0
 10
37.9974686962
 20
48.8582325802
 30
0.0
 10
37.9176526896
 20
48.9094254538
 30
0.0
 10
37.8414338966
 20
48.9661642091
 30
0.0
 10
37.7858401714
 20
49.0115502402
 30
0.0
  0
SPLINE
  5
343
100
AcDbEntity
  8
0
100
AcDbSpline
 62
7
  6
BYLAYER
 70
0
 71
3
 72
9
 73
5
 74
0
 42
0.0000001
 43
0.0000001
 44
0.0000000001
 40
0.0
 40
0.0
 40
0.0
 40
0.0
 40
0.2404205211
 40
1.0
 40
1.0
 40
1.0
 40
1.0
 10
22.9322935059
 20
56.847504537
 30
0.0
 10
22.9002562549
 20
56.8639898588
 30
0.0
 10
22.7687388292
 20
56.9359182625
 30
0.0
 10
22.6442459112
 20
57.0204120445
 30
0.0
 10
22.5539309794
 20
57.0897008305
 30
0.0
  0
SPLINE
  5
344
100
AcDbEntity
  8
0
100
AcDbSpline
 62
7
  6
BYLAYER
 70
0
 71
3
 72
21
 73
17
 74
0
 42
0.0000001
 43
0.0000001
 44
0.0000000001
 40
0.0
 40
0.0
 40
0.0
 40
0.0
 40
0.0428242151
 40
0.0874184501
 40
0.1352151148
 40
0.1871374984
 40
0.2436001344
 40
0.3045743552
 40
0.3696885587
 40
0.4383156914
 40
0.5825454457
 40
0.729584429
 40
0.8015927152
 40
0.8712098638
 40
0.9376095462
 40
1.0
 40
1.0
 40
1.0
 40
1.0
 10
38.7460438382
 20
47.0395917316
 30
0.0
 10
38.6659220726
 20
46.9933344962
 30
0.0
 10
38.4893095626
 20
46.9199142525
 30
0.0
 10
38.1977550373
 20
46.8771823594
 30
0.0
 10
37.8846764145
 20
46.9002514336
 30
0.0
 10
37.5570083559
 20
46.9872768368
 30
0.0
 10
37.2212041201
 20
47.1356961707
 30
0.0
 10
36.8839546142
 20
47.3420408807
 30
0.0
 10
36.5520446579
 20
47.6018378116
 30
0.0
 10
36.1189450073
 20
48.0190686306
 30
0.0
 10
35.6377321781
 20
48.6352761189
 30
0.0
 10
35.2623211457
 20
49.3289400664
 30
0.0
 10
35.0386006928
 20
49.911806279
 30
0.0
 10
34.9163654439
 20
50.3450164209
 30
0.0
 10
34.8412727509
 20
50.7677388948
 30
0.0
 10
34.8229556368
 20
51.0461552718
 30
0.0
 10
34.8229556368
 20
51.1809416675
 30
0.0
  0
SPLINE
  5
345
100
AcDbEntity
  8
0
100
AcDbSpline
 62
7
  6
BYLAYER
 70
0
 71
3
 72
11
 73
7
 74
0
 42
0.0000001
 43
0.0000001
 44
0.0000000001
 40
0.0
 40
0.0
 40
0.0
 40
0.0
 40
0.2429360266
 40
0.4999789801
 40
0.7570226588
 40
1.0
 40
1.0
 40
1.0
 40
1.0
 10
17.6444274748
 20
56.5237924
 30
0.0
 10
17.6697746101
 20
56.3669722191
 30
0.0
 10
17.7570593195
 20
56.0494515835
 30
0.0
 10
17.9695755058
 20
55.5999991453
 30
0.0
 10
18.2526416509
 20
55.1912576331
 30
0.0
 10
18.4840572103
 20
54.9569357294
 30
0.0
 10
18.6072570677
 20
54.8566091356
 30
0.0
  0
SPLINE
  5
346
100
AcDbEntity
  8
0
100
AcDbSpline
 62
7
  6
BYLAYER
 70
0
 71
3
 72
11
 73
7
 74
0
 42
0.0000001
 43
0.0000001
 44
0.0000000001
 40
0.0
 40
0.0
 40
0.0
 40
0.0
 40
0.2177849011
 40
0.4509184398
 40
0.7103088704
 40
1.0
 40
1.0
 40
1.0
 40
1.0
 10
18.3171936133
 20
53.7803259043
 30
0.0
 10
18.2594635724
 20
53.7470061678
 30
0.0
 10
18.1268359178
 20
53.6988592731
 30
0.0
 10
17.9065279429
 20
53.6932860466
 30
0.0
 10
17.6717408756
 20
53.7499869125
 30
0.0
 10
17.5189866164
 20
53.8226555302
 30
0.0
 10
17.4422015366
 20
53.8669864138
 30
0.0
  0
SPLINE
  5
347
100
AcDbEntity
  8
0
100
AcDbSpline
 62
7
  6
BYLAYER
 70
0
 71
3
 72
9
 73
5
 74
0
 42
0.0000001
 43
0.0000001
 44
0.0000000001
 40
0.0
 40
0.0
 40
0.0
 40
0.0
 40
0.2404205211
 40
1.0
 40
1.0
 40
1.0
 40
1.0
 10
30.4276565924
 20
52.5201525391
 30
0.0
 10
30.3956193415
 20
52.5366378608
 30
0.0
 10
30.2641019158
 20
52.6085662646
 30
0.0
 10
30.1396089978
 20
52.6930600466
 30
0.0
 10
30.049294066
 20
52.7623488326
 30
0.0
  0
SPLINE
  5
348
100
AcDbEntity
  8
0
100
AcDbSpline
 62
7
  6
BYLAYER
 70
0
 71
3
 72
15
 73
11
 74
0
 42
0.0000001
 43
0.0000001
 44
0.0000000001
 40
0.0
 40
0.0
 40
0.0
 40
0.0
 40
0.1483273353
 40
0.2857268036
 40
0.4131741131
 40
0.5327393334
 40
0.6474215043
 40
0.7609662909
 40
0.8773071735
 40
1.0
 40
1.0
 40
1.0
 40
1.0
 10
30.4771767062
 20
52.4742435985
 30
0.0
 10
30.5524606136
 20
52.4379256232
 30
0.0
 10
30.701914671
 20
52.3765223091
 30
0.0
 10
30.928707823
 20
52.3199010753
 30
0.0
 10
31.1459206035
 20
52.3034828248
 30
0.0
 10
31.3497310149
 20
52.3282165655
 30
0.0
 10
31.536049428
 20
52.3943100031
 30
0.0
 10
31.7005741557
 20
52.5007505892
 30
0.0
 10
31.8395571472
 20
52.6449248356
 30
0.0
 10
31.911244339
 20
52.7601752181
 30
0.0
 10
31.9423753513
 20
52.8219107513
 30
0.0
  0
SPLINE
  5
349
100
AcDbEntity
  8
0
100
AcDbSpline
 62
7
  6
BYLAYER
 70
0
 71
3
 72
15
 73
11
 74
0
 42
0.0000001
 43
0.0000001
 44
0.0000000001
 40
0.0
 40
0.0
 40
0.0
 40
0.0
 40
0.1218366395
 40
0.249418457
 40
0.3803284421
 40
0.5121608316
 40
0.6423473203
 40
0.7684208496
 40
0.8882667679
 40
1.0
 40
1.0
 40
1.0
 40
1.0
 10
28.6070186014
 20
55.1543447252
 30
0.0
 10
28.6288966855
 20
55.0251174638
 30
0.0
 10
28.6903114133
 20
54.7631999017
 30
0.0
 10
28.8264988024
 20
54.3766595379
 30
0.0
 10
29.0056797303
 20
53.9961406282
 30
0.0
 10
29.2225842872
 20
53.6325585707
 30
0.0
 10
29.4711520655
 20
53.2962642294
 30
0.0
 10
29.7442867269
 20
52.99670442
 30
0.0
 10
30.0342423298
 20
52.742569105
 30
0.0
 10
30.2414760896
 20
52.6026304445
 30
0.0
 10
30.345957657
 20
52.5432081285
 30
0.0
  0
SPLINE
  5
34A
100
AcDbEntity
  8
0
100
AcDbSpline
 62
7
  6
BYLAYER
 70
0
 71
3
 72
11
 73
7
 74
0
 42
0.0000001
 43
0.0000001
 44
0.0000000001
 40
0.0
 40
0.0
 40
0.0
 40
0.0
 40
0.2281043706
 40
0.4781426029
 40
0.7396602402
 40
1.0
 40
1.0
 40
1.0
 40
1.0
 10
30.0492583295
 20
52.7623801425
 30
0.0
 10
30.049270287
 20
52.8108126752
 30
0.0
 10
30.0621148921
 20
52.9124558033
 30
0.0
 10
30.110866805
 20
53.0625063998
 30
0.0
 10
30.1868554374
 20
53.2085068611
 30
0.0
 10
30.2535598203
 20
53.2977603253
 30
0.0
 10
30.2904770848
 20
53.3389022381
 30
0.0
  0
SPLINE
  5
34B
100
AcDbEntity
  8
0
100
AcDbSpline
 62
7
  6
BYLAYER
 70
0
 71
3
 72
14
 73
10
 74
0
 42
0.0000001
 43
0.0000001
 44
0.0000000001
 40
0.0
 40
0.0
 40
0.0
 40
0.0
 40
0.1226579204
 40
0.2411695491
 40
0.3579792182
 40
0.4757098807
 40
0.596908401
 40
0.7238101983
 40
1.0
 40
1.0
 40
1.0
 40
1.0
 10
29.4819634394
 20
56.8676658854
 30
0.0
 10
29.4281494501
 20
56.86455599
 30
0.0
 10
29.3225640366
 20
56.8501238235
 30
0.0
 10
29.1720128392
 20
56.801688982
 30
0.0
 10
29.0347996215
 20
56.7273351874
 30
0.0
 10
28.9127919051
 20
56.6282034333
 30
0.0
 10
28.807566879
 20
56.5055623085
 30
0.0
 10
28.6878967494
 20
56.3077252414
 30
0.0
 10
28.6320130304
 20
56.1366592658
 30
0.0
 10
28.6070185946
 20
56.017885099
 30
0.0
  0
SPLINE
  5
34C
100
AcDbEntity
  8
0
100
AcDbSpline
 62
7
  6
BYLAYER
 70
0
 71
3
 72
9
 73
5
 74
0
 42
0.0000001
 43
0.0000001
 44
0.0000000001
 40
0.0
 40
0.0
 40
0.0
 40
0.0
 40
0.2430456724
 40
1.0
 40
1.0
 40
1.0
 40
1.0
 10
30.5217232787
 20
53.1734956573
 30
0.0
 10
30.5021056097
 20
53.1855845781
 30
0.0
 10
30.4222896031
 20
53.2367774517
 30
0.0
 10
30.3460708101
 20
53.293516207
 30
0.0
 10
30.2904770848
 20
53.3389022381
 30
0.0
  0
ENDSEC
  0
SECTION
  2
OBJECTS
  0
DICTIONARY
  5
C
100
AcDbDictionary
280
0
281
1
  3
ACAD_GROUP
350
D
  3
ACAD_MLINESTYLE
350
17
  3
ACAD_LAYOUT
350
1A
  3
ACAD_PLOTSETTINGS
350
19
  3
ACAD_PLOTSTYLENAME
350
E
  0
DICTIONARY
  5
D
102
{ACAD_REACTORS
330
C
102
}
100
AcDbDictionary
280
0
281
1
  0
ACDBDICTIONARYWDFLT
  5
E
102
{ACAD_REACTORS
330
C
102
}
100
AcDbDictionary
281
1
  3
Normal
350
F
100
AcDbDictionaryWithDefault
340
F
  0
DICTIONARY
  5
17
102
{ACAD_REACTORS
330
C
102
}
100
AcDbDictionary
280
0
281
1
  3
Standard
350
18
  0
DICTIONARY
  5
19
102
{ACAD_REACTORS
330
C
102
}
100
AcDbDictionary
281
1
  0
DICTIONARY
  5
1A
102
{ACAD_REACTORS
330
C
102
}
100
AcDbDictionary
281
1
  3
Model
350
34D
  3
Layout1
350
34E
  0
ACDBPLACEHOLDER
  5
F
102
{ACAD_REACTORS
330
E
102
}
  0
MLINESTYLE
  5
18
102
{ACAD_REACTORS
330
17
102
}
100
AcDbMlineStyle
  2
STANDARD
 70
0
  3

 62
256
 51
90.0
 52
90.0
 71
2
 49
0.5
 62
256
  6
BYLAYER
 49
-0.5
 62
256
  6
BYLAYER
  0
LAYOUT
  5
34D
102
{ACAD_REACTORS
330
1A
102
}
100
AcDbPlotSettings
  1

  2
none_device
  4

  6

 40
0.0
 41
0.0
 42
0.0
 43
0.0
 44
210.0
 45
297.0
 46
0.0
 47
0.0
 48
0.0
 49
0.0
140
0.0
141
0.0
142
1.0
143
1.0
 70
1024
 72
1
 73
0
 74
0
  7

 75
0
147
1.0
148
0.0
149
0.0
100
AcDbLayout
  1
Model
 70
0
 71
0
 10
0.0
 20
0.0
 11
210.0
 21
297.0
 12
0.0
 22
0.0
 32
0.0
 14
0.0
 24
0.0
 34
0.0
 15
0.0
 25
0.0
 35
0.0
146
0.0
 13
0.0
 23
0.0
 33
0.0
 16
1.0
 26
0.0
 36
0.0
 17
0.0
 27
1.0
 37
0.0
 76
0
330
210
345
0
346
0
  0
LAYOUT
  5
34E
102
{ACAD_REACTORS
330
1A
102
}
100
AcDbPlotSettings
  1

  2
none_device
  4

  6

 40
0.0
 41
0.0
 42
0.0
 43
0.0
 44
210.0
 45
297.0
 46
0.0
 47
0.0
 48
0.0
 49
0.0
140
0.0
141
0.0
142
1.0
143
1.0
 70
0
 72
1
 73
0
 74
0
  7

 75
0
147
1.0
148
0.0
149
0.0
100
AcDbLayout
  1
Layout1
 70
0
 71
1
 10
0.0
 20
0.0
 11
210.0
 21
297.0
 12
0.0
 22
0.0
 32
0.0
 14
0.0
 24
0.0
 34
0.0
 15
0.0
 25
0.0
 35
0.0
146
0.0
 13
0.0
 23
0.0
 33
0.0
 16
1.0
 26
0.0
 36
0.0
 17
0.0
 27
1.0
 37
0.0
 76
0
330
211
345
0
346
0
  0
ENDSEC
  0
EOF
