999
DXF file: C:\Users\sesa63760\Dev\_Creo\CAD\MCADID0000985_3D-CAD\drw0001_6.dxf
999
Pro/ENGINEER 2019471 by Parametric Technology Corporation
  0
SECTION
  2
HEADER
  9
$ACADVER
  1
AC1024
  9
$DWGCODEPAGE
  3
ANSI_1252
  9
$EXTMAX
 10
1177.3482306655
 20
1665.1067833698
 30
0.0
  9
$EXTMIN
 10
0.0
 20
0.0
 30
0.0
  9
$LIMMIN
 10
0.0
 20
0.0
  9
$LIMMAX
 10
1177.3482306655
 20
1665.1067833698
  9
$VIEWCTR
 10
588.6741153328
 20
832.5533916849
  9
$VIEWSIZE
 40
1665.1067833698
  9
$CLAYER
  8
0
  9
$LTSCALE
 40
108.5402940271
  9
$CELTYPE
  6
BYLAYER
  9
$DIMSCALE
 40
1.0
  9
$DIMASZ
 40
14.0160503651
  9
$DIMEXO
 40
1.0
  9
$DIMDLI
 40
74.9914758732
  9
$DIMEXE
 40
1.0
  9
$DIMCEN
 40
17.7611390226
  9
$DIMLFAC
 40
1.0
  9
$DIMBLK
  1
_FILLED
  9
$DIMALT
 70
0
  9
$DIMALTF
 40
0.0393700787
  9
$DIMTXT
 40
19.6224705111
  9
$DIMTOL
 70
1
  9
$DIMLIM
 70
0
  9
$DIMTFAC
 40
1.0
  9
$DIMTP
 40
0.01
  9
$DIMTM
 40
0.01
  9
$DIMGAP
 40
0.625
  9
$DIMDSEP
 70
46
  9
$AUNITS
 70
0
  9
$PDMODE
 70
3
  9
$PDSIZE
 40
0.3125
  9
$HANDSEED
  5
7C3
  9
$TILEMODE
 70
1
  9
$MEASUREMENT
 70
1
  9
$INSUNITS
 70
4
  0
ENDSEC
  0
SECTION
  2
CLASSES
  0
CLASS
  1
ACDBDICTIONARYWDFLT
  2
AcDbDictionaryWithDefault
  3
AutoCAD 2000
 90
0
 91
1
280
0
281
0
  0
CLASS
  1
ACDBPLACEHOLDER
  2
AcDbPlaceHolder
  3
AutoCAD 2000
 90
0
 91
1
280
0
281
0
  0
CLASS
  1
LAYOUT
  2
AcDbLayout
  3
AutoCAD 2000
 90
0
 91
0
280
0
281
0
  0
ENDSEC
  0
SECTION
  2
TABLES
  0
TABLE
  2
VPORT
  5
8
100
AcDbSymbolTable
 70
2
  0
VPORT
  5
1F4
100
AcDbSymbolTableRecord
100
AcDbViewportTableRecord
  2
*ACTIVE
 70
0
 10
0.0
 20
0.0
 11
1.0
 21
1.0
 12
588.6741153328
 22
832.5533916849
 13
0.0
 23
0.0
 14
1.0
 24
1.0
 15
0.0
 25
0.0
 16
0.0
 26
0.0
 36
1.0
 17
0.0
 27
0.0
 37
0.0
 40
1665.1067833698
 41
0.7070707071
 42
50.0
 43
0.0
 44
0.0
 50
0.0
 51
0.0
 71
0
 72
100
 73
1
 74
1
 75
0
 76
0
 77
0
 78
0
  0
ENDTAB
  0
TABLE
  2
LTYPE
  5
5
100
AcDbSymbolTable
 70
6
  0
LTYPE
  5
14
100
AcDbSymbolTableRecord
100
AcDbLinetypeTableRecord
  2
BYBLOCK
 70
0
  3

 72
65
 73
0
 40
0.0
  0
LTYPE
  5
15
100
AcDbSymbolTableRecord
100
AcDbLinetypeTableRecord
  2
BYLAYER
 70
0
  3

 72
65
 73
0
 40
0.0
  0
LTYPE
  5
16
100
AcDbSymbolTableRecord
100
AcDbLinetypeTableRecord
  2
CONTINUOUS
 70
64
  3
Solid line
 72
65
 73
0
 40
0.0
  0
LTYPE
  5
1F5
100
AcDbSymbolTableRecord
100
AcDbLinetypeTableRecord
  2
CENTER
 70
64
  3
____ _ ____ _ ____ _ ____ _ ____ _ ____ _ ____
 72
65
 73
4
 40
0.6
 49
0.375
 74
0
 49
-0.075
 74
0
 49
0.075
 74
0
 49
-0.075
 74
0
  0
LTYPE
  5
1F6
100
AcDbSymbolTableRecord
100
AcDbLinetypeTableRecord
  2
HIDDEN
 70
64
  3
- - - - - - - - - - - - - - - - - - - -
 72
65
 73
2
 40
0.2
 49
0.1
 74
0
 49
-0.1
 74
0
  0
LTYPE
  5
1F7
100
AcDbSymbolTableRecord
100
AcDbLinetypeTableRecord
  2
PHANTOM
 70
64
  3
_____ _ _ _____ _ _ _____ _ _ _____
 72
65
 73
6
 40
0.8
 49
0.45
 74
0
 49
-0.05
 74
0
 49
0.1
 74
0
 49
-0.05
 74
0
 49
0.1
 74
0
 49
-0.05
 74
0
  0
LTYPE
  5
1F8
100
AcDbSymbolTableRecord
100
AcDbLinetypeTableRecord
  2
DOT
 70
64
  3
. . . . . . . . . . . . . . . . . . . .
 72
65
 73
2
 40
0.2
 49
0.1
 74
0
 49
-0.1
 74
0
  0
LTYPE
  5
1F9
100
AcDbSymbolTableRecord
100
AcDbLinetypeTableRecord
  2
DASHED
 70
64
  3
- - - - - - - - - - - - - - - - - - - -
 72
65
 73
2
 40
0.2
 49
0.1
 74
0
 49
-0.1
 74
0
  0
ENDTAB
  0
TABLE
  2
LAYER
  5
2
100
AcDbSymbolTable
 70
36
  0
LAYER
  5
10
100
AcDbSymbolTableRecord
100
AcDbLayerTableRecord
  2
0
 70
0
 62
7
  6
CONTINUOUS
370
-3
390
F
  0
LAYER
  5
1FA
100
AcDbSymbolTableRecord
100
AcDbLayerTableRecord
  2
DEFAULT_1
 70
0
 62
7
  6
CENTER
370
-3
390
F
  0
LAYER
  5
1FB
100
AcDbSymbolTableRecord
100
AcDbLayerTableRecord
  2
DEFAULT_2
 70
0
 62
8
  6
HIDDEN
370
-3
390
F
  0
LAYER
  5
1FC
100
AcDbSymbolTableRecord
100
AcDbLayerTableRecord
  2
DEFAULT_3
 70
0
 62
7
  6
PHANTOM
370
-3
390
F
  0
LAYER
  5
1FD
100
AcDbSymbolTableRecord
100
AcDbLayerTableRecord
  2
00_COMPONENTS
 70
0
 62
7
  6
CONTINUOUS
370
-3
390
F
  0
LAYER
  5
1FE
100
AcDbSymbolTableRecord
100
AcDbLayerTableRecord
  2
01_1_DEFAULT_DATUMS
 70
0
 62
7
  6
CONTINUOUS
370
-3
390
F
  0
LAYER
  5
1FF
100
AcDbSymbolTableRecord
100
AcDbLayerTableRecord
  2
01_PLANES
 70
0
 62
7
  6
CONTINUOUS
370
-3
390
F
  0
LAYER
  5
200
100
AcDbSymbolTableRecord
100
AcDbLayerTableRecord
  2
02_COORD_SYS
 70
0
 62
7
  6
CONTINUOUS
370
-3
390
F
  0
LAYER
  5
201
100
AcDbSymbolTableRecord
100
AcDbLayerTableRecord
  2
03_AXES
 70
0
 62
7
  6
CONTINUOUS
370
-3
390
F
  0
LAYER
  5
202
100
AcDbSymbolTableRecord
100
AcDbLayerTableRecord
  2
04_POINTS
 70
0
 62
7
  6
CONTINUOUS
370
-3
390
F
  0
LAYER
  5
203
100
AcDbSymbolTableRecord
100
AcDbLayerTableRecord
  2
05_CURVES
 70
0
 62
7
  6
CONTINUOUS
370
-3
390
F
  0
LAYER
  5
204
100
AcDbSymbolTableRecord
100
AcDbLayerTableRecord
  2
06_SURFS
 70
0
 62
7
  6
CONTINUOUS
370
-3
390
F
  0
LAYER
  5
205
100
AcDbSymbolTableRecord
100
AcDbLayerTableRecord
  2
07_COSMETICS
 70
0
 62
7
  6
CONTINUOUS
370
-3
390
F
  0
LAYER
  5
206
100
AcDbSymbolTableRecord
100
AcDbLayerTableRecord
  2
10_NOTES
 70
0
 62
7
  6
CONTINUOUS
370
-3
390
F
  0
LAYER
  5
207
100
AcDbSymbolTableRecord
100
AcDbLayerTableRecord
  2
11_NOTES_PUB
 70
0
 62
7
  6
CONTINUOUS
370
-3
390
F
  0
LAYER
  5
208
100
AcDbSymbolTableRecord
100
AcDbLayerTableRecord
  2
13_REF_GTOL
 70
0
 62
7
  6
CONTINUOUS
370
-3
390
F
  0
LAYER
  5
209
100
AcDbSymbolTableRecord
100
AcDbLayerTableRecord
  2
16_MISC
 70
0
 62
7
  6
CONTINUOUS
370
-3
390
F
  0
LAYER
  5
20A
100
AcDbSymbolTableRecord
100
AcDbLayerTableRecord
  2
17_NO_PRINT
 70
0
 62
7
  6
CONTINUOUS
370
-3
390
F
  0
LAYER
  5
20B
100
AcDbSymbolTableRecord
100
AcDbLayerTableRecord
  2
18_DATUM_CAMS_JOINTS
 70
0
 62
7
  6
CONTINUOUS
370
-3
390
F
  0
LAYER
  5
20C
100
AcDbSymbolTableRecord
100
AcDbLayerTableRecord
  2
19_DATUM_FUNCTIONAL
 70
0
 62
7
  6
CONTINUOUS
370
-3
390
F
  0
LAYER
  5
20D
100
AcDbSymbolTableRecord
100
AcDbLayerTableRecord
  2
20_DATUM_KINEMATIC_SCHEME
 70
0
 62
7
  6
CONTINUOUS
370
-3
390
F
  0
ENDTAB
  0
TABLE
  2
STYLE
  5
3
100
AcDbSymbolTable
 70
1
  0
STYLE
  5
11
100
AcDbSymbolTableRecord
100
AcDbTextStyleTableRecord
  2
STANDARD
 70
0
 40
0.0
 41
0.8
 50
0.0
 71
0
 42
0.2
  3
txt
  4

  0
STYLE
  5
20E
100
AcDbSymbolTableRecord
100
AcDbTextStyleTableRecord
  2
TEXTSTYLE_1
 70
0
 40
0.0
 41
0.8
 50
0.0
 71
0
 42
0.2
  3
gdt
  4

  0
ENDTAB
  0
TABLE
  2
VIEW
  5
6
100
AcDbSymbolTable
 70
0
  0
ENDTAB
  0
TABLE
  2
UCS
  5
7
100
AcDbSymbolTable
 70
0
  0
ENDTAB
  0
TABLE
  2
APPID
  5
9
100
AcDbSymbolTable
 70
1
  0
APPID
  5
20F
100
AcDbSymbolTableRecord
100
AcDbRegAppTableRecord
  2
ACAD
 70
0
  0
ENDTAB
  0
TABLE
  2
BLOCK_RECORD
  5
1
100
AcDbSymbolTable
 70
0
  0
BLOCK_RECORD
  5
210
100
AcDbSymbolTableRecord
100
AcDbBlockTableRecord
  2
*Model_Space
  0
BLOCK_RECORD
  5
211
100
AcDbSymbolTableRecord
100
AcDbBlockTableRecord
  2
*Paper_Space
  0
BLOCK_RECORD
  5
212
100
AcDbSymbolTableRecord
100
AcDbBlockTableRecord
  2
_FILLED
  0
ENDTAB
  0
TABLE
  2
DIMSTYLE
  5
A
100
AcDbSymbolTable
 70
1
100
AcDbDimStyleTable
 71
0
  0
DIMSTYLE
105
213
100
AcDbSymbolTableRecord
100
AcDbDimStyleTableRecord
  2
STANDARD
 70
0
  3

  4

 40
1.0
 41
14.0160503651
 42
1.0
 43
0.38
 44
1.0
 45
0.0
 46
0.0
 47
0.01
 48
0.01
140
19.6224705111
141
0.09
142
0.0
143
25.4
144
1.0
145
0.0
146
1.0
147
0.625
 71
1
 72
0
 73
0
 74
0
 75
0
 76
0
 77
1
 78
8
 79
2
170
0
171
1
172
0
173
0
174
0
175
0
176
0
177
0
178
0
270
2
179
2
271
2
272
2
273
2
274
2
275
0
280
0
281
0
282
0
283
1
284
8
285
0
286
0
287
3
288
0
340
11
278
46
341
212
342
212
343
212
344
212
  0
ENDTAB
  0
ENDSEC
  0
SECTION
  2
BLOCKS
  0
BLOCK
  5
20
100
AcDbEntity
  8
0
100
AcDbBlockBegin
  2
*Model_Space
 70
0
 10
0.0
 20
0.0
 30
0.0
  3
*Model_Space
  1

  0
ENDBLK
  5
21
100
AcDbEntity
  8
0
100
AcDbBlockEnd
  0
BLOCK
  5
1C
100
AcDbEntity
  8
0
100
AcDbBlockBegin
  2
*Paper_Space
 70
0
 10
0.0
 20
0.0
 30
0.0
  3
*Paper_Space
  1

  0
ENDBLK
  5
1D
100
AcDbEntity
  8
0
100
AcDbBlockEnd
  0
BLOCK
  5
214
100
AcDbEntity
  8
0
100
AcDbBlockBegin
  2
_FILLED
 70
64
 10
0.0
 20
0.0
  3
_FILLED
  1

  0
SOLID
  5
215
100
AcDbEntity
  8
0
  6
BYBLOCK
 62
0
100
AcDbTrace
 10
0.0
 20
0.0
 11
-1.0
 21
0.25
 12
-1.0
 22
-0.25
 13
-1.0
 23
-0.25
  0
ENDBLK
  5
216
100
AcDbEntity
  8
0
  6
BYBLOCK
 62
0
100
AcDbBlockEnd
  0
ENDSEC
  0
SECTION
  2
ENTITIES
  0
LINE
  5
217
100
AcDbEntity
  8
0
100
AcDbLine
 62
7
  6
CONTINUOUS
 10
133.164487324
 20
942.9041336718
 11
133.164487324
 21
963.702649698
  0
LINE
  5
218
100
AcDbEntity
  8
0
100
AcDbLine
 62
7
  6
CONTINUOUS
 10
137.564487324
 20
939.3034342829
 11
137.564487324
 21
967.3033490869
  0
LINE
  5
219
100
AcDbEntity
  8
0
100
AcDbLine
 62
7
  6
CONTINUOUS
 10
142.564487324
 20
833.3033916849
 11
142.564487324
 21
978.1533916849
  0
LINE
  5
21A
100
AcDbEntity
  8
0
100
AcDbLine
 62
7
  6
CONTINUOUS
 10
144.064487324
 20
971.6533916849
 11
144.064487324
 21
975.1533916849
  0
LINE
  5
21B
100
AcDbEntity
  8
0
100
AcDbLine
 62
7
  6
CONTINUOUS
 10
144.564487324
 20
833.3033916849
 11
144.564487324
 21
971.6533916849
  0
LINE
  5
21C
100
AcDbEntity
  8
0
100
AcDbLine
 62
7
  6
CONTINUOUS
 10
144.564487324
 20
975.1533916849
 11
144.564487324
 21
976.6533916849
  0
LINE
  5
21D
100
AcDbEntity
  8
0
100
AcDbLine
 62
7
  6
CONTINUOUS
 10
146.564487324
 20
975.1533916849
 11
146.564487324
 21
971.6533916849
  0
LINE
  5
21E
100
AcDbEntity
  8
0
100
AcDbLine
 62
7
  6
CONTINUOUS
 10
148.564487324
 20
978.6533916849
 11
148.564487324
 21
978.1533916849
  0
LINE
  5
21F
100
AcDbEntity
  8
0
100
AcDbLine
 62
7
  6
CONTINUOUS
 10
149.064487324
 20
982.1533916849
 11
149.064487324
 21
978.6533916849
  0
LINE
  5
220
100
AcDbEntity
  8
0
100
AcDbLine
 62
7
  6
CONTINUOUS
 10
152.564487324
 20
976.6533916849
 11
152.564487324
 21
978.1533916849
  0
LINE
  5
221
100
AcDbEntity
  8
0
100
AcDbLine
 62
7
  6
CONTINUOUS
 10
156.064487324
 20
982.1533916849
 11
156.064487324
 21
978.6533916849
  0
LINE
  5
222
100
AcDbEntity
  8
0
100
AcDbLine
 62
7
  6
CONTINUOUS
 10
156.564487324
 20
978.6533916849
 11
156.564487324
 21
978.1533916849
  0
LINE
  5
223
100
AcDbEntity
  8
0
100
AcDbLine
 62
7
  6
CONTINUOUS
 10
256.564487324
 20
814.3033916849
 11
256.564487324
 21
833.3033916849
  0
LINE
  5
224
100
AcDbEntity
  8
0
100
AcDbLine
 62
7
  6
CONTINUOUS
 10
297.564487324
 20
764.3033916849
 11
297.564487324
 21
774.3033916849
  0
LINE
  5
225
100
AcDbEntity
  8
0
100
AcDbLine
 62
7
  6
CONTINUOUS
 10
300.064487324
 20
754.3033916849
 11
300.064487324
 21
757.7495185304
  0
LINE
  5
226
100
AcDbEntity
  8
0
100
AcDbLine
 62
7
  6
CONTINUOUS
 10
301.564487324
 20
833.3033916849
 11
301.564487324
 21
827.3033916849
  0
LINE
  5
227
100
AcDbEntity
  8
0
100
AcDbLine
 62
7
  6
CONTINUOUS
 10
302.564487324
 20
829.3033916849
 11
302.564487324
 21
674.3033916849
  0
LINE
  5
228
100
AcDbEntity
  8
0
100
AcDbLine
 62
7
  6
CONTINUOUS
 10
305.564487324
 20
978.6533916849
 11
305.564487324
 21
978.1533916849
  0
LINE
  5
229
100
AcDbEntity
  8
0
100
AcDbLine
 62
7
  6
CONTINUOUS
 10
306.064487324
 20
982.1533916849
 11
306.064487324
 21
978.6533916849
  0
LINE
  5
22A
100
AcDbEntity
  8
0
100
AcDbLine
 62
7
  6
CONTINUOUS
 10
307.564487324
 20
680.8033916849
 11
307.564487324
 21
823.7533916839
  0
LINE
  5
22B
100
AcDbEntity
  8
0
100
AcDbLine
 62
7
  6
CONTINUOUS
 10
309.564487324
 20
833.303391685
 11
309.564487324
 21
831.3033916849
  0
LINE
  5
22C
100
AcDbEntity
  8
0
100
AcDbLine
 62
7
  6
CONTINUOUS
 10
309.564487324
 20
686.3033916849
 11
309.564487324
 21
671.3033916849
  0
LINE
  5
22D
100
AcDbEntity
  8
0
100
AcDbLine
 62
7
  6
CONTINUOUS
 10
313.064487324
 20
982.1533916849
 11
313.064487324
 21
978.6533916849
  0
LINE
  5
22E
100
AcDbEntity
  8
0
100
AcDbLine
 62
7
  6
CONTINUOUS
 10
313.564487324
 20
978.6533916849
 11
313.564487324
 21
978.1533916849
  0
LINE
  5
22F
100
AcDbEntity
  8
0
100
AcDbLine
 62
7
  6
CONTINUOUS
 10
318.064487324
 20
978.1533916849
 11
318.064487324
 21
976.6533916849
  0
LINE
  5
230
100
AcDbEntity
  8
0
100
AcDbLine
 62
7
  6
CONTINUOUS
 10
320.064487324
 20
976.6533916849
 11
320.064487324
 21
978.1533916849
  0
LINE
  5
231
100
AcDbEntity
  8
0
100
AcDbLine
 62
7
  6
CONTINUOUS
 10
320.564487324
 20
963.1533916849
 11
320.564487324
 21
976.1533916849
  0
LINE
  5
232
100
AcDbEntity
  8
0
100
AcDbLine
 62
7
  6
CONTINUOUS
 10
322.064487324
 20
976.1533916849
 11
322.064487324
 21
963.1533916849
  0
LINE
  5
233
100
AcDbEntity
  8
0
100
AcDbLine
 62
7
  6
CONTINUOUS
 10
322.564487324
 20
833.3033916849
 11
322.564487324
 21
976.6533916849
  0
LINE
  5
234
100
AcDbEntity
  8
0
100
AcDbLine
 62
7
  6
CONTINUOUS
 10
324.064487324
 20
937.1533916849
 11
324.064487324
 21
976.1533916849
  0
LINE
  5
235
100
AcDbEntity
  8
0
100
AcDbLine
 62
7
  6
CONTINUOUS
 10
324.564487324
 20
978.1533916849
 11
324.564487324
 21
976.6533916849
  0
LINE
  5
236
100
AcDbEntity
  8
0
100
AcDbLine
 62
7
  6
CONTINUOUS
 10
326.564487324
 20
976.6533916849
 11
326.564487324
 21
978.1533916849
  0
LINE
  5
237
100
AcDbEntity
  8
0
100
AcDbLine
 62
7
  6
CONTINUOUS
 10
331.064487324
 20
936.6533916849
 11
331.064487324
 21
935.1533916849
  0
LINE
  5
238
100
AcDbEntity
  8
0
100
AcDbLine
 62
7
  6
CONTINUOUS
 10
332.564487324
 20
978.1533916849
 11
332.564487324
 21
831.3033916849
  0
LINE
  5
239
100
AcDbEntity
  8
0
100
AcDbLine
 62
7
  6
CONTINUOUS
 10
334.064487324
 20
833.3033916849
 11
334.064487324
 21
978.1533916849
  0
LINE
  5
23A
100
AcDbEntity
  8
0
100
AcDbLine
 62
7
  6
CONTINUOUS
 10
334.564487324
 20
912.6533916849
 11
334.564487324
 21
833.3033916849
  0
LINE
  5
23B
100
AcDbEntity
  8
0
100
AcDbLine
 62
7
  6
CONTINUOUS
 10
341.564487324
 20
738.8033916849
 11
341.564487324
 21
745.8033916849
  0
LINE
  5
23C
100
AcDbEntity
  8
0
100
AcDbLine
 62
7
  6
CONTINUOUS
 10
341.564487324
 20
769.8033916849
 11
341.564487324
 21
776.8033916849
  0
LINE
  5
23D
100
AcDbEntity
  8
0
100
AcDbLine
 62
7
  6
CONTINUOUS
 10
341.564487324
 20
814.8033916849
 11
341.564487324
 21
821.8033916849
  0
LINE
  5
23E
100
AcDbEntity
  8
0
100
AcDbLine
 62
7
  6
CONTINUOUS
 10
344.564487324
 20
827.3033916849
 11
344.564487324
 21
754.3033916849
  0
LINE
  5
23F
100
AcDbEntity
  8
0
100
AcDbLine
 62
7
  6
CONTINUOUS
 10
346.064487324
 20
831.3033916849
 11
346.064487324
 21
673.3033916849
  0
LINE
  5
240
100
AcDbEntity
  8
0
100
AcDbLine
 62
7
  6
CONTINUOUS
 10
353.6062353709
 20
921.8153545759
 11
353.6062353709
 21
912.6533916849
  0
LINE
  5
241
100
AcDbEntity
  8
0
100
AcDbLine
 62
7
  6
CONTINUOUS
 10
354.864487324
 20
833.3033916849
 11
354.864487324
 21
841.3033916849
  0
LINE
  5
242
100
AcDbEntity
  8
0
100
AcDbLine
 62
7
  6
CONTINUOUS
 10
356.314487324
 20
845.3033916849
 11
356.314487324
 21
849.3033916849
  0
LINE
  5
243
100
AcDbEntity
  8
0
100
AcDbLine
 62
7
  6
CONTINUOUS
 10
356.384487324
 20
850.6390712529
 11
356.384487324
 21
849.3033916849
  0
LINE
  5
244
100
AcDbEntity
  8
0
100
AcDbLine
 62
7
  6
CONTINUOUS
 10
367.114487324
 20
897.3033916838
 11
367.114487324
 21
911.6033916849
  0
LINE
  5
245
100
AcDbEntity
  8
0
100
AcDbLine
 62
7
  6
CONTINUOUS
 10
369.314487324
 20
896.8033916849
 11
369.314487324
 21
849.3033916849
  0
LINE
  5
246
100
AcDbEntity
  8
0
100
AcDbLine
 62
7
  6
CONTINUOUS
 10
370.114487324
 20
907.3033916849
 11
370.114487324
 21
901.6033916849
  0
LINE
  5
247
100
AcDbEntity
  8
0
100
AcDbLine
 62
7
  6
CONTINUOUS
 10
370.5144873253
 20
912.7033916849
 11
370.5144873248
 21
912.6033916849
  0
LINE
  5
248
100
AcDbEntity
  8
0
100
AcDbLine
 62
7
  6
CONTINUOUS
 10
368.1961935618
 20
921.8153545759
 11
368.114487324
 21
912.6033916849
  0
LINE
  5
249
100
AcDbEntity
  8
0
100
AcDbLine
 62
7
  6
CONTINUOUS
 10
358.0419357628
 20
882.2650714665
 11
356.384487324
 21
850.6390712521
  0
LINE
  5
24A
100
AcDbEntity
  8
0
100
AcDbLine
 62
7
  6
CONTINUOUS
 10
267.564487324
 20
804.3033916849
 11
297.564487324
 21
774.3033916849
  0
LINE
  5
24B
100
AcDbEntity
  8
0
100
AcDbLine
 62
7
  6
CONTINUOUS
 10
377.214487324
 20
912.7033916849
 11
377.214487324
 21
912.6033916849
  0
LINE
  5
24C
100
AcDbEntity
  8
0
100
AcDbLine
 62
7
  6
CONTINUOUS
 10
378.814487324
 20
912.7033916849
 11
378.814487324
 21
912.6033916849
  0
LINE
  5
24D
100
AcDbEntity
  8
0
100
AcDbLine
 62
7
  6
CONTINUOUS
 10
380.0144873239
 20
912.7033916849
 11
380.0144873239
 21
912.6033916849
  0
LINE
  5
24E
100
AcDbEntity
  8
0
100
AcDbLine
 62
7
  6
CONTINUOUS
 10
382.614487324
 20
912.6033916847
 11
382.614487324
 21
907.6033916849
  0
LINE
  5
24F
100
AcDbEntity
  8
0
100
AcDbLine
 62
7
  6
CONTINUOUS
 10
388.564487324
 20
978.6533916849
 11
388.564487324
 21
978.1533916849
  0
LINE
  5
250
100
AcDbEntity
  8
0
100
AcDbLine
 62
7
  6
CONTINUOUS
 10
389.064487324
 20
982.1533916849
 11
389.064487324
 21
978.6533916849
  0
LINE
  5
251
100
AcDbEntity
  8
0
100
AcDbLine
 62
7
  6
CONTINUOUS
 10
390.614487324
 20
912.6033916847
 11
390.614487324
 21
907.6033916849
  0
LINE
  5
252
100
AcDbEntity
  8
0
100
AcDbLine
 62
7
  6
CONTINUOUS
 10
396.064487324
 20
982.1533916849
 11
396.064487324
 21
978.6533916849
  0
LINE
  5
253
100
AcDbEntity
  8
0
100
AcDbLine
 62
7
  6
CONTINUOUS
 10
396.564487324
 20
978.6533916849
 11
396.564487324
 21
978.1533916849
  0
LINE
  5
254
100
AcDbEntity
  8
0
100
AcDbLine
 62
7
  6
CONTINUOUS
 10
401.314487324
 20
873.8033916849
 11
401.314487324
 21
852.7033916849
  0
LINE
  5
255
100
AcDbEntity
  8
0
100
AcDbLine
 62
7
  6
CONTINUOUS
 10
403.6144873241
 20
912.7033916849
 11
403.6144873241
 21
912.6033916849
  0
LINE
  5
256
100
AcDbEntity
  8
0
100
AcDbLine
 62
7
  6
CONTINUOUS
 10
404.814487324
 20
912.7033916849
 11
404.814487324
 21
912.6033916849
  0
LINE
  5
257
100
AcDbEntity
  8
0
100
AcDbLine
 62
7
  6
CONTINUOUS
 10
408.4004347589
 20
942.8650714696
 11
406.8641522921
 21
913.5510557281
  0
LINE
  5
258
100
AcDbEntity
  8
0
100
AcDbLine
 62
7
  6
CONTINUOUS
 10
417.614487324
 20
972.2533916849
 11
417.614487324
 21
957.4033916839
  0
LINE
  5
259
100
AcDbEntity
  8
0
100
AcDbLine
 62
7
  6
CONTINUOUS
 10
419.798487324
 20
948.4259269621
 11
419.798487324
 21
912.6033916849
  0
LINE
  5
25A
100
AcDbEntity
  8
0
100
AcDbLine
 62
7
  6
CONTINUOUS
 10
432.7215941052
 20
972.2533916849
 11
432.7215941052
 21
964.2533916849
  0
LINE
  5
25B
100
AcDbEntity
  8
0
100
AcDbLine
 62
7
  6
CONTINUOUS
 10
419.8236969161
 20
957.4033916849
 11
419.8144873239
 21
948.6033916687
  0
LINE
  5
25C
100
AcDbEntity
  8
0
100
AcDbLine
 62
7
  6
CONTINUOUS
 10
447.6304004472
 20
926.633613901
 11
432.3039195938
 21
913.7731694697
  0
LINE
  5
25D
100
AcDbEntity
  8
0
100
AcDbLine
 62
7
  6
CONTINUOUS
 10
1045.564487324
 20
671.3033916849
 11
309.564487324
 21
671.3033916849
  0
LINE
  5
25E
100
AcDbEntity
  8
0
100
AcDbLine
 62
7
  6
CONTINUOUS
 10
441.3073805428
 20
972.2533916849
 11
441.3073805428
 21
964.2533916849
  0
LINE
  5
25F
100
AcDbEntity
  8
0
100
AcDbLine
 62
7
  6
CONTINUOUS
 10
450.844338495
 20
932.0533916849
 11
450.844338495
 21
927.8033916849
  0
LINE
  5
260
100
AcDbEntity
  8
0
100
AcDbLine
 62
7
  6
CONTINUOUS
 10
451.798487324
 20
934.4033916849
 11
451.798487324
 21
913.3033916847
  0
LINE
  5
261
100
AcDbEntity
  8
0
100
AcDbLine
 62
7
  6
CONTINUOUS
 10
460.064487324
 20
912.6533916849
 11
460.064487324
 21
972.2533916849
  0
LINE
  5
262
100
AcDbEntity
  8
0
100
AcDbLine
 62
7
  6
CONTINUOUS
 10
346.064487324
 20
673.3033916849
 11
309.564487324
 21
673.3033916849
  0
LINE
  5
263
100
AcDbEntity
  8
0
100
AcDbLine
 62
7
  6
CONTINUOUS
 10
1023.564487324
 20
673.3033916849
 11
1045.564487324
 21
673.3033916849
  0
LINE
  5
264
100
AcDbEntity
  8
0
100
AcDbLine
 62
7
  6
CONTINUOUS
 10
1045.564487324
 20
674.3033916849
 11
302.564487324
 21
674.3033916849
  0
LINE
  5
265
100
AcDbEntity
  8
0
100
AcDbLine
 62
7
  6
CONTINUOUS
 10
1045.564487324
 20
675.3033916849
 11
1000.064487324
 21
675.3033916849
  0
LINE
  5
266
100
AcDbEntity
  8
0
100
AcDbLine
 62
7
  6
CONTINUOUS
 10
346.064487324
 20
675.3033916849
 11
309.564487324
 21
675.3033916849
  0
LINE
  5
267
100
AcDbEntity
  8
0
100
AcDbLine
 62
7
  6
CONTINUOUS
 10
1045.564487324
 20
676.3033916849
 11
1000.064487324
 21
676.3033916849
  0
LINE
  5
268
100
AcDbEntity
  8
0
100
AcDbLine
 62
7
  6
CONTINUOUS
 10
346.064487324
 20
676.3033916849
 11
309.564487324
 21
676.3033916849
  0
LINE
  5
269
100
AcDbEntity
  8
0
100
AcDbLine
 62
7
  6
CONTINUOUS
 10
302.564487324
 20
680.8033916849
 11
307.564487324
 21
680.8033916849
  0
LINE
  5
26A
100
AcDbEntity
  8
0
100
AcDbLine
 62
7
  6
CONTINUOUS
 10
307.564487324
 20
681.7533916842
 11
302.564487324
 21
681.7533916842
  0
LINE
  5
26B
100
AcDbEntity
  8
0
100
AcDbLine
 62
7
  6
CONTINUOUS
 10
307.564487324
 20
683.6740583516
 11
302.564487324
 21
683.6740583516
  0
LINE
  5
26C
100
AcDbEntity
  8
0
100
AcDbLine
 62
7
  6
CONTINUOUS
 10
309.564487324
 20
686.3033916849
 11
346.064487324
 21
686.3033916849
  0
LINE
  5
26D
100
AcDbEntity
  8
0
100
AcDbLine
 62
7
  6
CONTINUOUS
 10
1000.064487324
 20
686.3033916849
 11
1045.564487324
 21
686.3033916849
  0
LINE
  5
26E
100
AcDbEntity
  8
0
100
AcDbLine
 62
7
  6
CONTINUOUS
 10
302.564487324
 20
689.8033916849
 11
307.564487324
 21
689.8033916849
  0
LINE
  5
26F
100
AcDbEntity
  8
0
100
AcDbLine
 62
7
  6
CONTINUOUS
 10
302.564487324
 20
692.8033916849
 11
307.564487324
 21
692.8033916849
  0
LINE
  5
270
100
AcDbEntity
  8
0
100
AcDbLine
 62
7
  6
CONTINUOUS
 10
1023.564487324
 20
694.3033916849
 11
1043.564487324
 21
694.3033916849
  0
LINE
  5
271
100
AcDbEntity
  8
0
100
AcDbLine
 62
7
  6
CONTINUOUS
 10
302.564487324
 20
701.8033916849
 11
307.564487324
 21
701.8033916849
  0
LINE
  5
272
100
AcDbEntity
  8
0
100
AcDbLine
 62
7
  6
CONTINUOUS
 10
302.564487324
 20
704.8033916849
 11
307.564487324
 21
704.8033916849
  0
LINE
  5
273
100
AcDbEntity
  8
0
100
AcDbLine
 62
7
  6
CONTINUOUS
 10
475.064487324
 20
912.6533916849
 11
475.064487324
 21
972.2533916849
  0
LINE
  5
274
100
AcDbEntity
  8
0
100
AcDbLine
 62
7
  6
CONTINUOUS
 10
477.064487324
 20
912.6533916849
 11
477.064487324
 21
972.2533916849
  0
LINE
  5
275
100
AcDbEntity
  8
0
100
AcDbLine
 62
7
  6
CONTINUOUS
 10
483.564487324
 20
975.0533916849
 11
483.564487324
 21
972.2533916849
  0
LINE
  5
276
100
AcDbEntity
  8
0
100
AcDbLine
 62
7
  6
CONTINUOUS
 10
488.864487325
 20
972.2533916849
 11
488.864487325
 21
970.2533916849
  0
LINE
  5
277
100
AcDbEntity
  8
0
100
AcDbLine
 62
7
  6
CONTINUOUS
 10
491.564487324
 20
975.0533916849
 11
491.564487324
 21
972.2533916849
  0
LINE
  5
278
100
AcDbEntity
  8
0
100
AcDbLine
 62
7
  6
CONTINUOUS
 10
498.864487325
 20
972.2533916849
 11
498.864487325
 21
970.2533916849
  0
LINE
  5
279
100
AcDbEntity
  8
0
100
AcDbLine
 62
7
  6
CONTINUOUS
 10
307.564487324
 20
710.5117460407
 11
302.564487324
 21
710.5117460407
  0
LINE
  5
27A
100
AcDbEntity
  8
0
100
AcDbLine
 62
7
  6
CONTINUOUS
 10
302.564487324
 20
713.8033916849
 11
307.564487324
 21
713.8033916849
  0
LINE
  5
27B
100
AcDbEntity
  8
0
100
AcDbLine
 62
7
  6
CONTINUOUS
 10
307.564487324
 20
715.0122769988
 11
302.564487324
 21
715.0122769988
  0
LINE
  5
27C
100
AcDbEntity
  8
0
100
AcDbLine
 62
7
  6
CONTINUOUS
 10
302.564487324
 20
716.8033916849
 11
307.564487324
 21
716.8033916849
  0
LINE
  5
27D
100
AcDbEntity
  8
0
100
AcDbLine
 62
7
  6
CONTINUOUS
 10
307.564487324
 20
717.6103532101
 11
302.564487324
 21
717.6103532101
  0
LINE
  5
27E
100
AcDbEntity
  8
0
100
AcDbLine
 62
7
  6
CONTINUOUS
 10
307.564487324
 20
719.5134274877
 11
302.564487324
 21
719.5134274877
  0
LINE
  5
27F
100
AcDbEntity
  8
0
100
AcDbLine
 62
7
  6
CONTINUOUS
 10
307.564487324
 20
721.0138890195
 11
302.564487324
 21
721.0138890195
  0
LINE
  5
280
100
AcDbEntity
  8
0
100
AcDbLine
 62
7
  6
CONTINUOUS
 10
307.564487324
 20
722.1115037012
 11
302.564487324
 21
722.1115037012
  0
LINE
  5
281
100
AcDbEntity
  8
0
100
AcDbLine
 62
7
  6
CONTINUOUS
 10
307.564487324
 20
723.61196523
 11
302.564487324
 21
723.61196523
  0
LINE
  5
282
100
AcDbEntity
  8
0
100
AcDbLine
 62
7
  6
CONTINUOUS
 10
307.564487324
 20
725.515606112
 11
302.564487324
 21
725.515606112
  0
LINE
  5
283
100
AcDbEntity
  8
0
100
AcDbLine
 62
7
  6
CONTINUOUS
 10
302.564487324
 20
725.8033916849
 11
307.564487324
 21
725.8033916849
  0
LINE
  5
284
100
AcDbEntity
  8
0
100
AcDbLine
 62
7
  6
CONTINUOUS
 10
307.564487324
 20
727.016324713
 11
302.564487324
 21
727.016324713
  0
LINE
  5
285
100
AcDbEntity
  8
0
100
AcDbLine
 62
7
  6
CONTINUOUS
 10
307.564487324
 20
727.6372997377
 11
302.564487324
 21
727.6372997377
  0
LINE
  5
286
100
AcDbEntity
  8
0
100
AcDbLine
 62
7
  6
CONTINUOUS
 10
307.564487324
 20
727.9595142967
 11
302.564487324
 21
727.9595142967
  0
LINE
  5
287
100
AcDbEntity
  8
0
100
AcDbLine
 62
7
  6
CONTINUOUS
 10
307.564487324
 20
728.1136823243
 11
302.564487324
 21
728.1136823243
  0
LINE
  5
288
100
AcDbEntity
  8
0
100
AcDbLine
 62
7
  6
CONTINUOUS
 10
302.564487324
 20
728.6372997377
 11
307.564487324
 21
728.6372997377
  0
LINE
  5
289
100
AcDbEntity
  8
0
100
AcDbLine
 62
7
  6
CONTINUOUS
 10
302.564487324
 20
728.8033916849
 11
307.564487324
 21
728.8033916849
  0
LINE
  5
28A
100
AcDbEntity
  8
0
100
AcDbLine
 62
7
  6
CONTINUOUS
 10
307.564487324
 20
729.6144009248
 11
302.564487324
 21
729.6144009248
  0
LINE
  5
28B
100
AcDbEntity
  8
0
100
AcDbLine
 62
7
  6
CONTINUOUS
 10
307.564487324
 20
731.5191619817
 11
302.564487324
 21
731.5191619817
  0
LINE
  5
28C
100
AcDbEntity
  8
0
100
AcDbLine
 62
7
  6
CONTINUOUS
 10
307.564487324
 20
733.020432395
 11
302.564487324
 21
733.020432395
  0
LINE
  5
28D
100
AcDbEntity
  8
0
100
AcDbLine
 62
7
  6
CONTINUOUS
 10
307.564487324
 20
734.1172381939
 11
302.564487324
 21
734.1172381939
  0
LINE
  5
28E
100
AcDbEntity
  8
0
100
AcDbLine
 62
7
  6
CONTINUOUS
 10
307.564487324
 20
735.6185086057
 11
302.564487324
 21
735.6185086057
  0
LINE
  5
28F
100
AcDbEntity
  8
0
100
AcDbLine
 62
7
  6
CONTINUOUS
 10
307.564487324
 20
737.5260062265
 11
302.564487324
 21
737.5260062265
  0
LINE
  5
290
100
AcDbEntity
  8
0
100
AcDbLine
 62
7
  6
CONTINUOUS
 10
302.564487324
 20
737.8033916849
 11
307.564487324
 21
737.8033916849
  0
LINE
  5
291
100
AcDbEntity
  8
0
100
AcDbLine
 62
7
  6
CONTINUOUS
 10
341.564487324
 20
738.8033916849
 11
346.064487324
 21
738.8033916849
  0
LINE
  5
292
100
AcDbEntity
  8
0
100
AcDbLine
 62
7
  6
CONTINUOUS
 10
307.564487324
 20
739.028836162
 11
302.564487324
 21
739.028836162
  0
LINE
  5
293
100
AcDbEntity
  8
0
100
AcDbLine
 62
7
  6
CONTINUOUS
 10
307.564487324
 20
740.1240824392
 11
302.564487324
 21
740.1240824392
  0
LINE
  5
294
100
AcDbEntity
  8
0
100
AcDbLine
 62
7
  6
CONTINUOUS
 10
302.564487324
 20
740.8033916849
 11
307.564487324
 21
740.8033916849
  0
LINE
  5
295
100
AcDbEntity
  8
0
100
AcDbLine
 62
7
  6
CONTINUOUS
 10
307.564487324
 20
741.6269123731
 11
302.564487324
 21
741.6269123731
  0
LINE
  5
296
100
AcDbEntity
  8
0
100
AcDbLine
 62
7
  6
CONTINUOUS
 10
307.564487324
 20
743.544648125
 11
302.564487324
 21
743.544648125
  0
LINE
  5
297
100
AcDbEntity
  8
0
100
AcDbLine
 62
7
  6
CONTINUOUS
 10
307.564487324
 20
745.0557299006
 11
302.564487324
 21
745.0557299006
  0
LINE
  5
298
100
AcDbEntity
  8
0
100
AcDbLine
 62
7
  6
CONTINUOUS
 10
341.564487324
 20
745.8033916849
 11
346.064487324
 21
745.8033916849
  0
LINE
  5
299
100
AcDbEntity
  8
0
100
AcDbLine
 62
7
  6
CONTINUOUS
 10
307.564487324
 20
746.1427243371
 11
302.564487324
 21
746.1427243371
  0
LINE
  5
29A
100
AcDbEntity
  8
0
100
AcDbLine
 62
7
  6
CONTINUOUS
 10
307.564487324
 20
747.6538061112
 11
302.564487324
 21
747.6538061112
  0
LINE
  5
29B
100
AcDbEntity
  8
0
100
AcDbLine
 62
7
  6
CONTINUOUS
 10
302.564487324
 20
748.8033916849
 11
307.564487324
 21
748.8033916849
  0
LINE
  5
29C
100
AcDbEntity
  8
0
100
AcDbLine
 62
7
  6
CONTINUOUS
 10
307.564487324
 20
749.2053154736
 11
302.564487324
 21
749.2053154736
  0
LINE
  5
29D
100
AcDbEntity
  8
0
100
AcDbLine
 62
7
  6
CONTINUOUS
 10
307.564487324
 20
751.8033916849
 11
302.564487324
 21
751.8033916849
  0
LINE
  5
29E
100
AcDbEntity
  8
0
100
AcDbLine
 62
7
  6
CONTINUOUS
 10
344.564487324
 20
754.3033916849
 11
300.064487324
 21
754.3033916849
  0
LINE
  5
29F
100
AcDbEntity
  8
0
100
AcDbLine
 62
7
  6
CONTINUOUS
 10
307.564487324
 20
754.4014678962
 11
302.564487324
 21
754.4014678962
  0
LINE
  5
2A0
100
AcDbEntity
  8
0
100
AcDbLine
 62
7
  6
CONTINUOUS
 10
307.564487324
 20
762.7006390438
 11
302.564487324
 21
762.7006390438
  0
LINE
  5
2A1
100
AcDbEntity
  8
0
100
AcDbLine
 62
7
  6
CONTINUOUS
 10
307.564487324
 20
765.7228025916
 11
302.564487324
 21
765.7228025916
  0
LINE
  5
2A2
100
AcDbEntity
  8
0
100
AcDbLine
 62
7
  6
CONTINUOUS
 10
341.564487324
 20
769.8033916849
 11
346.064487324
 21
769.8033916849
  0
LINE
  5
2A3
100
AcDbEntity
  8
0
100
AcDbLine
 62
7
  6
CONTINUOUS
 10
546.564487324
 20
934.7533916849
 11
546.564487324
 21
932.0533916849
  0
LINE
  5
2A4
100
AcDbEntity
  8
0
100
AcDbLine
 62
7
  6
CONTINUOUS
 10
554.564487324
 20
934.7533916849
 11
554.564487324
 21
932.0533916849
  0
LINE
  5
2A5
100
AcDbEntity
  8
0
100
AcDbLine
 62
7
  6
CONTINUOUS
 10
563.564487324
 20
972.2533916849
 11
563.564487324
 21
971.2533916849
  0
LINE
  5
2A6
100
AcDbEntity
  8
0
100
AcDbLine
 62
7
  6
CONTINUOUS
 10
564.564487324
 20
972.4533916849
 11
564.564487324
 21
972.2533916849
  0
LINE
  5
2A7
100
AcDbEntity
  8
0
100
AcDbLine
 62
7
  6
CONTINUOUS
 10
565.064487324
 20
972.4533916849
 11
565.064487324
 21
972.2533916849
  0
LWPOLYLINE
  5
2A8
100
AcDbEntity
  8
0
100
AcDbPolyline
 62
7
  6
CONTINUOUS
 90
3
 70
0
 10
909.8551623571
 20
981.1533916849
 10
909.4363771618
 20
981.0142187659
 10
909.1843419876
 20
980.6533917615
  0
LWPOLYLINE
  5
2A9
100
AcDbEntity
  8
0
100
AcDbPolyline
 62
7
  6
CONTINUOUS
 90
3
 70
0
 10
923.8551623571
 20
981.1533916849
 10
923.436377162
 20
981.014218766
 10
923.1843419876
 20
980.6533917615
  0
LWPOLYLINE
  5
2AA
100
AcDbEntity
  8
0
100
AcDbPolyline
 62
7
  6
CONTINUOUS
 90
3
 70
0
 10
937.8551623571
 20
981.1533916849
 10
937.4363771619
 20
981.014218766
 10
937.1843419876
 20
980.6533917615
  0
LWPOLYLINE
  5
2AB
100
AcDbEntity
  8
0
100
AcDbPolyline
 62
7
  6
CONTINUOUS
 90
3
 70
0
 10
951.8551623571
 20
981.1533916849
 10
951.4363771618
 20
981.0142187659
 10
951.1843419877
 20
980.6533917615
  0
LINE
  5
2AC
100
AcDbEntity
  8
0
100
AcDbLine
 62
7
  6
CONTINUOUS
 10
307.564487324
 20
774.75442652
 11
302.564487324
 21
774.75442652
  0
LINE
  5
2AD
100
AcDbEntity
  8
0
100
AcDbLine
 62
7
  6
CONTINUOUS
 10
302.564487324
 20
774.9694836319
 11
307.564487324
 21
774.9694836319
  0
LINE
  5
2AE
100
AcDbEntity
  8
0
100
AcDbLine
 62
7
  6
CONTINUOUS
 10
307.564487324
 20
775.6472690729
 11
302.564487324
 21
775.6472690729
  0
LINE
  5
2AF
100
AcDbEntity
  8
0
100
AcDbLine
 62
7
  6
CONTINUOUS
 10
307.564487324
 20
775.9694836319
 11
302.564487324
 21
775.9694836319
  0
LINE
  5
2B0
100
AcDbEntity
  8
0
100
AcDbLine
 62
7
  6
CONTINUOUS
 10
341.564487324
 20
776.8033916849
 11
346.064487324
 21
776.8033916849
  0
LINE
  5
2B1
100
AcDbEntity
  8
0
100
AcDbLine
 62
7
  6
CONTINUOUS
 10
307.564487324
 20
777.7600863903
 11
302.564487324
 21
777.7600863903
  0
LINE
  5
2B2
100
AcDbEntity
  8
0
100
AcDbLine
 62
7
  6
CONTINUOUS
 10
966.564487324
 20
778.8033916849
 11
1011.064487324
 21
778.8033916849
  0
LINE
  5
2B3
100
AcDbEntity
  8
0
100
AcDbLine
 62
7
  6
CONTINUOUS
 10
307.564487324
 20
786.7712340547
 11
302.564487324
 21
786.7712340547
  0
LINE
  5
2B4
100
AcDbEntity
  8
0
100
AcDbLine
 62
7
  6
CONTINUOUS
 10
307.564487324
 20
789.7737748801
 11
302.564487324
 21
789.7737748801
  0
LINE
  5
2B5
100
AcDbEntity
  8
0
100
AcDbLine
 62
7
  6
CONTINUOUS
 10
307.564487324
 20
793.0950373291
 11
302.564487324
 21
793.0950373291
  0
LINE
  5
2B6
100
AcDbEntity
  8
0
100
AcDbLine
 62
7
  6
CONTINUOUS
 10
307.564487324
 20
798.7794494165
 11
302.564487324
 21
798.7794494165
  0
LINE
  5
2B7
100
AcDbEntity
  8
0
100
AcDbLine
 62
7
  6
CONTINUOUS
 10
307.564487324
 20
801.7808866194
 11
302.564487324
 21
801.7808866194
  0
LINE
  5
2B8
100
AcDbEntity
  8
0
100
AcDbLine
 62
7
  6
CONTINUOUS
 10
578.564487324
 20
972.2533916849
 11
578.564487324
 21
971.2533916849
  0
LINE
  5
2B9
100
AcDbEntity
  8
0
100
AcDbLine
 62
7
  6
CONTINUOUS
 10
583.564487324
 20
972.2533916849
 11
583.564487324
 21
971.2533916849
  0
LINE
  5
2BA
100
AcDbEntity
  8
0
100
AcDbLine
 62
7
  6
CONTINUOUS
 10
587.7644873233
 20
974.0533916849
 11
587.7644873233
 21
971.2533916849
  0
LINE
  5
2BB
100
AcDbEntity
  8
0
100
AcDbLine
 62
7
  6
CONTINUOUS
 10
588.064487324
 20
934.7533916849
 11
588.064487324
 21
932.0533916849
  0
LINE
  5
2BC
100
AcDbEntity
  8
0
100
AcDbLine
 62
7
  6
CONTINUOUS
 10
594.3644873248
 20
974.0533916849
 11
594.3644873248
 21
971.2533916849
  0
LINE
  5
2BD
100
AcDbEntity
  8
0
100
AcDbLine
 62
7
  6
CONTINUOUS
 10
596.064487324
 20
934.7533916849
 11
596.064487324
 21
932.0533916849
  0
LINE
  5
2BE
100
AcDbEntity
  8
0
100
AcDbLine
 62
7
  6
CONTINUOUS
 10
597.064487324
 20
972.4533916849
 11
597.064487324
 21
972.2533916849
  0
LINE
  5
2BF
100
AcDbEntity
  8
0
100
AcDbLine
 62
7
  6
CONTINUOUS
 10
597.564487324
 20
972.4533916849
 11
597.564487324
 21
972.2533916849
  0
LINE
  5
2C0
100
AcDbEntity
  8
0
100
AcDbLine
 62
7
  6
CONTINUOUS
 10
598.564487324
 20
972.2533916849
 11
598.564487324
 21
971.2533916849
  0
LINE
  5
2C1
100
AcDbEntity
  8
0
100
AcDbLine
 62
7
  6
CONTINUOUS
 10
267.564487324
 20
804.3033916849
 11
266.564487324
 21
804.3033916849
  0
LINE
  5
2C2
100
AcDbEntity
  8
0
100
AcDbLine
 62
7
  6
CONTINUOUS
 10
307.564487324
 20
810.7843208061
 11
302.564487324
 21
810.7843208061
  0
LINE
  5
2C3
100
AcDbEntity
  8
0
100
AcDbLine
 62
7
  6
CONTINUOUS
 10
307.564487324
 20
813.7852438681
 11
302.564487324
 21
813.7852438681
  0
LINE
  5
2C4
100
AcDbEntity
  8
0
100
AcDbLine
 62
7
  6
CONTINUOUS
 10
341.564487324
 20
814.8033916849
 11
346.064487324
 21
814.8033916849
  0
LINE
  5
2C5
100
AcDbEntity
  8
0
100
AcDbLine
 62
7
  6
CONTINUOUS
 10
341.564487324
 20
821.8033916849
 11
346.064487324
 21
821.8033916849
  0
LINE
  5
2C6
100
AcDbEntity
  8
0
100
AcDbLine
 62
7
  6
CONTINUOUS
 10
307.564487324
 20
821.8073916849
 11
302.564487324
 21
821.8073916849
  0
LINE
  5
2C7
100
AcDbEntity
  8
0
100
AcDbLine
 62
7
  6
CONTINUOUS
 10
307.564487324
 20
822.787544846
 11
302.564487324
 21
822.787544846
  0
LINE
  5
2C8
100
AcDbEntity
  8
0
100
AcDbLine
 62
7
  6
CONTINUOUS
 10
1064.564487324
 20
822.8033916849
 11
1001.96830991
 21
822.8033916849
  0
LINE
  5
2C9
100
AcDbEntity
  8
0
100
AcDbLine
 62
7
  6
CONTINUOUS
 10
307.564487324
 20
823.7533916841
 11
302.564487324
 21
823.7533916841
  0
LINE
  5
2CA
100
AcDbEntity
  8
0
100
AcDbLine
 62
7
  6
CONTINUOUS
 10
1011.064487324
 20
823.8033916849
 11
966.564487324
 21
823.8033916849
  0
LINE
  5
2CB
100
AcDbEntity
  8
0
100
AcDbLine
 62
7
  6
CONTINUOUS
 10
1001.96830991
 20
826.3033916849
 11
985.564487324
 21
826.3033916849
  0
LINE
  5
2CC
100
AcDbEntity
  8
0
100
AcDbLine
 62
7
  6
CONTINUOUS
 10
301.564487324
 20
827.3033916849
 11
344.564487324
 21
827.3033916849
  0
LINE
  5
2CD
100
AcDbEntity
  8
0
100
AcDbLine
 62
7
  6
CONTINUOUS
 10
346.064487324
 20
829.3033916849
 11
302.564487324
 21
829.3033916849
  0
LINE
  5
2CE
100
AcDbEntity
  8
0
100
AcDbLine
 62
7
  6
CONTINUOUS
 10
1000.064487324
 20
830.3033916849
 11
346.064487324
 21
830.3033916849
  0
LINE
  5
2CF
100
AcDbEntity
  8
0
100
AcDbLine
 62
7
  6
CONTINUOUS
 10
256.564487324
 20
830.3033916849
 11
301.564487324
 21
830.3033916849
  0
LINE
  5
2D0
100
AcDbEntity
  8
0
100
AcDbLine
 62
7
  6
CONTINUOUS
 10
309.564487324
 20
831.3033916849
 11
1029.564487324
 21
831.3033916849
  0
LINE
  5
2D1
100
AcDbEntity
  8
0
100
AcDbLine
 62
7
  6
CONTINUOUS
 10
1043.564487324
 20
831.3033916849
 11
1045.564487324
 21
831.3033916849
  0
LINE
  5
2D2
100
AcDbEntity
  8
0
100
AcDbLine
 62
7
  6
CONTINUOUS
 10
1045.564487324
 20
833.3033916849
 11
1029.564487324
 21
833.3033916849
  0
LINE
  5
2D3
100
AcDbEntity
  8
0
100
AcDbLine
 62
7
  6
CONTINUOUS
 10
322.564487324
 20
833.3033916849
 11
142.564487324
 21
833.3033916849
  0
LINE
  5
2D4
100
AcDbEntity
  8
0
100
AcDbLine
 62
7
  6
CONTINUOUS
 10
322.564487324
 20
833.3033916849
 11
354.864487324
 21
833.3033916849
  0
LINE
  5
2D5
100
AcDbEntity
  8
0
100
AcDbLine
 62
7
  6
CONTINUOUS
 10
616.564487324
 20
938.5533916849
 11
616.564487324
 21
932.0533916849
  0
LINE
  5
2D6
100
AcDbEntity
  8
0
100
AcDbLine
 62
7
  6
CONTINUOUS
 10
619.064487324
 20
936.3533916849
 11
619.064487324
 21
933.0533916849
  0
LINE
  5
2D7
100
AcDbEntity
  8
0
100
AcDbLine
 62
7
  6
CONTINUOUS
 10
626.064487324
 20
936.3533916849
 11
626.064487324
 21
933.0533916849
  0
LINE
  5
2D8
100
AcDbEntity
  8
0
100
AcDbLine
 62
7
  6
CONTINUOUS
 10
628.564487324
 20
932.0533916849
 11
628.564487324
 21
938.5533916849
  0
LINE
  5
2D9
100
AcDbEntity
  8
0
100
AcDbLine
 62
7
  6
CONTINUOUS
 10
836.772148394
 20
969.7396763179
 11
832.901501933
 21
967.0294204859
  0
LINE
  5
2DA
100
AcDbEntity
  8
0
100
AcDbLine
 62
7
  6
CONTINUOUS
 10
357.864487324
 20
844.3033916849
 11
357.314487324
 21
844.3033916849
  0
LINE
  5
2DB
100
AcDbEntity
  8
0
100
AcDbLine
 62
7
  6
CONTINUOUS
 10
369.314487324
 20
849.3033916849
 11
356.314487324
 21
849.3033916849
  0
LINE
  5
2DC
100
AcDbEntity
  8
0
100
AcDbLine
 62
7
  6
CONTINUOUS
 10
369.314487324
 20
850.3033916847
 11
356.384487324
 21
850.3033916847
  0
LINE
  5
2DD
100
AcDbEntity
  8
0
100
AcDbLine
 62
7
  6
CONTINUOUS
 10
401.314487324
 20
852.7033916849
 11
369.314487324
 21
852.7033916849
  0
LINE
  5
2DE
100
AcDbEntity
  8
0
100
AcDbLine
 62
7
  6
CONTINUOUS
 10
401.314487324
 20
853.7033916849
 11
369.314487324
 21
853.7033916849
  0
LINE
  5
2DF
100
AcDbEntity
  8
0
100
AcDbLine
 62
7
  6
CONTINUOUS
 10
636.564487324
 20
938.5533916849
 11
636.564487324
 21
932.0533916854
  0
LINE
  5
2E0
100
AcDbEntity
  8
0
100
AcDbLine
 62
7
  6
CONTINUOUS
 10
639.064487324
 20
936.3533916849
 11
639.064487324
 21
933.0533916849
  0
LINE
  5
2E1
100
AcDbEntity
  8
0
100
AcDbLine
 62
7
  6
CONTINUOUS
 10
646.064487324
 20
936.3533916849
 11
646.064487324
 21
933.0533916849
  0
LINE
  5
2E2
100
AcDbEntity
  8
0
100
AcDbLine
 62
7
  6
CONTINUOUS
 10
648.564487324
 20
932.0533916849
 11
648.564487324
 21
938.5533916849
  0
LINE
  5
2E3
100
AcDbEntity
  8
0
100
AcDbLine
 62
7
  6
CONTINUOUS
 10
656.564487324
 20
932.0533916849
 11
656.564487324
 21
938.5533916849
  0
LINE
  5
2E4
100
AcDbEntity
  8
0
100
AcDbLine
 62
7
  6
CONTINUOUS
 10
659.064487324
 20
936.3533916849
 11
659.064487324
 21
933.0533916849
  0
LINE
  5
2E5
100
AcDbEntity
  8
0
100
AcDbLine
 62
7
  6
CONTINUOUS
 10
666.064487324
 20
936.3533916849
 11
666.064487324
 21
933.0533916849
  0
LINE
  5
2E6
100
AcDbEntity
  8
0
100
AcDbLine
 62
7
  6
CONTINUOUS
 10
668.564487324
 20
938.5533916849
 11
668.564487324
 21
932.0533916849
  0
LINE
  5
2E7
100
AcDbEntity
  8
0
100
AcDbLine
 62
7
  6
CONTINUOUS
 10
824.1518435525
 20
969.9611661324
 11
823.0911833793
 21
968.9005059592
  0
LINE
  5
2E8
100
AcDbEntity
  8
0
100
AcDbLine
 62
7
  6
CONTINUOUS
 10
827.6618406831
 20
966.4000954511
 11
826.6011805118
 21
965.3394352797
  0
LINE
  5
2E9
100
AcDbEntity
  8
0
100
AcDbLine
 62
7
  6
CONTINUOUS
 10
832.547948542
 20
967.1001311649
 11
826.042566155
 21
960.5947487779
  0
LINE
  5
2EA
100
AcDbEntity
  8
0
100
AcDbLine
 62
7
  6
CONTINUOUS
 10
837.082707972
 20
970.4973051099
 11
836.670381076
 21
970.1194771209
  0
LINE
  5
2EB
100
AcDbEntity
  8
0
100
AcDbLine
 62
7
  6
CONTINUOUS
 10
860.772148394
 20
969.7396763179
 11
856.901501932
 21
967.0294204879
  0
LINE
  5
2EC
100
AcDbEntity
  8
0
100
AcDbLine
 62
7
  6
CONTINUOUS
 10
401.314487324
 20
870.8033916849
 11
369.314487324
 21
870.8033916849
  0
LINE
  5
2ED
100
AcDbEntity
  8
0
100
AcDbLine
 62
7
  6
CONTINUOUS
 10
401.314487324
 20
873.8033916849
 11
369.314487324
 21
873.8033916849
  0
LINE
  5
2EE
100
AcDbEntity
  8
0
100
AcDbLine
 62
7
  6
CONTINUOUS
 10
369.314487324
 20
886.0033916849
 11
360.0350834366
 21
886.0033916849
  0
LINE
  5
2EF
100
AcDbEntity
  8
0
100
AcDbLine
 62
7
  6
CONTINUOUS
 10
369.314487324
 20
887.0033916849
 11
363.0350834365
 21
887.0033916849
  0
LINE
  5
2F0
100
AcDbEntity
  8
0
100
AcDbLine
 62
7
  6
CONTINUOUS
 10
368.614487324
 20
896.3033916849
 11
368.1144873228
 21
896.3033916849
  0
LINE
  5
2F1
100
AcDbEntity
  8
0
100
AcDbLine
 62
7
  6
CONTINUOUS
 10
369.314487324
 20
896.8033916849
 11
369.114487324
 21
896.8033916849
  0
LINE
  5
2F2
100
AcDbEntity
  8
0
100
AcDbLine
 62
7
  6
CONTINUOUS
 10
370.114487324
 20
901.6033916849
 11
367.114487324
 21
901.6033916849
  0
LINE
  5
2F3
100
AcDbEntity
  8
0
100
AcDbLine
 62
7
  6
CONTINUOUS
 10
370.114487324
 20
902.1033916849
 11
367.114487324
 21
902.1033916849
  0
LINE
  5
2F4
100
AcDbEntity
  8
0
100
AcDbLine
 62
7
  6
CONTINUOUS
 10
679.814487324
 20
972.2533916849
 11
679.814487324
 21
970.2533916849
  0
LINE
  5
2F5
100
AcDbEntity
  8
0
100
AcDbLine
 62
7
  6
CONTINUOUS
 10
685.314487324
 20
972.2533916849
 11
685.314487324
 21
970.2533916849
  0
LINE
  5
2F6
100
AcDbEntity
  8
0
100
AcDbLine
 62
7
  6
CONTINUOUS
 10
698.818040715
 20
906.1533916849
 11
698.818040715
 21
912.6533916849
  0
LINE
  5
2F7
100
AcDbEntity
  8
0
100
AcDbLine
 62
7
  6
CONTINUOUS
 10
831.8054864215
 20
963.4585312414
 11
829.542744722
 21
961.1957895419
  0
LINE
  5
2F8
100
AcDbEntity
  8
0
100
AcDbLine
 62
7
  6
CONTINUOUS
 10
839.0745441321
 20
968.7759742358
 11
837.3067771791
 21
967.0082072828
  0
LINE
  5
2F9
100
AcDbEntity
  8
0
100
AcDbLine
 62
7
  6
CONTINUOUS
 10
841.9029712569
 20
965.947547111
 11
840.1352043039
 21
964.179780158
  0
LINE
  5
2FA
100
AcDbEntity
  8
0
100
AcDbLine
 62
7
  6
CONTINUOUS
 10
848.1192357094
 20
969.9427004253
 11
847.0585755376
 21
968.8820402535
  0
LINE
  5
2FB
100
AcDbEntity
  8
0
100
AcDbLine
 62
7
  6
CONTINUOUS
 10
842.610078038
 20
964.3919121929
 11
840.983732441
 21
962.7655665959
  0
LINE
  5
2FC
100
AcDbEntity
  8
0
100
AcDbLine
 62
7
  6
CONTINUOUS
 10
833.276268526
 20
955.0581026809
 11
832.427740389
 21
954.2095745439
  0
LINE
  5
2FD
100
AcDbEntity
  8
0
100
AcDbLine
 62
7
  6
CONTINUOUS
 10
840.370609566
 20
961.6292095869
 11
838.000466896
 21
959.2590420319
  0
LINE
  5
2FE
100
AcDbEntity
  8
0
100
AcDbLine
 62
7
  6
CONTINUOUS
 10
834.266218021
 20
954.8176863749
 11
833.891451426
 21
954.4429197809
  0
LINE
  5
2FF
100
AcDbEntity
  8
0
100
AcDbLine
 62
7
  6
CONTINUOUS
 10
853.1679781275
 20
970.6073807994
 11
845.8918493485
 21
963.3312520214
  0
LINE
  5
300
100
AcDbEntity
  8
0
100
AcDbLine
 62
7
  6
CONTINUOUS
 10
852.535555134
 20
969.7244594949
 11
851.893419513
 21
969.0823238739
  0
LINE
  5
301
100
AcDbEntity
  8
0
100
AcDbLine
 62
7
  6
CONTINUOUS
 10
851.6618406838
 20
966.4000954507
 11
850.6011805122
 21
965.3394352791
  0
LINE
  5
302
100
AcDbEntity
  8
0
100
AcDbLine
 62
7
  6
CONTINUOUS
 10
858.9733248012
 20
972.8771935681
 11
846.964487323
 21
960.8683560889
  0
LINE
  5
303
100
AcDbEntity
  8
0
100
AcDbLine
 62
7
  6
CONTINUOUS
 10
856.547948541
 20
967.1001311639
 11
850.042566155
 21
960.5947487779
  0
LINE
  5
304
100
AcDbEntity
  8
0
100
AcDbLine
 62
7
  6
CONTINUOUS
 10
841.564487324
 20
950.3779831129
 11
840.1352043035
 21
948.9487000924
  0
LINE
  5
305
100
AcDbEntity
  8
0
100
AcDbLine
 62
7
  6
CONTINUOUS
 10
855.5085015725
 20
963.7555160894
 11
853.2457598735
 21
961.4927743904
  0
LINE
  5
306
100
AcDbEntity
  8
0
100
AcDbLine
 62
7
  6
CONTINUOUS
 10
855.77720215
 20
963.4868155129
 11
853.5144604505
 21
961.2240738134
  0
LINE
  5
307
100
AcDbEntity
  8
0
100
AcDbLine
 62
7
  6
CONTINUOUS
 10
865.3372858316
 20
972.8771935673
 11
863.5695188786
 21
971.1094266143
  0
LINE
  5
308
100
AcDbEntity
  8
0
100
AcDbLine
 62
7
  6
CONTINUOUS
 10
865.6227113655
 20
972.5917680334
 11
863.8549444125
 21
970.8240010804
  0
LINE
  5
309
100
AcDbEntity
  8
0
100
AcDbLine
 62
7
  6
CONTINUOUS
 10
865.7956965369
 20
972.418782862
 11
864.0279295839
 21
970.651015909
  0
LINE
  5
30A
100
AcDbEntity
  8
0
100
AcDbLine
 62
7
  6
CONTINUOUS
 10
866.0797479516
 20
972.1347314473
 11
864.3119809986
 21
970.3669644943
  0
LINE
  5
30B
100
AcDbEntity
  8
0
100
AcDbLine
 62
7
  6
CONTINUOUS
 10
863.0745441321
 20
968.7759742358
 11
861.3067771791
 21
967.0082072828
  0
LINE
  5
30C
100
AcDbEntity
  8
0
100
AcDbLine
 62
7
  6
CONTINUOUS
 10
866.5315279566
 20
971.6829514423
 11
864.7637610036
 21
969.9151844893
  0
LINE
  5
30D
100
AcDbEntity
  8
0
100
AcDbLine
 62
7
  6
CONTINUOUS
 10
868.8099484624
 20
969.4045309365
 11
867.0421815094
 21
967.6367639835
  0
LINE
  5
30E
100
AcDbEntity
  8
0
100
AcDbLine
 62
7
  6
CONTINUOUS
 10
865.9029712569
 20
965.947547111
 11
864.1352043039
 21
964.179780158
  0
LINE
  5
30F
100
AcDbEntity
  8
0
100
AcDbLine
 62
7
  6
CONTINUOUS
 10
869.2617284672
 20
968.9527509317
 11
867.4939615142
 21
967.1849839787
  0
LINE
  5
310
100
AcDbEntity
  8
0
100
AcDbLine
 62
7
  6
CONTINUOUS
 10
869.5627875188
 20
968.6516918801
 11
867.7950205658
 21
966.8839249271
  0
LINE
  5
311
100
AcDbEntity
  8
0
100
AcDbLine
 62
7
  6
CONTINUOUS
 10
870.9184041527
 20
969.5487664456
 11
868.0242916
 21
966.6546538929
  0
LINE
  5
312
100
AcDbEntity
  8
0
100
AcDbLine
 62
7
  6
CONTINUOUS
 10
866.610078038
 20
964.3919121929
 11
864.983732441
 21
962.7655665959
  0
LINE
  5
313
100
AcDbEntity
  8
0
100
AcDbLine
 62
7
  6
CONTINUOUS
 10
857.276268526
 20
955.0581026809
 11
856.427740389
 21
954.2095745439
  0
LINE
  5
314
100
AcDbEntity
  8
0
100
AcDbLine
 62
7
  6
CONTINUOUS
 10
864.370609566
 20
961.6292095869
 11
862.000466896
 21
959.2590420319
  0
LINE
  5
315
100
AcDbEntity
  8
0
100
AcDbLine
 62
7
  6
CONTINUOUS
 10
858.266218021
 20
954.8176863759
 11
857.891451426
 21
954.4429197809
  0
LINE
  5
316
100
AcDbEntity
  8
0
100
AcDbLine
 62
7
  6
CONTINUOUS
 10
861.082707973
 20
970.4973051099
 11
860.670381076
 21
970.1194771209
  0
LINE
  5
317
100
AcDbEntity
  8
0
100
AcDbLine
 62
7
  6
CONTINUOUS
 10
1003.11536529
 20
903.8033916849
 11
1001.564487324
 21
903.8033916849
  0
LINE
  5
318
100
AcDbEntity
  8
0
100
AcDbLine
 62
7
  6
CONTINUOUS
 10
879.064487324
 20
906.1533916849
 11
698.818040715
 21
906.1533916849
  0
LINE
  5
319
100
AcDbEntity
  8
0
100
AcDbLine
 62
7
  6
CONTINUOUS
 10
800.914487324
 20
906.3533916849
 11
787.914487324
 21
906.3533916849
  0
LINE
  5
31A
100
AcDbEntity
  8
0
100
AcDbLine
 62
7
  6
CONTINUOUS
 10
370.114487324
 20
906.8033916849
 11
367.114487324
 21
906.8033916849
  0
LINE
  5
31B
100
AcDbEntity
  8
0
100
AcDbLine
 62
7
  6
CONTINUOUS
 10
370.114487324
 20
907.3033916849
 11
367.114487324
 21
907.3033916849
  0
LINE
  5
31C
100
AcDbEntity
  8
0
100
AcDbLine
 62
7
  6
CONTINUOUS
 10
382.614487324
 20
907.6033916849
 11
390.614487324
 21
907.6033916849
  0
LINE
  5
31D
100
AcDbEntity
  8
0
100
AcDbLine
 62
7
  6
CONTINUOUS
 10
419.798487324
 20
912.6033916849
 11
377.4874228098
 21
912.6033916846
  0
LINE
  5
31E
100
AcDbEntity
  8
0
100
AcDbLine
 62
7
  6
CONTINUOUS
 10
377.214487324
 20
912.6033916846
 11
370.514487324
 21
912.6033916845
  0
LINE
  5
31F
100
AcDbEntity
  8
0
100
AcDbLine
 62
7
  6
CONTINUOUS
 10
698.818040715
 20
912.6533916849
 11
368.114930803
 21
912.6533916849
  0
LINE
  5
320
100
AcDbEntity
  8
0
100
AcDbLine
 62
7
  6
CONTINUOUS
 10
353.6062353709
 20
912.6533916849
 11
334.064487324
 21
912.6533916849
  0
LINE
  5
321
100
AcDbEntity
  8
0
100
AcDbLine
 62
7
  6
CONTINUOUS
 10
752.564487324
 20
912.6533916849
 11
754.564487324
 21
912.6533916849
  0
LINE
  5
322
100
AcDbEntity
  8
0
100
AcDbLine
 62
7
  6
CONTINUOUS
 10
404.814487324
 20
912.7033916849
 11
378.814487324
 21
912.7033916849
  0
LINE
  5
323
100
AcDbEntity
  8
0
100
AcDbLine
 62
7
  6
CONTINUOUS
 10
377.214487324
 20
912.7033916849
 11
370.5144873243
 21
912.7033916849
  0
LINE
  5
324
100
AcDbEntity
  8
0
100
AcDbLine
 62
7
  6
CONTINUOUS
 10
451.798487324
 20
913.303391685
 11
419.798487324
 21
913.303391685
  0
LINE
  5
325
100
AcDbEntity
  8
0
100
AcDbLine
 62
7
  6
CONTINUOUS
 10
879.064487324
 20
913.3533916849
 11
820.564487324
 21
913.3533916849
  0
LINE
  5
326
100
AcDbEntity
  8
0
100
AcDbLine
 62
7
  6
CONTINUOUS
 10
419.798487324
 20
913.6033916849
 11
406.876834531
 21
913.6033916849
  0
LINE
  5
327
100
AcDbEntity
  8
0
100
AcDbLine
 62
7
  6
CONTINUOUS
 10
451.798487324
 20
914.3033916849
 11
419.798487324
 21
914.3033916849
  0
LINE
  5
328
100
AcDbEntity
  8
0
100
AcDbLine
 62
7
  6
CONTINUOUS
 10
820.564487324
 20
919.0033916849
 11
837.564487324
 21
919.0033916849
  0
LINE
  5
329
100
AcDbEntity
  8
0
100
AcDbLine
 62
7
  6
CONTINUOUS
 10
837.564487324
 20
919.7403023797
 11
820.564487324
 21
919.7403023797
  0
LINE
  5
32A
100
AcDbEntity
  8
0
100
AcDbLine
 62
7
  6
CONTINUOUS
 10
368.1961935618
 20
921.8153545759
 11
353.6062353709
 21
921.8153545759
  0
LINE
  5
32B
100
AcDbEntity
  8
0
100
AcDbLine
 62
7
  6
CONTINUOUS
 10
837.564487324
 20
922.1533916849
 11
820.564487324
 21
922.1533916849
  0
LINE
  5
32C
100
AcDbEntity
  8
0
100
AcDbLine
 62
7
  6
CONTINUOUS
 10
835.564487324
 20
922.1583916849
 11
820.564487324
 21
922.1583916849
  0
LINE
  5
32D
100
AcDbEntity
  8
0
100
AcDbLine
 62
7
  6
CONTINUOUS
 10
835.564487324
 20
922.3583916849
 11
820.564487324
 21
922.3583916849
  0
LINE
  5
32E
100
AcDbEntity
  8
0
100
AcDbLine
 62
7
  6
CONTINUOUS
 10
820.564487324
 20
924.4283916849
 11
814.564487324
 21
924.4283916849
  0
LINE
  5
32F
100
AcDbEntity
  8
0
100
AcDbLine
 62
7
  6
CONTINUOUS
 10
820.564487324
 20
926.6099604959
 11
814.564487324
 21
926.6099604959
  0
LINE
  5
330
100
AcDbEntity
  8
0
100
AcDbLine
 62
7
  6
CONTINUOUS
 10
814.564487324
 20
926.6933916853
 11
820.564487324
 21
926.6933916853
  0
LINE
  5
331
100
AcDbEntity
  8
0
100
AcDbLine
 62
7
  6
CONTINUOUS
 10
820.564487324
 20
927.1283916849
 11
835.564487324
 21
927.1283916849
  0
LINE
  5
332
100
AcDbEntity
  8
0
100
AcDbLine
 62
7
  6
CONTINUOUS
 10
814.564487324
 20
927.7233916845
 11
820.564487324
 21
927.7233916845
  0
LINE
  5
333
100
AcDbEntity
  8
0
100
AcDbLine
 62
7
  6
CONTINUOUS
 10
814.564487324
 20
929.5333916841
 11
820.564487324
 21
929.5333916841
  0
LINE
  5
334
100
AcDbEntity
  8
0
100
AcDbLine
 62
7
  6
CONTINUOUS
 10
820.564487324
 20
929.7299604959
 11
814.564487324
 21
929.7299604959
  0
LINE
  5
335
100
AcDbEntity
  8
0
100
AcDbLine
 62
7
  6
CONTINUOUS
 10
820.564487324
 20
930.1283916849
 11
835.564487324
 21
930.1283916849
  0
LINE
  5
336
100
AcDbEntity
  8
0
100
AcDbLine
 62
7
  6
CONTINUOUS
 10
814.564487324
 20
930.5633916857
 11
820.564487324
 21
930.5633916857
  0
LINE
  5
337
100
AcDbEntity
  8
0
100
AcDbLine
 62
7
  6
CONTINUOUS
 10
451.798487324
 20
931.4033916849
 11
419.798487324
 21
931.4033916849
  0
LINE
  5
338
100
AcDbEntity
  8
0
100
AcDbLine
 62
7
  6
CONTINUOUS
 10
672.44316698
 20
932.0533916849
 11
450.844338495
 21
932.0533916849
  0
LINE
  5
339
100
AcDbEntity
  8
0
100
AcDbLine
 62
7
  6
CONTINUOUS
 10
668.564487324
 20
932.3213408772
 11
656.564487324
 21
932.3213408772
  0
LINE
  5
33A
100
AcDbEntity
  8
0
100
AcDbLine
 62
7
  6
CONTINUOUS
 10
616.564487324
 20
932.3213408774
 11
628.564487324
 21
932.3213408774
  0
LINE
  5
33B
100
AcDbEntity
  8
0
100
AcDbLine
 62
7
  6
CONTINUOUS
 10
636.564487324
 20
932.3213408772
 11
648.564487324
 21
932.3213408772
  0
LINE
  5
33C
100
AcDbEntity
  8
0
100
AcDbLine
 62
7
  6
CONTINUOUS
 10
814.564487324
 20
932.7871949211
 11
820.564487324
 21
932.7871949211
  0
LINE
  5
33D
100
AcDbEntity
  8
0
100
AcDbLine
 62
7
  6
CONTINUOUS
 10
820.564487324
 20
932.8283916849
 11
814.564487324
 21
932.8283916849
  0
LINE
  5
33E
100
AcDbEntity
  8
0
100
AcDbLine
 62
7
  6
CONTINUOUS
 10
668.564487324
 20
932.9475326881
 11
656.564487324
 21
932.9475326881
  0
LINE
  5
33F
100
AcDbEntity
  8
0
100
AcDbLine
 62
7
  6
CONTINUOUS
 10
616.564487324
 20
932.9475326882
 11
628.564487324
 21
932.9475326882
  0
LINE
  5
340
100
AcDbEntity
  8
0
100
AcDbLine
 62
7
  6
CONTINUOUS
 10
636.564487324
 20
932.9475326882
 11
648.564487324
 21
932.9475326882
  0
LINE
  5
341
100
AcDbEntity
  8
0
100
AcDbLine
 62
7
  6
CONTINUOUS
 10
668.564487324
 20
933.0533916849
 11
656.564487324
 21
933.0533916849
  0
LINE
  5
342
100
AcDbEntity
  8
0
100
AcDbLine
 62
7
  6
CONTINUOUS
 10
648.564487324
 20
933.0533916849
 11
636.564487324
 21
933.0533916849
  0
LINE
  5
343
100
AcDbEntity
  8
0
100
AcDbLine
 62
7
  6
CONTINUOUS
 10
628.564487324
 20
933.0533916849
 11
616.564487324
 21
933.0533916849
  0
LINE
  5
344
100
AcDbEntity
  8
0
100
AcDbLine
 62
7
  6
CONTINUOUS
 10
648.564487324
 20
933.187366281
 11
636.564487324
 21
933.187366281
  0
LINE
  5
345
100
AcDbEntity
  8
0
100
AcDbLine
 62
7
  6
CONTINUOUS
 10
628.564487324
 20
933.1873662813
 11
616.564487324
 21
933.1873662813
  0
LINE
  5
346
100
AcDbEntity
  8
0
100
AcDbLine
 62
7
  6
CONTINUOUS
 10
656.564487324
 20
933.1873662811
 11
668.564487324
 21
933.1873662811
  0
LINE
  5
347
100
AcDbEntity
  8
0
100
AcDbLine
 62
7
  6
CONTINUOUS
 10
648.564487324
 20
933.2895528308
 11
636.564487324
 21
933.2895528308
  0
LINE
  5
348
100
AcDbEntity
  8
0
100
AcDbLine
 62
7
  6
CONTINUOUS
 10
628.564487324
 20
933.2895528308
 11
616.564487324
 21
933.2895528308
  0
LINE
  5
349
100
AcDbEntity
  8
0
100
AcDbLine
 62
7
  6
CONTINUOUS
 10
656.564487324
 20
933.2895528309
 11
668.564487324
 21
933.2895528309
  0
LINE
  5
34A
100
AcDbEntity
  8
0
100
AcDbLine
 62
7
  6
CONTINUOUS
 10
648.564487324
 20
933.842091267
 11
636.564487324
 21
933.8420912669
  0
LINE
  5
34B
100
AcDbEntity
  8
0
100
AcDbLine
 62
7
  6
CONTINUOUS
 10
628.564487324
 20
933.842091267
 11
616.564487324
 21
933.8420912669
  0
LINE
  5
34C
100
AcDbEntity
  8
0
100
AcDbLine
 62
7
  6
CONTINUOUS
 10
656.564487324
 20
933.8420912669
 11
668.564487324
 21
933.842091267
  0
LINE
  5
34D
100
AcDbEntity
  8
0
100
AcDbLine
 62
7
  6
CONTINUOUS
 10
668.564487324
 20
934.15894296
 11
656.564487324
 21
934.15894296
  0
LINE
  5
34E
100
AcDbEntity
  8
0
100
AcDbLine
 62
7
  6
CONTINUOUS
 10
616.564487324
 20
934.15894296
 11
628.564487324
 21
934.15894296
  0
LINE
  5
34F
100
AcDbEntity
  8
0
100
AcDbLine
 62
7
  6
CONTINUOUS
 10
636.564487324
 20
934.15894296
 11
648.564487324
 21
934.15894296
  0
LINE
  5
350
100
AcDbEntity
  8
0
100
AcDbLine
 62
7
  6
CONTINUOUS
 10
668.564487324
 20
934.3577803492
 11
656.564487324
 21
934.3577803492
  0
LINE
  5
351
100
AcDbEntity
  8
0
100
AcDbLine
 62
7
  6
CONTINUOUS
 10
616.564487324
 20
934.3577803498
 11
628.564487324
 21
934.3577803498
  0
LINE
  5
352
100
AcDbEntity
  8
0
100
AcDbLine
 62
7
  6
CONTINUOUS
 10
636.564487324
 20
934.3577803497
 11
648.564487324
 21
934.3577803497
  0
LINE
  5
353
100
AcDbEntity
  8
0
100
AcDbLine
 62
7
  6
CONTINUOUS
 10
451.798487324
 20
934.4033916849
 11
419.798487324
 21
934.4033916849
  0
LINE
  5
354
100
AcDbEntity
  8
0
100
AcDbLine
 62
7
  6
CONTINUOUS
 10
648.564487324
 20
934.674021714
 11
636.564487324
 21
934.674021714
  0
LINE
  5
355
100
AcDbEntity
  8
0
100
AcDbLine
 62
7
  6
CONTINUOUS
 10
628.564487324
 20
934.674021714
 11
616.564487324
 21
934.674021714
  0
LINE
  5
356
100
AcDbEntity
  8
0
100
AcDbLine
 62
7
  6
CONTINUOUS
 10
656.564487324
 20
934.6740217139
 11
668.564487324
 21
934.6740217139
  0
LINE
  5
357
100
AcDbEntity
  8
0
100
AcDbLine
 62
7
  6
CONTINUOUS
 10
546.564487324
 20
934.7533916849
 11
554.564487324
 21
934.7533916849
  0
LINE
  5
358
100
AcDbEntity
  8
0
100
AcDbLine
 62
7
  6
CONTINUOUS
 10
588.064487324
 20
934.7533916849
 11
596.064487324
 21
934.7533916849
  0
LINE
  5
359
100
AcDbEntity
  8
0
100
AcDbLine
 62
7
  6
CONTINUOUS
 10
835.564487324
 20
934.9033916849
 11
820.564487324
 21
934.9033916849
  0
LINE
  5
35A
100
AcDbEntity
  8
0
100
AcDbLine
 62
7
  6
CONTINUOUS
 10
331.064487324
 20
935.1533916849
 11
324.564487324
 21
935.1533916849
  0
LINE
  5
35B
100
AcDbEntity
  8
0
100
AcDbLine
 62
7
  6
CONTINUOUS
 10
865.564487325
 20
950.3779831129
 11
864.135204304
 21
948.9487000919
  0
LINE
  5
35C
100
AcDbEntity
  8
0
100
AcDbLine
 62
7
  6
CONTINUOUS
 10
837.564487324
 20
935.6533916849
 11
820.564487324
 21
935.6533916849
  0
LINE
  5
35D
100
AcDbEntity
  8
0
100
AcDbLine
 62
7
  6
CONTINUOUS
 10
666.064487324
 20
936.3533916849
 11
659.064487324
 21
936.3533916849
  0
LINE
  5
35E
100
AcDbEntity
  8
0
100
AcDbLine
 62
7
  6
CONTINUOUS
 10
646.064487324
 20
936.3533916849
 11
639.064487324
 21
936.3533916849
  0
LINE
  5
35F
100
AcDbEntity
  8
0
100
AcDbLine
 62
7
  6
CONTINUOUS
 10
619.064487324
 20
936.3533916849
 11
626.064487324
 21
936.3533916849
  0
LINE
  5
360
100
AcDbEntity
  8
0
100
AcDbLine
 62
7
  6
CONTINUOUS
 10
835.564487324
 20
936.3583916849
 11
820.564487324
 21
936.3583916849
  0
LINE
  5
361
100
AcDbEntity
  8
0
100
AcDbLine
 62
7
  6
CONTINUOUS
 10
648.564487324
 20
936.6155695113
 11
636.564487324
 21
936.6155695113
  0
LINE
  5
362
100
AcDbEntity
  8
0
100
AcDbLine
 62
7
  6
CONTINUOUS
 10
628.564487324
 20
936.6155695113
 11
616.564487324
 21
936.6155695113
  0
LINE
  5
363
100
AcDbEntity
  8
0
100
AcDbLine
 62
7
  6
CONTINUOUS
 10
656.564487324
 20
936.6155695114
 11
668.564487324
 21
936.6155695114
  0
LINE
  5
364
100
AcDbEntity
  8
0
100
AcDbLine
 62
7
  6
CONTINUOUS
 10
331.064487324
 20
936.6533916849
 11
324.564487324
 21
936.6533916849
  0
LINE
  5
365
100
AcDbEntity
  8
0
100
AcDbLine
 62
7
  6
CONTINUOUS
 10
668.564487324
 20
937.4815949152
 11
656.564487324
 21
937.4815949152
  0
LINE
  5
366
100
AcDbEntity
  8
0
100
AcDbLine
 62
7
  6
CONTINUOUS
 10
616.564487324
 20
937.4815949151
 11
628.564487324
 21
937.4815949151
  0
LINE
  5
367
100
AcDbEntity
  8
0
100
AcDbLine
 62
7
  6
CONTINUOUS
 10
636.564487324
 20
937.4815949151
 11
648.564487324
 21
937.4815949151
  0
LINE
  5
368
100
AcDbEntity
  8
0
100
AcDbLine
 62
7
  6
CONTINUOUS
 10
668.564487324
 20
937.5533916849
 11
656.564487324
 21
937.5533916849
  0
LINE
  5
369
100
AcDbEntity
  8
0
100
AcDbLine
 62
7
  6
CONTINUOUS
 10
648.564487324
 20
937.5533916849
 11
636.564487324
 21
937.5533916849
  0
LINE
  5
36A
100
AcDbEntity
  8
0
100
AcDbLine
 62
7
  6
CONTINUOUS
 10
628.564487324
 20
937.5533916849
 11
616.564487324
 21
937.5533916849
  0
LINE
  5
36B
100
AcDbEntity
  8
0
100
AcDbLine
 62
7
  6
CONTINUOUS
 10
668.564487324
 20
938.5533916849
 11
656.564487324
 21
938.5533916849
  0
LINE
  5
36C
100
AcDbEntity
  8
0
100
AcDbLine
 62
7
  6
CONTINUOUS
 10
648.564487324
 20
938.5533916849
 11
636.564487324
 21
938.5533916849
  0
LINE
  5
36D
100
AcDbEntity
  8
0
100
AcDbLine
 62
7
  6
CONTINUOUS
 10
628.564487324
 20
938.5533916849
 11
616.564487324
 21
938.5533916849
  0
LINE
  5
36E
100
AcDbEntity
  8
0
100
AcDbLine
 62
7
  6
CONTINUOUS
 10
879.064487324
 20
938.8533916849
 11
820.564487324
 21
938.8533916849
  0
LINE
  5
36F
100
AcDbEntity
  8
0
100
AcDbLine
 62
7
  6
CONTINUOUS
 10
137.564487324
 20
939.3033916849
 11
142.564487324
 21
939.3033916849
  0
LINE
  5
370
100
AcDbEntity
  8
0
100
AcDbLine
 62
7
  6
CONTINUOUS
 10
823.564487324
 20
940.153391685
 11
820.564487324
 21
940.153391685
  0
LINE
  5
371
100
AcDbEntity
  8
0
100
AcDbLine
 62
7
  6
CONTINUOUS
 10
823.564487324
 20
941.9533916839
 11
820.564487324
 21
941.9533916839
  0
LINE
  5
372
100
AcDbEntity
  8
0
100
AcDbLine
 62
7
  6
CONTINUOUS
 10
823.564487324
 20
942.1533916849
 11
820.564487324
 21
942.1533916849
  0
LINE
  5
373
100
AcDbEntity
  8
0
100
AcDbLine
 62
7
  6
CONTINUOUS
 10
133.164487324
 20
942.9033916849
 11
137.564487324
 21
942.9033916849
  0
LINE
  5
374
100
AcDbEntity
  8
0
100
AcDbLine
 62
7
  6
CONTINUOUS
 10
822.564487324
 20
942.9533916849
 11
820.564487324
 21
942.9533916849
  0
LINE
  5
375
100
AcDbEntity
  8
0
100
AcDbLine
 62
7
  6
CONTINUOUS
 10
825.564487324
 20
944.1533916849
 11
820.564487324
 21
944.1533916849
  0
LINE
  5
376
100
AcDbEntity
  8
0
100
AcDbLine
 62
7
  6
CONTINUOUS
 10
865.564487325
 20
945.1533916849
 11
848.964487324
 21
945.1533916849
  0
LINE
  5
377
100
AcDbEntity
  8
0
100
AcDbLine
 62
7
  6
CONTINUOUS
 10
841.564487324
 20
945.1533916849
 11
823.564487324
 21
945.1533916849
  0
LINE
  5
378
100
AcDbEntity
  8
0
100
AcDbLine
 62
7
  6
CONTINUOUS
 10
823.564487324
 20
945.6533916849
 11
820.564487324
 21
945.6533916849
  0
LINE
  5
379
100
AcDbEntity
  8
0
100
AcDbLine
 62
7
  6
CONTINUOUS
 10
419.798487324
 20
946.6033916849
 11
410.393582432
 21
946.6033916849
  0
LINE
  5
37A
100
AcDbEntity
  8
0
100
AcDbLine
 62
7
  6
CONTINUOUS
 10
836.064487324
 20
947.5410916849
 11
825.564487324
 21
947.5410916849
  0
LINE
  5
37B
100
AcDbEntity
  8
0
100
AcDbLine
 62
7
  6
CONTINUOUS
 10
419.798487324
 20
947.6033916849
 11
413.393582432
 21
947.6033916849
  0
LINE
  5
37C
100
AcDbEntity
  8
0
100
AcDbLine
 62
7
  6
CONTINUOUS
 10
822.564487324
 20
947.9533916849
 11
820.564487324
 21
947.9533916849
  0
LINE
  5
37D
100
AcDbEntity
  8
0
100
AcDbLine
 62
7
  6
CONTINUOUS
 10
823.364487324
 20
948.9533916849
 11
823.564487324
 21
948.9533916849
  0
LINE
  5
37E
100
AcDbEntity
  8
0
100
AcDbLine
 62
7
  6
CONTINUOUS
 10
823.364487324
 20
949.1448810459
 11
823.564487324
 21
949.1448810459
  0
LINE
  5
37F
100
AcDbEntity
  8
0
100
AcDbLine
 62
7
  6
CONTINUOUS
 10
823.364487324
 20
949.5597746809
 11
823.564487324
 21
949.5597746809
  0
LINE
  5
380
100
AcDbEntity
  8
0
100
AcDbLine
 62
7
  6
CONTINUOUS
 10
836.064487324
 20
949.5603916849
 11
825.564487324
 21
949.5603916849
  0
LINE
  5
381
100
AcDbEntity
  8
0
100
AcDbLine
 62
7
  6
CONTINUOUS
 10
823.364487324
 20
949.6555193499
 11
823.564487324
 21
949.6555193499
  0
LINE
  5
382
100
AcDbEntity
  8
0
100
AcDbLine
 62
7
  6
CONTINUOUS
 10
823.364487324
 20
949.7193491299
 11
823.564487324
 21
949.7193491299
  0
LINE
  5
383
100
AcDbEntity
  8
0
100
AcDbLine
 62
7
  6
CONTINUOUS
 10
823.364487324
 20
949.8470086889
 11
823.564487324
 21
949.8470086889
  0
LINE
  5
384
100
AcDbEntity
  8
0
100
AcDbLine
 62
7
  6
CONTINUOUS
 10
823.364487324
 20
950.2619023459
 11
823.564487324
 21
950.2619023459
  0
LINE
  5
385
100
AcDbEntity
  8
0
100
AcDbLine
 62
7
  6
CONTINUOUS
 10
823.364487324
 20
950.2938172359
 11
823.564487324
 21
950.2938172359
  0
LINE
  5
386
100
AcDbEntity
  8
0
100
AcDbLine
 62
7
  6
CONTINUOUS
 10
823.364487324
 20
950.4533916849
 11
823.564487324
 21
950.4533916849
  0
LINE
  5
387
100
AcDbEntity
  8
0
100
AcDbLine
 62
7
  6
CONTINUOUS
 10
823.364487324
 20
951.1533916859
 11
823.564487324
 21
951.1533916859
  0
LINE
  5
388
100
AcDbEntity
  8
0
100
AcDbLine
 62
7
  6
CONTINUOUS
 10
823.364487324
 20
951.4533916849
 11
823.564487324
 21
951.4533916849
  0
LINE
  5
389
100
AcDbEntity
  8
0
100
AcDbLine
 62
7
  6
CONTINUOUS
 10
836.064487324
 20
952.3543916849
 11
825.564487324
 21
952.3543916849
  0
LINE
  5
38A
100
AcDbEntity
  8
0
100
AcDbLine
 62
7
  6
CONTINUOUS
 10
823.364487324
 20
952.4433916849
 11
823.564487324
 21
952.4433916849
  0
LINE
  5
38B
100
AcDbEntity
  8
0
100
AcDbLine
 62
7
  6
CONTINUOUS
 10
823.364487324
 20
952.7033916849
 11
823.564487324
 21
952.7033916849
  0
LINE
  5
38C
100
AcDbEntity
  8
0
100
AcDbLine
 62
7
  6
CONTINUOUS
 10
823.364487324
 20
952.8533916849
 11
823.564487324
 21
952.8533916849
  0
LINE
  5
38D
100
AcDbEntity
  8
0
100
AcDbLine
 62
7
  6
CONTINUOUS
 10
823.364487324
 20
953.0033916849
 11
823.564487324
 21
953.0033916849
  0
LINE
  5
38E
100
AcDbEntity
  8
0
100
AcDbLine
 62
7
  6
CONTINUOUS
 10
823.364487324
 20
953.2633916849
 11
823.564487324
 21
953.2633916849
  0
LINE
  5
38F
100
AcDbEntity
  8
0
100
AcDbLine
 62
7
  6
CONTINUOUS
 10
823.364487324
 20
954.2533916849
 11
823.564487324
 21
954.2533916849
  0
LINE
  5
390
100
AcDbEntity
  8
0
100
AcDbLine
 62
7
  6
CONTINUOUS
 10
836.064487324
 20
954.3736916849
 11
825.564487324
 21
954.3736916849
  0
LINE
  5
391
100
AcDbEntity
  8
0
100
AcDbLine
 62
7
  6
CONTINUOUS
 10
823.364487324
 20
954.5533916839
 11
823.564487324
 21
954.5533916839
  0
LINE
  5
392
100
AcDbEntity
  8
0
100
AcDbLine
 62
7
  6
CONTINUOUS
 10
823.364487324
 20
955.5533916849
 11
823.564487324
 21
955.5533916849
  0
LINE
  5
393
100
AcDbEntity
  8
0
100
AcDbLine
 62
7
  6
CONTINUOUS
 10
823.364487324
 20
955.5853065789
 11
823.564487324
 21
955.5853065789
  0
LINE
  5
394
100
AcDbEntity
  8
0
100
AcDbLine
 62
7
  6
CONTINUOUS
 10
823.364487324
 20
955.6491363659
 11
823.564487324
 21
955.6491363659
  0
LINE
  5
395
100
AcDbEntity
  8
0
100
AcDbLine
 62
7
  6
CONTINUOUS
 10
823.564487324
 20
955.6810512549
 11
823.364487324
 21
955.6810512549
  0
LINE
  5
396
100
AcDbEntity
  8
0
100
AcDbLine
 62
7
  6
CONTINUOUS
 10
823.364487324
 20
955.7448810459
 11
823.564487324
 21
955.7448810459
  0
LINE
  5
397
100
AcDbEntity
  8
0
100
AcDbLine
 62
7
  6
CONTINUOUS
 10
823.364487324
 20
955.7767959359
 11
823.564487324
 21
955.7767959359
  0
LINE
  5
398
100
AcDbEntity
  8
0
100
AcDbLine
 62
7
  6
CONTINUOUS
 10
836.064487324
 20
955.8087916839
 11
825.564487324
 21
955.8087916839
  0
LINE
  5
399
100
AcDbEntity
  8
0
100
AcDbLine
 62
7
  6
CONTINUOUS
 10
823.364487324
 20
955.8406257379
 11
823.564487324
 21
955.8406257379
  0
LINE
  5
39A
100
AcDbEntity
  8
0
100
AcDbLine
 62
7
  6
CONTINUOUS
 10
823.364487324
 20
955.8486958229
 11
823.564487324
 21
955.8486958229
  0
LINE
  5
39B
100
AcDbEntity
  8
0
100
AcDbLine
 62
7
  6
CONTINUOUS
 10
823.364487324
 20
955.8725406279
 11
823.564487324
 21
955.8725406279
  0
LINE
  5
39C
100
AcDbEntity
  8
0
100
AcDbLine
 62
7
  6
CONTINUOUS
 10
823.364487324
 20
955.9044555179
 11
823.564487324
 21
955.9044555179
  0
LINE
  5
39D
100
AcDbEntity
  8
0
100
AcDbLine
 62
7
  6
CONTINUOUS
 10
823.364487324
 20
955.9363704069
 11
823.564487324
 21
955.9363704069
  0
LINE
  5
39E
100
AcDbEntity
  8
0
100
AcDbLine
 62
7
  6
CONTINUOUS
 10
823.364487324
 20
955.9682852969
 11
823.564487324
 21
955.9682852969
  0
LINE
  5
39F
100
AcDbEntity
  8
0
100
AcDbLine
 62
7
  6
CONTINUOUS
 10
823.364487324
 20
956.0321150769
 11
823.564487324
 21
956.0321150769
  0
LINE
  5
3A0
100
AcDbEntity
  8
0
100
AcDbLine
 62
7
  6
CONTINUOUS
 10
823.364487324
 20
956.0640299669
 11
823.564487324
 21
956.0640299669
  0
LINE
  5
3A1
100
AcDbEntity
  8
0
100
AcDbLine
 62
7
  6
CONTINUOUS
 10
823.364487324
 20
956.1278597909
 11
823.564487324
 21
956.1278597909
  0
LINE
  5
3A2
100
AcDbEntity
  8
0
100
AcDbLine
 62
7
  6
CONTINUOUS
 10
836.064487324
 20
956.1897916849
 11
825.564487324
 21
956.1897916849
  0
LINE
  5
3A3
100
AcDbEntity
  8
0
100
AcDbLine
 62
7
  6
CONTINUOUS
 10
823.364487324
 20
956.1916895709
 11
823.564487324
 21
956.1916895709
  0
LINE
  5
3A4
100
AcDbEntity
  8
0
100
AcDbLine
 62
7
  6
CONTINUOUS
 10
823.364487324
 20
956.2236044599
 11
823.564487324
 21
956.2236044599
  0
LINE
  5
3A5
100
AcDbEntity
  8
0
100
AcDbLine
 62
7
  6
CONTINUOUS
 10
823.364487324
 20
956.2555193499
 11
823.564487324
 21
956.2555193499
  0
LINE
  5
3A6
100
AcDbEntity
  8
0
100
AcDbLine
 62
7
  6
CONTINUOUS
 10
823.364487324
 20
956.2874342399
 11
823.564487324
 21
956.2874342399
  0
LINE
  5
3A7
100
AcDbEntity
  8
0
100
AcDbLine
 62
7
  6
CONTINUOUS
 10
823.364487324
 20
956.3193491299
 11
823.564487324
 21
956.3193491299
  0
LINE
  5
3A8
100
AcDbEntity
  8
0
100
AcDbLine
 62
7
  6
CONTINUOUS
 10
823.364487324
 20
956.3512640199
 11
823.564487324
 21
956.3512640199
  0
LINE
  5
3A9
100
AcDbEntity
  8
0
100
AcDbLine
 62
7
  6
CONTINUOUS
 10
823.564487324
 20
956.3881080549
 11
823.364487324
 21
956.3881080549
  0
LINE
  5
3AA
100
AcDbEntity
  8
0
100
AcDbLine
 62
7
  6
CONTINUOUS
 10
823.364487324
 20
956.4124342249
 11
823.564487324
 21
956.4124342249
  0
LINE
  5
3AB
100
AcDbEntity
  8
0
100
AcDbLine
 62
7
  6
CONTINUOUS
 10
823.364487324
 20
956.4150937989
 11
823.564487324
 21
956.4150937989
  0
LINE
  5
3AC
100
AcDbEntity
  8
0
100
AcDbLine
 62
7
  6
CONTINUOUS
 10
823.364487324
 20
956.4470086889
 11
823.564487324
 21
956.4470086889
  0
LINE
  5
3AD
100
AcDbEntity
  8
0
100
AcDbLine
 62
7
  6
CONTINUOUS
 10
823.364487324
 20
956.4789235789
 11
823.564487324
 21
956.4789235789
  0
LINE
  5
3AE
100
AcDbEntity
  8
0
100
AcDbLine
 62
7
  6
CONTINUOUS
 10
823.364487324
 20
956.5108384689
 11
823.564487324
 21
956.5108384689
  0
LINE
  5
3AF
100
AcDbEntity
  8
0
100
AcDbLine
 62
7
  6
CONTINUOUS
 10
823.364487324
 20
956.5427533589
 11
823.564487324
 21
956.5427533589
  0
LINE
  5
3B0
100
AcDbEntity
  8
0
100
AcDbLine
 62
7
  6
CONTINUOUS
 10
823.364487324
 20
956.5746682479
 11
823.564487324
 21
956.5746682479
  0
LINE
  5
3B1
100
AcDbEntity
  8
0
100
AcDbLine
 62
7
  6
CONTINUOUS
 10
823.364487324
 20
956.6065831379
 11
823.564487324
 21
956.6065831379
  0
LINE
  5
3B2
100
AcDbEntity
  8
0
100
AcDbLine
 62
7
  6
CONTINUOUS
 10
823.364487324
 20
956.6384980133
 11
823.564487324
 21
956.6384980133
  0
LINE
  5
3B3
100
AcDbEntity
  8
0
100
AcDbLine
 62
7
  6
CONTINUOUS
 10
823.364487324
 20
956.6704129179
 11
823.564487324
 21
956.6704129179
  0
LINE
  5
3B4
100
AcDbEntity
  8
0
100
AcDbLine
 62
7
  6
CONTINUOUS
 10
823.364487324
 20
956.7023278969
 11
823.564487324
 21
956.7023278969
  0
LINE
  5
3B5
100
AcDbEntity
  8
0
100
AcDbLine
 62
7
  6
CONTINUOUS
 10
823.364487324
 20
956.7661576769
 11
823.564487324
 21
956.7661576769
  0
LINE
  5
3B6
100
AcDbEntity
  8
0
100
AcDbLine
 62
7
  6
CONTINUOUS
 10
823.364487324
 20
956.7980725669
 11
823.564487324
 21
956.7980725669
  0
LINE
  5
3B7
100
AcDbEntity
  8
0
100
AcDbLine
 62
7
  6
CONTINUOUS
 10
823.364487324
 20
956.8246683229
 11
823.564487324
 21
956.8246683229
  0
LINE
  5
3B8
100
AcDbEntity
  8
0
100
AcDbLine
 62
7
  6
CONTINUOUS
 10
823.364487324
 20
956.8299874559
 11
823.564487324
 21
956.8299874559
  0
LINE
  5
3B9
100
AcDbEntity
  8
0
100
AcDbLine
 62
7
  6
CONTINUOUS
 10
823.364487324
 20
956.8619023459
 11
823.564487324
 21
956.8619023459
  0
LINE
  5
3BA
100
AcDbEntity
  8
0
100
AcDbLine
 62
7
  6
CONTINUOUS
 10
823.364487324
 20
956.8672214939
 11
823.564487324
 21
956.8672214939
  0
LINE
  5
3BB
100
AcDbEntity
  8
0
100
AcDbLine
 62
7
  6
CONTINUOUS
 10
823.364487324
 20
956.8911576619
 11
823.564487324
 21
956.8911576619
  0
LINE
  5
3BC
100
AcDbEntity
  8
0
100
AcDbLine
 62
7
  6
CONTINUOUS
 10
823.364487324
 20
956.8938172359
 11
823.564487324
 21
956.8938172359
  0
LINE
  5
3BD
100
AcDbEntity
  8
0
100
AcDbLine
 62
7
  6
CONTINUOUS
 10
419.114487324
 20
956.9033916849
 11
418.114487324
 21
956.9033916849
  0
LINE
  5
3BE
100
AcDbEntity
  8
0
100
AcDbLine
 62
7
  6
CONTINUOUS
 10
823.364487324
 20
956.9257321259
 11
823.564487324
 21
956.9257321259
  0
LINE
  5
3BF
100
AcDbEntity
  8
0
100
AcDbLine
 62
7
  6
CONTINUOUS
 10
823.364487324
 20
956.9576470159
 11
823.564487324
 21
956.9576470159
  0
LINE
  5
3C0
100
AcDbEntity
  8
0
100
AcDbLine
 62
7
  6
CONTINUOUS
 10
823.364487324
 20
957.0214767949
 11
823.564487324
 21
957.0214767949
  0
LINE
  5
3C1
100
AcDbEntity
  8
0
100
AcDbLine
 62
7
  6
CONTINUOUS
 10
823.364487324
 20
957.0533916849
 11
823.564487324
 21
957.0533916849
  0
LINE
  5
3C2
100
AcDbEntity
  8
0
100
AcDbLine
 62
7
  6
CONTINUOUS
 10
836.064487324
 20
957.1803916839
 11
825.564487324
 21
957.1803916839
  0
LINE
  5
3C3
100
AcDbEntity
  8
0
100
AcDbLine
 62
7
  6
CONTINUOUS
 10
419.8236969161
 20
957.4033916849
 11
419.614487324
 21
957.4033916849
  0
LINE
  5
3C4
100
AcDbEntity
  8
0
100
AcDbLine
 62
7
  6
CONTINUOUS
 10
858.554487323
 20
957.9533916859
 11
847.554487323
 21
957.9533916859
  0
LINE
  5
3C5
100
AcDbEntity
  8
0
100
AcDbLine
 62
7
  6
CONTINUOUS
 10
825.564487324
 20
958.1533916849
 11
820.564487324
 21
958.1533916849
  0
LINE
  5
3C6
100
AcDbEntity
  8
0
100
AcDbLine
 62
7
  6
CONTINUOUS
 10
826.564487323
 20
958.1533916849
 11
847.554487323
 21
958.1533916849
  0
LINE
  5
3C7
100
AcDbEntity
  8
0
100
AcDbLine
 62
7
  6
CONTINUOUS
 10
826.564487323
 20
959.4533916849
 11
820.564487324
 21
959.4533916849
  0
LINE
  5
3C8
100
AcDbEntity
  8
0
100
AcDbLine
 62
7
  6
CONTINUOUS
 10
826.564487323
 20
959.6341597644
 11
820.564487324
 21
959.6341597644
  0
LINE
  5
3C9
100
AcDbEntity
  8
0
100
AcDbLine
 62
7
  6
CONTINUOUS
 10
826.564487323
 20
959.9726236057
 11
820.564487324
 21
959.9726236057
  0
LINE
  5
3CA
100
AcDbEntity
  8
0
100
AcDbLine
 62
7
  6
CONTINUOUS
 10
872.964487324
 20
960.1533916849
 11
865.564487325
 21
960.1533916849
  0
LINE
  5
3CB
100
AcDbEntity
  8
0
100
AcDbLine
 62
7
  6
CONTINUOUS
 10
848.964487324
 20
960.1533916849
 11
820.564487324
 21
960.1533916849
  0
LINE
  5
3CC
100
AcDbEntity
  8
0
100
AcDbLine
 62
7
  6
CONTINUOUS
 10
823.8644873244
 20
960.3533916849
 11
822.064487324
 21
960.3533916849
  0
LINE
  5
3CD
100
AcDbEntity
  8
0
100
AcDbLine
 62
7
  6
CONTINUOUS
 10
858.554487323
 20
961.1410916859
 11
847.554487323
 21
961.1410916859
  0
LINE
  5
3CE
100
AcDbEntity
  8
0
100
AcDbLine
 62
7
  6
CONTINUOUS
 10
861.064487324
 20
961.1533916849
 11
879.064487324
 21
961.1533916849
  0
LINE
  5
3CF
100
AcDbEntity
  8
0
100
AcDbLine
 62
7
  6
CONTINUOUS
 10
951.3414092625
 20
961.5033916849
 11
940.4275653852
 21
961.5033916849
  0
LINE
  5
3D0
100
AcDbEntity
  8
0
100
AcDbLine
 62
7
  6
CONTINUOUS
 10
1027.540927754
 20
961.6533916849
 11
897.6038033955
 21
961.6533916849
  0
LINE
  5
3D1
100
AcDbEntity
  8
0
100
AcDbLine
 62
7
  6
CONTINUOUS
 10
852.729571924
 20
962.0089623399
 11
851.456779717
 21
962.0089623399
  0
LINE
  5
3D2
100
AcDbEntity
  8
0
100
AcDbLine
 62
7
  6
CONTINUOUS
 10
828.7295719238
 20
962.00896234
 11
827.456779717
 21
962.0089623398
  0
LINE
  5
3D3
100
AcDbEntity
  8
0
100
AcDbLine
 62
7
  6
CONTINUOUS
 10
879.064487324
 20
962.6533916849
 11
864.564487324
 21
962.6533916849
  0
LINE
  5
3D4
100
AcDbEntity
  8
0
100
AcDbLine
 62
7
  6
CONTINUOUS
 10
879.064487324
 20
963.1533916849
 11
877.564487324
 21
963.1533916849
  0
LINE
  5
3D5
100
AcDbEntity
  8
0
100
AcDbLine
 62
7
  6
CONTINUOUS
 10
324.064487324
 20
963.1533916849
 11
322.564487324
 21
963.1533916849
  0
LINE
  5
3D6
100
AcDbEntity
  8
0
100
AcDbLine
 62
7
  6
CONTINUOUS
 10
322.064487324
 20
963.1533916849
 11
320.564487324
 21
963.1533916849
  0
LINE
  5
3D7
100
AcDbEntity
  8
0
100
AcDbLine
 62
7
  6
CONTINUOUS
 10
882.064487324
 20
963.1533916849
 11
1029.564487324
 21
963.1533916849
  0
LINE
  5
3D8
100
AcDbEntity
  8
0
100
AcDbLine
 62
7
  6
CONTINUOUS
 10
858.554487323
 20
963.1603916849
 11
847.554487323
 21
963.1603916849
  0
LINE
  5
3D9
100
AcDbEntity
  8
0
100
AcDbLine
 62
7
  6
CONTINUOUS
 10
133.164487324
 20
963.7033916849
 11
137.564487324
 21
963.7033916849
  0
LINE
  5
3DA
100
AcDbEntity
  8
0
100
AcDbLine
 62
7
  6
CONTINUOUS
 10
432.7215941052
 20
964.2533916849
 11
441.3073805428
 21
964.2533916849
  0
LINE
  5
3DB
100
AcDbEntity
  8
0
100
AcDbLine
 62
7
  6
CONTINUOUS
 10
324.064487324
 20
965.1533916849
 11
322.564487324
 21
965.1533916849
  0
LINE
  5
3DC
100
AcDbEntity
  8
0
100
AcDbLine
 62
7
  6
CONTINUOUS
 10
867.564487324
 20
965.6533916849
 11
875.564487324
 21
965.6533916849
  0
LINE
  5
3DD
100
AcDbEntity
  8
0
100
AcDbLine
 62
7
  6
CONTINUOUS
 10
858.554487323
 20
965.9543916859
 11
847.554487323
 21
965.9543916859
  0
LINE
  5
3DE
100
AcDbEntity
  8
0
100
AcDbLine
 62
7
  6
CONTINUOUS
 10
137.564487324
 20
967.3033916849
 11
142.564487324
 21
967.3033916849
  0
LINE
  5
3DF
100
AcDbEntity
  8
0
100
AcDbLine
 62
7
  6
CONTINUOUS
 10
858.554487323
 20
967.9736916849
 11
847.554487323
 21
967.9736916849
  0
LINE
  5
3E0
100
AcDbEntity
  8
0
100
AcDbLine
 62
7
  6
CONTINUOUS
 10
810.045229471
 20
917.5694992321
 11
820.3441585281
 21
916.0246598735
  0
LINE
  5
3E1
100
AcDbEntity
  8
0
100
AcDbLine
 62
7
  6
CONTINUOUS
 10
810.26774015
 20
919.0529037611
 11
820.5666692074
 21
917.5080644023
  0
LINE
  5
3E2
100
AcDbEntity
  8
0
100
AcDbLine
 62
7
  6
CONTINUOUS
 10
816.2123347748
 20
918.4645707931
 11
812.2062005119
 21
919.0654909326
  0
LINE
  5
3E3
100
AcDbEntity
  8
0
100
AcDbLine
 62
7
  6
CONTINUOUS
 10
698.818040715
 20
906.2998382939
 11
673.5038271536
 21
931.6140518553
  0
LINE
  5
3E4
100
AcDbEntity
  8
0
100
AcDbLine
 62
7
  6
CONTINUOUS
 10
752.564487324
 20
912.6533916849
 11
752.564487324
 21
972.2533916849
  0
LINE
  5
3E5
100
AcDbEntity
  8
0
100
AcDbLine
 62
7
  6
CONTINUOUS
 10
754.564487324
 20
906.1533916849
 11
754.564487324
 21
912.6533916849
  0
LINE
  5
3E6
100
AcDbEntity
  8
0
100
AcDbLine
 62
7
  6
CONTINUOUS
 10
840.983732441
 20
962.7655665959
 11
840.370609566
 21
961.6292095869
  0
LINE
  5
3E7
100
AcDbEntity
  8
0
100
AcDbLine
 62
7
  6
CONTINUOUS
 10
858.554487323
 20
969.4087916839
 11
847.554487323
 21
969.4087916839
  0
LINE
  5
3E8
100
AcDbEntity
  8
0
100
AcDbLine
 62
7
  6
CONTINUOUS
 10
858.554487323
 20
969.7897916849
 11
847.554487323
 21
969.7897916849
  0
LINE
  5
3E9
100
AcDbEntity
  8
0
100
AcDbLine
 62
7
  6
CONTINUOUS
 10
879.064487324
 20
970.1533916849
 11
867.564487325
 21
970.1533916849
  0
LINE
  5
3EA
100
AcDbEntity
  8
0
100
AcDbLine
 62
7
  6
CONTINUOUS
 10
488.864487325
 20
970.2533916849
 11
498.864487325
 21
970.2533916849
  0
LINE
  5
3EB
100
AcDbEntity
  8
0
100
AcDbLine
 62
7
  6
CONTINUOUS
 10
679.814487324
 20
970.2533916849
 11
685.314487324
 21
970.2533916849
  0
LINE
  5
3EC
100
AcDbEntity
  8
0
100
AcDbLine
 62
7
  6
CONTINUOUS
 10
820.189487324
 20
970.2533916849
 11
824.939487324
 21
970.2533916849
  0
LINE
  5
3ED
100
AcDbEntity
  8
0
100
AcDbLine
 62
7
  6
CONTINUOUS
 10
858.554487323
 20
970.7803916839
 11
847.554487323
 21
970.7803916839
  0
LINE
  5
3EE
100
AcDbEntity
  8
0
100
AcDbLine
 62
7
  6
CONTINUOUS
 10
563.564487324
 20
971.2533916849
 11
578.564487324
 21
971.2533916849
  0
LINE
  5
3EF
100
AcDbEntity
  8
0
100
AcDbLine
 62
7
  6
CONTINUOUS
 10
583.564487324
 20
971.2533916849
 11
598.564487324
 21
971.2533916849
  0
LINE
  5
3F0
100
AcDbEntity
  8
0
100
AcDbLine
 62
7
  6
CONTINUOUS
 10
858.554487323
 20
971.323183031
 11
847.554487323
 21
971.323183031
  0
LINE
  5
3F1
100
AcDbEntity
  8
0
100
AcDbLine
 62
7
  6
CONTINUOUS
 10
858.554487323
 20
971.423391684
 11
847.554487323
 21
971.423391684
  0
LINE
  5
3F2
100
AcDbEntity
  8
0
100
AcDbLine
 62
7
  6
CONTINUOUS
 10
862.4644873237
 20
971.4533916849
 11
858.554487323
 21
971.4533916849
  0
LINE
  5
3F3
100
AcDbEntity
  8
0
100
AcDbLine
 62
7
  6
CONTINUOUS
 10
142.564487324
 20
971.6533916849
 11
146.564487324
 21
971.6533916849
  0
LINE
  5
3F4
100
AcDbEntity
  8
0
100
AcDbLine
 62
7
  6
CONTINUOUS
 10
867.564487325
 20
972.1533916849
 11
820.564487324
 21
972.1533916849
  0
LINE
  5
3F5
100
AcDbEntity
  8
0
100
AcDbLine
 62
7
  6
CONTINUOUS
 10
861.064487324
 20
972.2533916849
 11
417.614487324
 21
972.2533916849
  0
LINE
  5
3F6
100
AcDbEntity
  8
0
100
AcDbLine
 62
7
  6
CONTINUOUS
 10
597.564487324
 20
972.4533916849
 11
564.564487324
 21
972.4533916849
  0
LINE
  5
3F7
100
AcDbEntity
  8
0
100
AcDbLine
 62
7
  6
CONTINUOUS
 10
867.564487325
 20
972.6533916849
 11
859.606622947
 21
972.6533916849
  0
LINE
  5
3F8
100
AcDbEntity
  8
0
100
AcDbLine
 62
7
  6
CONTINUOUS
 10
587.7644873233
 20
974.0533916849
 11
594.3644873248
 21
974.0533916849
  0
LINE
  5
3F9
100
AcDbEntity
  8
0
100
AcDbLine
 62
7
  6
CONTINUOUS
 10
820.564487324
 20
974.1533916849
 11
867.564487325
 21
974.1533916849
  0
LINE
  5
3FA
100
AcDbEntity
  8
0
100
AcDbLine
 62
7
  6
CONTINUOUS
 10
144.064487324
 20
974.6533916849
 11
142.564487324
 21
974.6533916849
  0
LINE
  5
3FB
100
AcDbEntity
  8
0
100
AcDbLine
 62
7
  6
CONTINUOUS
 10
483.564487324
 20
975.0533916849
 11
491.564487324
 21
975.0533916849
  0
LINE
  5
3FC
100
AcDbEntity
  8
0
100
AcDbLine
 62
7
  6
CONTINUOUS
 10
843.564487324
 20
975.0533916849
 11
851.564487324
 21
975.0533916849
  0
LINE
  5
3FD
100
AcDbEntity
  8
0
100
AcDbLine
 62
7
  6
CONTINUOUS
 10
146.564487324
 20
975.1533916849
 11
142.564487324
 21
975.1533916849
  0
LINE
  5
3FE
100
AcDbEntity
  8
0
100
AcDbLine
 62
7
  6
CONTINUOUS
 10
877.064487324
 20
976.6533916849
 11
322.6279956509
 21
976.6533916849
  0
LINE
  5
3FF
100
AcDbEntity
  8
0
100
AcDbLine
 62
7
  6
CONTINUOUS
 10
142.564487324
 20
976.6533916849
 11
322.564487324
 21
976.6533916849
  0
LINE
  5
400
100
AcDbEntity
  8
0
100
AcDbLine
 62
7
  6
CONTINUOUS
 10
917.441047331
 20
977.9533916849
 11
914.951107534
 21
977.9533916849
  0
LINE
  5
401
100
AcDbEntity
  8
0
100
AcDbLine
 62
7
  6
CONTINUOUS
 10
914.200804945
 20
977.9533916849
 11
910.7209946681
 21
977.9533916849
  0
LINE
  5
402
100
AcDbEntity
  8
0
100
AcDbLine
 62
7
  6
CONTINUOUS
 10
910.266700515
 20
977.9533916849
 11
906.946781178
 21
977.9533916849
  0
LINE
  5
403
100
AcDbEntity
  8
0
100
AcDbLine
 62
7
  6
CONTINUOUS
 10
906.296076843
 20
977.9533916849
 11
905.389738997
 21
977.9533916849
  0
LINE
  5
404
100
AcDbEntity
  8
0
100
AcDbLine
 62
7
  6
CONTINUOUS
 10
905.057746592
 20
977.9533916849
 11
902.610966273
 21
977.9533916849
  0
LINE
  5
405
100
AcDbEntity
  8
0
100
AcDbLine
 62
7
  6
CONTINUOUS
 10
902.046579715
 20
977.9533916849
 11
901.140241869
 21
977.9533916849
  0
LINE
  5
406
100
AcDbEntity
  8
0
100
AcDbLine
 62
7
  6
CONTINUOUS
 10
900.4795777671
 20
977.9533916849
 11
895.9644873272
 21
977.9533916849
  0
LINE
  5
407
100
AcDbEntity
  8
0
100
AcDbLine
 62
7
  6
CONTINUOUS
 10
142.564487324
 20
978.1533916849
 11
320.0644873242
 21
978.1533916849
  0
LINE
  5
408
100
AcDbEntity
  8
0
100
AcDbLine
 62
7
  6
CONTINUOUS
 10
324.564487324
 20
978.1533916849
 11
877.064487324
 21
978.1533916849
  0
LINE
  5
409
100
AcDbEntity
  8
0
100
AcDbLine
 62
7
  6
CONTINUOUS
 10
877.064487324
 20
978.1533916849
 11
1029.564487324
 21
978.1533916849
  0
LINE
  5
40A
100
AcDbEntity
  8
0
100
AcDbLine
 62
7
  6
CONTINUOUS
 10
970.564487324
 20
978.3533916849
 11
938.564487324
 21
978.3533916849
  0
LINE
  5
40B
100
AcDbEntity
  8
0
100
AcDbLine
 62
7
  6
CONTINUOUS
 10
770.064487324
 20
978.3533916849
 11
790.5659998739
 21
978.3533916849
  0
LINE
  5
40C
100
AcDbEntity
  8
0
100
AcDbLine
 62
7
  6
CONTINUOUS
 10
798.564487324
 20
978.3533916849
 11
810.064487324
 21
978.3533916849
  0
LINE
  5
40D
100
AcDbEntity
  8
0
100
AcDbLine
 62
7
  6
CONTINUOUS
 10
148.564535128
 20
978.6533916849
 11
156.56443952
 21
978.6533916849
  0
LINE
  5
40E
100
AcDbEntity
  8
0
100
AcDbLine
 62
7
  6
CONTINUOUS
 10
305.564535128
 20
978.6533916849
 11
313.56443952
 21
978.6533916849
  0
LINE
  5
40F
100
AcDbEntity
  8
0
100
AcDbLine
 62
7
  6
CONTINUOUS
 10
388.5659998739
 20
978.6533916849
 11
396.5629747741
 21
978.6533916849
  0
LINE
  5
410
100
AcDbEntity
  8
0
100
AcDbLine
 62
7
  6
CONTINUOUS
 10
790.5659998739
 20
978.6533916849
 11
798.5629747741
 21
978.6533916849
  0
LINE
  5
411
100
AcDbEntity
  8
0
100
AcDbLine
 62
7
  6
CONTINUOUS
 10
1009.3344873237
 20
979.8533916849
 11
968.6344873243
 21
979.8533916849
  0
LINE
  5
412
100
AcDbEntity
  8
0
100
AcDbLine
 62
7
  6
CONTINUOUS
 10
929.4037261397
 20
980.4533916849
 11
926.944245875
 21
980.4533916849
  0
LINE
  5
413
100
AcDbEntity
  8
0
100
AcDbLine
 62
7
  6
CONTINUOUS
 10
917.3651060479
 20
980.4533916849
 11
918.8844873247
 21
980.4533916849
  0
LINE
  5
414
100
AcDbEntity
  8
0
100
AcDbLine
 62
7
  6
CONTINUOUS
 10
937.4844873233
 20
980.4533916849
 11
939.0037261395
 21
980.4533916849
  0
LINE
  5
415
100
AcDbEntity
  8
0
100
AcDbLine
 62
7
  6
CONTINUOUS
 10
942.2585528174
 20
980.4533916849
 11
945.6844873239
 21
980.4533916849
  0
LINE
  5
416
100
AcDbEntity
  8
0
100
AcDbLine
 62
7
  6
CONTINUOUS
 10
1011.4844969832
 20
980.4533916849
 11
1018.3764738526
 21
980.4533916849
  0
LINE
  5
417
100
AcDbEntity
  8
0
100
AcDbLine
 62
7
  6
CONTINUOUS
 10
1022.7844395088
 20
980.6533916849
 11
902.1845560667
 21
980.6533916849
  0
LINE
  5
418
100
AcDbEntity
  8
0
100
AcDbLine
 62
7
  6
CONTINUOUS
 10
914.845622711
 20
980.6833916849
 11
941.523351937
 21
980.6833916849
  0
LINE
  5
419
100
AcDbEntity
  8
0
100
AcDbLine
 62
7
  6
CONTINUOUS
 10
945.1842118511
 20
981.0033916849
 11
939.184487324
 21
981.0033916849
  0
LINE
  5
41A
100
AcDbEntity
  8
0
100
AcDbLine
 62
7
  6
CONTINUOUS
 10
917.1844873235
 20
981.0033916849
 11
911.1844873245
 21
981.0033916849
  0
LINE
  5
41B
100
AcDbEntity
  8
0
100
AcDbLine
 62
7
  6
CONTINUOUS
 10
928.7163091533
 20
981.0033916849
 11
928.83986962
 21
981.0033916849
  0
LINE
  5
41C
100
AcDbEntity
  8
0
100
AcDbLine
 62
7
  6
CONTINUOUS
 10
925.184487324
 20
981.0033916849
 11
928.7163091533
 21
981.0033916849
  0
LINE
  5
41D
100
AcDbEntity
  8
0
100
AcDbLine
 62
7
  6
CONTINUOUS
 10
928.83986962
 20
981.0033916849
 11
931.184487324
 21
981.0033916849
  0
LINE
  5
41E
100
AcDbEntity
  8
0
100
AcDbLine
 62
7
  6
CONTINUOUS
 10
1025.471951901
 20
981.1533916849
 11
899.530679974
 21
981.1533916849
  0
LINE
  5
41F
100
AcDbEntity
  8
0
100
AcDbLine
 62
7
  6
CONTINUOUS
 10
149.0645291525
 20
982.1533916849
 11
156.0644454955
 21
982.1533916849
  0
LINE
  5
420
100
AcDbEntity
  8
0
100
AcDbLine
 62
7
  6
CONTINUOUS
 10
306.0645291525
 20
982.1533916849
 11
313.0644454955
 21
982.1533916849
  0
LINE
  5
421
100
AcDbEntity
  8
0
100
AcDbLine
 62
7
  6
CONTINUOUS
 10
389.0658108051
 20
982.1533916849
 11
396.0631638429
 21
982.1533916849
  0
LINE
  5
422
100
AcDbEntity
  8
0
100
AcDbLine
 62
7
  6
CONTINUOUS
 10
791.0658108051
 20
982.1533916849
 11
798.0631638429
 21
982.1533916849
  0
LINE
  5
423
100
AcDbEntity
  8
0
100
AcDbLine
 62
7
  6
CONTINUOUS
 10
1064.564487324
 20
993.8033916849
 11
1003.4747319492
 21
993.8033916849
  0
LINE
  5
424
100
AcDbEntity
  8
0
100
AcDbLine
 62
7
  6
CONTINUOUS
 10
872.4195978318
 20
970.1496978595
 11
867.564487325
 21
970.1533916849
  0
LINE
  5
425
100
AcDbEntity
  8
0
100
AcDbLine
 62
7
  6
CONTINUOUS
 10
770.064487324
 20
978.3533916849
 11
770.064487324
 21
978.1533916849
  0
LINE
  5
426
100
AcDbEntity
  8
0
100
AcDbLine
 62
7
  6
CONTINUOUS
 10
772.064487324
 20
978.1533916849
 11
772.064487324
 21
978.3533916849
  0
LINE
  5
427
100
AcDbEntity
  8
0
100
AcDbLine
 62
7
  6
CONTINUOUS
 10
787.914487324
 20
906.3533916849
 11
787.914487324
 21
906.1533916849
  0
LINE
  5
428
100
AcDbEntity
  8
0
100
AcDbLine
 62
7
  6
CONTINUOUS
 10
788.414487324
 20
906.3533916849
 11
788.414487324
 21
906.1533916849
  0
LINE
  5
429
100
AcDbEntity
  8
0
100
AcDbLine
 62
7
  6
CONTINUOUS
 10
790.564487324
 20
978.6533916849
 11
790.564487324
 21
978.1533916849
  0
LINE
  5
42A
100
AcDbEntity
  8
0
100
AcDbLine
 62
7
  6
CONTINUOUS
 10
791.064487324
 20
982.1533916849
 11
791.064487324
 21
978.6533916849
  0
LINE
  5
42B
100
AcDbEntity
  8
0
100
AcDbLine
 62
7
  6
CONTINUOUS
 10
798.064487324
 20
982.1533916849
 11
798.064487324
 21
978.6533916849
  0
LINE
  5
42C
100
AcDbEntity
  8
0
100
AcDbLine
 62
7
  6
CONTINUOUS
 10
798.564487324
 20
978.6533916849
 11
798.564487324
 21
978.1533916849
  0
LINE
  5
42D
100
AcDbEntity
  8
0
100
AcDbLine
 62
7
  6
CONTINUOUS
 10
810.26774015
 20
919.0529037609
 11
810.0452294707
 21
917.569499232
  0
LINE
  5
42E
100
AcDbEntity
  8
0
100
AcDbLine
 62
7
  6
CONTINUOUS
 10
810.370341338
 20
919.0375135829
 11
810.1478306587
 21
917.554109054
  0
LINE
  5
42F
100
AcDbEntity
  8
0
100
AcDbLine
 62
7
  6
CONTINUOUS
 10
812.103599324
 20
919.0808811109
 11
812.0590971882
 21
918.7842002057
  0
LINE
  5
430
100
AcDbEntity
  8
0
100
AcDbLine
 62
7
  6
CONTINUOUS
 10
812.2062005119
 20
919.0654909326
 11
812.1616983761
 21
918.7688100269
  0
LINE
  5
431
100
AcDbEntity
  8
0
100
AcDbLine
 62
7
  6
CONTINUOUS
 10
813.2255389073
 20
917.0924528161
 11
813.4480495866
 21
918.5758573451
  0
LINE
  5
432
100
AcDbEntity
  8
0
100
AcDbLine
 62
7
  6
CONTINUOUS
 10
838.000466896
 20
959.2590420319
 11
837.74164785
 21
958.2931162039
  0
LINE
  5
433
100
AcDbEntity
  8
0
100
AcDbLine
 62
7
  6
CONTINUOUS
 10
864.983732441
 20
962.7655665959
 11
864.370609566
 21
961.6292095869
  0
LINE
  5
434
100
AcDbEntity
  8
0
100
AcDbLine
 62
7
  6
CONTINUOUS
 10
800.414487324
 20
906.3533916849
 11
800.414487324
 21
906.1533916849
  0
LINE
  5
435
100
AcDbEntity
  8
0
100
AcDbLine
 62
7
  6
CONTINUOUS
 10
800.914487324
 20
906.3533916849
 11
800.914487324
 21
906.1533916849
  0
LINE
  5
436
100
AcDbEntity
  8
0
100
AcDbLine
 62
7
  6
CONTINUOUS
 10
808.064487324
 20
978.3533916849
 11
808.064487324
 21
978.1533916849
  0
LINE
  5
437
100
AcDbEntity
  8
0
100
AcDbLine
 62
7
  6
CONTINUOUS
 10
810.064487324
 20
978.1533916849
 11
810.064487324
 21
978.3533916849
  0
LINE
  5
438
100
AcDbEntity
  8
0
100
AcDbLine
 62
7
  6
CONTINUOUS
 10
814.564487324
 20
924.4283916849
 11
814.564487324
 21
932.8283916849
  0
LINE
  5
439
100
AcDbEntity
  8
0
100
AcDbLine
 62
7
  6
CONTINUOUS
 10
820.189487324
 20
972.2533916849
 11
820.189487324
 21
970.2533916849
  0
LINE
  5
43A
100
AcDbEntity
  8
0
100
AcDbLine
 62
7
  6
CONTINUOUS
 10
820.564487324
 20
913.3533916849
 11
820.564487324
 21
974.1533916849
  0
LINE
  5
43B
100
AcDbEntity
  8
0
100
AcDbLine
 62
7
  6
CONTINUOUS
 10
822.064487324
 20
960.3533916849
 11
822.064487324
 21
960.1533916849
  0
LINE
  5
43C
100
AcDbEntity
  8
0
100
AcDbLine
 62
7
  6
CONTINUOUS
 10
822.102785195
 20
960.3533916849
 11
822.102785195
 21
960.1533916849
  0
LINE
  5
43D
100
AcDbEntity
  8
0
100
AcDbLine
 62
7
  6
CONTINUOUS
 10
822.179380941
 20
960.3533916849
 11
822.179380941
 21
960.1533916849
  0
LINE
  5
43E
100
AcDbEntity
  8
0
100
AcDbLine
 62
7
  6
CONTINUOUS
 10
822.217678808
 20
960.1533916849
 11
822.217678808
 21
960.3533916849
  0
LINE
  5
43F
100
AcDbEntity
  8
0
100
AcDbLine
 62
7
  6
CONTINUOUS
 10
822.294274558
 20
960.3533916849
 11
822.294274558
 21
960.1533916849
  0
LINE
  5
440
100
AcDbEntity
  8
0
100
AcDbLine
 62
7
  6
CONTINUOUS
 10
822.332572425
 20
960.3533916849
 11
822.332572425
 21
960.1533916849
  0
LINE
  5
441
100
AcDbEntity
  8
0
100
AcDbLine
 62
7
  6
CONTINUOUS
 10
822.409168188
 20
960.3533916849
 11
822.409168188
 21
960.1533916849
  0
LINE
  5
442
100
AcDbEntity
  8
0
100
AcDbLine
 62
7
  6
CONTINUOUS
 10
822.417066247
 20
960.3533916849
 11
822.417066247
 21
960.1533916849
  0
LINE
  5
443
100
AcDbEntity
  8
0
100
AcDbLine
 62
7
  6
CONTINUOUS
 10
822.447466055
 20
960.3533916849
 11
822.447466055
 21
960.1533916849
  0
LINE
  5
444
100
AcDbEntity
  8
0
100
AcDbLine
 62
7
  6
CONTINUOUS
 10
822.485763923
 20
960.3533916849
 11
822.485763923
 21
960.1533916849
  0
LINE
  5
445
100
AcDbEntity
  8
0
100
AcDbLine
 62
7
  6
CONTINUOUS
 10
822.52406179
 20
960.3533916849
 11
822.52406179
 21
960.1533916849
  0
LINE
  5
446
100
AcDbEntity
  8
0
100
AcDbLine
 62
7
  6
CONTINUOUS
 10
822.562359659
 20
960.3533916849
 11
822.562359659
 21
960.1533916849
  0
LINE
  5
447
100
AcDbEntity
  8
0
100
AcDbLine
 62
7
  6
CONTINUOUS
 10
822.564487324
 20
947.9533916849
 11
822.564487324
 21
942.9533916849
  0
LINE
  5
448
100
AcDbEntity
  8
0
100
AcDbLine
 62
7
  6
CONTINUOUS
 10
822.638955394
 20
960.3533916849
 11
822.638955394
 21
960.1533916849
  0
LINE
  5
449
100
AcDbEntity
  8
0
100
AcDbLine
 62
7
  6
CONTINUOUS
 10
822.677253262
 20
960.3533916849
 11
822.677253262
 21
960.1533916849
  0
LINE
  5
44A
100
AcDbEntity
  8
0
100
AcDbLine
 62
7
  6
CONTINUOUS
 10
822.75384905
 20
960.3533916849
 11
822.75384905
 21
960.1533916849
  0
LINE
  5
44B
100
AcDbEntity
  8
0
100
AcDbLine
 62
7
  6
CONTINUOUS
 10
822.830444787
 20
960.3533916849
 11
822.830444787
 21
960.1533916849
  0
LINE
  5
44C
100
AcDbEntity
  8
0
100
AcDbLine
 62
7
  6
CONTINUOUS
 10
822.868742655
 20
960.3533916849
 11
822.868742655
 21
960.1533916849
  0
LINE
  5
44D
100
AcDbEntity
  8
0
100
AcDbLine
 62
7
  6
CONTINUOUS
 10
822.907040522
 20
960.3533916849
 11
822.907040522
 21
960.1533916849
  0
LINE
  5
44E
100
AcDbEntity
  8
0
100
AcDbLine
 62
7
  6
CONTINUOUS
 10
822.945338389
 20
960.3533916849
 11
822.945338389
 21
960.1533916849
  0
LINE
  5
44F
100
AcDbEntity
  8
0
100
AcDbLine
 62
7
  6
CONTINUOUS
 10
822.983636259
 20
960.3533916849
 11
822.983636259
 21
960.1533916849
  0
LINE
  5
450
100
AcDbEntity
  8
0
100
AcDbLine
 62
7
  6
CONTINUOUS
 10
823.021934126
 20
960.3533916849
 11
823.021934126
 21
960.1533916849
  0
LINE
  5
451
100
AcDbEntity
  8
0
100
AcDbLine
 62
7
  6
CONTINUOUS
 10
823.060231993
 20
960.3533916849
 11
823.060231993
 21
960.1533916849
  0
LINE
  5
452
100
AcDbEntity
  8
0
100
AcDbLine
 62
7
  6
CONTINUOUS
 10
823.098529861
 20
960.3533916849
 11
823.098529861
 21
960.1533916849
  0
LINE
  5
453
100
AcDbEntity
  8
0
100
AcDbLine
 62
7
  6
CONTINUOUS
 10
823.136827728
 20
960.3533916849
 11
823.136827728
 21
960.1533916849
  0
LINE
  5
454
100
AcDbEntity
  8
0
100
AcDbLine
 62
7
  6
CONTINUOUS
 10
823.175125598
 20
960.3533916849
 11
823.175125598
 21
960.1533916849
  0
LINE
  5
455
100
AcDbEntity
  8
0
100
AcDbLine
 62
7
  6
CONTINUOUS
 10
823.213423465
 20
960.3533916849
 11
823.213423465
 21
960.1533916849
  0
LINE
  5
456
100
AcDbEntity
  8
0
100
AcDbLine
 62
7
  6
CONTINUOUS
 10
823.251721332
 20
960.3533916849
 11
823.251721332
 21
960.1533916849
  0
LINE
  5
457
100
AcDbEntity
  8
0
100
AcDbLine
 62
7
  6
CONTINUOUS
 10
823.2900192
 20
960.3533916849
 11
823.2900192
 21
960.1533916849
  0
LINE
  5
458
100
AcDbEntity
  8
0
100
AcDbLine
 62
7
  6
CONTINUOUS
 10
823.328317067
 20
960.3533916849
 11
823.328317067
 21
960.1533916849
  0
LINE
  5
459
100
AcDbEntity
  8
0
100
AcDbLine
 62
7
  6
CONTINUOUS
 10
823.364487324
 20
957.0533916849
 11
823.364487324
 21
955.5533916849
  0
LINE
  5
45A
100
AcDbEntity
  8
0
100
AcDbLine
 62
7
  6
CONTINUOUS
 10
823.364487324
 20
954.5533916839
 11
823.364487324
 21
951.1533916859
  0
LINE
  5
45B
100
AcDbEntity
  8
0
100
AcDbLine
 62
7
  6
CONTINUOUS
 10
823.364487324
 20
950.4533916849
 11
823.364487324
 21
948.9533916849
  0
LINE
  5
45C
100
AcDbEntity
  8
0
100
AcDbLine
 62
7
  6
CONTINUOUS
 10
823.3666149176
 20
960.3533916849
 11
823.3666149176
 21
960.1533916849
  0
LINE
  5
45D
100
AcDbEntity
  8
0
100
AcDbLine
 62
7
  6
CONTINUOUS
 10
823.404912804
 20
960.3533916849
 11
823.404912804
 21
960.1533916849
  0
LINE
  5
45E
100
AcDbEntity
  8
0
100
AcDbLine
 62
7
  6
CONTINUOUS
 10
823.443210779
 20
960.3533916849
 11
823.443210779
 21
960.1533916849
  0
LINE
  5
45F
100
AcDbEntity
  8
0
100
AcDbLine
 62
7
  6
CONTINUOUS
 10
823.519806514
 20
960.3533916849
 11
823.519806514
 21
960.1533916849
  0
LINE
  5
460
100
AcDbEntity
  8
0
100
AcDbLine
 62
7
  6
CONTINUOUS
 10
823.558104381
 20
960.3533916849
 11
823.558104381
 21
960.1533916849
  0
LINE
  5
461
100
AcDbEntity
  8
0
100
AcDbLine
 62
7
  6
CONTINUOUS
 10
823.564487324
 20
960.1533916849
 11
823.564487324
 21
940.1533916849
  0
LINE
  5
462
100
AcDbEntity
  8
0
100
AcDbLine
 62
7
  6
CONTINUOUS
 10
823.59001929
 20
960.3533916849
 11
823.59001929
 21
960.1533916849
  0
LINE
  5
463
100
AcDbEntity
  8
0
100
AcDbLine
 62
7
  6
CONTINUOUS
 10
823.596402249
 20
960.3533916849
 11
823.596402249
 21
960.1533916849
  0
LINE
  5
464
100
AcDbEntity
  8
0
100
AcDbLine
 62
7
  6
CONTINUOUS
 10
823.634700118
 20
960.3533916849
 11
823.634700118
 21
960.1533916849
  0
LINE
  5
465
100
AcDbEntity
  8
0
100
AcDbLine
 62
7
  6
CONTINUOUS
 10
823.672997985
 20
960.3533916849
 11
823.672997985
 21
960.1533916849
  0
LINE
  5
466
100
AcDbEntity
  8
0
100
AcDbLine
 62
7
  6
CONTINUOUS
 10
823.711295853
 20
960.3533916849
 11
823.711295853
 21
960.1533916849
  0
LINE
  5
467
100
AcDbEntity
  8
0
100
AcDbLine
 62
7
  6
CONTINUOUS
 10
823.74959372
 20
960.3533916849
 11
823.74959372
 21
960.1533916849
  0
LINE
  5
468
100
AcDbEntity
  8
0
100
AcDbLine
 62
7
  6
CONTINUOUS
 10
823.826189457
 20
960.3533916849
 11
823.826189457
 21
960.1533916849
  0
LINE
  5
469
100
AcDbEntity
  8
0
100
AcDbLine
 62
7
  6
CONTINUOUS
 10
823.864487324
 20
960.3533916849
 11
823.864487324
 21
960.1533916849
  0
LINE
  5
46A
100
AcDbEntity
  8
0
100
AcDbLine
 62
7
  6
CONTINUOUS
 10
824.939487324
 20
972.2533916849
 11
824.939487324
 21
970.2533916849
  0
LINE
  5
46B
100
AcDbEntity
  8
0
100
AcDbLine
 62
7
  6
CONTINUOUS
 10
825.564487324
 20
944.1533916849
 11
825.564487324
 21
960.1533916849
  0
LINE
  5
46C
100
AcDbEntity
  8
0
100
AcDbLine
 62
7
  6
CONTINUOUS
 10
826.564487323
 20
960.1533916849
 11
826.564487323
 21
958.1533916849
  0
LINE
  5
46D
100
AcDbEntity
  8
0
100
AcDbLine
 62
7
  6
CONTINUOUS
 10
830.992313623
 20
965.544496246
 11
830.992313623
 21
964.2717040399
  0
LINE
  5
46E
100
AcDbEntity
  8
0
100
AcDbLine
 62
7
  6
CONTINUOUS
 10
816.2123347749
 20
918.4645707938
 11
816.167832639
 21
918.1678898879
  0
LINE
  5
46F
100
AcDbEntity
  8
0
100
AcDbLine
 62
7
  6
CONTINUOUS
 10
817.2913671762
 20
916.4825785758
 11
817.5138778556
 21
917.9659831047
  0
LINE
  5
470
100
AcDbEntity
  8
0
100
AcDbLine
 62
7
  6
CONTINUOUS
 10
820.3441585281
 20
916.0246598735
 11
820.5666692074
 21
917.5080644023
  0
LINE
  5
471
100
AcDbEntity
  8
0
100
AcDbLine
 62
7
  6
CONTINUOUS
 10
862.000466896
 20
959.2590420319
 11
861.74164785
 21
958.2931162039
  0
LINE
  5
472
100
AcDbEntity
  8
0
100
AcDbLine
 62
7
  6
CONTINUOUS
 10
1001.564487324
 20
903.8033916843
 11
982.564487324
 21
884.8033916855
  0
LINE
  5
473
100
AcDbEntity
  8
0
100
AcDbLine
 62
7
  6
CONTINUOUS
 10
835.564487324
 20
936.3583916849
 11
835.564487324
 21
922.1583916849
  0
LINE
  5
474
100
AcDbEntity
  8
0
100
AcDbLine
 62
7
  6
CONTINUOUS
 10
836.064487324
 20
957.1803916839
 11
836.064487324
 21
947.5410916849
  0
LINE
  5
475
100
AcDbEntity
  8
0
100
AcDbLine
 62
7
  6
CONTINUOUS
 10
837.564487324
 20
935.6533916849
 11
837.564487324
 21
919.001760901
  0
LINE
  5
476
100
AcDbEntity
  8
0
100
AcDbLine
 62
7
  6
CONTINUOUS
 10
841.564487324
 20
945.1533916849
 11
841.564487324
 21
960.1533916849
  0
LINE
  5
477
100
AcDbEntity
  8
0
100
AcDbLine
 62
7
  6
CONTINUOUS
 10
843.564487324
 20
975.0533916849
 11
843.564487324
 21
972.2533916849
  0
LINE
  5
478
100
AcDbEntity
  8
0
100
AcDbLine
 62
7
  6
CONTINUOUS
 10
846.964487323
 20
960.1533916849
 11
846.964487323
 21
974.1533916849
  0
LINE
  5
479
100
AcDbEntity
  8
0
100
AcDbLine
 62
7
  6
CONTINUOUS
 10
847.554487323
 20
971.4233916839
 11
847.554487323
 21
957.9533916859
  0
LINE
  5
47A
100
AcDbEntity
  8
0
100
AcDbLine
 62
7
  6
CONTINUOUS
 10
848.964487324
 20
945.1533916849
 11
848.964487324
 21
962.0112560609
  0
LINE
  5
47B
100
AcDbEntity
  8
0
100
AcDbLine
 62
7
  6
CONTINUOUS
 10
851.564487324
 20
975.0533916849
 11
851.564487324
 21
972.2533916849
  0
LINE
  5
47C
100
AcDbEntity
  8
0
100
AcDbLine
 62
7
  6
CONTINUOUS
 10
854.464487324
 20
974.1533916849
 11
854.464487324
 21
972.1533916849
  0
LINE
  5
47D
100
AcDbEntity
  8
0
100
AcDbLine
 62
7
  6
CONTINUOUS
 10
854.992313623
 20
965.5444962459
 11
854.992313623
 21
964.2717040399
  0
LINE
  5
47E
100
AcDbEntity
  8
0
100
AcDbLine
 62
7
  6
CONTINUOUS
 10
855.064487324
 20
974.1533916849
 11
855.064487324
 21
972.1533916849
  0
LINE
  5
47F
100
AcDbEntity
  8
0
100
AcDbLine
 62
7
  6
CONTINUOUS
 10
858.554487323
 20
972.1533916849
 11
858.554487323
 21
957.9533916859
  0
LINE
  5
480
100
AcDbEntity
  8
0
100
AcDbLine
 62
7
  6
CONTINUOUS
 10
861.064487324
 20
972.2533916849
 11
861.064487324
 21
961.1533916849
  0
LINE
  5
481
100
AcDbEntity
  8
0
100
AcDbLine
 62
7
  6
CONTINUOUS
 10
861.864487324
 20
974.1533916849
 11
861.864487324
 21
971.4533916849
  0
LINE
  5
482
100
AcDbEntity
  8
0
100
AcDbLine
 62
7
  6
CONTINUOUS
 10
862.464487324
 20
974.1533916849
 11
862.464487324
 21
971.4533916849
  0
LINE
  5
483
100
AcDbEntity
  8
0
100
AcDbLine
 62
7
  6
CONTINUOUS
 10
864.564487324
 20
962.6533916849
 11
864.564487324
 21
961.1533916849
  0
LINE
  5
484
100
AcDbEntity
  8
0
100
AcDbLine
 62
7
  6
CONTINUOUS
 10
865.564487325
 20
945.1533916849
 11
865.564487325
 21
960.1533916849
  0
LINE
  5
485
100
AcDbEntity
  8
0
100
AcDbLine
 62
7
  6
CONTINUOUS
 10
832.427740389
 20
954.2095745439
 11
826.042566155
 21
960.5947487779
  0
LINE
  5
486
100
AcDbEntity
  8
0
100
AcDbLine
 62
7
  6
CONTINUOUS
 10
833.891451426
 20
954.4429197809
 11
833.276268526
 21
955.0581026809
  0
LINE
  5
487
100
AcDbEntity
  8
0
100
AcDbLine
 62
7
  6
CONTINUOUS
 10
840.1352043035
 20
948.9487000924
 11
834.266218021
 21
954.8176863749
  0
LINE
  5
488
100
AcDbEntity
  8
0
100
AcDbLine
 62
7
  6
CONTINUOUS
 10
829.542744722
 20
961.1957895419
 11
828.7295719238
 21
962.00896234
  0
LINE
  5
489
100
AcDbEntity
  8
0
100
AcDbLine
 62
7
  6
CONTINUOUS
 10
826.6011805118
 20
965.3394352797
 11
830.143785486
 21
961.7968303061
  0
LINE
  5
48A
100
AcDbEntity
  8
0
100
AcDbLine
 62
7
  6
CONTINUOUS
 10
823.0911833793
 20
968.9005059592
 11
830.1693228101
 21
961.822367631
  0
LINE
  5
48B
100
AcDbEntity
  8
0
100
AcDbLine
 62
7
  6
CONTINUOUS
 10
827.6618406831
 20
966.4000954511
 11
831.2044456578
 21
962.857490478
  0
LINE
  5
48C
100
AcDbEntity
  8
0
100
AcDbLine
 62
7
  6
CONTINUOUS
 10
824.1518435525
 20
969.9611661324
 11
831.2299818818
 21
962.883026702
  0
LINE
  5
48D
100
AcDbEntity
  8
0
100
AcDbLine
 62
7
  6
CONTINUOUS
 10
831.8054864215
 20
963.4585312414
 11
830.992313623
 21
964.2717040399
  0
LINE
  5
48E
100
AcDbEntity
  8
0
100
AcDbLine
 62
7
  6
CONTINUOUS
 10
841.564487324
 20
954.4702767299
 11
837.74164785
 21
958.2931162039
  0
LINE
  5
48F
100
AcDbEntity
  8
0
100
AcDbLine
 62
7
  6
CONTINUOUS
 10
832.901501933
 20
967.0294204859
 11
832.830791254
 21
967.1001311649
  0
LINE
  5
490
100
AcDbEntity
  8
0
100
AcDbLine
 62
7
  6
CONTINUOUS
 10
840.1352043039
 20
964.179780158
 11
837.3067771791
 21
967.0082072828
  0
LINE
  5
491
100
AcDbEntity
  8
0
100
AcDbLine
 62
7
  6
CONTINUOUS
 10
842.610078038
 20
965.2404403299
 11
837.35924737
 21
970.4912709979
  0
LINE
  5
492
100
AcDbEntity
  8
0
100
AcDbLine
 62
7
  6
CONTINUOUS
 10
847.6596163015
 20
961.5634850684
 11
845.8918493485
 21
963.3312520214
  0
LINE
  5
493
100
AcDbEntity
  8
0
100
AcDbLine
 62
7
  6
CONTINUOUS
 10
836.772148394
 20
969.7396763179
 11
836.670381076
 21
970.1194771209
  0
LINE
  5
494
100
AcDbEntity
  8
0
100
AcDbLine
 62
7
  6
CONTINUOUS
 10
866.564487324
 20
962.6533916849
 11
866.564487324
 21
961.1533916849
  0
LINE
  5
495
100
AcDbEntity
  8
0
100
AcDbLine
 62
7
  6
CONTINUOUS
 10
867.564487325
 20
974.1533916849
 11
867.564487325
 21
970.1533916849
  0
LINE
  5
496
100
AcDbEntity
  8
0
100
AcDbLine
 62
7
  6
CONTINUOUS
 10
867.564487324
 20
965.6533916849
 11
867.564487324
 21
962.6533916849
  0
LINE
  5
497
100
AcDbEntity
  8
0
100
AcDbLine
 62
7
  6
CONTINUOUS
 10
872.964487324
 20
960.1533916849
 11
872.964487324
 21
970.1533916849
  0
LINE
  5
498
100
AcDbEntity
  8
0
100
AcDbLine
 62
7
  6
CONTINUOUS
 10
875.564487324
 20
965.6533916849
 11
875.564487324
 21
962.6533916849
  0
LINE
  5
499
100
AcDbEntity
  8
0
100
AcDbLine
 62
7
  6
CONTINUOUS
 10
877.564487324
 20
963.1533916849
 11
877.564487324
 21
976.1533916849
  0
LINE
  5
49A
100
AcDbEntity
  8
0
100
AcDbLine
 62
7
  6
CONTINUOUS
 10
879.064487324
 20
976.1533916849
 11
879.064487324
 21
963.1533916849
  0
LINE
  5
49B
100
AcDbEntity
  8
0
100
AcDbLine
 62
7
  6
CONTINUOUS
 10
879.064487324
 20
963.1533916849
 11
879.064487324
 21
906.1533916849
  0
LINE
  5
49C
100
AcDbEntity
  8
0
100
AcDbLine
 62
7
  6
CONTINUOUS
 10
879.064487324
 20
976.1533916849
 11
879.064487324
 21
978.1533916849
  0
LINE
  5
49D
100
AcDbEntity
  8
0
100
AcDbLine
 62
7
  6
CONTINUOUS
 10
882.064487324
 20
963.1533916849
 11
882.064487324
 21
978.1533916849
  0
LINE
  5
49E
100
AcDbEntity
  8
0
100
AcDbLine
 62
7
  6
CONTINUOUS
 10
891.0644873292
 20
978.1533916849
 11
891.0644873292
 21
963.1533916849
  0
LINE
  5
49F
100
AcDbEntity
  8
0
100
AcDbLine
 62
7
  6
CONTINUOUS
 10
895.9644870989
 20
978.1533916849
 11
895.9644870989
 21
977.9533916849
  0
LINE
  5
4A0
100
AcDbEntity
  8
0
100
AcDbLine
 62
7
  6
CONTINUOUS
 10
895.9966277145
 20
977.9533916849
 11
895.9966277145
 21
978.1533916849
  0
LINE
  5
4A1
100
AcDbEntity
  8
0
100
AcDbLine
 62
7
  6
CONTINUOUS
 10
896.106455036
 20
977.9533916849
 11
896.106455036
 21
978.1533916849
  0
LINE
  5
4A2
100
AcDbEntity
  8
0
100
AcDbLine
 62
7
  6
CONTINUOUS
 10
896.1072438417
 20
977.9533916849
 11
896.1072438417
 21
978.1533916849
  0
LINE
  5
4A3
100
AcDbEntity
  8
0
100
AcDbLine
 62
7
  6
CONTINUOUS
 10
896.435915908
 20
977.9533916849
 11
896.435915908
 21
978.1533916849
  0
LINE
  5
4A4
100
AcDbEntity
  8
0
100
AcDbLine
 62
7
  6
CONTINUOUS
 10
896.749444431
 20
977.9533916849
 11
896.749444431
 21
978.1533916849
  0
LINE
  5
4A5
100
AcDbEntity
  8
0
100
AcDbLine
 62
7
  6
CONTINUOUS
 10
896.98370261
 20
978.1533916849
 11
896.98370261
 21
977.9533916849
  0
LINE
  5
4A6
100
AcDbEntity
  8
0
100
AcDbLine
 62
7
  6
CONTINUOUS
 10
897.21609691
 20
977.9533916849
 11
897.21609691
 21
978.1533916849
  0
LINE
  5
4A7
100
AcDbEntity
  8
0
100
AcDbLine
 62
7
  6
CONTINUOUS
 10
897.352213666
 20
977.9533916849
 11
897.352213666
 21
978.1533916849
  0
LINE
  5
4A8
100
AcDbEntity
  8
0
100
AcDbLine
 62
7
  6
CONTINUOUS
 10
897.475050686
 20
977.9533916849
 11
897.475050686
 21
978.1533916849
  0
LINE
  5
4A9
100
AcDbEntity
  8
0
100
AcDbLine
 62
7
  6
CONTINUOUS
 10
897.478370542
 20
978.1533916849
 11
897.478370542
 21
977.9533916849
  0
LINE
  5
4AA
100
AcDbEntity
  8
0
100
AcDbLine
 62
7
  6
CONTINUOUS
 10
897.603803392
 20
961.6533916849
 11
897.603803392
 21
978.1533916849
  0
LINE
  5
4AB
100
AcDbEntity
  8
0
100
AcDbLine
 62
7
  6
CONTINUOUS
 10
897.6384950935
 20
977.9533916849
 11
897.6384950935
 21
978.1533916849
  0
LINE
  5
4AC
100
AcDbEntity
  8
0
100
AcDbLine
 62
7
  6
CONTINUOUS
 10
897.860161322
 20
978.1533916849
 11
897.860161322
 21
977.9533916849
  0
LINE
  5
4AD
100
AcDbEntity
  8
0
100
AcDbLine
 62
7
  6
CONTINUOUS
 10
898.195473239
 20
977.9533916849
 11
898.195473239
 21
978.1533916849
  0
LINE
  5
4AE
100
AcDbEntity
  8
0
100
AcDbLine
 62
7
  6
CONTINUOUS
 10
898.202113033
 20
977.9533916849
 11
898.202113033
 21
978.1533916849
  0
LINE
  5
4AF
100
AcDbEntity
  8
0
100
AcDbLine
 62
7
  6
CONTINUOUS
 10
898.544064762
 20
977.9533916849
 11
898.544064762
 21
978.1533916849
  0
LINE
  5
4B0
100
AcDbEntity
  8
0
100
AcDbLine
 62
7
  6
CONTINUOUS
 10
898.7657245026
 20
977.9533916849
 11
898.7657245026
 21
978.1533916849
  0
LINE
  5
4B1
100
AcDbEntity
  8
0
100
AcDbLine
 62
7
  6
CONTINUOUS
 10
898.9092559966
 20
977.9533916849
 11
898.9092559966
 21
978.1533916849
  0
LINE
  5
4B2
100
AcDbEntity
  8
0
100
AcDbLine
 62
7
  6
CONTINUOUS
 10
898.929175528
 20
977.9533916849
 11
898.929175528
 21
978.1533916849
  0
LINE
  5
4B3
100
AcDbEntity
  8
0
100
AcDbLine
 62
7
  6
CONTINUOUS
 10
856.427740389
 20
954.2095745439
 11
850.042566155
 21
960.5947487779
  0
LINE
  5
4B4
100
AcDbEntity
  8
0
100
AcDbLine
 62
7
  6
CONTINUOUS
 10
985.564487324
 20
826.3033916849
 11
982.564487324
 21
829.3033916849
  0
LINE
  5
4B5
100
AcDbEntity
  8
0
100
AcDbLine
 62
7
  6
CONTINUOUS
 10
857.891451426
 20
954.4429197809
 11
857.276268526
 21
955.0581026809
  0
LINE
  5
4B6
100
AcDbEntity
  8
0
100
AcDbLine
 62
7
  6
CONTINUOUS
 10
864.135204304
 20
948.9487000919
 11
858.266218021
 21
954.8176863759
  0
LINE
  5
4B7
100
AcDbEntity
  8
0
100
AcDbLine
 62
7
  6
CONTINUOUS
 10
853.5144604505
 20
961.2240738134
 11
850.4173327485
 21
964.3212015154
  0
LINE
  5
4B8
100
AcDbEntity
  8
0
100
AcDbLine
 62
7
  6
CONTINUOUS
 10
847.0585755376
 20
968.8820402535
 11
854.1155017643
 21
961.8251151278
  0
LINE
  5
4B9
100
AcDbEntity
  8
0
100
AcDbLine
 62
7
  6
CONTINUOUS
 10
848.1192357094
 20
969.9427004253
 11
855.1761608356
 21
962.8857741991
  0
LINE
  5
4BA
100
AcDbEntity
  8
0
100
AcDbLine
 62
7
  6
CONTINUOUS
 10
852.6093637705
 20
966.5132325374
 11
850.8415968175
 21
968.2809994904
  0
LINE
  5
4BB
100
AcDbEntity
  8
0
100
AcDbLine
 62
7
  6
CONTINUOUS
 10
855.77720215
 20
963.4868155129
 11
852.6800744475
 21
966.5839432144
  0
LINE
  5
4BC
100
AcDbEntity
  8
0
100
AcDbLine
 62
7
  6
CONTINUOUS
 10
865.564487325
 20
954.4702767289
 11
861.74164785
 21
958.2931162039
  0
LINE
  5
4BD
100
AcDbEntity
  8
0
100
AcDbLine
 62
7
  6
CONTINUOUS
 10
853.8750849083
 20
967.7789536752
 11
852.1073179553
 21
969.5467206282
  0
LINE
  5
4BE
100
AcDbEntity
  8
0
100
AcDbLine
 62
7
  6
CONTINUOUS
 10
852.7085796826
 20
970.1479823555
 11
854.4763466356
 21
968.3802154025
  0
LINE
  5
4BF
100
AcDbEntity
  8
0
100
AcDbLine
 62
7
  6
CONTINUOUS
 10
852.882265295
 20
970.3216679679
 11
854.650032248
 21
968.5539010149
  0
LINE
  5
4C0
100
AcDbEntity
  8
0
100
AcDbLine
 62
7
  6
CONTINUOUS
 10
854.9357450805
 20
968.8396138464
 11
853.1679781275
 21
970.6073807994
  0
LINE
  5
4C1
100
AcDbEntity
  8
0
100
AcDbLine
 62
7
  6
CONTINUOUS
 10
856.901501932
 20
967.0294204879
 11
856.830791254
 21
967.1001311649
  0
LINE
  5
4C2
100
AcDbEntity
  8
0
100
AcDbLine
 62
7
  6
CONTINUOUS
 10
864.1352043039
 20
964.179780158
 11
861.3067771791
 21
967.0082072828
  0
LINE
  5
4C3
100
AcDbEntity
  8
0
100
AcDbLine
 62
7
  6
CONTINUOUS
 10
866.610078038
 20
965.2404403299
 11
861.35924737
 21
970.4912709979
  0
LINE
  5
4C4
100
AcDbEntity
  8
0
100
AcDbLine
 62
7
  6
CONTINUOUS
 10
868.0242916
 20
966.6546538929
 11
861.8017519243
 21
972.8771935686
  0
LINE
  5
4C5
100
AcDbEntity
  8
0
100
AcDbLine
 62
7
  6
CONTINUOUS
 10
869.5627875187
 20
968.6516918802
 11
865.3372858316
 21
972.8771935673
  0
LINE
  5
4C6
100
AcDbEntity
  8
0
100
AcDbLine
 62
7
  6
CONTINUOUS
 10
860.772148394
 20
969.7396763179
 11
860.670381076
 21
970.1194771209
  0
LINE
  5
4C7
100
AcDbEntity
  8
0
100
AcDbLine
 62
7
  6
CONTINUOUS
 10
899.0586521949
 20
977.9533916849
 11
899.0586521949
 21
978.1533916849
  0
LINE
  5
4C8
100
AcDbEntity
  8
0
100
AcDbLine
 62
7
  6
CONTINUOUS
 10
899.1947691
 20
977.9533916849
 11
899.1947691
 21
978.1533916849
  0
LINE
  5
4C9
100
AcDbEntity
  8
0
100
AcDbLine
 62
7
  6
CONTINUOUS
 10
899.4271632513
 20
977.9533916849
 11
899.4271632513
 21
978.1533916849
  0
LINE
  5
4CA
100
AcDbEntity
  8
0
100
AcDbLine
 62
7
  6
CONTINUOUS
 10
899.530679974
 20
981.1533916849
 11
899.5306799733
 21
961.6533916849
  0
LINE
  5
4CB
100
AcDbEntity
  8
0
100
AcDbLine
 62
7
  6
CONTINUOUS
 10
899.53672068
 20
977.9533916849
 11
899.53672068
 21
978.1533916849
  0
LINE
  5
4CC
100
AcDbEntity
  8
0
100
AcDbLine
 62
7
  6
CONTINUOUS
 10
899.658557724
 20
978.1533916849
 11
899.658557724
 21
977.9533916849
  0
LINE
  5
4CD
100
AcDbEntity
  8
0
100
AcDbLine
 62
7
  6
CONTINUOUS
 10
900.330181569
 20
978.1533916849
 11
900.330181569
 21
977.9533916849
  0
LINE
  5
4CE
100
AcDbEntity
  8
0
100
AcDbLine
 62
7
  6
CONTINUOUS
 10
900.479577767
 20
977.9533916849
 11
900.479577767
 21
978.1533916849
  0
LINE
  5
4CF
100
AcDbEntity
  8
0
100
AcDbLine
 62
7
  6
CONTINUOUS
 10
901.140241869
 20
978.1533916849
 11
901.140241869
 21
977.9533916849
  0
LINE
  5
4D0
100
AcDbEntity
  8
0
100
AcDbLine
 62
7
  6
CONTINUOUS
 10
901.259759065
 20
977.9533916849
 11
901.259759065
 21
978.1533916849
  0
LINE
  5
4D1
100
AcDbEntity
  8
0
100
AcDbLine
 62
7
  6
CONTINUOUS
 10
901.263078889
 20
977.9533916849
 11
901.263078889
 21
978.1533916849
  0
LINE
  5
4D2
100
AcDbEntity
  8
0
100
AcDbLine
 62
7
  6
CONTINUOUS
 10
901.588431057
 20
977.9533916849
 11
901.588431057
 21
978.1533916849
  0
LINE
  5
4D3
100
AcDbEntity
  8
0
100
AcDbLine
 62
7
  6
CONTINUOUS
 10
901.916270851
 20
977.9533916849
 11
901.916270851
 21
978.1533916849
  0
LINE
  5
4D4
100
AcDbEntity
  8
0
100
AcDbLine
 62
7
  6
CONTINUOUS
 10
901.919519516
 20
977.9533916849
 11
901.919519516
 21
978.1533916849
  0
LINE
  5
4D5
100
AcDbEntity
  8
0
100
AcDbLine
 62
7
  6
CONTINUOUS
 10
902.046579715
 20
978.1533916849
 11
902.046579715
 21
977.9533916849
  0
LINE
  5
4D6
100
AcDbEntity
  8
0
100
AcDbLine
 62
7
  6
CONTINUOUS
 10
902.1845560684
 20
981.1533916849
 11
902.1845560684
 21
980.6533916849
  0
LINE
  5
4D7
100
AcDbEntity
  8
0
100
AcDbLine
 62
7
  6
CONTINUOUS
 10
902.558342993
 20
978.1533916849
 11
902.558342993
 21
961.6533916849
  0
LINE
  5
4D8
100
AcDbEntity
  8
0
100
AcDbLine
 62
7
  6
CONTINUOUS
 10
902.610966273
 20
978.1533916849
 11
902.610966273
 21
977.9533916849
  0
LINE
  5
4D9
100
AcDbEntity
  8
0
100
AcDbLine
 62
7
  6
CONTINUOUS
 10
902.712290537
 20
977.9533916849
 11
902.712290537
 21
978.1533916849
  0
LINE
  5
4DA
100
AcDbEntity
  8
0
100
AcDbLine
 62
7
  6
CONTINUOUS
 10
902.717203584
 20
977.9533916849
 11
902.717203584
 21
978.1533916849
  0
LINE
  5
4DB
100
AcDbEntity
  8
0
100
AcDbLine
 62
7
  6
CONTINUOUS
 10
903.012676748
 20
978.1533916849
 11
903.012676748
 21
977.9533916849
  0
LINE
  5
4DC
100
AcDbEntity
  8
0
100
AcDbLine
 62
7
  6
CONTINUOUS
 10
903.032595691
 20
977.9533916849
 11
903.032595691
 21
978.1533916849
  0
LINE
  5
4DD
100
AcDbEntity
  8
0
100
AcDbLine
 62
7
  6
CONTINUOUS
 10
903.132193354
 20
978.1533916849
 11
903.132193354
 21
977.9533916849
  0
LINE
  5
4DE
100
AcDbEntity
  8
0
100
AcDbLine
 62
7
  6
CONTINUOUS
 10
903.142153415
 20
977.9533916849
 11
903.142153415
 21
978.1533916849
  0
LINE
  5
4DF
100
AcDbEntity
  8
0
100
AcDbLine
 62
7
  6
CONTINUOUS
 10
903.198164421
 20
977.9533916849
 11
903.198164421
 21
978.1533916849
  0
LINE
  5
4E0
100
AcDbEntity
  8
0
100
AcDbLine
 62
7
  6
CONTINUOUS
 10
903.207320575
 20
977.9533916849
 11
903.207320575
 21
978.1533916849
  0
LINE
  5
4E1
100
AcDbEntity
  8
0
100
AcDbLine
 62
7
  6
CONTINUOUS
 10
903.361268195
 20
977.9533916849
 11
903.361268195
 21
978.1533916849
  0
LINE
  5
4E2
100
AcDbEntity
  8
0
100
AcDbLine
 62
7
  6
CONTINUOUS
 10
903.487425116
 20
977.9533916849
 11
903.487425116
 21
978.1533916849
  0
LINE
  5
4E3
100
AcDbEntity
  8
0
100
AcDbLine
 62
7
  6
CONTINUOUS
 10
903.583702364
 20
977.9533916849
 11
903.583702364
 21
978.1533916849
  0
LINE
  5
4E4
100
AcDbEntity
  8
0
100
AcDbLine
 62
7
  6
CONTINUOUS
 10
903.894487387
 20
977.9533916849
 11
903.894487387
 21
978.1533916849
  0
LINE
  5
4E5
100
AcDbEntity
  8
0
100
AcDbLine
 62
7
  6
CONTINUOUS
 10
904.011972301
 20
977.9533916849
 11
904.011972301
 21
978.1533916849
  0
LINE
  5
4E6
100
AcDbEntity
  8
0
100
AcDbLine
 62
7
  6
CONTINUOUS
 10
904.038531788
 20
978.1533916849
 11
904.038531788
 21
977.9533916849
  0
LINE
  5
4E7
100
AcDbEntity
  8
0
100
AcDbLine
 62
7
  6
CONTINUOUS
 10
904.051811379
 20
977.9533916849
 11
904.051811379
 21
978.1533916849
  0
LINE
  5
4E8
100
AcDbEntity
  8
0
100
AcDbLine
 62
7
  6
CONTINUOUS
 10
904.131489214
 20
977.9533916849
 11
904.131489214
 21
978.1533916849
  0
LINE
  5
4E9
100
AcDbEntity
  8
0
100
AcDbLine
 62
7
  6
CONTINUOUS
 10
904.207847519
 20
977.9533916849
 11
904.207847519
 21
978.1533916849
  0
LINE
  5
4EA
100
AcDbEntity
  8
0
100
AcDbLine
 62
7
  6
CONTINUOUS
 10
904.343964425
 20
977.9533916849
 11
904.343964425
 21
978.1533916849
  0
LINE
  5
4EB
100
AcDbEntity
  8
0
100
AcDbLine
 62
7
  6
CONTINUOUS
 10
904.370523604
 20
978.1533916849
 11
904.370523604
 21
977.9533916849
  0
LINE
  5
4EC
100
AcDbEntity
  8
0
100
AcDbLine
 62
7
  6
CONTINUOUS
 10
904.559684098
 20
977.9533916849
 11
904.559684098
 21
978.1533916849
  0
LINE
  5
4ED
100
AcDbEntity
  8
0
100
AcDbLine
 62
7
  6
CONTINUOUS
 10
904.620172266
 20
977.9533916849
 11
904.620172266
 21
978.1533916849
  0
LINE
  5
4EE
100
AcDbEntity
  8
0
100
AcDbLine
 62
7
  6
CONTINUOUS
 10
904.662676355
 20
977.9533916849
 11
904.662676355
 21
978.1533916849
  0
LINE
  5
4EF
100
AcDbEntity
  8
0
100
AcDbLine
 62
7
  6
CONTINUOUS
 10
904.76559384
 20
977.9533916849
 11
904.76559384
 21
978.1533916849
  0
LINE
  5
4F0
100
AcDbEntity
  8
0
100
AcDbLine
 62
7
  6
CONTINUOUS
 10
904.772234079
 20
977.9533916849
 11
904.772234079
 21
978.1533916849
  0
LINE
  5
4F1
100
AcDbEntity
  8
0
100
AcDbLine
 62
7
  6
CONTINUOUS
 10
904.818712792
 20
977.9533916849
 11
904.818712792
 21
978.1533916849
  0
LINE
  5
4F2
100
AcDbEntity
  8
0
100
AcDbLine
 62
7
  6
CONTINUOUS
 10
904.96810899
 20
977.9533916849
 11
904.96810899
 21
978.1533916849
  0
LINE
  5
4F3
100
AcDbEntity
  8
0
100
AcDbLine
 62
7
  6
CONTINUOUS
 10
905.057746592
 20
977.9533916849
 11
905.057746592
 21
978.1533916849
  0
LINE
  5
4F4
100
AcDbEntity
  8
0
100
AcDbLine
 62
7
  6
CONTINUOUS
 10
905.389738997
 20
978.1533916849
 11
905.389738997
 21
977.9533916849
  0
LINE
  5
4F5
100
AcDbEntity
  8
0
100
AcDbLine
 62
7
  6
CONTINUOUS
 10
905.512576017
 20
977.9533916849
 11
905.512576017
 21
978.1533916849
  0
LINE
  5
4F6
100
AcDbEntity
  8
0
100
AcDbLine
 62
7
  6
CONTINUOUS
 10
905.513405581
 20
977.9533916849
 11
905.513405581
 21
978.1533916849
  0
LINE
  5
4F7
100
AcDbEntity
  8
0
100
AcDbLine
 62
7
  6
CONTINUOUS
 10
905.521708592
 20
977.9533916849
 11
905.521708592
 21
978.1533916849
  0
LINE
  5
4F8
100
AcDbEntity
  8
0
100
AcDbLine
 62
7
  6
CONTINUOUS
 10
905.525855442
 20
977.9533916849
 11
905.525855442
 21
978.1533916849
  0
LINE
  5
4F9
100
AcDbEntity
  8
0
100
AcDbLine
 62
7
  6
CONTINUOUS
 10
905.837928185
 20
977.9533916849
 11
905.837928185
 21
978.1533916849
  0
LINE
  5
4FA
100
AcDbEntity
  8
0
100
AcDbLine
 62
7
  6
CONTINUOUS
 10
905.847887655
 20
977.9533916849
 11
905.847887655
 21
978.1533916849
  0
LINE
  5
4FB
100
AcDbEntity
  8
0
100
AcDbLine
 62
7
  6
CONTINUOUS
 10
906.158499033
 20
977.9533916849
 11
906.158499033
 21
978.1533916849
  0
LINE
  5
4FC
100
AcDbEntity
  8
0
100
AcDbLine
 62
7
  6
CONTINUOUS
 10
906.162528449
 20
977.9533916849
 11
906.162528449
 21
978.1533916849
  0
LINE
  5
4FD
100
AcDbEntity
  8
0
100
AcDbLine
 62
7
  6
CONTINUOUS
 10
906.165775114
 20
977.9533916849
 11
906.165775114
 21
978.1533916849
  0
LINE
  5
4FE
100
AcDbEntity
  8
0
100
AcDbLine
 62
7
  6
CONTINUOUS
 10
906.166600176
 20
977.9533916849
 11
906.166600176
 21
978.1533916849
  0
LINE
  5
4FF
100
AcDbEntity
  8
0
100
AcDbLine
 62
7
  6
CONTINUOUS
 10
906.284487328
 20
981.1533916849
 11
906.284487328
 21
980.6533916849
  0
LINE
  5
500
100
AcDbEntity
  8
0
100
AcDbLine
 62
7
  6
CONTINUOUS
 10
906.296076843
 20
978.1533916849
 11
906.296076843
 21
977.9533916849
  0
LINE
  5
501
100
AcDbEntity
  8
0
100
AcDbLine
 62
7
  6
CONTINUOUS
 10
906.301315573
 20
981.1533916849
 11
906.3013155569
 21
961.6533916849
  0
LINE
  5
502
100
AcDbEntity
  8
0
100
AcDbLine
 62
7
  6
CONTINUOUS
 10
906.946781178
 20
978.1533916849
 11
906.946781178
 21
977.9533916849
  0
LINE
  5
503
100
AcDbEntity
  8
0
100
AcDbLine
 62
7
  6
CONTINUOUS
 10
906.966320263
 20
977.9533916849
 11
906.966320263
 21
978.1533916849
  0
LINE
  5
504
100
AcDbEntity
  8
0
100
AcDbLine
 62
7
  6
CONTINUOUS
 10
907.002047933
 20
977.9533916849
 11
907.002047933
 21
978.1533916849
  0
LINE
  5
505
100
AcDbEntity
  8
0
100
AcDbLine
 62
7
  6
CONTINUOUS
 10
907.019819143
 20
977.9533916849
 11
907.019819143
 21
978.1533916849
  0
LINE
  5
506
100
AcDbEntity
  8
0
100
AcDbLine
 62
7
  6
CONTINUOUS
 10
907.082897493
 20
978.1533916849
 11
907.082897493
 21
977.9533916849
  0
LINE
  5
507
100
AcDbEntity
  8
0
100
AcDbLine
 62
7
  6
CONTINUOUS
 10
907.159255798
 20
977.9533916849
 11
907.159255798
 21
978.1533916849
  0
LINE
  5
508
100
AcDbEntity
  8
0
100
AcDbLine
 62
7
  6
CONTINUOUS
 10
907.375050242
 20
977.9533916849
 11
907.375050242
 21
978.1533916849
  0
LINE
  5
509
100
AcDbEntity
  8
0
100
AcDbLine
 62
7
  6
CONTINUOUS
 10
907.683803224
 20
977.9533916849
 11
907.683803224
 21
978.1533916849
  0
LINE
  5
50A
100
AcDbEntity
  8
0
100
AcDbLine
 62
7
  6
CONTINUOUS
 10
907.873039146
 20
977.9533916849
 11
907.873039146
 21
978.1533916849
  0
LINE
  5
50B
100
AcDbEntity
  8
0
100
AcDbLine
 62
7
  6
CONTINUOUS
 10
907.946076448
 20
977.9533916849
 11
907.946076448
 21
978.1533916849
  0
LINE
  5
50C
100
AcDbEntity
  8
0
100
AcDbLine
 62
7
  6
CONTINUOUS
 10
908.128672661
 20
977.9533916849
 11
908.128672661
 21
978.1533916849
  0
LINE
  5
50D
100
AcDbEntity
  8
0
100
AcDbLine
 62
7
  6
CONTINUOUS
 10
908.298780994
 20
977.9533916849
 11
908.298780994
 21
978.1533916849
  0
LINE
  5
50E
100
AcDbEntity
  8
0
100
AcDbLine
 62
7
  6
CONTINUOUS
 10
908.606740256
 20
977.9533916849
 11
908.606740256
 21
978.1533916849
  0
LINE
  5
50F
100
AcDbEntity
  8
0
100
AcDbLine
 62
7
  6
CONTINUOUS
 10
908.859054995
 20
977.9533916849
 11
908.859054995
 21
978.1533916849
  0
LINE
  5
510
100
AcDbEntity
  8
0
100
AcDbLine
 62
7
  6
CONTINUOUS
 10
909.035010503
 20
977.9533916849
 11
909.035010503
 21
978.1533916849
  0
LINE
  5
511
100
AcDbEntity
  8
0
100
AcDbLine
 62
7
  6
CONTINUOUS
 10
909.165080047
 20
977.9533916849
 11
909.165080047
 21
978.1533916849
  0
LINE
  5
512
100
AcDbEntity
  8
0
100
AcDbLine
 62
7
  6
CONTINUOUS
 10
909.260764416
 20
978.1533916849
 11
909.260764416
 21
977.9533916849
  0
LINE
  5
513
100
AcDbEntity
  8
0
100
AcDbLine
 62
7
  6
CONTINUOUS
 10
909.396881911
 20
978.1533916849
 11
909.396881911
 21
977.9533916849
  0
LINE
  5
514
100
AcDbEntity
  8
0
100
AcDbLine
 62
7
  6
CONTINUOUS
 10
909.579477218
 20
977.9533916849
 11
909.579477218
 21
978.1533916849
  0
LINE
  5
515
100
AcDbEntity
  8
0
100
AcDbLine
 62
7
  6
CONTINUOUS
 10
909.851710745
 20
977.9533916849
 11
909.851710745
 21
978.1533916849
  0
LINE
  5
516
100
AcDbEntity
  8
0
100
AcDbLine
 62
7
  6
CONTINUOUS
 10
910.1305842
 20
977.9533916849
 11
910.1305842
 21
978.1533916849
  0
LINE
  5
517
100
AcDbEntity
  8
0
100
AcDbLine
 62
7
  6
CONTINUOUS
 10
910.143038205
 20
977.9533916849
 11
910.143038205
 21
978.1533916849
  0
LINE
  5
518
100
AcDbEntity
  8
0
100
AcDbLine
 62
7
  6
CONTINUOUS
 10
910.193662477
 20
977.9533916849
 11
910.193662477
 21
978.1533916849
  0
LINE
  5
519
100
AcDbEntity
  8
0
100
AcDbLine
 62
7
  6
CONTINUOUS
 10
910.243461193
 20
977.9533916849
 11
910.243461193
 21
978.1533916849
  0
LINE
  5
51A
100
AcDbEntity
  8
0
100
AcDbLine
 62
7
  6
CONTINUOUS
 10
910.266700515
 20
977.9533916849
 11
910.266700515
 21
978.1533916849
  0
LINE
  5
51B
100
AcDbEntity
  8
0
100
AcDbLine
 62
7
  6
CONTINUOUS
 10
910.721478714
 20
978.1533916849
 11
910.721478714
 21
977.9533916849
  0
LINE
  5
51C
100
AcDbEntity
  8
0
100
AcDbLine
 62
7
  6
CONTINUOUS
 10
910.8840110452
 20
978.1533916849
 11
910.8840110452
 21
977.9533916849
  0
LINE
  5
51D
100
AcDbEntity
  8
0
100
AcDbLine
 62
7
  6
CONTINUOUS
 10
910.957157081
 20
977.9533916849
 11
910.957157081
 21
978.1533916849
  0
LINE
  5
51E
100
AcDbEntity
  8
0
100
AcDbLine
 62
7
  6
CONTINUOUS
 10
911.054319035
 20
977.9533916849
 11
911.054319035
 21
978.1533916849
  0
LINE
  5
51F
100
AcDbEntity
  8
0
100
AcDbLine
 62
7
  6
CONTINUOUS
 10
911.1844873245
 20
981.1533916849
 11
911.1844873245
 21
981.0033916849
  0
LINE
  5
520
100
AcDbEntity
  8
0
100
AcDbLine
 62
7
  6
CONTINUOUS
 10
911.259356137
 20
977.9533916849
 11
911.259356137
 21
978.1533916849
  0
LINE
  5
521
100
AcDbEntity
  8
0
100
AcDbLine
 62
7
  6
CONTINUOUS
 10
911.26999039
 20
977.9533916849
 11
911.26999039
 21
978.1533916849
  0
LINE
  5
522
100
AcDbEntity
  8
0
100
AcDbLine
 62
7
  6
CONTINUOUS
 10
911.287704549
 20
981.1533916849
 11
911.287704549
 21
981.0033916849
  0
LINE
  5
523
100
AcDbEntity
  8
0
100
AcDbLine
 62
7
  6
CONTINUOUS
 10
911.478471586
 20
978.1533916849
 11
911.478471586
 21
977.9533916849
  0
LINE
  5
524
100
AcDbEntity
  8
0
100
AcDbLine
 62
7
  6
CONTINUOUS
 10
911.581975093
 20
977.9533916849
 11
911.581975093
 21
978.1533916849
  0
LINE
  5
525
100
AcDbEntity
  8
0
100
AcDbLine
 62
7
  6
CONTINUOUS
 10
911.584487324
 20
981.1533916849
 11
911.584487324
 21
981.0033916849
  0
LINE
  5
526
100
AcDbEntity
  8
0
100
AcDbLine
 62
7
  6
CONTINUOUS
 10
911.604448523
 20
977.9533916849
 11
911.604448523
 21
978.1533916849
  0
LINE
  5
527
100
AcDbEntity
  8
0
100
AcDbLine
 62
7
  6
CONTINUOUS
 10
911.6310182171
 20
978.1533916849
 11
911.6310182171
 21
977.9533916849
  0
LINE
  5
528
100
AcDbEntity
  8
0
100
AcDbLine
 62
7
  6
CONTINUOUS
 10
911.636095937
 20
981.0033916849
 11
911.636095937
 21
981.1533916849
  0
LINE
  5
529
100
AcDbEntity
  8
0
100
AcDbLine
 62
7
  6
CONTINUOUS
 10
911.6551837338
 20
977.9533916849
 11
911.6551837338
 21
978.1533916849
  0
LINE
  5
52A
100
AcDbEntity
  8
0
100
AcDbLine
 62
7
  6
CONTINUOUS
 10
911.763303367
 20
978.1533916849
 11
911.763303367
 21
977.9533916849
  0
LINE
  5
52B
100
AcDbEntity
  8
0
100
AcDbLine
 62
7
  6
CONTINUOUS
 10
911.786465466
 20
978.1533916849
 11
911.786465466
 21
977.9533916849
  0
LINE
  5
52C
100
AcDbEntity
  8
0
100
AcDbLine
 62
7
  6
CONTINUOUS
 10
911.883501883
 20
978.1533916849
 11
911.883501883
 21
977.9533916849
  0
LINE
  5
52D
100
AcDbEntity
  8
0
100
AcDbLine
 62
7
  6
CONTINUOUS
 10
911.953918218
 20
977.9533916849
 11
911.953918218
 21
978.1533916849
  0
LINE
  5
52E
100
AcDbEntity
  8
0
100
AcDbLine
 62
7
  6
CONTINUOUS
 10
911.984487325
 20
981.1533916849
 11
911.984487325
 21
981.0033916849
  0
LINE
  5
52F
100
AcDbEntity
  8
0
100
AcDbLine
 62
7
  6
CONTINUOUS
 10
912.0328311918
 20
978.1533916849
 11
912.0328311918
 21
977.9533916849
  0
LINE
  5
530
100
AcDbEntity
  8
0
100
AcDbLine
 62
7
  6
CONTINUOUS
 10
912.0427423639
 20
977.9533916849
 11
912.0427423639
 21
978.1533916849
  0
LINE
  5
531
100
AcDbEntity
  8
0
100
AcDbLine
 62
7
  6
CONTINUOUS
 10
912.195573577
 20
977.9533916849
 11
912.195573577
 21
978.1533916849
  0
LINE
  5
532
100
AcDbEntity
  8
0
100
AcDbLine
 62
7
  6
CONTINUOUS
 10
912.474447032
 20
977.9533916849
 11
912.474447032
 21
978.1533916849
  0
LINE
  5
533
100
AcDbEntity
  8
0
100
AcDbLine
 62
7
  6
CONTINUOUS
 10
912.567404473
 20
977.9533916849
 11
912.567404473
 21
978.1533916849
  0
LINE
  5
534
100
AcDbEntity
  8
0
100
AcDbLine
 62
7
  6
CONTINUOUS
 10
912.570135453
 20
977.9533916849
 11
912.570135453
 21
978.1533916849
  0
LINE
  5
535
100
AcDbEntity
  8
0
100
AcDbLine
 62
7
  6
CONTINUOUS
 10
912.6172043828
 20
977.9533916849
 11
912.6172043828
 21
978.1533916849
  0
LINE
  5
536
100
AcDbEntity
  8
0
100
AcDbLine
 62
7
  6
CONTINUOUS
 10
913.002314349
 20
977.9533916849
 11
913.002314349
 21
978.1533916849
  0
LINE
  5
537
100
AcDbEntity
  8
0
100
AcDbLine
 62
7
  6
CONTINUOUS
 10
913.025867859
 20
978.1533916849
 11
913.025867859
 21
977.9533916849
  0
LINE
  5
538
100
AcDbEntity
  8
0
100
AcDbLine
 62
7
  6
CONTINUOUS
 10
913.1483914502
 20
978.1533916849
 11
913.148391418
 21
977.9533916849
  0
LINE
  5
539
100
AcDbEntity
  8
0
100
AcDbLine
 62
7
  6
CONTINUOUS
 10
913.208149323
 20
977.9533916849
 11
913.208149323
 21
978.1533916849
  0
LINE
  5
53A
100
AcDbEntity
  8
0
100
AcDbLine
 62
7
  6
CONTINUOUS
 10
913.413747396
 20
977.9533916849
 11
913.413747396
 21
978.1533916849
  0
LINE
  5
53B
100
AcDbEntity
  8
0
100
AcDbLine
 62
7
  6
CONTINUOUS
 10
913.48770455
 20
981.1533916849
 11
913.48770455
 21
981.0033916849
  0
LINE
  5
53C
100
AcDbEntity
  8
0
100
AcDbLine
 62
7
  6
CONTINUOUS
 10
913.497042436
 20
977.9533916849
 11
913.497042436
 21
978.1533916849
  0
LINE
  5
53D
100
AcDbEntity
  8
0
100
AcDbLine
 62
7
  6
CONTINUOUS
 10
913.6873609175
 20
981.0033916849
 11
913.6873609175
 21
981.1533916849
  0
LINE
  5
53E
100
AcDbEntity
  8
0
100
AcDbLine
 62
7
  6
CONTINUOUS
 10
913.772535881
 20
978.1533916849
 11
913.772535881
 21
977.9533916849
  0
LINE
  5
53F
100
AcDbEntity
  8
0
100
AcDbLine
 62
7
  6
CONTINUOUS
 10
913.836095937
 20
981.1533916849
 11
913.836095937
 21
981.0033916849
  0
LINE
  5
540
100
AcDbEntity
  8
0
100
AcDbLine
 62
7
  6
CONTINUOUS
 10
913.894747363
 20
978.1533916849
 11
913.894747363
 21
977.9533916849
  0
LINE
  5
541
100
AcDbEntity
  8
0
100
AcDbLine
 62
7
  6
CONTINUOUS
 10
914.0314892136
 20
978.1533916849
 11
914.0314892136
 21
977.9533916849
  0
LINE
  5
542
100
AcDbEntity
  8
0
100
AcDbLine
 62
7
  6
CONTINUOUS
 10
914.038128862
 20
977.9533916849
 11
914.038128862
 21
978.1533916849
  0
LINE
  5
543
100
AcDbEntity
  8
0
100
AcDbLine
 62
7
  6
CONTINUOUS
 10
914.067181907
 20
977.9533916849
 11
914.067181907
 21
978.1533916849
  0
LINE
  5
544
100
AcDbEntity
  8
0
100
AcDbLine
 62
7
  6
CONTINUOUS
 10
914.114487698
 20
978.1533916849
 11
914.114487698
 21
977.9533916849
  0
LINE
  5
545
100
AcDbEntity
  8
0
100
AcDbLine
 62
7
  6
CONTINUOUS
 10
914.184487324
 20
981.0033916849
 11
914.184487324
 21
981.1533916849
  0
LINE
  5
546
100
AcDbEntity
  8
0
100
AcDbLine
 62
7
  6
CONTINUOUS
 10
914.200804945
 20
977.9533916849
 11
914.200804945
 21
978.1533916849
  0
LINE
  5
547
100
AcDbEntity
  8
0
100
AcDbLine
 62
7
  6
CONTINUOUS
 10
914.532878711
 20
981.0033916849
 11
914.532878711
 21
981.1533916849
  0
LINE
  5
548
100
AcDbEntity
  8
0
100
AcDbLine
 62
7
  6
CONTINUOUS
 10
914.6816137293
 20
981.1533916849
 11
914.6816137293
 21
981.0033916849
  0
LINE
  5
549
100
AcDbEntity
  8
0
100
AcDbLine
 62
7
  6
CONTINUOUS
 10
914.881270098
 20
981.1533916849
 11
914.881270098
 21
981.0033916849
  0
LINE
  5
54A
100
AcDbEntity
  8
0
100
AcDbLine
 62
7
  6
CONTINUOUS
 10
914.951107534
 20
978.1533916849
 11
914.951107534
 21
977.9533916849
  0
LINE
  5
54B
100
AcDbEntity
  8
0
100
AcDbLine
 62
7
  6
CONTINUOUS
 10
915.076352954
 20
977.9533916849
 11
915.076352954
 21
978.1533916849
  0
LINE
  5
54C
100
AcDbEntity
  8
0
100
AcDbLine
 62
7
  6
CONTINUOUS
 10
915.392655894
 20
977.9533916849
 11
915.392655894
 21
978.1533916849
  0
LINE
  5
54D
100
AcDbEntity
  8
0
100
AcDbLine
 62
7
  6
CONTINUOUS
 10
915.399296722
 20
977.9533916849
 11
915.399296722
 21
978.1533916849
  0
LINE
  5
54E
100
AcDbEntity
  8
0
100
AcDbLine
 62
7
  6
CONTINUOUS
 10
915.717229854
 20
977.9533916849
 11
915.717229854
 21
978.1533916849
  0
LINE
  5
54F
100
AcDbEntity
  8
0
100
AcDbLine
 62
7
  6
CONTINUOUS
 10
915.727136515
 20
977.9533916849
 11
915.727136515
 21
978.1533916849
  0
LINE
  5
550
100
AcDbEntity
  8
0
100
AcDbLine
 62
7
  6
CONTINUOUS
 10
915.827565786
 20
977.9533916849
 11
915.827565786
 21
978.1533916849
  0
LINE
  5
551
100
AcDbEntity
  8
0
100
AcDbLine
 62
7
  6
CONTINUOUS
 10
915.85744538
 20
978.1533916849
 11
915.85744538
 21
977.9533916849
  0
LINE
  5
552
100
AcDbEntity
  8
0
100
AcDbLine
 62
7
  6
CONTINUOUS
 10
915.882359265
 20
977.9533916849
 11
915.882359265
 21
978.1533916849
  0
LINE
  5
553
100
AcDbEntity
  8
0
100
AcDbLine
 62
7
  6
CONTINUOUS
 10
915.980783802
 20
977.9533916849
 11
915.980783802
 21
978.1533916849
  0
LINE
  5
554
100
AcDbEntity
  8
0
100
AcDbLine
 62
7
  6
CONTINUOUS
 10
916.160378981
 20
977.9533916849
 11
916.160378981
 21
978.1533916849
  0
LINE
  5
555
100
AcDbEntity
  8
0
100
AcDbLine
 62
7
  6
CONTINUOUS
 10
916.175482951
 20
977.9533916849
 11
916.175482951
 21
978.1533916849
  0
LINE
  5
556
100
AcDbEntity
  8
0
100
AcDbLine
 62
7
  6
CONTINUOUS
 10
916.384487323
 20
981.1533916849
 11
916.384487323
 21
981.0033916849
  0
LINE
  5
557
100
AcDbEntity
  8
0
100
AcDbLine
 62
7
  6
CONTINUOUS
 10
916.501510069
 20
977.9533916849
 11
916.501510069
 21
978.1533916849
  0
LINE
  5
558
100
AcDbEntity
  8
0
100
AcDbLine
 62
7
  6
CONTINUOUS
 10
916.617707439
 20
977.9533916849
 11
916.617707439
 21
978.1533916849
  0
LINE
  5
559
100
AcDbEntity
  8
0
100
AcDbLine
 62
7
  6
CONTINUOUS
 10
916.732878711
 20
981.1533916849
 11
916.732878711
 21
981.0033916849
  0
LINE
  5
55A
100
AcDbEntity
  8
0
100
AcDbLine
 62
7
  6
CONTINUOUS
 10
916.7844424187
 20
981.0033916849
 11
916.7844424187
 21
981.1533916849
  0
LINE
  5
55B
100
AcDbEntity
  8
0
100
AcDbLine
 62
7
  6
CONTINUOUS
 10
916.836820634
 20
977.9533916849
 11
916.836820634
 21
978.1533916849
  0
LINE
  5
55C
100
AcDbEntity
  8
0
100
AcDbLine
 62
7
  6
CONTINUOUS
 10
917.079175921
 20
977.9533916849
 11
917.079175921
 21
978.1533916849
  0
LINE
  5
55D
100
AcDbEntity
  8
0
100
AcDbLine
 62
7
  6
CONTINUOUS
 10
917.081270098
 20
981.0033916849
 11
917.081270098
 21
981.1533916849
  0
LINE
  5
55E
100
AcDbEntity
  8
0
100
AcDbLine
 62
7
  6
CONTINUOUS
 10
917.171452863
 20
977.9533916849
 11
917.171452863
 21
978.1533916849
  0
LINE
  5
55F
100
AcDbEntity
  8
0
100
AcDbLine
 62
7
  6
CONTINUOUS
 10
917.184397514
 20
981.1533916849
 11
917.184397514
 21
981.0033916849
  0
LINE
  5
560
100
AcDbEntity
  8
0
100
AcDbLine
 62
7
  6
CONTINUOUS
 10
917.324849395
 20
977.9533916849
 11
917.324849395
 21
978.1533916849
  0
LINE
  5
561
100
AcDbEntity
  8
0
100
AcDbLine
 62
7
  6
CONTINUOUS
 10
917.3652485085
 20
980.6833916849
 11
917.3652485085
 21
980.4533916849
  0
LINE
  5
562
100
AcDbEntity
  8
0
100
AcDbLine
 62
7
  6
CONTINUOUS
 10
917.441047331
 20
977.9533916849
 11
917.441047331
 21
978.1533916849
  0
LINE
  5
563
100
AcDbEntity
  8
0
100
AcDbLine
 62
7
  6
CONTINUOUS
 10
917.4531164742
 20
980.6833916849
 11
917.4531164742
 21
980.4533916849
  0
LINE
  5
564
100
AcDbEntity
  8
0
100
AcDbLine
 62
7
  6
CONTINUOUS
 10
918.0895125903
 20
980.4533916849
 11
918.0895125903
 21
980.6833916849
  0
LINE
  5
565
100
AcDbEntity
  8
0
100
AcDbLine
 62
7
  6
CONTINUOUS
 10
918.3723552896
 20
980.6833916849
 11
918.3723552896
 21
980.4533916849
  0
LINE
  5
566
100
AcDbEntity
  8
0
100
AcDbLine
 62
7
  6
CONTINUOUS
 10
918.7966193592
 20
980.6833916849
 11
918.7966193592
 21
980.4533916849
  0
LINE
  5
567
100
AcDbEntity
  8
0
100
AcDbLine
 62
7
  6
CONTINUOUS
 10
918.8844873247
 20
980.6833916849
 11
918.8844873247
 21
980.4533916849
  0
LINE
  5
568
100
AcDbEntity
  8
0
100
AcDbLine
 62
7
  6
CONTINUOUS
 10
925.184487324
 20
981.1533916849
 11
925.184487324
 21
981.0033916849
  0
LINE
  5
569
100
AcDbEntity
  8
0
100
AcDbLine
 62
7
  6
CONTINUOUS
 10
926.047088931
 20
981.1533916849
 11
926.047088931
 21
981.0033916849
  0
LINE
  5
56A
100
AcDbEntity
  8
0
100
AcDbLine
 62
7
  6
CONTINUOUS
 10
926.0491277137
 20
981.0033916849
 11
926.0491277137
 21
981.1533916849
  0
LINE
  5
56B
100
AcDbEntity
  8
0
100
AcDbLine
 62
7
  6
CONTINUOUS
 10
926.3392364967
 20
981.1533916849
 11
926.3392364967
 21
981.0033916849
  0
LINE
  5
56C
100
AcDbEntity
  8
0
100
AcDbLine
 62
7
  6
CONTINUOUS
 10
926.3426105219
 20
981.0033916849
 11
926.3426105219
 21
981.1533916849
  0
LINE
  5
56D
100
AcDbEntity
  8
0
100
AcDbLine
 62
7
  6
CONTINUOUS
 10
926.359487323
 20
981.1533916849
 11
926.359487323
 21
981.0033916849
  0
LINE
  5
56E
100
AcDbEntity
  8
0
100
AcDbLine
 62
7
  6
CONTINUOUS
 10
926.373169417
 20
981.0033916849
 11
926.373169417
 21
981.1533916849
  0
LINE
  5
56F
100
AcDbEntity
  8
0
100
AcDbLine
 62
7
  6
CONTINUOUS
 10
926.374979031
 20
981.0033916849
 11
926.374979031
 21
981.1533916849
  0
LINE
  5
570
100
AcDbEntity
  8
0
100
AcDbLine
 62
7
  6
CONTINUOUS
 10
926.38524185
 20
981.0033916849
 11
926.38524185
 21
981.1533916849
  0
LINE
  5
571
100
AcDbEntity
  8
0
100
AcDbLine
 62
7
  6
CONTINUOUS
 10
926.393898199
 20
981.0033916849
 11
926.393898199
 21
981.1533916849
  0
LINE
  5
572
100
AcDbEntity
  8
0
100
AcDbLine
 62
7
  6
CONTINUOUS
 10
926.4034977303
 20
981.0033916849
 11
926.4034977303
 21
981.1533916849
  0
LINE
  5
573
100
AcDbEntity
  8
0
100
AcDbLine
 62
7
  6
CONTINUOUS
 10
926.4058243163
 20
981.0033916849
 11
926.4058243163
 21
981.1533916849
  0
LINE
  5
574
100
AcDbEntity
  8
0
100
AcDbLine
 62
7
  6
CONTINUOUS
 10
926.4337243395
 20
981.003391685
 11
926.4337243395
 21
981.153391685
  0
LINE
  5
575
100
AcDbEntity
  8
0
100
AcDbLine
 62
7
  6
CONTINUOUS
 10
926.4496949741
 20
981.1533916849
 11
926.4496949741
 21
981.0033916849
  0
LINE
  5
576
100
AcDbEntity
  8
0
100
AcDbLine
 62
7
  6
CONTINUOUS
 10
926.474577865
 20
981.1533916849
 11
926.474577865
 21
981.0033916849
  0
LINE
  5
577
100
AcDbEntity
  8
0
100
AcDbLine
 62
7
  6
CONTINUOUS
 10
926.4839392284
 20
981.1533916849
 11
926.4839392284
 21
981.0033916849
  0
LINE
  5
578
100
AcDbEntity
  8
0
100
AcDbLine
 62
7
  6
CONTINUOUS
 10
926.485040642
 20
981.1533916849
 11
926.485040642
 21
981.0033916849
  0
LINE
  5
579
100
AcDbEntity
  8
0
100
AcDbLine
 62
7
  6
CONTINUOUS
 10
926.4858141228
 20
981.0033916849
 11
926.4858141228
 21
981.1533916849
  0
LINE
  5
57A
100
AcDbEntity
  8
0
100
AcDbLine
 62
7
  6
CONTINUOUS
 10
926.4914792758
 20
981.0033916849
 11
926.4914792758
 21
981.1533916849
  0
LINE
  5
57B
100
AcDbEntity
  8
0
100
AcDbLine
 62
7
  6
CONTINUOUS
 10
926.4969150195
 20
981.0033916849
 11
926.4969150195
 21
981.1533916849
  0
LINE
  5
57C
100
AcDbEntity
  8
0
100
AcDbLine
 62
7
  6
CONTINUOUS
 10
926.505074661
 20
981.0033916849
 11
926.505074661
 21
981.1533916849
  0
LINE
  5
57D
100
AcDbEntity
  8
0
100
AcDbLine
 62
7
  6
CONTINUOUS
 10
926.5059662
 20
981.0033916849
 11
926.5059662
 21
981.1533916849
  0
LINE
  5
57E
100
AcDbEntity
  8
0
100
AcDbLine
 62
7
  6
CONTINUOUS
 10
926.5293008067
 20
981.1533916849
 11
926.5293008067
 21
981.0033916849
  0
LINE
  5
57F
100
AcDbEntity
  8
0
100
AcDbLine
 62
7
  6
CONTINUOUS
 10
926.537354527
 20
981.1533916849
 11
926.537354527
 21
981.0033916849
  0
LINE
  5
580
100
AcDbEntity
  8
0
100
AcDbLine
 62
7
  6
CONTINUOUS
 10
926.549426954
 20
981.1533916849
 11
926.549426954
 21
981.0033916849
  0
LINE
  5
581
100
AcDbEntity
  8
0
100
AcDbLine
 62
7
  6
CONTINUOUS
 10
926.5839392274
 20
981.0033916849
 11
926.5839392274
 21
981.1533916849
  0
LINE
  5
582
100
AcDbEntity
  8
0
100
AcDbLine
 62
7
  6
CONTINUOUS
 10
926.5877267861
 20
981.0033916849
 11
926.5877267861
 21
981.1533916849
  0
LINE
  5
583
100
AcDbEntity
  8
0
100
AcDbLine
 62
7
  6
CONTINUOUS
 10
926.650835412
 20
981.1533916849
 11
926.650835412
 21
981.0033916849
  0
LINE
  5
584
100
AcDbEntity
  8
0
100
AcDbLine
 62
7
  6
CONTINUOUS
 10
926.7024243339
 20
981.0033916849
 11
926.7024243339
 21
981.1533916849
  0
LINE
  5
585
100
AcDbEntity
  8
0
100
AcDbLine
 62
7
  6
CONTINUOUS
 10
926.7055248148
 20
981.0033916849
 11
926.7055248148
 21
981.1533916849
  0
LINE
  5
586
100
AcDbEntity
  8
0
100
AcDbLine
 62
7
  6
CONTINUOUS
 10
926.716756733
 20
981.0033916849
 11
926.716756733
 21
981.1533916849
  0
LINE
  5
587
100
AcDbEntity
  8
0
100
AcDbLine
 62
7
  6
CONTINUOUS
 10
926.735342449
 20
981.0033916849
 11
926.735342449
 21
981.1533916849
  0
LINE
  5
588
100
AcDbEntity
  8
0
100
AcDbLine
 62
7
  6
CONTINUOUS
 10
926.737980459
 20
981.0033916849
 11
926.737980459
 21
981.1533916849
  0
LINE
  5
589
100
AcDbEntity
  8
0
100
AcDbLine
 62
7
  6
CONTINUOUS
 10
926.762853623
 20
981.1533916849
 11
926.762853623
 21
981.0033916849
  0
LINE
  5
58A
100
AcDbEntity
  8
0
100
AcDbLine
 62
7
  6
CONTINUOUS
 10
926.770719345
 20
981.0033916849
 11
926.770719345
 21
981.1533916849
  0
LINE
  5
58B
100
AcDbEntity
  8
0
100
AcDbLine
 62
7
  6
CONTINUOUS
 10
926.7844370213
 20
981.0033916849
 11
926.7844370213
 21
981.1533916849
  0
LINE
  5
58C
100
AcDbEntity
  8
0
100
AcDbLine
 62
7
  6
CONTINUOUS
 10
926.7923090422
 20
981.0033916849
 11
926.7923090422
 21
981.1533916849
  0
LINE
  5
58D
100
AcDbEntity
  8
0
100
AcDbLine
 62
7
  6
CONTINUOUS
 10
926.8642298194
 20
981.1533916849
 11
926.8642298194
 21
981.0033916849
  0
LINE
  5
58E
100
AcDbEntity
  8
0
100
AcDbLine
 62
7
  6
CONTINUOUS
 10
926.885040647
 20
981.1533916849
 11
926.885040647
 21
981.0033916849
  0
LINE
  5
58F
100
AcDbEntity
  8
0
100
AcDbLine
 62
7
  6
CONTINUOUS
 10
926.892284112
 20
981.0033916849
 11
926.892284112
 21
981.1533916849
  0
LINE
  5
590
100
AcDbEntity
  8
0
100
AcDbLine
 62
7
  6
CONTINUOUS
 10
926.9333139611
 20
981.0033916849
 11
926.9333139611
 21
981.1533916849
  0
LINE
  5
591
100
AcDbEntity
  8
0
100
AcDbLine
 62
7
  6
CONTINUOUS
 10
926.9440547114
 20
980.6833916849
 11
926.9440547114
 21
980.4533916849
  0
LINE
  5
592
100
AcDbEntity
  8
0
100
AcDbLine
 62
7
  6
CONTINUOUS
 10
926.9652485083
 20
980.6833916849
 11
926.9652485083
 21
980.4533916849
  0
LINE
  5
593
100
AcDbEntity
  8
0
100
AcDbLine
 62
7
  6
CONTINUOUS
 10
926.976098945
 20
980.4533916849
 11
926.976098945
 21
980.6833916849
  0
LINE
  5
594
100
AcDbEntity
  8
0
100
AcDbLine
 62
7
  6
CONTINUOUS
 10
926.986653301
 20
980.4533916849
 11
926.986653301
 21
980.6833916849
  0
LINE
  5
595
100
AcDbEntity
  8
0
100
AcDbLine
 62
7
  6
CONTINUOUS
 10
927.002193562
 20
980.4533916849
 11
927.002193562
 21
980.6833916849
  0
LINE
  5
596
100
AcDbEntity
  8
0
100
AcDbLine
 62
7
  6
CONTINUOUS
 10
927.003964774
 20
981.0033916849
 11
927.003964774
 21
981.1533916849
  0
LINE
  5
597
100
AcDbEntity
  8
0
100
AcDbLine
 62
7
  6
CONTINUOUS
 10
927.015450643
 20
980.4533916849
 11
927.015450643
 21
980.6833916849
  0
LINE
  5
598
100
AcDbEntity
  8
0
100
AcDbLine
 62
7
  6
CONTINUOUS
 10
927.0314459353
 20
980.4533916849
 11
927.0314459353
 21
980.6833916849
  0
LINE
  5
599
100
AcDbEntity
  8
0
100
AcDbLine
 62
7
  6
CONTINUOUS
 10
927.0331903268
 20
980.4533916849
 11
927.0331903268
 21
980.6833916849
  0
LINE
  5
59A
100
AcDbEntity
  8
0
100
AcDbLine
 62
7
  6
CONTINUOUS
 10
927.0354426952
 20
981.1533916849
 11
927.0354426952
 21
981.0033916849
  0
LINE
  5
59B
100
AcDbEntity
  8
0
100
AcDbLine
 62
7
  6
CONTINUOUS
 10
927.0501244233
 20
981.0033916849
 11
927.0501244233
 21
981.1533916849
  0
LINE
  5
59C
100
AcDbEntity
  8
0
100
AcDbLine
 62
7
  6
CONTINUOUS
 10
927.0531164741
 20
980.6833916849
 11
927.0531164741
 21
980.4533916849
  0
LINE
  5
59D
100
AcDbEntity
  8
0
100
AcDbLine
 62
7
  6
CONTINUOUS
 10
927.063134018
 20
980.4533916849
 11
927.063134018
 21
980.6833916849
  0
LINE
  5
59E
100
AcDbEntity
  8
0
100
AcDbLine
 62
7
  6
CONTINUOUS
 10
927.065322356
 20
981.0033916849
 11
927.065322356
 21
981.1533916849
  0
LINE
  5
59F
100
AcDbEntity
  8
0
100
AcDbLine
 62
7
  6
CONTINUOUS
 10
927.100166064
 20
980.4533916849
 11
927.100166064
 21
980.6833916849
  0
LINE
  5
5A0
100
AcDbEntity
  8
0
100
AcDbLine
 62
7
  6
CONTINUOUS
 10
927.132123121
 20
981.0033916849
 11
927.132123121
 21
981.1533916849
  0
LINE
  5
5A1
100
AcDbEntity
  8
0
100
AcDbLine
 62
7
  6
CONTINUOUS
 10
927.139014482
 20
980.4533916849
 11
927.139014482
 21
980.6833916849
  0
LINE
  5
5A2
100
AcDbEntity
  8
0
100
AcDbLine
 62
7
  6
CONTINUOUS
 10
927.167983055
 20
980.4533916849
 11
927.167983055
 21
980.6833916849
  0
LINE
  5
5A3
100
AcDbEntity
  8
0
100
AcDbLine
 62
7
  6
CONTINUOUS
 10
927.176982063
 20
981.0033916849
 11
927.176982063
 21
981.1533916849
  0
LINE
  5
5A4
100
AcDbEntity
  8
0
100
AcDbLine
 62
7
  6
CONTINUOUS
 10
927.2021432215
 20
981.0033916849
 11
927.2021432215
 21
981.1533916849
  0
LINE
  5
5A5
100
AcDbEntity
  8
0
100
AcDbLine
 62
7
  6
CONTINUOUS
 10
927.215020519
 20
981.1533916849
 11
927.215020519
 21
981.0033916849
  0
LINE
  5
5A6
100
AcDbEntity
  8
0
100
AcDbLine
 62
7
  6
CONTINUOUS
 10
927.228908445
 20
980.4533916849
 11
927.228908445
 21
980.6833916849
  0
LINE
  5
5A7
100
AcDbEntity
  8
0
100
AcDbLine
 62
7
  6
CONTINUOUS
 10
927.235593961
 20
980.4533916849
 11
927.235593961
 21
980.6833916849
  0
LINE
  5
5A8
100
AcDbEntity
  8
0
100
AcDbLine
 62
7
  6
CONTINUOUS
 10
927.2729680649
 20
981.0033916849
 11
927.2729680649
 21
981.1533916849
  0
LINE
  5
5A9
100
AcDbEntity
  8
0
100
AcDbLine
 62
7
  6
CONTINUOUS
 10
927.283570496
 20
980.4533916849
 11
927.283570496
 21
980.6833916849
  0
LINE
  5
5AA
100
AcDbEntity
  8
0
100
AcDbLine
 62
7
  6
CONTINUOUS
 10
927.289064793
 20
981.0033916849
 11
927.289064793
 21
981.1533916849
  0
LINE
  5
5AB
100
AcDbEntity
  8
0
100
AcDbLine
 62
7
  6
CONTINUOUS
 10
927.3240839114
 20
980.6833916849
 11
927.3240839114
 21
980.4533916849
  0
LINE
  5
5AC
100
AcDbEntity
  8
0
100
AcDbLine
 62
7
  6
CONTINUOUS
 10
927.340221732
 20
980.4533916849
 11
927.340221732
 21
980.6833916849
  0
LINE
  5
5AD
100
AcDbEntity
  8
0
100
AcDbLine
 62
7
  6
CONTINUOUS
 10
927.341646973
 20
981.1533916849
 11
927.341646973
 21
981.0033916849
  0
LINE
  5
5AE
100
AcDbEntity
  8
0
100
AcDbLine
 62
7
  6
CONTINUOUS
 10
927.355060797
 20
981.1533916849
 11
927.355060797
 21
981.0033916849
  0
LINE
  5
5AF
100
AcDbEntity
  8
0
100
AcDbLine
 62
7
  6
CONTINUOUS
 10
927.359889703
 20
981.0033916849
 11
927.359889703
 21
981.1533916849
  0
LINE
  5
5B0
100
AcDbEntity
  8
0
100
AcDbLine
 62
7
  6
CONTINUOUS
 10
927.3695520285
 20
981.1533916849
 11
927.3695520285
 21
981.0033916849
  0
LINE
  5
5B1
100
AcDbEntity
  8
0
100
AcDbLine
 62
7
  6
CONTINUOUS
 10
927.380010329
 20
981.0033916849
 11
927.380010329
 21
981.1533916849
  0
LINE
  5
5B2
100
AcDbEntity
  8
0
100
AcDbLine
 62
7
  6
CONTINUOUS
 10
927.381620102
 20
981.1533916849
 11
927.381620102
 21
981.0033916849
  0
LINE
  5
5B3
100
AcDbEntity
  8
0
100
AcDbLine
 62
7
  6
CONTINUOUS
 10
927.392887741
 20
981.1533916849
 11
927.392887741
 21
981.0033916849
  0
LINE
  5
5B4
100
AcDbEntity
  8
0
100
AcDbLine
 62
7
  6
CONTINUOUS
 10
927.408179479
 20
981.1533916849
 11
927.408179479
 21
981.0033916849
  0
LINE
  5
5B5
100
AcDbEntity
  8
0
100
AcDbLine
 62
7
  6
CONTINUOUS
 10
927.4096083441
 20
981.0033916853
 11
927.4096083487
 21
981.1533916853
  0
LINE
  5
5B6
100
AcDbEntity
  8
0
100
AcDbLine
 62
7
  6
CONTINUOUS
 10
927.415875623
 20
980.6833916849
 11
927.415875623
 21
980.4533916849
  0
LINE
  5
5B7
100
AcDbEntity
  8
0
100
AcDbLine
 62
7
  6
CONTINUOUS
 10
927.4275944421
 20
981.0033916849
 11
927.4275944421
 21
981.1533916849
  0
LINE
  5
5B8
100
AcDbEntity
  8
0
100
AcDbLine
 62
7
  6
CONTINUOUS
 10
927.4524247892
 20
981.0033916849
 11
927.4524247892
 21
981.1533916849
  0
LINE
  5
5B9
100
AcDbEntity
  8
0
100
AcDbLine
 62
7
  6
CONTINUOUS
 10
927.459336417
 20
980.6833916849
 11
927.459336417
 21
980.4533916849
  0
LINE
  5
5BA
100
AcDbEntity
  8
0
100
AcDbLine
 62
7
  6
CONTINUOUS
 10
927.4773805439
 20
980.6833916849
 11
927.4773805439
 21
980.4533916849
  0
LINE
  5
5BB
100
AcDbEntity
  8
0
100
AcDbLine
 62
7
  6
CONTINUOUS
 10
927.4985827691
 20
981.0033916849
 11
927.4985827691
 21
981.1533916849
  0
LINE
  5
5BC
100
AcDbEntity
  8
0
100
AcDbLine
 62
7
  6
CONTINUOUS
 10
927.5034559583
 20
981.0033916849
 11
927.5034559583
 21
981.1533916849
  0
LINE
  5
5BD
100
AcDbEntity
  8
0
100
AcDbLine
 62
7
  6
CONTINUOUS
 10
927.504758965
 20
981.0033916849
 11
927.504758965
 21
981.1533916849
  0
LINE
  5
5BE
100
AcDbEntity
  8
0
100
AcDbLine
 62
7
  6
CONTINUOUS
 10
927.511817379
 20
981.0033916849
 11
927.511817379
 21
981.1533916849
  0
LINE
  5
5BF
100
AcDbEntity
  8
0
100
AcDbLine
 62
7
  6
CONTINUOUS
 10
927.5207194673
 20
981.0033916849
 11
927.5207194673
 21
981.1533916849
  0
LINE
  5
5C0
100
AcDbEntity
  8
0
100
AcDbLine
 62
7
  6
CONTINUOUS
 10
927.5320731018
 20
981.0033916849
 11
927.5320731018
 21
981.1533916849
  0
LINE
  5
5C1
100
AcDbEntity
  8
0
100
AcDbLine
 62
7
  6
CONTINUOUS
 10
927.539366609
 20
981.1533916849
 11
927.539366609
 21
981.0033916849
  0
LINE
  5
5C2
100
AcDbEntity
  8
0
100
AcDbLine
 62
7
  6
CONTINUOUS
 10
927.5595584052
 20
981.1533916849
 11
927.5595584052
 21
981.0033916849
  0
LINE
  5
5C3
100
AcDbEntity
  8
0
100
AcDbLine
 62
7
  6
CONTINUOUS
 10
927.6703612809
 20
980.4533916849
 11
927.6703612809
 21
980.6833916849
  0
LINE
  5
5C4
100
AcDbEntity
  8
0
100
AcDbLine
 62
7
  6
CONTINUOUS
 10
927.6765622239
 20
980.4533916849
 11
927.6765622239
 21
980.6833916849
  0
LINE
  5
5C5
100
AcDbEntity
  8
0
100
AcDbLine
 62
7
  6
CONTINUOUS
 10
927.699026169
 20
980.4533916849
 11
927.699026169
 21
980.6833916849
  0
LINE
  5
5C6
100
AcDbEntity
  8
0
100
AcDbLine
 62
7
  6
CONTINUOUS
 10
927.7233203222
 20
980.4533916849
 11
927.7233203222
 21
980.6833916849
  0
LINE
  5
5C7
100
AcDbEntity
  8
0
100
AcDbLine
 62
7
  6
CONTINUOUS
 10
927.806951295
 20
980.4533916849
 11
927.806951295
 21
980.6833916849
  0
LINE
  5
5C8
100
AcDbEntity
  8
0
100
AcDbLine
 62
7
  6
CONTINUOUS
 10
927.9723552891
 20
980.6833916849
 11
927.9723552891
 21
980.4533916849
  0
LINE
  5
5C9
100
AcDbEntity
  8
0
100
AcDbLine
 62
7
  6
CONTINUOUS
 10
928.009487323
 20
981.1533916849
 11
928.009487323
 21
981.0033916849
  0
LINE
  5
5CA
100
AcDbEntity
  8
0
100
AcDbLine
 62
7
  6
CONTINUOUS
 10
928.098370605
 20
980.4533916849
 11
928.098370605
 21
980.6833916849
  0
LINE
  5
5CB
100
AcDbEntity
  8
0
100
AcDbLine
 62
7
  6
CONTINUOUS
 10
928.167585902
 20
980.4533916849
 11
928.167585902
 21
980.6833916849
  0
LINE
  5
5CC
100
AcDbEntity
  8
0
100
AcDbLine
 62
7
  6
CONTINUOUS
 10
928.170805197
 20
980.4533916849
 11
928.170805197
 21
980.6833916849
  0
LINE
  5
5CD
100
AcDbEntity
  8
0
100
AcDbLine
 62
7
  6
CONTINUOUS
 10
928.184487324
 20
980.4533916849
 11
928.184487324
 21
980.6833916849
  0
LINE
  5
5CE
100
AcDbEntity
  8
0
100
AcDbLine
 62
7
  6
CONTINUOUS
 10
928.184487324
 20
981.0033916849
 11
928.184487324
 21
981.1533916849
  0
LINE
  5
5CF
100
AcDbEntity
  8
0
100
AcDbLine
 62
7
  6
CONTINUOUS
 10
928.267384749
 20
980.4533916849
 11
928.267384749
 21
980.6833916849
  0
LINE
  5
5D0
100
AcDbEntity
  8
0
100
AcDbLine
 62
7
  6
CONTINUOUS
 10
928.306121025
 20
981.1533916849
 11
928.306121025
 21
981.0033916849
  0
LINE
  5
5D1
100
AcDbEntity
  8
0
100
AcDbLine
 62
7
  6
CONTINUOUS
 10
928.359487325
 20
981.1533916849
 11
928.359487325
 21
981.0033916849
  0
LINE
  5
5D2
100
AcDbEntity
  8
0
100
AcDbLine
 62
7
  6
CONTINUOUS
 10
928.3966193589
 20
980.6833916849
 11
928.3966193589
 21
980.4533916849
  0
LINE
  5
5D3
100
AcDbEntity
  8
0
100
AcDbLine
 62
7
  6
CONTINUOUS
 10
928.4186925223
 20
980.4533916849
 11
928.4186925223
 21
980.6833916849
  0
LINE
  5
5D4
100
AcDbEntity
  8
0
100
AcDbLine
 62
7
  6
CONTINUOUS
 10
928.4829779497
 20
981.0033916849
 11
928.4829779497
 21
981.1533916849
  0
LINE
  5
5D5
100
AcDbEntity
  8
0
100
AcDbLine
 62
7
  6
CONTINUOUS
 10
928.5297589899
 20
980.4533916849
 11
928.5297589899
 21
980.6833916849
  0
LINE
  5
5D6
100
AcDbEntity
  8
0
100
AcDbLine
 62
7
  6
CONTINUOUS
 10
928.561237829
 20
981.0033916849
 11
928.561237829
 21
981.1533916849
  0
LINE
  5
5D7
100
AcDbEntity
  8
0
100
AcDbLine
 62
7
  6
CONTINUOUS
 10
928.5739607731
 20
981.1533916849
 11
928.5739607731
 21
981.0033916849
  0
LINE
  5
5D8
100
AcDbEntity
  8
0
100
AcDbLine
 62
7
  6
CONTINUOUS
 10
928.619279674
 20
981.1533916849
 11
928.619279674
 21
981.0033916849
  0
LINE
  5
5D9
100
AcDbEntity
  8
0
100
AcDbLine
 62
7
  6
CONTINUOUS
 10
928.619476804
 20
980.4533916849
 11
928.619476804
 21
980.6833916849
  0
LINE
  5
5DA
100
AcDbEntity
  8
0
100
AcDbLine
 62
7
  6
CONTINUOUS
 10
928.6697992085
 20
980.4533916849
 11
928.6697992085
 21
980.6833916849
  0
LINE
  5
5DB
100
AcDbEntity
  8
0
100
AcDbLine
 62
7
  6
CONTINUOUS
 10
928.6892710174
 20
981.1533916849
 11
928.6892710174
 21
981.0033916849
  0
LINE
  5
5DC
100
AcDbEntity
  8
0
100
AcDbLine
 62
7
  6
CONTINUOUS
 10
928.704555841
 20
981.0033916849
 11
928.704555841
 21
981.1533916849
  0
LINE
  5
5DD
100
AcDbEntity
  8
0
100
AcDbLine
 62
7
  6
CONTINUOUS
 10
928.706988217
 20
981.0033916849
 11
928.706988217
 21
981.1533916849
  0
LINE
  5
5DE
100
AcDbEntity
  8
0
100
AcDbLine
 62
7
  6
CONTINUOUS
 10
928.709487324
 20
981.1533916849
 11
928.709487324
 21
981.0033916849
  0
LINE
  5
5DF
100
AcDbEntity
  8
0
100
AcDbLine
 62
7
  6
CONTINUOUS
 10
928.7163091533
 20
981.0033916849
 11
928.7163091533
 21
981.1533916849
  0
LINE
  5
5E0
100
AcDbEntity
  8
0
100
AcDbLine
 62
7
  6
CONTINUOUS
 10
928.728946358
 20
981.0033916849
 11
928.728946358
 21
981.1533916849
  0
LINE
  5
5E1
100
AcDbEntity
  8
0
100
AcDbLine
 62
7
  6
CONTINUOUS
 10
928.743898203
 20
981.0033916849
 11
928.743898203
 21
981.1533916849
  0
LINE
  5
5E2
100
AcDbEntity
  8
0
100
AcDbLine
 62
7
  6
CONTINUOUS
 10
928.7598335972
 20
981.0033916849
 11
928.7598335972
 21
981.1533916849
  0
LINE
  5
5E3
100
AcDbEntity
  8
0
100
AcDbLine
 62
7
  6
CONTINUOUS
 10
928.761801144
 20
981.0033916849
 11
928.761801144
 21
981.1533916849
  0
LINE
  5
5E4
100
AcDbEntity
  8
0
100
AcDbLine
 62
7
  6
CONTINUOUS
 10
928.7795010845
 20
981.0033916849
 11
928.7795010845
 21
981.1533916849
  0
LINE
  5
5E5
100
AcDbEntity
  8
0
100
AcDbLine
 62
7
  6
CONTINUOUS
 10
928.7934055009
 20
980.4533916849
 11
928.7934055009
 21
980.6833916849
  0
LINE
  5
5E6
100
AcDbEntity
  8
0
100
AcDbLine
 62
7
  6
CONTINUOUS
 10
928.811449004
 20
980.6833916849
 11
928.811449004
 21
980.4533916849
  0
LINE
  5
5E7
100
AcDbEntity
  8
0
100
AcDbLine
 62
7
  6
CONTINUOUS
 10
928.831216922
 20
981.0033916849
 11
928.831216922
 21
981.1533916849
  0
LINE
  5
5E8
100
AcDbEntity
  8
0
100
AcDbLine
 62
7
  6
CONTINUOUS
 10
928.8331023997
 20
981.0033916849
 11
928.8331023997
 21
981.1533916849
  0
LINE
  5
5E9
100
AcDbEntity
  8
0
100
AcDbLine
 62
7
  6
CONTINUOUS
 10
928.83986962
 20
981.1533916849
 11
928.83986962
 21
981.0033916849
  0
LINE
  5
5EA
100
AcDbEntity
  8
0
100
AcDbLine
 62
7
  6
CONTINUOUS
 10
928.843088932
 20
981.0033916849
 11
928.843088932
 21
981.1533916849
  0
LINE
  5
5EB
100
AcDbEntity
  8
0
100
AcDbLine
 62
7
  6
CONTINUOUS
 10
928.855966201
 20
981.0033916849
 11
928.855966201
 21
981.1533916849
  0
LINE
  5
5EC
100
AcDbEntity
  8
0
100
AcDbLine
 62
7
  6
CONTINUOUS
 10
928.860750187
 20
981.0033916849
 11
928.860750187
 21
981.1533916849
  0
LINE
  5
5ED
100
AcDbEntity
  8
0
100
AcDbLine
 62
7
  6
CONTINUOUS
 10
928.879287304
 20
981.1533916849
 11
928.879287304
 21
981.0033916849
  0
LINE
  5
5EE
100
AcDbEntity
  8
0
100
AcDbLine
 62
7
  6
CONTINUOUS
 10
928.8915941043
 20
980.6833916849
 11
928.8915941043
 21
980.4533916849
  0
LINE
  5
5EF
100
AcDbEntity
  8
0
100
AcDbLine
 62
7
  6
CONTINUOUS
 10
928.905865596
 20
981.1533916849
 11
928.905865596
 21
981.0033916849
  0
LINE
  5
5F0
100
AcDbEntity
  8
0
100
AcDbLine
 62
7
  6
CONTINUOUS
 10
928.923907067
 20
981.0033916849
 11
928.923907067
 21
981.1533916849
  0
LINE
  5
5F1
100
AcDbEntity
  8
0
100
AcDbLine
 62
7
  6
CONTINUOUS
 10
928.9251814891
 20
981.1533916849
 11
928.9251814891
 21
981.0033916849
  0
LINE
  5
5F2
100
AcDbEntity
  8
0
100
AcDbLine
 62
7
  6
CONTINUOUS
 10
928.93001046
 20
981.0033916849
 11
928.93001046
 21
981.1533916849
  0
LINE
  5
5F3
100
AcDbEntity
  8
0
100
AcDbLine
 62
7
  6
CONTINUOUS
 10
928.95978919
 20
981.0033916849
 11
928.95978919
 21
981.1533916849
  0
LINE
  5
5F4
100
AcDbEntity
  8
0
100
AcDbLine
 62
7
  6
CONTINUOUS
 10
928.969195538
 20
980.4533916849
 11
928.969195538
 21
980.6833916849
  0
LINE
  5
5F5
100
AcDbEntity
  8
0
100
AcDbLine
 62
7
  6
CONTINUOUS
 10
928.984582513
 20
981.0033916849
 11
928.984582513
 21
981.1533916849
  0
LINE
  5
5F6
100
AcDbEntity
  8
0
100
AcDbLine
 62
7
  6
CONTINUOUS
 10
928.991177456
 20
981.0033916849
 11
928.991177456
 21
981.1533916849
  0
LINE
  5
5F7
100
AcDbEntity
  8
0
100
AcDbLine
 62
7
  6
CONTINUOUS
 10
929.0046183305
 20
980.6833916849
 11
929.0046183305
 21
980.4533916849
  0
LINE
  5
5F8
100
AcDbEntity
  8
0
100
AcDbLine
 62
7
  6
CONTINUOUS
 10
929.0186981703
 20
981.0033916849
 11
929.0186981703
 21
981.1533916849
  0
LINE
  5
5F9
100
AcDbEntity
  8
0
100
AcDbLine
 62
7
  6
CONTINUOUS
 10
929.021885717
 20
981.1533916849
 11
929.021885717
 21
981.0033916849
  0
LINE
  5
5FA
100
AcDbEntity
  8
0
100
AcDbLine
 62
7
  6
CONTINUOUS
 10
929.0524242926
 20
981.0033916849
 11
929.0524242926
 21
981.1533916849
  0
LINE
  5
5FB
100
AcDbEntity
  8
0
100
AcDbLine
 62
7
  6
CONTINUOUS
 10
929.0555247721
 20
981.0033916849
 11
929.0555247721
 21
981.1533916849
  0
LINE
  5
5FC
100
AcDbEntity
  8
0
100
AcDbLine
 62
7
  6
CONTINUOUS
 10
929.060392702
 20
981.0033916849
 11
929.060392702
 21
981.1533916849
  0
LINE
  5
5FD
100
AcDbEntity
  8
0
100
AcDbLine
 62
7
  6
CONTINUOUS
 10
929.066756733
 20
981.0033916849
 11
929.066756733
 21
981.1533916849
  0
LINE
  5
5FE
100
AcDbEntity
  8
0
100
AcDbLine
 62
7
  6
CONTINUOUS
 10
929.082123153
 20
981.0033916849
 11
929.082123153
 21
981.1533916849
  0
LINE
  5
5FF
100
AcDbEntity
  8
0
100
AcDbLine
 62
7
  6
CONTINUOUS
 10
929.094748955
 20
980.6833916849
 11
929.094748955
 21
980.4533916849
  0
LINE
  5
600
100
AcDbEntity
  8
0
100
AcDbLine
 62
7
  6
CONTINUOUS
 10
929.1132007301
 20
981.0033916849
 11
929.1132007301
 21
981.1533916849
  0
LINE
  5
601
100
AcDbEntity
  8
0
100
AcDbLine
 62
7
  6
CONTINUOUS
 10
929.120719284
 20
981.0033916849
 11
929.120719284
 21
981.1533916849
  0
LINE
  5
602
100
AcDbEntity
  8
0
100
AcDbLine
 62
7
  6
CONTINUOUS
 10
929.132004501
 20
981.0033916849
 11
929.132004501
 21
981.1533916849
  0
LINE
  5
603
100
AcDbEntity
  8
0
100
AcDbLine
 62
7
  6
CONTINUOUS
 10
929.145780352
 20
981.1533916849
 11
929.145780352
 21
981.0033916849
  0
LINE
  5
604
100
AcDbEntity
  8
0
100
AcDbLine
 62
7
  6
CONTINUOUS
 10
929.1706543261
 20
981.0033916849
 11
929.1706543261
 21
981.1533916849
  0
LINE
  5
605
100
AcDbEntity
  8
0
100
AcDbLine
 62
7
  6
CONTINUOUS
 10
929.17684143
 20
980.4533916849
 11
929.17684143
 21
980.6833916849
  0
LINE
  5
606
100
AcDbEntity
  8
0
100
AcDbLine
 62
7
  6
CONTINUOUS
 10
929.1838193049
 20
981.0033916849
 11
929.1838193049
 21
981.1533916849
  0
LINE
  5
607
100
AcDbEntity
  8
0
100
AcDbLine
 62
7
  6
CONTINUOUS
 10
929.185946064
 20
981.0033916849
 11
929.185946064
 21
981.1533916849
  0
LINE
  5
608
100
AcDbEntity
  8
0
100
AcDbLine
 62
7
  6
CONTINUOUS
 10
929.2347891926
 20
980.4533916849
 11
929.234789193
 21
980.6833916849
  0
LINE
  5
609
100
AcDbEntity
  8
0
100
AcDbLine
 62
7
  6
CONTINUOUS
 10
929.246056728
 20
980.6833916849
 11
929.246056728
 21
980.4533916849
  0
LINE
  5
60A
100
AcDbEntity
  8
0
100
AcDbLine
 62
7
  6
CONTINUOUS
 10
929.28976901
 20
981.0033916849
 11
929.28976901
 21
981.1533916849
  0
LINE
  5
60B
100
AcDbEntity
  8
0
100
AcDbLine
 62
7
  6
CONTINUOUS
 10
929.297817319
 20
981.0033916849
 11
929.297817319
 21
981.1533916849
  0
LINE
  5
60C
100
AcDbEntity
  8
0
100
AcDbLine
 62
7
  6
CONTINUOUS
 10
929.2991754199
 20
980.4533916849
 11
929.2991754199
 21
980.6833916849
  0
LINE
  5
60D
100
AcDbEntity
  8
0
100
AcDbLine
 62
7
  6
CONTINUOUS
 10
929.312052691
 20
980.4533916849
 11
929.312052691
 21
980.6833916849
  0
LINE
  5
60E
100
AcDbEntity
  8
0
100
AcDbLine
 62
7
  6
CONTINUOUS
 10
929.3158581739
 20
980.6833916849
 11
929.3158581739
 21
980.4533916849
  0
LINE
  5
60F
100
AcDbEntity
  8
0
100
AcDbLine
 62
7
  6
CONTINUOUS
 10
929.323320441
 20
980.4533916849
 11
929.323320441
 21
980.6833916849
  0
LINE
  5
610
100
AcDbEntity
  8
0
100
AcDbLine
 62
7
  6
CONTINUOUS
 10
929.350684529
 20
980.4533916849
 11
929.350684529
 21
980.6833916849
  0
LINE
  5
611
100
AcDbEntity
  8
0
100
AcDbLine
 62
7
  6
CONTINUOUS
 10
929.384487323
 20
980.6833916849
 11
929.384487323
 21
980.4533916849
  0
LINE
  5
612
100
AcDbEntity
  8
0
100
AcDbLine
 62
7
  6
CONTINUOUS
 10
929.4037261397
 20
980.6833916849
 11
929.4037261397
 21
980.4533916849
  0
LINE
  5
613
100
AcDbEntity
  8
0
100
AcDbLine
 62
7
  6
CONTINUOUS
 10
929.448320322
 20
981.2958453649
 11
929.448320322
 21
980.8568911663
  0
LINE
  5
614
100
AcDbEntity
  8
0
100
AcDbLine
 62
7
  6
CONTINUOUS
 10
929.470050793
 20
981.0033916849
 11
929.470050793
 21
981.1533916849
  0
LINE
  5
615
100
AcDbEntity
  8
0
100
AcDbLine
 62
7
  6
CONTINUOUS
 10
929.482123183
 20
981.0033916849
 11
929.482123183
 21
981.1533916849
  0
LINE
  5
616
100
AcDbEntity
  8
0
100
AcDbLine
 62
7
  6
CONTINUOUS
 10
929.5027443456
 20
981.0033916849
 11
929.5027443456
 21
981.1533916849
  0
LINE
  5
617
100
AcDbEntity
  8
0
100
AcDbLine
 62
7
  6
CONTINUOUS
 10
929.526982089
 20
981.0033916849
 11
929.526982089
 21
981.1533916849
  0
LINE
  5
618
100
AcDbEntity
  8
0
100
AcDbLine
 62
7
  6
CONTINUOUS
 10
929.544728245
 20
981.0033916849
 11
929.544728245
 21
981.1533916849
  0
LINE
  5
619
100
AcDbEntity
  8
0
100
AcDbLine
 62
7
  6
CONTINUOUS
 10
929.5521432644
 20
981.0033916849
 11
929.5521432644
 21
981.1533916849
  0
LINE
  5
61A
100
AcDbEntity
  8
0
100
AcDbLine
 62
7
  6
CONTINUOUS
 10
929.607524292
 20
981.0033916849
 11
929.607524292
 21
981.1533916849
  0
LINE
  5
61B
100
AcDbEntity
  8
0
100
AcDbLine
 62
7
  6
CONTINUOUS
 10
929.6229681785
 20
981.0033916849
 11
929.6229681785
 21
981.1533916849
  0
LINE
  5
61C
100
AcDbEntity
  8
0
100
AcDbLine
 62
7
  6
CONTINUOUS
 10
929.6575758269
 20
981.0033916849
 11
929.6575758269
 21
981.1533916849
  0
LINE
  5
61D
100
AcDbEntity
  8
0
100
AcDbLine
 62
7
  6
CONTINUOUS
 10
929.676086932
 20
981.0033916849
 11
929.676086932
 21
981.1533916849
  0
LINE
  5
61E
100
AcDbEntity
  8
0
100
AcDbLine
 62
7
  6
CONTINUOUS
 10
929.6865496931
 20
981.0033916849
 11
929.6865496931
 21
981.1533916849
  0
LINE
  5
61F
100
AcDbEntity
  8
0
100
AcDbLine
 62
7
  6
CONTINUOUS
 10
929.710504247
 20
981.0033916849
 11
929.710504247
 21
981.1533916849
  0
LINE
  5
620
100
AcDbEntity
  8
0
100
AcDbLine
 62
7
  6
CONTINUOUS
 10
929.7195520273
 20
981.1533916849
 11
929.7195520273
 21
981.0033916849
  0
LINE
  5
621
100
AcDbEntity
  8
0
100
AcDbLine
 62
7
  6
CONTINUOUS
 10
929.745302141
 20
981.0033916849
 11
929.745302141
 21
981.1533916849
  0
LINE
  5
622
100
AcDbEntity
  8
0
100
AcDbLine
 62
7
  6
CONTINUOUS
 10
929.76461814
 20
981.1533916849
 11
929.76461814
 21
981.0033916849
  0
LINE
  5
623
100
AcDbEntity
  8
0
100
AcDbLine
 62
7
  6
CONTINUOUS
 10
929.7774954421
 20
981.0033916849
 11
929.7774954421
 21
981.1533916849
  0
LINE
  5
624
100
AcDbEntity
  8
0
100
AcDbLine
 62
7
  6
CONTINUOUS
 10
929.8047708907
 20
981.0033916849
 11
929.8047708907
 21
981.1533916849
  0
LINE
  5
625
100
AcDbEntity
  8
0
100
AcDbLine
 62
7
  6
CONTINUOUS
 10
929.851861631
 20
981.0033916849
 11
929.851861631
 21
981.1533916849
  0
LINE
  5
626
100
AcDbEntity
  8
0
100
AcDbLine
 62
7
  6
CONTINUOUS
 10
929.8593969698
 20
981.0033916849
 11
929.8593969698
 21
981.1533916849
  0
LINE
  5
627
100
AcDbEntity
  8
0
100
AcDbLine
 62
7
  6
CONTINUOUS
 10
929.867289936
 20
981.0033916849
 11
929.867289936
 21
981.1533916849
  0
LINE
  5
628
100
AcDbEntity
  8
0
100
AcDbLine
 62
7
  6
CONTINUOUS
 10
929.873270009
 20
981.0033916849
 11
929.873270009
 21
981.1533916849
  0
LINE
  5
629
100
AcDbEntity
  8
0
100
AcDbLine
 62
7
  6
CONTINUOUS
 10
929.909487324
 20
981.0033916849
 11
929.909487324
 21
981.1533916849
  0
LINE
  5
62A
100
AcDbEntity
  8
0
100
AcDbLine
 62
7
  6
CONTINUOUS
 10
930.245780352
 20
981.1533916849
 11
930.245780352
 21
981.0033916849
  0
LINE
  5
62B
100
AcDbEntity
  8
0
100
AcDbLine
 62
7
  6
CONTINUOUS
 10
931.184487324
 20
981.1533916849
 11
931.184487324
 21
981.0033916849
  0
LINE
  5
62C
100
AcDbEntity
  8
0
100
AcDbLine
 62
7
  6
CONTINUOUS
 10
910.7844872858
 20
980.6533916849
 11
910.7848206279
 21
981.1533916849
  0
LINE
  5
62D
100
AcDbEntity
  8
0
100
AcDbLine
 62
7
  6
CONTINUOUS
 10
917.5841540209
 20
980.6533916849
 11
917.5844873629
 21
981.1533916849
  0
LINE
  5
62E
100
AcDbEntity
  8
0
100
AcDbLine
 62
7
  6
CONTINUOUS
 10
924.7844872858
 20
980.6533916849
 11
924.7848206279
 21
981.1533916849
  0
LINE
  5
62F
100
AcDbEntity
  8
0
100
AcDbLine
 62
7
  6
CONTINUOUS
 10
931.5841540209
 20
980.6533916849
 11
931.5844873629
 21
981.1533916849
  0
LINE
  5
630
100
AcDbEntity
  8
0
100
AcDbLine
 62
7
  6
CONTINUOUS
 10
937.4844873233
 20
980.6833916849
 11
937.4844873233
 21
980.4533916849
  0
LINE
  5
631
100
AcDbEntity
  8
0
100
AcDbLine
 62
7
  6
CONTINUOUS
 10
937.5723552891
 20
980.6833916849
 11
937.5723552891
 21
980.4533916849
  0
LINE
  5
632
100
AcDbEntity
  8
0
100
AcDbLine
 62
7
  6
CONTINUOUS
 10
937.9966193584
 20
980.6833916849
 11
937.9966193584
 21
980.4533916849
  0
LINE
  5
633
100
AcDbEntity
  8
0
100
AcDbLine
 62
7
  6
CONTINUOUS
 10
938.279462071
 20
980.4533916849
 11
938.279462071
 21
980.6833916849
  0
LINE
  5
634
100
AcDbEntity
  8
0
100
AcDbLine
 62
7
  6
CONTINUOUS
 10
938.564487324
 20
978.3533916849
 11
938.564487324
 21
978.1533916849
  0
LINE
  5
635
100
AcDbEntity
  8
0
100
AcDbLine
 62
7
  6
CONTINUOUS
 10
938.9158581738
 20
980.6833916849
 11
938.9158581738
 21
980.4533916849
  0
LINE
  5
636
100
AcDbEntity
  8
0
100
AcDbLine
 62
7
  6
CONTINUOUS
 10
939.0037261395
 20
980.6833916849
 11
939.0037261395
 21
980.4533916849
  0
LINE
  5
637
100
AcDbEntity
  8
0
100
AcDbLine
 62
7
  6
CONTINUOUS
 10
939.184487324
 20
981.1533916849
 11
939.184487324
 21
981.0033916849
  0
LINE
  5
638
100
AcDbEntity
  8
0
100
AcDbLine
 62
7
  6
CONTINUOUS
 10
939.584487324
 20
981.1533916849
 11
939.584487324
 21
981.0033916849
  0
LINE
  5
639
100
AcDbEntity
  8
0
100
AcDbLine
 62
7
  6
CONTINUOUS
 10
940.4275653852
 20
961.5033916849
 11
940.4275653852
 21
961.6533916849
  0
LINE
  5
63A
100
AcDbEntity
  8
0
100
AcDbLine
 62
7
  6
CONTINUOUS
 10
940.60173236
 20
961.6533916849
 11
940.60173236
 21
961.5033916849
  0
LINE
  5
63B
100
AcDbEntity
  8
0
100
AcDbLine
 62
7
  6
CONTINUOUS
 10
940.995922601
 20
981.1533916849
 11
940.995922601
 21
981.0033916849
  0
LINE
  5
63C
100
AcDbEntity
  8
0
100
AcDbLine
 62
7
  6
CONTINUOUS
 10
941.029697425
 20
981.0033916849
 11
941.029697425
 21
981.1533916849
  0
LINE
  5
63D
100
AcDbEntity
  8
0
100
AcDbLine
 62
7
  6
CONTINUOUS
 10
941.034487325
 20
981.1533916849
 11
941.034487325
 21
981.0033916849
  0
LINE
  5
63E
100
AcDbEntity
  8
0
100
AcDbLine
 62
7
  6
CONTINUOUS
 10
941.071783902
 20
981.0033916849
 11
941.071783902
 21
981.1533916849
  0
LINE
  5
63F
100
AcDbEntity
  8
0
100
AcDbLine
 62
7
  6
CONTINUOUS
 10
941.083850167
 20
981.0033916849
 11
941.083850167
 21
981.1533916849
  0
LINE
  5
640
100
AcDbEntity
  8
0
100
AcDbLine
 62
7
  6
CONTINUOUS
 10
941.088477936
 20
981.0033916849
 11
941.088477936
 21
981.1533916849
  0
LINE
  5
641
100
AcDbEntity
  8
0
100
AcDbLine
 62
7
  6
CONTINUOUS
 10
941.100441509
 20
981.0033916849
 11
941.100441509
 21
981.1533916849
  0
LINE
  5
642
100
AcDbEntity
  8
0
100
AcDbLine
 62
7
  6
CONTINUOUS
 10
941.122279137
 20
981.0033916849
 11
941.122279137
 21
981.1533916849
  0
LINE
  5
643
100
AcDbEntity
  8
0
100
AcDbLine
 62
7
  6
CONTINUOUS
 10
941.134755598
 20
981.0033916849
 11
941.134755598
 21
981.1533916849
  0
LINE
  5
644
100
AcDbEntity
  8
0
100
AcDbLine
 62
7
  6
CONTINUOUS
 10
941.214970225
 20
981.0033916849
 11
941.214970225
 21
981.1533916849
  0
LINE
  5
645
100
AcDbEntity
  8
0
100
AcDbLine
 62
7
  6
CONTINUOUS
 10
941.267802387
 20
981.0033916849
 11
941.267802387
 21
981.1533916849
  0
LINE
  5
646
100
AcDbEntity
  8
0
100
AcDbLine
 62
7
  6
CONTINUOUS
 10
941.315238505
 20
981.0033916849
 11
941.315238505
 21
981.1533916849
  0
LINE
  5
647
100
AcDbEntity
  8
0
100
AcDbLine
 62
7
  6
CONTINUOUS
 10
941.324407739
 20
981.0033916849
 11
941.324407739
 21
981.1533916849
  0
LINE
  5
648
100
AcDbEntity
  8
0
100
AcDbLine
 62
7
  6
CONTINUOUS
 10
941.332206989
 20
981.1533916849
 11
941.332206989
 21
981.0033916849
  0
LINE
  5
649
100
AcDbEntity
  8
0
100
AcDbLine
 62
7
  6
CONTINUOUS
 10
941.344316736
 20
981.0033916849
 11
941.344316736
 21
981.1533916849
  0
LINE
  5
64A
100
AcDbEntity
  8
0
100
AcDbLine
 62
7
  6
CONTINUOUS
 10
941.347632869
 20
981.0033916849
 11
941.347632869
 21
981.1533916849
  0
LINE
  5
64B
100
AcDbEntity
  8
0
100
AcDbLine
 62
7
  6
CONTINUOUS
 10
941.359973576
 20
981.1533916849
 11
941.359973576
 21
981.0033916849
  0
LINE
  5
64C
100
AcDbEntity
  8
0
100
AcDbLine
 62
7
  6
CONTINUOUS
 10
941.364601409
 20
981.0033916849
 11
941.364601409
 21
981.1533916849
  0
LINE
  5
64D
100
AcDbEntity
  8
0
100
AcDbLine
 62
7
  6
CONTINUOUS
 10
941.378173373
 20
981.0033916849
 11
941.378173373
 21
981.1533916849
  0
LINE
  5
64E
100
AcDbEntity
  8
0
100
AcDbLine
 62
7
  6
CONTINUOUS
 10
941.398538281
 20
981.1533916849
 11
941.398538281
 21
981.0033916849
  0
LINE
  5
64F
100
AcDbEntity
  8
0
100
AcDbLine
 62
7
  6
CONTINUOUS
 10
941.426304838
 20
981.0033916849
 11
941.426304838
 21
981.1533916849
  0
LINE
  5
650
100
AcDbEntity
  8
0
100
AcDbLine
 62
7
  6
CONTINUOUS
 10
941.445458749
 20
981.0033916849
 11
941.445458749
 21
981.1533916849
  0
LINE
  5
651
100
AcDbEntity
  8
0
100
AcDbLine
 62
7
  6
CONTINUOUS
 10
941.4571568
 20
981.0033916849
 11
941.4571568
 21
981.1533916849
  0
LINE
  5
652
100
AcDbEntity
  8
0
100
AcDbLine
 62
7
  6
CONTINUOUS
 10
941.498552272
 20
981.0033916849
 11
941.498552272
 21
981.1533916849
  0
LINE
  5
653
100
AcDbEntity
  8
0
100
AcDbLine
 62
7
  6
CONTINUOUS
 10
941.514232468
 20
981.0033916849
 11
941.514232468
 21
981.1533916849
  0
LINE
  5
654
100
AcDbEntity
  8
0
100
AcDbLine
 62
7
  6
CONTINUOUS
 10
941.561753154
 20
981.0033916849
 11
941.561753154
 21
981.1533916849
  0
LINE
  5
655
100
AcDbEntity
  8
0
100
AcDbLine
 62
7
  6
CONTINUOUS
 10
941.660778433
 20
981.0033916849
 11
941.660778433
 21
981.1533916849
  0
LINE
  5
656
100
AcDbEntity
  8
0
100
AcDbLine
 62
7
  6
CONTINUOUS
 10
941.66386359
 20
981.0033916849
 11
941.66386359
 21
981.1533916849
  0
LINE
  5
657
100
AcDbEntity
  8
0
100
AcDbLine
 62
7
  6
CONTINUOUS
 10
941.678977815
 20
981.0033916849
 11
941.678977815
 21
981.1533916849
  0
LINE
  5
658
100
AcDbEntity
  8
0
100
AcDbLine
 62
7
  6
CONTINUOUS
 10
941.707056161
 20
981.0033916849
 11
941.707056161
 21
981.1533916849
  0
LINE
  5
659
100
AcDbEntity
  8
0
100
AcDbLine
 62
7
  6
CONTINUOUS
 10
941.713226449
 20
981.0033916849
 11
941.713226449
 21
981.1533916849
  0
LINE
  5
65A
100
AcDbEntity
  8
0
100
AcDbLine
 62
7
  6
CONTINUOUS
 10
941.746258579
 20
981.0033916849
 11
941.746258579
 21
981.1533916849
  0
LINE
  5
65B
100
AcDbEntity
  8
0
100
AcDbLine
 62
7
  6
CONTINUOUS
 10
941.748705998
 20
981.0033916849
 11
941.748705998
 21
981.1533916849
  0
LINE
  5
65C
100
AcDbEntity
  8
0
100
AcDbLine
 62
7
  6
CONTINUOUS
 10
941.802696524
 20
981.0033916849
 11
941.802696524
 21
981.1533916849
  0
LINE
  5
65D
100
AcDbEntity
  8
0
100
AcDbLine
 62
7
  6
CONTINUOUS
 10
941.8165798
 20
981.0033916849
 11
941.8165798
 21
981.1533916849
  0
LINE
  5
65E
100
AcDbEntity
  8
0
100
AcDbLine
 62
7
  6
CONTINUOUS
 10
941.844311913
 20
981.0033916849
 11
941.844311913
 21
981.1533916849
  0
LINE
  5
65F
100
AcDbEntity
  8
0
100
AcDbLine
 62
7
  6
CONTINUOUS
 10
941.84588905
 20
981.0033916849
 11
941.84588905
 21
981.1533916849
  0
LINE
  5
660
100
AcDbEntity
  8
0
100
AcDbLine
 62
7
  6
CONTINUOUS
 10
941.862857571
 20
981.0033916849
 11
941.862857571
 21
981.1533916849
  0
LINE
  5
661
100
AcDbEntity
  8
0
100
AcDbLine
 62
7
  6
CONTINUOUS
 10
941.889830192
 20
981.0033916849
 11
941.889830192
 21
981.1533916849
  0
LINE
  5
662
100
AcDbEntity
  8
0
100
AcDbLine
 62
7
  6
CONTINUOUS
 10
941.891000062
 20
981.0033916849
 11
941.891000062
 21
981.1533916849
  0
LINE
  5
663
100
AcDbEntity
  8
0
100
AcDbLine
 62
7
  6
CONTINUOUS
 10
941.94769991
 20
981.0033916849
 11
941.94769991
 21
981.1533916849
  0
LINE
  5
664
100
AcDbEntity
  8
0
100
AcDbLine
 62
7
  6
CONTINUOUS
 10
941.953870292
 20
981.0033916849
 11
941.953870292
 21
981.1533916849
  0
LINE
  5
665
100
AcDbEntity
  8
0
100
AcDbLine
 62
7
  6
CONTINUOUS
 10
942.001690538
 20
981.0033916849
 11
942.001690538
 21
981.1533916849
  0
LINE
  5
666
100
AcDbEntity
  8
0
100
AcDbLine
 62
7
  6
CONTINUOUS
 10
942.032255547
 20
981.0033916849
 11
942.032255547
 21
981.1533916849
  0
LINE
  5
667
100
AcDbEntity
  8
0
100
AcDbLine
 62
7
  6
CONTINUOUS
 10
942.041797857
 20
981.1533916849
 11
942.041797857
 21
981.0033916849
  0
LINE
  5
668
100
AcDbEntity
  8
0
100
AcDbLine
 62
7
  6
CONTINUOUS
 10
942.089618069
 20
981.0033916849
 11
942.089618069
 21
981.1533916849
  0
LINE
  5
669
100
AcDbEntity
  8
0
100
AcDbLine
 62
7
  6
CONTINUOUS
 10
942.146693891
 20
981.0033916849
 11
942.146693891
 21
981.1533916849
  0
LINE
  5
66A
100
AcDbEntity
  8
0
100
AcDbLine
 62
7
  6
CONTINUOUS
 10
942.162119813
 20
981.0033916849
 11
942.162119813
 21
981.1533916849
  0
LINE
  5
66B
100
AcDbEntity
  8
0
100
AcDbLine
 62
7
  6
CONTINUOUS
 10
942.165205024
 20
981.0033916849
 11
942.165205024
 21
981.1533916849
  0
LINE
  5
66C
100
AcDbEntity
  8
0
100
AcDbLine
 62
7
  6
CONTINUOUS
 10
942.197086625
 20
981.0033916849
 11
942.197086625
 21
981.1533916849
  0
LINE
  5
66D
100
AcDbEntity
  8
0
100
AcDbLine
 62
7
  6
CONTINUOUS
 10
942.216110443
 20
981.0033916849
 11
942.216110443
 21
981.1533916849
  0
LINE
  5
66E
100
AcDbEntity
  8
0
100
AcDbLine
 62
7
  6
CONTINUOUS
 10
942.260647585
 20
980.6533916849
 11
942.260647585
 21
980.4533916849
  0
LINE
  5
66F
100
AcDbEntity
  8
0
100
AcDbLine
 62
7
  6
CONTINUOUS
 10
942.269330819
 20
980.6533916849
 11
942.269330819
 21
980.4533916849
  0
LINE
  5
670
100
AcDbEntity
  8
0
100
AcDbLine
 62
7
  6
CONTINUOUS
 10
942.328031854
 20
981.0033916849
 11
942.328031854
 21
981.1533916849
  0
LINE
  5
671
100
AcDbEntity
  8
0
100
AcDbLine
 62
7
  6
CONTINUOUS
 10
942.33951752
 20
981.0033916849
 11
942.33951752
 21
981.1533916849
  0
LINE
  5
672
100
AcDbEntity
  8
0
100
AcDbLine
 62
7
  6
CONTINUOUS
 10
942.373454468
 20
981.0033916849
 11
942.373454468
 21
981.1533916849
  0
LINE
  5
673
100
AcDbEntity
  8
0
100
AcDbLine
 62
7
  6
CONTINUOUS
 10
942.387337803
 20
981.1533916849
 11
942.387337803
 21
981.0033916849
  0
LINE
  5
674
100
AcDbEntity
  8
0
100
AcDbLine
 62
7
  6
CONTINUOUS
 10
942.427366316
 20
981.0033916849
 11
942.427366316
 21
981.1533916849
  0
LINE
  5
675
100
AcDbEntity
  8
0
100
AcDbLine
 62
7
  6
CONTINUOUS
 10
942.450583905
 20
981.1533916849
 11
942.450583905
 21
981.0033916849
  0
LINE
  5
676
100
AcDbEntity
  8
0
100
AcDbLine
 62
7
  6
CONTINUOUS
 10
942.485141102
 20
981.0033916849
 11
942.485141102
 21
981.1533916849
  0
LINE
  5
677
100
AcDbEntity
  8
0
100
AcDbLine
 62
7
  6
CONTINUOUS
 10
942.492233699
 20
981.0033916849
 11
942.492233699
 21
981.1533916849
  0
LINE
  5
678
100
AcDbEntity
  8
0
100
AcDbLine
 62
7
  6
CONTINUOUS
 10
942.510744884
 20
981.0033916849
 11
942.510744884
 21
981.1533916849
  0
LINE
  5
679
100
AcDbEntity
  8
0
100
AcDbLine
 62
7
  6
CONTINUOUS
 10
942.541004073
 20
981.0033916849
 11
942.541004073
 21
981.1533916849
  0
LINE
  5
67A
100
AcDbEntity
  8
0
100
AcDbLine
 62
7
  6
CONTINUOUS
 10
942.559108567
 20
980.4533916849
 11
942.559108567
 21
980.6533916849
  0
LINE
  5
67B
100
AcDbEntity
  8
0
100
AcDbLine
 62
7
  6
CONTINUOUS
 10
942.569363247
 20
981.1533916849
 11
942.569363247
 21
981.0033916849
  0
LINE
  5
67C
100
AcDbEntity
  8
0
100
AcDbLine
 62
7
  6
CONTINUOUS
 10
942.602828283
 20
981.1533916849
 11
942.602828283
 21
981.0033916849
  0
LINE
  5
67D
100
AcDbEntity
  8
0
100
AcDbLine
 62
7
  6
CONTINUOUS
 10
942.607927989
 20
981.0033916849
 11
942.607927989
 21
981.1533916849
  0
LINE
  5
67E
100
AcDbEntity
  8
0
100
AcDbLine
 62
7
  6
CONTINUOUS
 10
942.617141441
 20
980.6533916849
 11
942.617141441
 21
980.4533916849
  0
LINE
  5
67F
100
AcDbEntity
  8
0
100
AcDbLine
 62
7
  6
CONTINUOUS
 10
942.626162115
 20
981.0033916849
 11
942.626162115
 21
981.1533916849
  0
LINE
  5
680
100
AcDbEntity
  8
0
100
AcDbLine
 62
7
  6
CONTINUOUS
 10
942.63415203
 20
981.0033916849
 11
942.63415203
 21
981.1533916849
  0
LINE
  5
681
100
AcDbEntity
  8
0
100
AcDbLine
 62
7
  6
CONTINUOUS
 10
942.635365672
 20
981.0033916849
 11
942.635365672
 21
981.1533916849
  0
LINE
  5
682
100
AcDbEntity
  8
0
100
AcDbLine
 62
7
  6
CONTINUOUS
 10
942.649577886
 20
981.0033916849
 11
942.649577886
 21
981.1533916849
  0
LINE
  5
683
100
AcDbEntity
  8
0
100
AcDbLine
 62
7
  6
CONTINUOUS
 10
942.651030522
 20
981.0033916849
 11
942.651030522
 21
981.1533916849
  0
LINE
  5
684
100
AcDbEntity
  8
0
100
AcDbLine
 62
7
  6
CONTINUOUS
 10
942.702025901
 20
981.0033916849
 11
942.702025901
 21
981.1533916849
  0
LINE
  5
685
100
AcDbEntity
  8
0
100
AcDbLine
 62
7
  6
CONTINUOUS
 10
942.737817061
 20
981.0033916849
 11
942.737817061
 21
981.1533916849
  0
LINE
  5
686
100
AcDbEntity
  8
0
100
AcDbLine
 62
7
  6
CONTINUOUS
 10
942.743675833
 20
981.0033916849
 11
942.743675833
 21
981.1533916849
  0
LINE
  5
687
100
AcDbEntity
  8
0
100
AcDbLine
 62
7
  6
CONTINUOUS
 10
942.755724981
 20
981.0033916849
 11
942.755724981
 21
981.1533916849
  0
LINE
  5
688
100
AcDbEntity
  8
0
100
AcDbLine
 62
7
  6
CONTINUOUS
 10
942.78224054
 20
981.0033916849
 11
942.78224054
 21
981.1533916849
  0
LINE
  5
689
100
AcDbEntity
  8
0
100
AcDbLine
 62
7
  6
CONTINUOUS
 10
942.8024846511
 20
981.0033916849
 11
942.8024846511
 21
981.1533916849
  0
LINE
  5
68A
100
AcDbEntity
  8
0
100
AcDbLine
 62
7
  6
CONTINUOUS
 10
942.848886315
 20
980.6533916849
 11
942.848886315
 21
980.4533916849
  0
LINE
  5
68B
100
AcDbEntity
  8
0
100
AcDbLine
 62
7
  6
CONTINUOUS
 10
942.8533485297
 20
961.6533916849
 11
942.8533485297
 21
961.5033916849
  0
LINE
  5
68C
100
AcDbEntity
  8
0
100
AcDbLine
 62
7
  6
CONTINUOUS
 10
942.887136444
 20
981.0033916849
 11
942.887136444
 21
981.1533916849
  0
LINE
  5
68D
100
AcDbEntity
  8
0
100
AcDbLine
 62
7
  6
CONTINUOUS
 10
942.90924606
 20
981.0033916849
 11
942.90924606
 21
981.1533916849
  0
LINE
  5
68E
100
AcDbEntity
  8
0
100
AcDbLine
 62
7
  6
CONTINUOUS
 10
942.930329047
 20
981.0033916849
 11
942.930329047
 21
981.1533916849
  0
LINE
  5
68F
100
AcDbEntity
  8
0
100
AcDbLine
 62
7
  6
CONTINUOUS
 10
942.936121642
 20
981.0033916849
 11
942.936121642
 21
981.1533916849
  0
LINE
  5
690
100
AcDbEntity
  8
0
100
AcDbLine
 62
7
  6
CONTINUOUS
 10
942.942669813
 20
981.1533916849
 11
942.942669813
 21
981.0033916849
  0
LINE
  5
691
100
AcDbEntity
  8
0
100
AcDbLine
 62
7
  6
CONTINUOUS
 10
942.953103091
 20
981.0033916849
 11
942.953103091
 21
981.1533916849
  0
LINE
  5
692
100
AcDbEntity
  8
0
100
AcDbLine
 62
7
  6
CONTINUOUS
 10
942.965656559
 20
981.0033916849
 11
942.965656559
 21
981.1533916849
  0
LINE
  5
693
100
AcDbEntity
  8
0
100
AcDbLine
 62
7
  6
CONTINUOUS
 10
942.970436297
 20
981.0033916849
 11
942.970436297
 21
981.1533916849
  0
LINE
  5
694
100
AcDbEntity
  8
0
100
AcDbLine
 62
7
  6
CONTINUOUS
 10
942.9745778652
 20
980.4533916849
 11
942.9745778652
 21
980.6533916849
  0
LINE
  5
695
100
AcDbEntity
  8
0
100
AcDbLine
 62
7
  6
CONTINUOUS
 10
942.990490057
 20
981.0033916849
 11
942.990490057
 21
981.1533916849
  0
LINE
  5
696
100
AcDbEntity
  8
0
100
AcDbLine
 62
7
  6
CONTINUOUS
 10
943.003228247
 20
980.6533916849
 11
943.003228247
 21
980.4533916849
  0
LINE
  5
697
100
AcDbEntity
  8
0
100
AcDbLine
 62
7
  6
CONTINUOUS
 10
943.009001141
 20
981.0033916849
 11
943.009001141
 21
981.1533916849
  0
LINE
  5
698
100
AcDbEntity
  8
0
100
AcDbLine
 62
7
  6
CONTINUOUS
 10
943.015171456
 20
981.1533916849
 11
943.015171456
 21
981.0033916849
  0
LINE
  5
699
100
AcDbEntity
  8
0
100
AcDbLine
 62
7
  6
CONTINUOUS
 10
943.019799193
 20
981.0033916849
 11
943.019799193
 21
981.1533916849
  0
LINE
  5
69A
100
AcDbEntity
  8
0
100
AcDbLine
 62
7
  6
CONTINUOUS
 10
943.033427611
 20
981.0033916849
 11
943.033427611
 21
981.1533916849
  0
LINE
  5
69B
100
AcDbEntity
  8
0
100
AcDbLine
 62
7
  6
CONTINUOUS
 10
943.120067487
 20
981.0033916849
 11
943.120067487
 21
981.1533916849
  0
LINE
  5
69C
100
AcDbEntity
  8
0
100
AcDbLine
 62
7
  6
CONTINUOUS
 10
943.144367332
 20
981.0033916849
 11
943.144367332
 21
981.1533916849
  0
LINE
  5
69D
100
AcDbEntity
  8
0
100
AcDbLine
 62
7
  6
CONTINUOUS
 10
943.175899583
 20
981.0033916849
 11
943.175899583
 21
981.1533916849
  0
LINE
  5
69E
100
AcDbEntity
  8
0
100
AcDbLine
 62
7
  6
CONTINUOUS
 10
943.224038303
 20
981.0033916849
 11
943.224038303
 21
981.1533916849
  0
LINE
  5
69F
100
AcDbEntity
  8
0
100
AcDbLine
 62
7
  6
CONTINUOUS
 10
943.2285366464
 20
981.1533916849
 11
943.2285366464
 21
981.0033916849
  0
LINE
  5
6A0
100
AcDbEntity
  8
0
100
AcDbLine
 62
7
  6
CONTINUOUS
 10
943.246559693
 20
981.0033916849
 11
943.246559693
 21
981.1533916849
  0
LINE
  5
6A1
100
AcDbEntity
  8
0
100
AcDbLine
 62
7
  6
CONTINUOUS
 10
943.253608996
 20
981.0033916849
 11
943.253608996
 21
981.1533916849
  0
LINE
  5
6A2
100
AcDbEntity
  8
0
100
AcDbLine
 62
7
  6
CONTINUOUS
 10
943.256084779
 20
981.0033916849
 11
943.256084779
 21
981.1533916849
  0
LINE
  5
6A3
100
AcDbEntity
  8
0
100
AcDbLine
 62
7
  6
CONTINUOUS
 10
943.266613453
 20
981.0033916849
 11
943.266613453
 21
981.1533916849
  0
LINE
  5
6A4
100
AcDbEntity
  8
0
100
AcDbLine
 62
7
  6
CONTINUOUS
 10
943.282039307
 20
981.0033916849
 11
943.282039307
 21
981.1533916849
  0
LINE
  5
6A5
100
AcDbEntity
  8
0
100
AcDbLine
 62
7
  6
CONTINUOUS
 10
943.295922617
 20
981.1533916849
 11
943.295922617
 21
981.0033916849
  0
LINE
  5
6A6
100
AcDbEntity
  8
0
100
AcDbLine
 62
7
  6
CONTINUOUS
 10
943.3220332
 20
981.0033916849
 11
943.3220332
 21
981.1533916849
  0
LINE
  5
6A7
100
AcDbEntity
  8
0
100
AcDbLine
 62
7
  6
CONTINUOUS
 10
943.334487324
 20
981.0033916849
 11
943.334487324
 21
981.1533916849
  0
LINE
  5
6A8
100
AcDbEntity
  8
0
100
AcDbLine
 62
7
  6
CONTINUOUS
 10
943.508965117
 20
980.6533916849
 11
943.508965117
 21
980.4533916849
  0
LINE
  5
6A9
100
AcDbEntity
  8
0
100
AcDbLine
 62
7
  6
CONTINUOUS
 10
943.564487324
 20
978.3533916849
 11
943.564487324
 21
978.1533916849
  0
LINE
  5
6AA
100
AcDbEntity
  8
0
100
AcDbLine
 62
7
  6
CONTINUOUS
 10
943.628450977
 20
981.1533916849
 11
943.628450977
 21
981.0033916849
  0
LINE
  5
6AB
100
AcDbEntity
  8
0
100
AcDbLine
 62
7
  6
CONTINUOUS
 10
944.0846103893
 20
980.4533916849
 11
944.0846103893
 21
980.6533916849
  0
LINE
  5
6AC
100
AcDbEntity
  8
0
100
AcDbLine
 62
7
  6
CONTINUOUS
 10
944.228450978
 20
981.1533916849
 11
944.228450978
 21
981.0033916849
  0
LINE
  5
6AD
100
AcDbEntity
  8
0
100
AcDbLine
 62
7
  6
CONTINUOUS
 10
944.2402685104
 20
980.6533916849
 11
944.240268476
 21
980.4533916849
  0
LINE
  5
6AE
100
AcDbEntity
  8
0
100
AcDbLine
 62
7
  6
CONTINUOUS
 10
944.4281073461
 20
981.0033916849
 11
944.4281073461
 21
981.1533916849
  0
LINE
  5
6AF
100
AcDbEntity
  8
0
100
AcDbLine
 62
7
  6
CONTINUOUS
 10
944.4623151203
 20
980.6533916849
 11
944.4623151203
 21
980.4533916849
  0
LINE
  5
6B0
100
AcDbEntity
  8
0
100
AcDbLine
 62
7
  6
CONTINUOUS
 10
944.6844873241
 20
980.6533916849
 11
944.6844873241
 21
980.4533916849
  0
LINE
  5
6B1
100
AcDbEntity
  8
0
100
AcDbLine
 62
7
  6
CONTINUOUS
 10
944.758654298
 20
961.6533916849
 11
944.758654298
 21
961.5033916849
  0
LINE
  5
6B2
100
AcDbEntity
  8
0
100
AcDbLine
 62
7
  6
CONTINUOUS
 10
944.784487324
 20
981.0033916849
 11
944.784487324
 21
981.1533916849
  0
LINE
  5
6B3
100
AcDbEntity
  8
0
100
AcDbLine
 62
7
  6
CONTINUOUS
 10
944.820938782
 20
980.4533916849
 11
944.820938782
 21
980.6533916849
  0
LINE
  5
6B4
100
AcDbEntity
  8
0
100
AcDbLine
 62
7
  6
CONTINUOUS
 10
945.090905101
 20
981.1533916849
 11
945.090905101
 21
981.0033916849
  0
LINE
  5
6B5
100
AcDbEntity
  8
0
100
AcDbLine
 62
7
  6
CONTINUOUS
 10
945.119797192
 20
980.4533916849
 11
945.119797192
 21
980.6533916849
  0
LINE
  5
6B6
100
AcDbEntity
  8
0
100
AcDbLine
 62
7
  6
CONTINUOUS
 10
945.1806551823
 20
981.0033916849
 11
945.1806551823
 21
981.1533916849
  0
LINE
  5
6B7
100
AcDbEntity
  8
0
100
AcDbLine
 62
7
  6
CONTINUOUS
 10
945.418655602
 20
980.4533916849
 11
945.418655602
 21
980.6533916849
  0
LINE
  5
6B8
100
AcDbEntity
  8
0
100
AcDbLine
 62
7
  6
CONTINUOUS
 10
945.4196358349
 20
980.4533916849
 11
945.4196358349
 21
980.6533916849
  0
LINE
  5
6B9
100
AcDbEntity
  8
0
100
AcDbLine
 62
7
  6
CONTINUOUS
 10
945.6844873239
 20
980.6533916849
 11
945.6844873239
 21
980.4533916849
  0
LINE
  5
6BA
100
AcDbEntity
  8
0
100
AcDbLine
 62
7
  6
CONTINUOUS
 10
945.884487323
 20
961.5033916849
 11
945.884487323
 21
961.6533916849
  0
LINE
  5
6BB
100
AcDbEntity
  8
0
100
AcDbLine
 62
7
  6
CONTINUOUS
 10
947.010320349
 20
961.6533916849
 11
947.010320349
 21
961.5033916849
  0
LINE
  5
6BC
100
AcDbEntity
  8
0
100
AcDbLine
 62
7
  6
CONTINUOUS
 10
948.915576238
 20
961.6533916849
 11
948.915576238
 21
961.5033916849
  0
LINE
  5
6BD
100
AcDbEntity
  8
0
100
AcDbLine
 62
7
  6
CONTINUOUS
 10
951.1671923958
 20
961.6533916849
 11
951.1671923958
 21
961.5033916849
  0
LINE
  5
6BE
100
AcDbEntity
  8
0
100
AcDbLine
 62
7
  6
CONTINUOUS
 10
951.3412415327
 20
961.5033916849
 11
951.3412415327
 21
961.6533916849
  0
LINE
  5
6BF
100
AcDbEntity
  8
0
100
AcDbLine
 62
7
  6
CONTINUOUS
 10
958.490927754
 20
978.1533916849
 11
958.490927754
 21
961.6533916849
  0
LINE
  5
6C0
100
AcDbEntity
  8
0
100
AcDbLine
 62
7
  6
CONTINUOUS
 10
960.490927749
 20
961.6533916849
 11
960.490927749
 21
978.1533916849
  0
LINE
  5
6C1
100
AcDbEntity
  8
0
100
AcDbLine
 62
7
  6
CONTINUOUS
 10
938.7844872858
 20
980.6533916849
 11
938.7848206279
 21
981.1533916849
  0
LINE
  5
6C2
100
AcDbEntity
  8
0
100
AcDbLine
 62
7
  6
CONTINUOUS
 10
945.5841540209
 20
980.6533916849
 11
945.5844873629
 21
981.1533916849
  0
LINE
  5
6C3
100
AcDbEntity
  8
0
100
AcDbLine
 62
7
  6
CONTINUOUS
 10
952.784487286
 20
980.6533916849
 11
952.784820604
 21
981.1533916849
  0
LINE
  5
6C4
100
AcDbEntity
  8
0
100
AcDbLine
 62
7
  6
CONTINUOUS
 10
959.584154044
 20
980.6533916849
 11
959.5844873631
 21
981.1533916849
  0
LWPOLYLINE
  5
6C5
100
AcDbEntity
  8
0
100
AcDbPolyline
 62
7
  6
CONTINUOUS
 90
3
 70
0
 10
919.1846326032
 20
980.6533917351
 10
918.9325974245
 20
981.0142187629
 10
918.5138122252
 20
981.1533916849
  0
LWPOLYLINE
  5
6C6
100
AcDbEntity
  8
0
100
AcDbPolyline
 62
7
  6
CONTINUOUS
 90
3
 70
0
 10
933.1846326032
 20
980.6533917351
 10
932.9325974246
 20
981.0142187628
 10
932.5138122252
 20
981.1533916849
  0
LINE
  5
6C7
100
AcDbEntity
  8
0
100
AcDbLine
 62
7
  6
CONTINUOUS
 10
965.564487324
 20
978.3533916849
 11
965.564487324
 21
978.1533916849
  0
LINE
  5
6C8
100
AcDbEntity
  8
0
100
AcDbLine
 62
7
  6
CONTINUOUS
 10
966.564487324
 20
823.8033916849
 11
966.564487324
 21
778.8033916849
  0
LINE
  5
6C9
100
AcDbEntity
  8
0
100
AcDbLine
 62
7
  6
CONTINUOUS
 10
968.6344873243
 20
980.6533916849
 11
968.6344873243
 21
979.8533916849
  0
LINE
  5
6CA
100
AcDbEntity
  8
0
100
AcDbLine
 62
7
  6
CONTINUOUS
 10
970.234487324
 20
980.6533916849
 11
970.234487324
 21
979.8533916849
  0
LINE
  5
6CB
100
AcDbEntity
  8
0
100
AcDbLine
 62
7
  6
CONTINUOUS
 10
970.564487324
 20
978.3533916849
 11
970.564487324
 21
978.1533916849
  0
LINE
  5
6CC
100
AcDbEntity
  8
0
100
AcDbLine
 62
7
  6
CONTINUOUS
 10
982.564487325
 20
884.8033916859
 11
982.564487325
 21
829.3033916839
  0
LWPOLYLINE
  5
6CD
100
AcDbEntity
  8
0
100
AcDbPolyline
 62
7
  6
CONTINUOUS
 90
3
 70
0
 10
947.1846326032
 20
980.6533917351
 10
946.9325974245
 20
981.0142187629
 10
946.5138122252
 20
981.1533916849
  0
LWPOLYLINE
  5
6CE
100
AcDbEntity
  8
0
100
AcDbPolyline
 62
7
  6
CONTINUOUS
 90
3
 70
0
 10
961.1846326032
 20
980.653391735
 10
960.9325974245
 20
981.0142187629
 10
960.5138122252
 20
981.1533916849
  0
LINE
  5
6CF
100
AcDbEntity
  8
0
100
AcDbLine
 62
7
  6
CONTINUOUS
 10
1000.064487324
 20
831.3033916849
 11
1000.064487324
 21
675.3033916849
  0
LINE
  5
6D0
100
AcDbEntity
  8
0
100
AcDbLine
 62
7
  6
CONTINUOUS
 10
1000.590927753
 20
978.1533916849
 11
1000.590927753
 21
961.6533916849
  0
LINE
  5
6D1
100
AcDbEntity
  8
0
100
AcDbLine
 62
7
  6
CONTINUOUS
 10
1001.968309911
 20
903.8033916849
 11
1001.968309911
 21
822.8033916849
  0
LINE
  5
6D2
100
AcDbEntity
  8
0
100
AcDbLine
 62
7
  6
CONTINUOUS
 10
1002.5418375999
 20
903.8033916849
 11
1002.5418375999
 21
822.8033916849
  0
LINE
  5
6D3
100
AcDbEntity
  8
0
100
AcDbLine
 62
7
  6
CONTINUOUS
 10
1002.590927753
 20
978.1533916849
 11
1002.590927753
 21
961.6533916849
  0
LINE
  5
6D4
100
AcDbEntity
  8
0
100
AcDbLine
 62
7
  6
CONTINUOUS
 10
1003.1153652903
 20
988.8033917186
 11
1003.1153652892
 21
822.8033916849
  0
LINE
  5
6D5
100
AcDbEntity
  8
0
100
AcDbLine
 62
7
  6
CONTINUOUS
 10
1003.4747319501
 20
993.8033916849
 11
1003.4747319501
 21
990.7367622159
  0
LINE
  5
6D6
100
AcDbEntity
  8
0
100
AcDbLine
 62
7
  6
CONTINUOUS
 10
1007.734487324
 20
980.6533916849
 11
1007.734487324
 21
979.8533916849
  0
LINE
  5
6D7
100
AcDbEntity
  8
0
100
AcDbLine
 62
7
  6
CONTINUOUS
 10
1009.3344873237
 20
980.6533916849
 11
1009.3344873237
 21
979.8533916849
  0
LINE
  5
6D8
100
AcDbEntity
  8
0
100
AcDbLine
 62
7
  6
CONTINUOUS
 10
1010.564487324
 20
675.3033916849
 11
1010.564487324
 21
671.3033916849
  0
LINE
  5
6D9
100
AcDbEntity
  8
0
100
AcDbLine
 62
7
  6
CONTINUOUS
 10
1011.4844929247
 20
980.6533916849
 11
1011.4844929247
 21
980.4533916849
  0
LINE
  5
6DA
100
AcDbEntity
  8
0
100
AcDbLine
 62
7
  6
CONTINUOUS
 10
1012.04522088
 20
980.6533916849
 11
1012.04522088
 21
980.4533916849
  0
LINE
  5
6DB
100
AcDbEntity
  8
0
100
AcDbLine
 62
7
  6
CONTINUOUS
 10
1012.071747967
 20
980.4533916849
 11
1012.071747967
 21
980.6533916849
  0
LINE
  5
6DC
100
AcDbEntity
  8
0
100
AcDbLine
 62
7
  6
CONTINUOUS
 10
1012.072953966
 20
980.4533916849
 11
1012.072953966
 21
980.6533916849
  0
LINE
  5
6DD
100
AcDbEntity
  8
0
100
AcDbLine
 62
7
  6
CONTINUOUS
 10
1012.126180623
 20
980.4533916849
 11
1012.126180623
 21
980.6533916849
  0
LINE
  5
6DE
100
AcDbEntity
  8
0
100
AcDbLine
 62
7
  6
CONTINUOUS
 10
1012.139099732
 20
980.4533916849
 11
1012.139099732
 21
980.6533916849
  0
LINE
  5
6DF
100
AcDbEntity
  8
0
100
AcDbLine
 62
7
  6
CONTINUOUS
 10
1012.202489488
 20
980.6533916849
 11
1012.202489488
 21
980.4533916849
  0
LINE
  5
6E0
100
AcDbEntity
  8
0
100
AcDbLine
 62
7
  6
CONTINUOUS
 10
1012.2116189915
 20
980.6533916849
 11
1012.211618991
 21
980.4533916849
  0
LINE
  5
6E1
100
AcDbEntity
  8
0
100
AcDbLine
 62
7
  6
CONTINUOUS
 10
1012.253132392
 20
980.6533916849
 11
1012.253132392
 21
980.4533916849
  0
LINE
  5
6E2
100
AcDbEntity
  8
0
100
AcDbLine
 62
7
  6
CONTINUOUS
 10
1012.295334812
 20
980.6533916849
 11
1012.295334812
 21
980.4533916849
  0
LINE
  5
6E3
100
AcDbEntity
  8
0
100
AcDbLine
 62
7
  6
CONTINUOUS
 10
1012.3071167524
 20
980.6533916849
 11
1012.3071167524
 21
980.4533916849
  0
LINE
  5
6E4
100
AcDbEntity
  8
0
100
AcDbLine
 62
7
  6
CONTINUOUS
 10
1012.3116603436
 20
980.6533916849
 11
1012.3116603436
 21
980.4533916849
  0
LINE
  5
6E5
100
AcDbEntity
  8
0
100
AcDbLine
 62
7
  6
CONTINUOUS
 10
1012.349766966
 20
980.4533916849
 11
1012.349766966
 21
980.6533916849
  0
LINE
  5
6E6
100
AcDbEntity
  8
0
100
AcDbLine
 62
7
  6
CONTINUOUS
 10
1012.400410224
 20
980.4533916849
 11
1012.400410224
 21
980.6533916849
  0
LINE
  5
6E7
100
AcDbEntity
  8
0
100
AcDbLine
 62
7
  6
CONTINUOUS
 10
1012.4825757509
 20
980.4533916849
 11
1012.4825757509
 21
980.6533916849
  0
LINE
  5
6E8
100
AcDbEntity
  8
0
100
AcDbLine
 62
7
  6
CONTINUOUS
 10
1012.487915649
 20
980.4533916849
 11
1012.487915649
 21
980.6533916849
  0
LINE
  5
6E9
100
AcDbEntity
  8
0
100
AcDbLine
 62
7
  6
CONTINUOUS
 10
1012.509102987
 20
980.4533916849
 11
1012.509102987
 21
980.6533916849
  0
LINE
  5
6EA
100
AcDbEntity
  8
0
100
AcDbLine
 62
7
  6
CONTINUOUS
 10
1012.689453734
 20
980.6533916849
 11
1012.689453734
 21
980.4533916849
  0
LINE
  5
6EB
100
AcDbEntity
  8
0
100
AcDbLine
 62
7
  6
CONTINUOUS
 10
1012.7044399001
 20
980.6533916849
 11
1012.7044399001
 21
980.4533916849
  0
LINE
  5
6EC
100
AcDbEntity
  8
0
100
AcDbLine
 62
7
  6
CONTINUOUS
 10
1012.737512817
 20
980.6533916849
 11
1012.737512817
 21
980.4533916849
  0
LINE
  5
6ED
100
AcDbEntity
  8
0
100
AcDbLine
 62
7
  6
CONTINUOUS
 10
1012.749226141
 20
980.4533916849
 11
1012.749226141
 21
980.6533916849
  0
LINE
  5
6EE
100
AcDbEntity
  8
0
100
AcDbLine
 62
7
  6
CONTINUOUS
 10
1012.76223898
 20
980.4533916849
 11
1012.76223898
 21
980.6533916849
  0
LINE
  5
6EF
100
AcDbEntity
  8
0
100
AcDbLine
 62
7
  6
CONTINUOUS
 10
1012.799869046
 20
980.6533916849
 11
1012.799869046
 21
980.4533916849
  0
LINE
  5
6F0
100
AcDbEntity
  8
0
100
AcDbLine
 62
7
  6
CONTINUOUS
 10
1012.808998549
 20
980.4533916849
 11
1012.808998549
 21
980.6533916849
  0
LINE
  5
6F1
100
AcDbEntity
  8
0
100
AcDbLine
 62
7
  6
CONTINUOUS
 10
1012.866531642
 20
980.4533916849
 11
1012.866531642
 21
980.6533916849
  0
LINE
  5
6F2
100
AcDbEntity
  8
0
100
AcDbLine
 62
7
  6
CONTINUOUS
 10
1012.923031208
 20
980.6533916849
 11
1012.923031208
 21
980.4533916849
  0
LINE
  5
6F3
100
AcDbEntity
  8
0
100
AcDbLine
 62
7
  6
CONTINUOUS
 10
1012.973157348
 20
980.4533916849
 11
1012.973157348
 21
980.6533916849
  0
LINE
  5
6F4
100
AcDbEntity
  8
0
100
AcDbLine
 62
7
  6
CONTINUOUS
 10
1013.0105366333
 20
980.4533916849
 11
1013.0105366333
 21
980.6533916849
  0
LINE
  5
6F5
100
AcDbEntity
  8
0
100
AcDbLine
 62
7
  6
CONTINUOUS
 10
1013.015876967
 20
980.4533916849
 11
1013.015876967
 21
980.6533916849
  0
LINE
  5
6F6
100
AcDbEntity
  8
0
100
AcDbLine
 62
7
  6
CONTINUOUS
 10
1013.1033819575
 20
980.6533916849
 11
1013.103381958
 21
980.4533916849
  0
LINE
  5
6F7
100
AcDbEntity
  8
0
100
AcDbLine
 62
7
  6
CONTINUOUS
 10
1013.114578518
 20
980.4533916849
 11
1013.114578518
 21
980.6533916849
  0
LINE
  5
6F8
100
AcDbEntity
  8
0
100
AcDbLine
 62
7
  6
CONTINUOUS
 10
1013.158331231
 20
980.4533916849
 11
1013.158331231
 21
980.6533916849
  0
LINE
  5
6F9
100
AcDbEntity
  8
0
100
AcDbLine
 62
7
  6
CONTINUOUS
 10
1013.223981518
 20
980.4533916849
 11
1013.223981518
 21
980.6533916849
  0
LINE
  5
6FA
100
AcDbEntity
  8
0
100
AcDbLine
 62
7
  6
CONTINUOUS
 10
1013.2346400953
 20
980.6533916849
 11
1013.2346400955
 21
980.4533916849
  0
LINE
  5
6FB
100
AcDbEntity
  8
0
100
AcDbLine
 62
7
  6
CONTINUOUS
 10
1013.245319891
 20
980.4533916849
 11
1013.245319891
 21
980.6533916849
  0
LINE
  5
6FC
100
AcDbEntity
  8
0
100
AcDbLine
 62
7
  6
CONTINUOUS
 10
1013.256516452
 20
980.4533916849
 11
1013.256516452
 21
980.6533916849
  0
LINE
  5
6FD
100
AcDbEntity
  8
0
100
AcDbLine
 62
7
  6
CONTINUOUS
 10
1013.273052911
 20
980.4533916849
 11
1013.273052911
 21
980.6533916849
  0
LINE
  5
6FE
100
AcDbEntity
  8
0
100
AcDbLine
 62
7
  6
CONTINUOUS
 10
1013.2804598664
 20
980.6533916849
 11
1013.2804598664
 21
980.4533916849
  0
LINE
  5
6FF
100
AcDbEntity
  8
0
100
AcDbLine
 62
7
  6
CONTINUOUS
 10
1013.293206967
 20
980.4533916849
 11
1013.293206967
 21
980.6533916849
  0
LINE
  5
700
100
AcDbEntity
  8
0
100
AcDbLine
 62
7
  6
CONTINUOUS
 10
1013.3018194582
 20
980.6533916849
 11
1013.3018194582
 21
980.4533916849
  0
LINE
  5
701
100
AcDbEntity
  8
0
100
AcDbLine
 62
7
  6
CONTINUOUS
 10
1013.348672757
 20
980.4533916849
 11
1013.348672757
 21
980.6533916849
  0
LINE
  5
702
100
AcDbEntity
  8
0
100
AcDbLine
 62
7
  6
CONTINUOUS
 10
1013.41481859
 20
980.4533916849
 11
1013.41481859
 21
980.6533916849
  0
LINE
  5
703
100
AcDbEntity
  8
0
100
AcDbLine
 62
7
  6
CONTINUOUS
 10
1013.485270792
 20
980.6533916849
 11
1013.485270792
 21
980.4533916849
  0
LINE
  5
704
100
AcDbEntity
  8
0
100
AcDbLine
 62
7
  6
CONTINUOUS
 10
1013.5124341184
 20
980.4533916849
 11
1013.5124341184
 21
980.6533916849
  0
LINE
  5
705
100
AcDbEntity
  8
0
100
AcDbLine
 62
7
  6
CONTINUOUS
 10
1013.5158366345
 20
980.4533916849
 11
1013.5158366345
 21
980.6533916849
  0
LINE
  5
706
100
AcDbEntity
  8
0
100
AcDbLine
 62
7
  6
CONTINUOUS
 10
1013.5707091596
 20
980.4533916849
 11
1013.5707091596
 21
980.6533916849
  0
LINE
  5
707
100
AcDbEntity
  8
0
100
AcDbLine
 62
7
  6
CONTINUOUS
 10
1013.608432956
 20
980.4533916849
 11
1013.608432956
 21
980.6533916849
  0
LINE
  5
708
100
AcDbEntity
  8
0
100
AcDbLine
 62
7
  6
CONTINUOUS
 10
1013.627208727
 20
980.4533916849
 11
1013.627208727
 21
980.6533916849
  0
LINE
  5
709
100
AcDbEntity
  8
0
100
AcDbLine
 62
7
  6
CONTINUOUS
 10
1013.750966253
 20
980.6533916849
 11
1013.750966253
 21
980.4533916849
  0
LINE
  5
70A
100
AcDbEntity
  8
0
100
AcDbLine
 62
7
  6
CONTINUOUS
 10
1013.7775871441
 20
980.4533916849
 11
1013.777587144
 21
980.6533916849
  0
LINE
  5
70B
100
AcDbEntity
  8
0
100
AcDbLine
 62
7
  6
CONTINUOUS
 10
1013.813243883
 20
980.6533916849
 11
1013.813243883
 21
980.4533916849
  0
LINE
  5
70C
100
AcDbEntity
  8
0
100
AcDbLine
 62
7
  6
CONTINUOUS
 10
1013.8778394229
 20
980.6533916849
 11
1013.8778394229
 21
980.4533916849
  0
LINE
  5
70D
100
AcDbEntity
  8
0
100
AcDbLine
 62
7
  6
CONTINUOUS
 10
1013.878872952
 20
980.4533916849
 11
1013.878872952
 21
980.6533916849
  0
LINE
  5
70E
100
AcDbEntity
  8
0
100
AcDbLine
 62
7
  6
CONTINUOUS
 10
1013.939161967
 20
980.4533916849
 11
1013.939161967
 21
980.6533916849
  0
LINE
  5
70F
100
AcDbEntity
  8
0
100
AcDbLine
 62
7
  6
CONTINUOUS
 10
1014.056959325
 20
980.4533916849
 11
1014.056959325
 21
980.6533916849
  0
LINE
  5
710
100
AcDbEntity
  8
0
100
AcDbLine
 62
7
  6
CONTINUOUS
 10
1014.215975967
 20
980.4533916849
 11
1014.215975967
 21
980.6533916849
  0
LINE
  5
711
100
AcDbEntity
  8
0
100
AcDbLine
 62
7
  6
CONTINUOUS
 10
1014.280571085
 20
980.6533916849
 11
1014.280571085
 21
980.4533916849
  0
LINE
  5
712
100
AcDbEntity
  8
0
100
AcDbLine
 62
7
  6
CONTINUOUS
 10
1014.327079874
 20
980.6533916849
 11
1014.327079874
 21
980.4533916849
  0
LINE
  5
713
100
AcDbEntity
  8
0
100
AcDbLine
 62
7
  6
CONTINUOUS
 10
1014.602170749
 20
980.6533916849
 11
1014.602170749
 21
980.4533916849
  0
LINE
  5
714
100
AcDbEntity
  8
0
100
AcDbLine
 62
7
  6
CONTINUOUS
 10
1014.60297464
 20
980.6533916849
 11
1014.60297464
 21
980.4533916849
  0
LINE
  5
715
100
AcDbEntity
  8
0
100
AcDbLine
 62
7
  6
CONTINUOUS
 10
1014.606427934
 20
980.4533916849
 11
1014.606427934
 21
980.6533916849
  0
LINE
  5
716
100
AcDbEntity
  8
0
100
AcDbLine
 62
7
  6
CONTINUOUS
 10
1014.647990967
 20
980.4533916849
 11
1014.647990967
 21
980.6533916849
  0
LINE
  5
717
100
AcDbEntity
  8
0
100
AcDbLine
 62
7
  6
CONTINUOUS
 10
1014.649196303
 20
980.4533916849
 11
1014.649196303
 21
980.6533916849
  0
LINE
  5
718
100
AcDbEntity
  8
0
100
AcDbLine
 62
7
  6
CONTINUOUS
 10
1014.651780124
 20
980.6533916849
 11
1014.6517801239
 21
980.4533916849
  0
LINE
  5
719
100
AcDbEntity
  8
0
100
AcDbLine
 62
7
  6
CONTINUOUS
 10
1014.6545362
 20
980.4533916849
 11
1014.6545362
 21
980.6533916849
  0
LINE
  5
71A
100
AcDbEntity
  8
0
100
AcDbLine
 62
7
  6
CONTINUOUS
 10
1014.655569729
 20
980.6533916849
 11
1014.655569729
 21
980.4533916849
  0
LINE
  5
71B
100
AcDbEntity
  8
0
100
AcDbLine
 62
7
  6
CONTINUOUS
 10
1014.683310726
 20
980.6533916849
 11
1014.683310726
 21
980.4533916849
  0
LINE
  5
71C
100
AcDbEntity
  8
0
100
AcDbLine
 62
7
  6
CONTINUOUS
 10
1014.770808173
 20
980.4533916849
 11
1014.770808173
 21
980.6533916849
  0
LINE
  5
71D
100
AcDbEntity
  8
0
100
AcDbLine
 62
7
  6
CONTINUOUS
 10
1014.8497008599
 20
980.6533916849
 11
1014.8497008599
 21
980.4533916849
  0
LINE
  5
71E
100
AcDbEntity
  8
0
100
AcDbLine
 62
7
  6
CONTINUOUS
 10
1014.933933444
 20
980.6533916849
 11
1014.933933444
 21
980.4533916849
  0
LINE
  5
71F
100
AcDbEntity
  8
0
100
AcDbLine
 62
7
  6
CONTINUOUS
 10
1014.958565878
 20
980.4533916849
 11
1014.958565878
 21
980.6533916849
  0
LINE
  5
720
100
AcDbEntity
  8
0
100
AcDbLine
 62
7
  6
CONTINUOUS
 10
1015.0450516695
 20
980.4533916849
 11
1015.0450516695
 21
980.6533916849
  0
LINE
  5
721
100
AcDbEntity
  8
0
100
AcDbLine
 62
7
  6
CONTINUOUS
 10
1015.0665735707
 20
980.6533916849
 11
1015.0665735707
 21
980.4533916849
  0
LINE
  5
722
100
AcDbEntity
  8
0
100
AcDbLine
 62
7
  6
CONTINUOUS
 10
1015.090168525
 20
980.4533916849
 11
1015.0901685246
 21
980.6533916849
  0
LINE
  5
723
100
AcDbEntity
  8
0
100
AcDbLine
 62
7
  6
CONTINUOUS
 10
1015.1228401588
 20
980.6533916849
 11
1015.1228401588
 21
980.4533916849
  0
LINE
  5
724
100
AcDbEntity
  8
0
100
AcDbLine
 62
7
  6
CONTINUOUS
 10
1015.161137491
 20
980.6533916849
 11
1015.161137491
 21
980.4533916849
  0
LINE
  5
725
100
AcDbEntity
  8
0
100
AcDbLine
 62
7
  6
CONTINUOUS
 10
1015.192143351
 20
980.4533916849
 11
1015.192143351
 21
980.6533916849
  0
LINE
  5
726
100
AcDbEntity
  8
0
100
AcDbLine
 62
7
  6
CONTINUOUS
 10
1015.277409464
 20
980.6533916849
 11
1015.277409464
 21
980.4533916849
  0
LINE
  5
727
100
AcDbEntity
  8
0
100
AcDbLine
 62
7
  6
CONTINUOUS
 10
1015.329774916
 20
980.4533916849
 11
1015.329774916
 21
980.6533916849
  0
LINE
  5
728
100
AcDbEntity
  8
0
100
AcDbLine
 62
7
  6
CONTINUOUS
 10
1015.334081285
 20
980.4533916849
 11
1015.334081285
 21
980.6533916849
  0
LINE
  5
729
100
AcDbEntity
  8
0
100
AcDbLine
 62
7
  6
CONTINUOUS
 10
1015.420380928
 20
980.4533916849
 11
1015.420380928
 21
980.6533916849
  0
LINE
  5
72A
100
AcDbEntity
  8
0
100
AcDbLine
 62
7
  6
CONTINUOUS
 10
1015.44070699
 20
980.4533916849
 11
1015.44070699
 21
980.6533916849
  0
LINE
  5
72B
100
AcDbEntity
  8
0
100
AcDbLine
 62
7
  6
CONTINUOUS
 10
1015.447080417
 20
980.4533916849
 11
1015.447080417
 21
980.6533916849
  0
LINE
  5
72C
100
AcDbEntity
  8
0
100
AcDbLine
 62
7
  6
CONTINUOUS
 10
1015.616751369
 20
980.4533916849
 11
1015.616751369
 21
980.6533916849
  0
LINE
  5
72D
100
AcDbEntity
  8
0
100
AcDbLine
 62
7
  6
CONTINUOUS
 10
1015.726649915
 20
980.4533916849
 11
1015.726649915
 21
980.6533916849
  0
LINE
  5
72E
100
AcDbEntity
  8
0
100
AcDbLine
 62
7
  6
CONTINUOUS
 10
1015.751110094
 20
980.6533916849
 11
1015.751110094
 21
980.4533916849
  0
LINE
  5
72F
100
AcDbEntity
  8
0
100
AcDbLine
 62
7
  6
CONTINUOUS
 10
1015.7607563609
 20
980.6533916849
 11
1015.76075636
 21
980.4533916849
  0
LINE
  5
730
100
AcDbEntity
  8
0
100
AcDbLine
 62
7
  6
CONTINUOUS
 10
1015.881334703
 20
980.4533916849
 11
1015.881334703
 21
980.6533916849
  0
LINE
  5
731
100
AcDbEntity
  8
0
100
AcDbLine
 62
7
  6
CONTINUOUS
 10
1016.067542113
 20
980.6533916849
 11
1016.067542113
 21
980.4533916849
  0
LINE
  5
732
100
AcDbEntity
  8
0
100
AcDbLine
 62
7
  6
CONTINUOUS
 10
1016.168138901
 20
980.6533916849
 11
1016.168138901
 21
980.4533916849
  0
LINE
  5
733
100
AcDbEntity
  8
0
100
AcDbLine
 62
7
  6
CONTINUOUS
 10
1016.173651054
 20
980.6533916849
 11
1016.173651054
 21
980.4533916849
  0
LINE
  5
734
100
AcDbEntity
  8
0
100
AcDbLine
 62
7
  6
CONTINUOUS
 10
1016.232734443
 20
980.4533916849
 11
1016.232734443
 21
980.6533916849
  0
LINE
  5
735
100
AcDbEntity
  8
0
100
AcDbLine
 62
7
  6
CONTINUOUS
 10
1016.234284736
 20
980.4533916849
 11
1016.234284736
 21
980.6533916849
  0
LINE
  5
736
100
AcDbEntity
  8
0
100
AcDbLine
 62
7
  6
CONTINUOUS
 10
1016.254094035
 20
980.4533916849
 11
1016.254094035
 21
980.6533916849
  0
LINE
  5
737
100
AcDbEntity
  8
0
100
AcDbLine
 62
7
  6
CONTINUOUS
 10
1016.270630493
 20
980.6533916849
 11
1016.270630493
 21
980.4533916849
  0
LINE
  5
738
100
AcDbEntity
  8
0
100
AcDbLine
 62
7
  6
CONTINUOUS
 10
1016.4275545921
 20
980.4533916849
 11
1016.4275545921
 21
980.6533916849
  0
LINE
  5
739
100
AcDbEntity
  8
0
100
AcDbLine
 62
7
  6
CONTINUOUS
 10
1016.443402031
 20
980.4533916849
 11
1016.443402031
 21
980.6533916849
  0
LINE
  5
73A
100
AcDbEntity
  8
0
100
AcDbLine
 62
7
  6
CONTINUOUS
 10
1016.4539123414
 20
980.4533916849
 11
1016.4539123414
 21
980.6533916849
  0
LINE
  5
73B
100
AcDbEntity
  8
0
100
AcDbLine
 62
7
  6
CONTINUOUS
 10
1016.519194131
 20
980.6533916849
 11
1016.519194131
 21
980.4533916849
  0
LINE
  5
73C
100
AcDbEntity
  8
0
100
AcDbLine
 62
7
  6
CONTINUOUS
 10
1016.612039456
 20
980.4533916849
 11
1016.612039456
 21
980.6533916849
  0
LINE
  5
73D
100
AcDbEntity
  8
0
100
AcDbLine
 62
7
  6
CONTINUOUS
 10
1016.613072984
 20
980.4533916849
 11
1016.613072984
 21
980.6533916849
  0
LINE
  5
73E
100
AcDbEntity
  8
0
100
AcDbLine
 62
7
  6
CONTINUOUS
 10
1016.66526618
 20
980.4533916849
 11
1016.66526618
 21
980.6533916849
  0
LINE
  5
73F
100
AcDbEntity
  8
0
100
AcDbLine
 62
7
  6
CONTINUOUS
 10
1016.6661068289
 20
980.4533916849
 11
1016.6661068289
 21
980.6533916849
  0
LINE
  5
740
100
AcDbEntity
  8
0
100
AcDbLine
 62
7
  6
CONTINUOUS
 10
1016.7224047371
 20
980.4533916849
 11
1016.7224047371
 21
980.6533916849
  0
LINE
  5
741
100
AcDbEntity
  8
0
100
AcDbLine
 62
7
  6
CONTINUOUS
 10
1016.769824829
 20
980.4533916849
 11
1016.769824829
 21
980.6533916849
  0
LINE
  5
742
100
AcDbEntity
  8
0
100
AcDbLine
 62
7
  6
CONTINUOUS
 10
1016.783777465
 20
980.4533916849
 11
1016.783777465
 21
980.6533916849
  0
LINE
  5
743
100
AcDbEntity
  8
0
100
AcDbLine
 62
7
  6
CONTINUOUS
 10
1016.961888903
 20
980.4533916849
 11
1016.961888903
 21
980.6533916849
  0
LINE
  5
744
100
AcDbEntity
  8
0
100
AcDbLine
 62
7
  6
CONTINUOUS
 10
1017.025967678
 20
980.4533916849
 11
1017.025967678
 21
980.6533916849
  0
LINE
  5
745
100
AcDbEntity
  8
0
100
AcDbLine
 62
7
  6
CONTINUOUS
 10
1017.031307576
 20
980.4533916849
 11
1017.031307576
 21
980.6533916849
  0
LINE
  5
746
100
AcDbEntity
  8
0
100
AcDbLine
 62
7
  6
CONTINUOUS
 10
1017.140688966
 20
980.4533916849
 11
1017.140688966
 21
980.6533916849
  0
LINE
  5
747
100
AcDbEntity
  8
0
100
AcDbLine
 62
7
  6
CONTINUOUS
 10
1017.1432731788
 20
980.4533916849
 11
1017.143273179
 21
980.6533916849
  0
LINE
  5
748
100
AcDbEntity
  8
0
100
AcDbLine
 62
7
  6
CONTINUOUS
 10
1017.187025892
 20
980.4533916849
 11
1017.187025892
 21
980.6533916849
  0
LINE
  5
749
100
AcDbEntity
  8
0
100
AcDbLine
 62
7
  6
CONTINUOUS
 10
1017.1885614004
 20
980.4533916849
 11
1017.1885614004
 21
980.6533916849
  0
LINE
  5
74A
100
AcDbEntity
  8
0
100
AcDbLine
 62
7
  6
CONTINUOUS
 10
1017.31828403
 20
980.4533916849
 11
1017.31828403
 21
980.6533916849
  0
LINE
  5
74B
100
AcDbEntity
  8
0
100
AcDbLine
 62
7
  6
CONTINUOUS
 10
1017.37202752
 20
980.4533916849
 11
1017.37202752
 21
980.6533916849
  0
LINE
  5
74C
100
AcDbEntity
  8
0
100
AcDbLine
 62
7
  6
CONTINUOUS
 10
1017.5054942487
 20
980.6533916849
 11
1017.5054942487
 21
980.4533916849
  0
LINE
  5
74D
100
AcDbEntity
  8
0
100
AcDbLine
 62
7
  6
CONTINUOUS
 10
1017.701206394
 20
980.4533916849
 11
1017.701206394
 21
980.6533916849
  0
LINE
  5
74E
100
AcDbEntity
  8
0
100
AcDbLine
 62
7
  6
CONTINUOUS
 10
1018.089468654
 20
980.4533916849
 11
1018.089468654
 21
980.6533916849
  0
LINE
  5
74F
100
AcDbEntity
  8
0
100
AcDbLine
 62
7
  6
CONTINUOUS
 10
1018.330108575
 20
980.4533916849
 11
1018.330108575
 21
980.6533916849
  0
LINE
  5
750
100
AcDbEntity
  8
0
100
AcDbLine
 62
7
  6
CONTINUOUS
 10
1018.3691998133
 20
980.4533916849
 11
1018.3691998133
 21
980.6533916849
  0
LINE
  5
751
100
AcDbEntity
  8
0
100
AcDbLine
 62
7
  6
CONTINUOUS
 10
1018.3768305334
 20
980.4533916849
 11
1018.3768305334
 21
980.6533916849
  0
LINE
  5
752
100
AcDbEntity
  8
0
100
AcDbLine
 62
7
  6
CONTINUOUS
 10
1018.684487323
 20
981.1533916849
 11
1018.684487323
 21
980.6533916849
  0
LINE
  5
753
100
AcDbEntity
  8
0
100
AcDbLine
 62
7
  6
CONTINUOUS
 10
1018.701316108
 20
981.1533916849
 11
1018.7013161075
 21
961.6533916849
  0
LINE
  5
754
100
AcDbEntity
  8
0
100
AcDbLine
 62
7
  6
CONTINUOUS
 10
1019.564487324
 20
963.1533916849
 11
1019.564487324
 21
978.1533916849
  0
LINE
  5
755
100
AcDbEntity
  8
0
100
AcDbLine
 62
7
  6
CONTINUOUS
 10
1022.540927775
 20
978.1533916849
 11
1022.540927775
 21
961.6533916849
  0
LINE
  5
756
100
AcDbEntity
  8
0
100
AcDbLine
 62
7
  6
CONTINUOUS
 10
1022.7844185796
 20
981.1533916849
 11
1022.7844185796
 21
980.6533916849
  0
LINE
  5
757
100
AcDbEntity
  8
0
100
AcDbLine
 62
7
  6
CONTINUOUS
 10
1023.564487324
 20
694.3033916849
 11
1023.564487324
 21
673.3033916849
  0
LINE
  5
758
100
AcDbEntity
  8
0
100
AcDbLine
 62
7
  6
CONTINUOUS
 10
1025.471951901
 20
981.1533916849
 11
1025.4719519006
 21
961.6533916849
  0
LINE
  5
759
100
AcDbEntity
  8
0
100
AcDbLine
 62
7
  6
CONTINUOUS
 10
1027.540927754
 20
978.1533916849
 11
1027.540927754
 21
961.6533916849
  0
LINE
  5
75A
100
AcDbEntity
  8
0
100
AcDbLine
 62
7
  6
CONTINUOUS
 10
1028.849731948
 20
978.1533916849
 11
1028.849731948
 21
831.3033916849
  0
LINE
  5
75B
100
AcDbEntity
  8
0
100
AcDbLine
 62
7
  6
CONTINUOUS
 10
1029.0455067339
 20
993.8033916849
 11
1029.0455067339
 21
978.1533916849
  0
LINE
  5
75C
100
AcDbEntity
  8
0
100
AcDbLine
 62
7
  6
CONTINUOUS
 10
1029.0455067339
 20
831.3033916849
 11
1029.0455067339
 21
822.8033916849
  0
LINE
  5
75D
100
AcDbEntity
  8
0
100
AcDbLine
 62
7
  6
CONTINUOUS
 10
1029.4947728738
 20
675.3033916849
 11
1029.4947728738
 21
671.3033916849
  0
LINE
  5
75E
100
AcDbEntity
  8
0
100
AcDbLine
 62
7
  6
CONTINUOUS
 10
1029.5644873238
 20
978.1533916849
 11
1029.5644873238
 21
831.3033916849
  0
LINE
  5
75F
100
AcDbEntity
  8
0
100
AcDbLine
 62
7
  6
CONTINUOUS
 10
1029.5674909681
 20
993.8033916849
 11
1029.5674909681
 21
822.8033916849
  0
LINE
  5
760
100
AcDbEntity
  8
0
100
AcDbLine
 62
7
  6
CONTINUOUS
 10
1029.5705853484
 20
993.8033916849
 11
1029.5705853484
 21
822.8033916849
  0
LINE
  5
761
100
AcDbEntity
  8
0
100
AcDbLine
 62
7
  6
CONTINUOUS
 10
1029.5791014179
 20
993.8033916849
 11
1029.5791014179
 21
822.8033916849
  0
LINE
  5
762
100
AcDbEntity
  8
0
100
AcDbLine
 62
7
  6
CONTINUOUS
 10
1029.6190344235
 20
993.8033916849
 11
1029.6190344235
 21
822.8033916849
  0
LINE
  5
763
100
AcDbEntity
  8
0
100
AcDbLine
 62
7
  6
CONTINUOUS
 10
1029.9704318553
 20
993.8033916849
 11
1029.9704318553
 21
822.8033916849
  0
LINE
  5
764
100
AcDbEntity
  8
0
100
AcDbLine
 62
7
  6
CONTINUOUS
 10
1029.971979045
 20
993.8033916849
 11
1029.971979045
 21
822.8033916849
  0
LINE
  5
765
100
AcDbEntity
  8
0
100
AcDbLine
 62
7
  6
CONTINUOUS
 10
1030.9495726127
 20
993.8033916849
 11
1030.9495726127
 21
822.8033916849
  0
LINE
  5
766
100
AcDbEntity
  8
0
100
AcDbLine
 62
7
  6
CONTINUOUS
 10
1031.0674909689
 20
993.8033916849
 11
1031.0674909689
 21
822.8033916849
  0
LINE
  5
767
100
AcDbEntity
  8
0
100
AcDbLine
 62
7
  6
CONTINUOUS
 10
1031.0690381591
 20
993.8033916849
 11
1031.0690381591
 21
822.8033916849
  0
LINE
  5
768
100
AcDbEntity
  8
0
100
AcDbLine
 62
7
  6
CONTINUOUS
 10
1031.0732961939
 20
993.8033916849
 11
1031.0732961939
 21
822.8033916849
  0
LINE
  5
769
100
AcDbEntity
  8
0
100
AcDbLine
 62
7
  6
CONTINUOUS
 10
1031.4688846656
 20
993.8033916849
 11
1031.4688846656
 21
822.8033916849
  0
LINE
  5
76A
100
AcDbEntity
  8
0
100
AcDbLine
 62
7
  6
CONTINUOUS
 10
1031.4719790456
 20
993.8033916849
 11
1031.4719790456
 21
822.8033916849
  0
LINE
  5
76B
100
AcDbEntity
  8
0
100
AcDbLine
 62
7
  6
CONTINUOUS
 10
1032.4437673869
 20
993.8033916849
 11
1032.4437673869
 21
822.8033916849
  0
LINE
  5
76C
100
AcDbEntity
  8
0
100
AcDbLine
 62
7
  6
CONTINUOUS
 10
1033.9379621625
 20
993.8033916849
 11
1033.9379621625
 21
822.8033916849
  0
LINE
  5
76D
100
AcDbEntity
  8
0
100
AcDbLine
 62
7
  6
CONTINUOUS
 10
1035.564487324
 20
675.3033916849
 11
1035.564487324
 21
671.3033916849
  0
LINE
  5
76E
100
AcDbEntity
  8
0
100
AcDbLine
 62
7
  6
CONTINUOUS
 10
1040.064487324
 20
675.3033916849
 11
1040.064487324
 21
671.3033916849
  0
LINE
  5
76F
100
AcDbEntity
  8
0
100
AcDbLine
 62
7
  6
CONTINUOUS
 10
1043.564487324
 20
831.3033916849
 11
1043.564487324
 21
694.3033916849
  0
LINE
  5
770
100
AcDbEntity
  8
0
100
AcDbLine
 62
7
  6
CONTINUOUS
 10
1045.564487324
 20
686.3033916849
 11
1045.564487324
 21
671.3033916849
  0
LINE
  5
771
100
AcDbEntity
  8
0
100
AcDbLine
 62
7
  6
CONTINUOUS
 10
1045.564487324
 20
831.3033916849
 11
1045.564487324
 21
833.3033916849
  0
LINE
  5
772
100
AcDbEntity
  8
0
100
AcDbLine
 62
7
  6
CONTINUOUS
 10
1059.626980473
 20
993.8033916849
 11
1059.626980473
 21
822.8033916849
  0
LINE
  5
773
100
AcDbEntity
  8
0
100
AcDbLine
 62
7
  6
CONTINUOUS
 10
1061.1266481725
 20
993.8033916849
 11
1061.1266481725
 21
822.8033916849
  0
LINE
  5
774
100
AcDbEntity
  8
0
100
AcDbLine
 62
7
  6
CONTINUOUS
 10
1062.6263158735
 20
993.8033916849
 11
1062.6263158735
 21
822.8033916849
  0
LINE
  5
775
100
AcDbEntity
  8
0
100
AcDbLine
 62
7
  6
CONTINUOUS
 10
1063.064487324
 20
822.8033916849
 11
1063.064487324
 21
993.8033916849
  0
LINE
  5
776
100
AcDbEntity
  8
0
100
AcDbLine
 62
7
  6
CONTINUOUS
 10
1064.564487324
 20
822.8033916849
 11
1064.564487324
 21
993.8033916849
  0
CIRCLE
  5
777
100
AcDbEntity
  8
0
100
AcDbCircle
 62
7
  6
CONTINUOUS
 10
297.564487324
 20
806.3033916849
 40
11.5
  0
ARC
  5
778
100
AcDbEntity
  8
0
100
AcDbCircle
 62
7
  6
CONTINUOUS
 10
266.564487324
 20
814.3033916849
 40
10.0
100
AcDbArc
 50
180.0
 51
270.0
  0
ARC
  5
779
100
AcDbEntity
  8
0
100
AcDbCircle
 62
7
  6
CONTINUOUS
 10
307.5644873238
 20
764.3033916847
 40
9.9999999998
100
AcDbArc
 50
179.9999999989
 51
269.9999999995
  0
CIRCLE
  5
77A
100
AcDbEntity
  8
0
100
AcDbCircle
 62
7
  6
CONTINUOUS
 10
591.564487324
 20
843.3033916849
 40
4.0
  0
CIRCLE
  5
77B
100
AcDbEntity
  8
0
100
AcDbCircle
 62
7
  6
CONTINUOUS
 10
407.564487324
 20
843.3033916849
 40
4.0
  0
ARC
  5
77C
100
AcDbEntity
  8
0
100
AcDbCircle
 62
7
  6
CONTINUOUS
 10
357.864487324
 20
841.3033916849
 40
3.0
100
AcDbArc
 50
90.0
 51
180.0
  0
ARC
  5
77D
100
AcDbEntity
  8
0
100
AcDbCircle
 62
7
  6
CONTINUOUS
 10
357.314487324
 20
845.3033916849
 40
1.0
100
AcDbArc
 50
180.0
 51
270.0
  0
ARC
  5
77E
100
AcDbEntity
  8
0
100
AcDbCircle
 62
7
  6
CONTINUOUS
 10
363.0350834365
 20
882.0033916849
 40
5.0
100
AcDbArc
 50
90.0000000023
 51
176.9999999952
  0
ARC
  5
77F
100
AcDbEntity
  8
0
100
AcDbCircle
 62
7
  6
CONTINUOUS
 10
368.1144896283
 20
897.3033939889
 40
1.0000023043
100
AcDbArc
 50
180.0001320723
 51
269.9999999297
  0
ARC
  5
780
100
AcDbEntity
  8
0
100
AcDbCircle
 62
7
  6
CONTINUOUS
 10
368.614487324
 20
896.8033916849
 40
0.5
100
AcDbArc
 50
270.0
 51
360.0
  0
ARC
  5
781
100
AcDbEntity
  8
0
100
AcDbCircle
 62
7
  6
CONTINUOUS
 10
368.114487324
 20
911.6033916849
 40
1.0
100
AcDbArc
 50
89.9999999996
 51
180.0
  0
ARC
  5
782
100
AcDbEntity
  8
0
100
AcDbCircle
 62
7
  6
CONTINUOUS
 10
405.8655227573
 20
913.6033916849
 40
1.0
100
AcDbArc
 50
270.0
 51
357.0
  0
ARC
  5
783
100
AcDbEntity
  8
0
100
AcDbCircle
 62
7
  6
CONTINUOUS
 10
429.089981545
 20
917.6033916849
 40
5.0
100
AcDbArc
 50
270.0000000057
 51
310.000000006
  0
ARC
  5
784
100
AcDbEntity
  8
0
100
AcDbCircle
 62
7
  6
CONTINUOUS
 10
450.844338495
 20
922.8033916849
 40
5.0
100
AcDbArc
 50
90.0
 51
129.9999999906
  0
ARC
  5
785
100
AcDbEntity
  8
0
100
AcDbCircle
 62
7
  6
CONTINUOUS
 10
413.393582432
 20
942.6033916849
 40
5.0
100
AcDbArc
 50
90.0
 51
176.9999999546
  0
ARC
  5
786
100
AcDbEntity
  8
0
100
AcDbCircle
 62
7
  6
CONTINUOUS
 10
320.0644873243
 20
976.1533916849
 40
2.0
100
AcDbArc
 50
0.0000000469
 51
90.0000000086
  0
ARC
  5
787
100
AcDbEntity
  8
0
100
AcDbCircle
 62
7
  6
CONTINUOUS
 10
324.564487324
 20
937.1533916849
 40
2.0
100
AcDbArc
 50
180.0
 51
270.0
  0
ARC
  5
788
100
AcDbEntity
  8
0
100
AcDbCircle
 62
7
  6
CONTINUOUS
 10
324.564487324
 20
976.1533916849
 40
2.0
100
AcDbArc
 50
90.0
 51
165.5224878141
  0
ARC
  5
789
100
AcDbEntity
  8
0
100
AcDbCircle
 62
7
  6
CONTINUOUS
 10
418.810656092
 20
948.6044422389
 40
1.0038317821
100
AcDbArc
 50
349.7563865965
 51
359.9400365183
  0
ARC
  5
78A
100
AcDbEntity
  8
0
100
AcDbCircle
 62
7
  6
CONTINUOUS
 10
320.0644873227
 20
976.1533916839
 40
0.5000000016
100
AcDbArc
 50
0.0000001192
 51
89.999999851
  0
ARC
  5
78B
100
AcDbEntity
  8
0
100
AcDbCircle
 62
7
  6
CONTINUOUS
 10
324.564487324
 20
976.1533916849
 40
0.5
100
AcDbArc
 50
90.0
 51
180.0
  0
ARC
  5
78C
100
AcDbEntity
  8
0
100
AcDbCircle
 62
7
  6
CONTINUOUS
 10
324.564487324
 20
937.1533916849
 40
0.5
100
AcDbArc
 50
180.0
 51
270.0
  0
ARC
  5
78D
100
AcDbEntity
  8
0
100
AcDbCircle
 62
7
  6
CONTINUOUS
 10
418.114487324
 20
957.4033916849
 40
0.5
100
AcDbArc
 50
180.0000001146
 51
270.0
  0
ARC
  5
78E
100
AcDbEntity
  8
0
100
AcDbCircle
 62
7
  6
CONTINUOUS
 10
419.114487324
 20
957.4033916849
 40
0.5
100
AcDbArc
 50
270.0
 51
360.0
  0
ARC
  5
78F
100
AcDbEntity
  8
0
100
AcDbCircle
 62
7
  6
CONTINUOUS
 10
672.44316698
 20
930.5533916849
 40
1.5
100
AcDbArc
 50
44.9999999134
 51
90.0
  0
ARC
  5
790
100
AcDbEntity
  8
0
100
AcDbCircle
 62
7
  6
CONTINUOUS
 10
714.9109586265
 20
980.5869788271
 40
244.6735380499
100
AcDbArc
 50
0.0155520558
 51
0.1326383534
  0
ARC
  5
791
100
AcDbEntity
  8
0
100
AcDbCircle
 62
7
  6
CONTINUOUS
 10
700.9161827968
 20
980.5869792217
 40
244.6683138797
100
AcDbArc
 50
0.0155522954
 51
0.1326410931
  0
ARC
  5
792
100
AcDbEntity
  8
0
100
AcDbCircle
 62
7
  6
CONTINUOUS
 10
714.9161828194
 20
980.5869792217
 40
244.6683138571
100
AcDbArc
 50
0.0155522954
 51
0.1326410931
  0
ARC
  5
793
100
AcDbEntity
  8
0
100
AcDbCircle
 62
7
  6
CONTINUOUS
 10
672.9161832169
 20
980.5869792222
 40
244.6683134596
100
AcDbArc
 50
0.0155522953
 51
0.1326410932
  0
ARC
  5
794
100
AcDbEntity
  8
0
100
AcDbCircle
 62
7
  6
CONTINUOUS
 10
686.9161832188
 20
980.5869792223
 40
244.6683134576
100
AcDbArc
 50
0.0155522953
 51
0.1326410932
  0
CIRCLE
  5
795
100
AcDbEntity
  8
0
100
AcDbCircle
 62
7
  6
CONTINUOUS
 10
775.564487324
 20
843.3033916849
 40
4.0
  0
ARC
  5
796
100
AcDbEntity
  8
0
100
AcDbCircle
 62
7
  6
CONTINUOUS
 10
1011.064487324
 20
801.3033916849
 40
22.5
100
AcDbArc
 50
270.0
 51
90.0
  0
CIRCLE
  5
797
100
AcDbEntity
  8
0
100
AcDbCircle
 62
7
  6
CONTINUOUS
 10
1013.564487324
 20
801.3033916849
 40
11.5
  0
CIRCLE
  5
798
100
AcDbEntity
  8
0
100
AcDbCircle
 62
7
  6
CONTINUOUS
 10
978.564487324
 20
791.3033916849
 40
5.25
  0
CIRCLE
  5
799
100
AcDbEntity
  8
0
100
AcDbCircle
 62
7
  6
CONTINUOUS
 10
978.564487324
 20
811.3033916849
 40
5.25
  0
CIRCLE
  5
79A
100
AcDbEntity
  8
0
100
AcDbCircle
 62
7
  6
CONTINUOUS
 10
967.564487324
 20
843.3033916849
 40
4.0
  0
ARC
  5
79B
100
AcDbEntity
  8
0
100
AcDbCircle
 62
7
  6
CONTINUOUS
 10
858.964487324
 20
962.0112560609
 40
10.0
100
AcDbArc
 50
134.9999999825
 51
180.0
  0
ARC
  5
79C
100
AcDbEntity
  8
0
100
AcDbCircle
 62
7
  6
CONTINUOUS
 10
859.606622948
 20
962.6533916849
 40
10.0
100
AcDbArc
 50
90.0
 51
135.0000000094
  0
ARC
  5
79D
100
AcDbEntity
  8
0
100
AcDbCircle
 62
7
  6
CONTINUOUS
 10
872.332619564
 20
968.1345484099
 40
2.0000044709
100
AcDbArc
 50
90.0000530527
 51
134.9999469265
  0
ARC
  5
79E
100
AcDbEntity
  8
0
100
AcDbCircle
 62
7
  6
CONTINUOUS
 10
866.1858139734
 20
964.8161762614
 40
0.599999997
100
AcDbArc
 50
314.9999997383
 51
45.0000002617
  0
ARC
  5
79F
100
AcDbEntity
  8
0
100
AcDbCircle
 62
7
  6
CONTINUOUS
 10
861.2178260136
 20
970.3498496403
 40
0.200000001
100
AcDbArc
 50
45.0000002456
 51
132.499999385
  0
ARC
  5
7A0
100
AcDbEntity
  8
0
100
AcDbCircle
 62
7
  6
CONTINUOUS
 10
856.689369898
 20
966.9587098073
 40
0.2000000008
100
AcDbArc
 50
45.0000003218
 51
135.0000000833
  0
ARC
  5
7A1
100
AcDbEntity
  8
0
100
AcDbCircle
 62
7
  6
CONTINUOUS
 10
860.387538363
 20
971.4629769239
 40
2.000002179
100
AcDbArc
 50
45.00006246
 51
134.9999375603
  0
ARC
  5
7A2
100
AcDbEntity
  8
0
100
AcDbCircle
 62
7
  6
CONTINUOUS
 10
877.064487324
 20
976.1533916849
 40
2.0
100
AcDbArc
 50
0.0
 51
90.0
  0
ARC
  5
7A3
100
AcDbEntity
  8
0
100
AcDbCircle
 62
7
  6
CONTINUOUS
 10
909.8551626449
 20
980.4533916849
 40
0.7
100
AcDbArc
 50
90.0
 51
163.3984504148
  0
ARC
  5
7A4
100
AcDbEntity
  8
0
100
AcDbCircle
 62
7
  6
CONTINUOUS
 10
877.064487324
 20
976.1533916849
 40
0.5
100
AcDbArc
 50
0.0
 51
90.0
  0
ARC
  5
7A5
100
AcDbEntity
  8
0
100
AcDbCircle
 62
7
  6
CONTINUOUS
 10
932.5137797578
 20
980.4533916849
 40
0.7
100
AcDbArc
 50
16.6015495695
 51
89.999999875
  0
ARC
  5
7A6
100
AcDbEntity
  8
0
100
AcDbCircle
 62
7
  6
CONTINUOUS
 10
923.8551626449
 20
980.4533916849
 40
0.7
100
AcDbArc
 50
90.0
 51
163.3984504148
  0
ARC
  5
7A7
100
AcDbEntity
  8
0
100
AcDbCircle
 62
7
  6
CONTINUOUS
 10
918.5137797578
 20
980.4533916849
 40
0.7
100
AcDbArc
 50
16.6015495695
 51
89.999999875
  0
ARC
  5
7A8
100
AcDbEntity
  8
0
100
AcDbCircle
 62
7
  6
CONTINUOUS
 10
934.0224511255
 20
980.6533916849
 40
0.5
100
AcDbArc
 50
90.0
 51
176.5601872325
  0
ARC
  5
7A9
100
AcDbEntity
  8
0
100
AcDbCircle
 62
7
  6
CONTINUOUS
 10
922.3465235225
 20
980.6533916849
 40
0.5
100
AcDbArc
 50
3.4398127675
 51
90.0
  0
ARC
  5
7AA
100
AcDbEntity
  8
0
100
AcDbCircle
 62
7
  6
CONTINUOUS
 10
922.0224511259
 20
980.6533916849
 40
0.5
100
AcDbArc
 50
90.0
 51
176.5601872325
  0
ARC
  5
7AB
100
AcDbEntity
  8
0
100
AcDbCircle
 62
7
  6
CONTINUOUS
 10
934.3465235221
 20
980.6533916849
 40
0.5
100
AcDbArc
 50
3.4398127675
 51
90.0
  0
ARC
  5
7AC
100
AcDbEntity
  8
0
100
AcDbCircle
 62
7
  6
CONTINUOUS
 10
914.3465235225
 20
980.6533916849
 40
0.5
100
AcDbArc
 50
3.4398127678
 51
90.0
  0
ARC
  5
7AD
100
AcDbEntity
  8
0
100
AcDbCircle
 62
7
  6
CONTINUOUS
 10
914.0136669304
 20
980.6533916849
 40
0.5
100
AcDbArc
 50
90.0
 51
180.0
  0
ARC
  5
7AE
100
AcDbEntity
  8
0
100
AcDbCircle
 62
7
  6
CONTINUOUS
 10
960.5137797578
 20
980.4533916849
 40
0.7
100
AcDbArc
 50
16.6015495695
 51
89.999999875
  0
ARC
  5
7AF
100
AcDbEntity
  8
0
100
AcDbCircle
 62
7
  6
CONTINUOUS
 10
951.8551626449
 20
980.4533916849
 40
0.7
100
AcDbArc
 50
90.0
 51
163.3984504148
  0
ARC
  5
7B0
100
AcDbEntity
  8
0
100
AcDbCircle
 62
7
  6
CONTINUOUS
 10
946.5137797578
 20
980.4533916849
 40
0.7
100
AcDbArc
 50
16.6015495695
 51
89.9999998749
  0
ARC
  5
7B1
100
AcDbEntity
  8
0
100
AcDbCircle
 62
7
  6
CONTINUOUS
 10
937.8551626449
 20
980.4533916849
 40
0.7
100
AcDbArc
 50
90.0
 51
163.3984504148
  0
ARC
  5
7B2
100
AcDbEntity
  8
0
100
AcDbCircle
 62
7
  6
CONTINUOUS
 10
942.0224511255
 20
980.6533916849
 40
0.5
100
AcDbArc
 50
90.0
 51
176.5601872322
  0
ARC
  5
7B3
100
AcDbEntity
  8
0
100
AcDbCircle
 62
7
  6
CONTINUOUS
 10
942.3553077176
 20
980.6533916849
 40
0.5
100
AcDbArc
 50
0.0
 51
90.0
  0
ARC
  5
7B4
100
AcDbEntity
  8
0
100
AcDbCircle
 62
7
  6
CONTINUOUS
 10
1197.470509668
 20
980.5869802877
 40
244.6860316945
100
AcDbArc
 50
179.8673687612
 51
179.9844490804
  0
ARC
  5
7B5
100
AcDbEntity
  8
0
100
AcDbCircle
 62
7
  6
CONTINUOUS
 10
1183.4663443265
 20
980.5869793123
 40
244.6818663534
100
AcDbArc
 50
179.8673662749
 51
179.9844485872
  0
ARC
  5
7B6
100
AcDbEntity
  8
0
100
AcDbCircle
 62
7
  6
CONTINUOUS
 10
1155.4663439319
 20
980.5869793128
 40
244.6818659588
100
AcDbArc
 50
179.8673662748
 51
179.9844485873
  0
ARC
  5
7B7
100
AcDbEntity
  8
0
100
AcDbCircle
 62
7
  6
CONTINUOUS
 10
1197.4663438909
 20
980.5869793128
 40
244.6818659178
100
AcDbArc
 50
179.8673662748
 51
179.9844485873
  0
ARC
  5
7B8
100
AcDbEntity
  8
0
100
AcDbCircle
 62
7
  6
CONTINUOUS
 10
1169.466343876
 20
980.5869793128
 40
244.6818659029
100
AcDbArc
 50
179.8673662748
 51
179.9844485873
  0
SPLINE
  5
7B9
100
AcDbEntity
  8
0
100
AcDbSpline
 62
7
  6
CONTINUOUS
 70
0
 71
3
 72
8
 73
4
 74
0
 42
0.0000001
 43
0.0000001
 44
0.0000000001
 40
0.0
 40
0.0
 40
0.0
 40
0.0
 40
1.0
 40
1.0
 40
1.0
 40
1.0
 10
842.610078038
 20
965.2404403299
 30
0.0
 10
842.8322221847
 20
965.0182961832
 30
0.0
 10
842.8322221847
 20
964.6140563396
 30
0.0
 10
842.610078038
 20
964.3919121929
 30
0.0
  0
SPLINE
  5
7BA
100
AcDbEntity
  8
0
100
AcDbSpline
 62
7
  6
CONTINUOUS
 70
0
 71
3
 72
8
 73
4
 74
0
 42
0.0000001
 43
0.0000001
 44
0.0000000001
 40
0.0
 40
0.0
 40
0.0
 40
0.0
 40
1.0
 40
1.0
 40
1.0
 40
1.0
 10
837.082707972
 20
970.4973051099
 30
0.0
 10
837.1577708213
 20
970.5660875379
 30
0.0
 10
837.2872562113
 20
970.5632621566
 30
0.0
 10
837.35924737
 20
970.4912709979
 30
0.0
  0
SPLINE
  5
7BB
100
AcDbEntity
  8
0
100
AcDbSpline
 62
7
  6
CONTINUOUS
 70
0
 71
3
 72
8
 73
4
 74
0
 42
0.0000001
 43
0.0000001
 44
0.0000000001
 40
0.0
 40
0.0
 40
0.0
 40
0.0
 40
1.0
 40
1.0
 40
1.0
 40
1.0
 10
832.547948542
 20
967.1001311649
 30
0.0
 10
832.62199659
 20
967.1741792142
 30
0.0
 10
832.7567432047
 20
967.1741792142
 30
0.0
 10
832.830791254
 20
967.1001311649
 30
0.0
  0
SPLINE
  5
7BC
100
AcDbEntity
  8
0
100
AcDbSpline
 62
7
  6
CONTINUOUS
 70
0
 71
3
 72
11
 73
7
 74
0
 42
0.0000001
 43
0.0000001
 44
0.0000000001
 40
0.0
 40
0.0
 40
0.0
 40
0.0
 40
0.25
 40
0.5
 40
0.75
 40
1.0
 40
1.0
 40
1.0
 40
1.0
 10
1007.397820658
 20
993.790022646
 30
0.0
 10
1006.8227556272
 20
993.7444200632
 30
0.0
 10
1005.6888087368
 20
993.4174779879
 30
0.0
 10
1004.2712873564
 20
992.2877600039
 30
0.0
 10
1003.3337903813
 20
990.6752176645
 30
0.0
 10
1003.1153652889
 20
989.4274136142
 30
0.0
 10
1003.1153652889
 20
988.8033916849
 30
0.0
  0
LINE
  5
7BD
100
AcDbEntity
  8
0
100
AcDbLine
 62
7
  6
CONTINUOUS
 10
926.8490173155
 20
981.0033916849
 11
926.8490173155
 21
981.1533916849
  0
LINE
  5
7BE
100
AcDbEntity
  8
0
100
AcDbLine
 62
7
  6
CONTINUOUS
 10
928.439758759
 20
981.0033916849
 11
928.439758759
 21
981.1533916849
  0
SPLINE
  5
7BF
100
AcDbEntity
  8
0
100
AcDbSpline
 62
7
  6
CONTINUOUS
 70
0
 71
3
 72
9
 73
5
 74
0
 42
0.0000001
 43
0.0000001
 44
0.0000000001
 40
0.0
 40
0.0
 40
0.0
 40
0.0
 40
0.4980353494
 40
1.0
 40
1.0
 40
1.0
 40
1.0
 10
928.3091168966
 20
981.0033916849
 30
0.0
 10
928.3109391733
 20
981.0284616943
 30
0.0
 10
928.3162429614
 20
981.078691152
 30
0.0
 10
928.3245011102
 20
981.1285089795
 30
0.0
 10
928.3292641006
 20
981.1533916849
 30
0.0
  0
ELLIPSE
  5
7C0
100
AcDbEntity
  8
0
100
AcDbEllipse
 62
7
  6
CONTINUOUS
 10
1007.735449451
 20
988.8033916849
 30
0.0
 11
-0.0
 21
5.0
 31
0.0
 40
0.9240168324
 41
1.1737738846
 42
1.570796324
  0
ENDSEC
  0
SECTION
  2
OBJECTS
  0
DICTIONARY
  5
C
100
AcDbDictionary
280
0
281
1
  3
ACAD_GROUP
350
D
  3
ACAD_MLINESTYLE
350
17
  3
ACAD_LAYOUT
350
1A
  3
ACAD_PLOTSETTINGS
350
19
  3
ACAD_PLOTSTYLENAME
350
E
  0
DICTIONARY
  5
D
102
{ACAD_REACTORS
330
C
102
}
100
AcDbDictionary
280
0
281
1
  0
ACDBDICTIONARYWDFLT
  5
E
102
{ACAD_REACTORS
330
C
102
}
100
AcDbDictionary
281
1
  3
Normal
350
F
100
AcDbDictionaryWithDefault
340
F
  0
DICTIONARY
  5
17
102
{ACAD_REACTORS
330
C
102
}
100
AcDbDictionary
280
0
281
1
  3
Standard
350
18
  0
DICTIONARY
  5
19
102
{ACAD_REACTORS
330
C
102
}
100
AcDbDictionary
281
1
  0
DICTIONARY
  5
1A
102
{ACAD_REACTORS
330
C
102
}
100
AcDbDictionary
281
1
  3
Model
350
7C1
  3
Layout1
350
7C2
  0
ACDBPLACEHOLDER
  5
F
102
{ACAD_REACTORS
330
E
102
}
  0
MLINESTYLE
  5
18
102
{ACAD_REACTORS
330
17
102
}
100
AcDbMlineStyle
  2
STANDARD
 70
0
  3

 62
256
 51
90.0
 52
90.0
 71
2
 49
0.5
 62
256
  6
BYLAYER
 49
-0.5
 62
256
  6
BYLAYER
  0
LAYOUT
  5
7C1
102
{ACAD_REACTORS
330
1A
102
}
100
AcDbPlotSettings
  1

  2
none_device
  4

  6

 40
0.0
 41
0.0
 42
0.0
 43
0.0
 44
210.0
 45
297.0
 46
0.0
 47
0.0
 48
0.0
 49
0.0
140
0.0
141
0.0
142
1.0
143
1.0
 70
1024
 72
1
 73
0
 74
0
  7

 75
0
147
1.0
148
0.0
149
0.0
100
AcDbLayout
  1
Model
 70
0
 71
0
 10
0.0
 20
0.0
 11
210.0
 21
297.0
 12
0.0
 22
0.0
 32
0.0
 14
0.0
 24
0.0
 34
0.0
 15
0.0
 25
0.0
 35
0.0
146
0.0
 13
0.0
 23
0.0
 33
0.0
 16
1.0
 26
0.0
 36
0.0
 17
0.0
 27
1.0
 37
0.0
 76
0
330
210
345
0
346
0
  0
LAYOUT
  5
7C2
102
{ACAD_REACTORS
330
1A
102
}
100
AcDbPlotSettings
  1

  2
none_device
  4

  6

 40
0.0
 41
0.0
 42
0.0
 43
0.0
 44
210.0
 45
297.0
 46
0.0
 47
0.0
 48
0.0
 49
0.0
140
0.0
141
0.0
142
1.0
143
1.0
 70
0
 72
1
 73
0
 74
0
  7

 75
0
147
1.0
148
0.0
149
0.0
100
AcDbLayout
  1
Layout1
 70
0
 71
1
 10
0.0
 20
0.0
 11
210.0
 21
297.0
 12
0.0
 22
0.0
 32
0.0
 14
0.0
 24
0.0
 34
0.0
 15
0.0
 25
0.0
 35
0.0
146
0.0
 13
0.0
 23
0.0
 33
0.0
 16
1.0
 26
0.0
 36
0.0
 17
0.0
 27
1.0
 37
0.0
 76
0
330
211
345
0
346
0
  0
ENDSEC
  0
EOF
