999
DXF file: C:\Users\sesa63760\Dev\_Creo\CAD\MCADPD0004355_3D-CAD\drw0001_1.dxf
999
Pro/ENGINEER 2019471 by Parametric Technology Corporation
  0
SECTION
  2
HEADER
  9
$ACADVER
  1
AC1024
  9
$DWGCODEPAGE
  3
ANSI_1252
  9
$EXTMAX
 10
265.6888525456
 20
375.7599486002
 30
0.0
  9
$EXTMIN
 10
0.0
 20
0.0
 30
0.0
  9
$LIMMIN
 10
0.0
 20
0.0
  9
$LIMMAX
 10
265.6888525456
 20
375.7599486002
  9
$VIEWCTR
 10
132.8444262728
 20
187.8799743001
  9
$VIEWSIZE
 40
375.7599486002
  9
$CLAYER
  8
0
  9
$LTSCALE
 40
24.4939818347
  9
$CELTYPE
  6
BYLAYER
  9
$DIMSCALE
 40
1.0
  9
$DIMASZ
 40
3.1629625303
  9
$DIMEXO
 40
1.0
  9
$DIMDLI
 40
16.9231147221
  9
$DIMEXE
 40
1.0
  9
$DIMCEN
 40
4.0081061184
  9
$DIMLFAC
 40
1.0
  9
$DIMBLK
  1
_FILLED
  9
$DIMALT
 70
0
  9
$DIMALTF
 40
0.0393700787
  9
$DIMTXT
 40
4.4281475424
  9
$DIMTOL
 70
1
  9
$DIMLIM
 70
0
  9
$DIMTFAC
 40
1.0
  9
$DIMTP
 40
0.01
  9
$DIMTM
 40
0.01
  9
$DIMGAP
 40
0.625
  9
$DIMDSEP
 70
46
  9
$AUNITS
 70
0
  9
$PDMODE
 70
3
  9
$PDSIZE
 40
0.3125
  9
$HANDSEED
  5
609
  9
$TILEMODE
 70
1
  9
$MEASUREMENT
 70
1
  9
$INSUNITS
 70
4
  0
ENDSEC
  0
SECTION
  2
CLASSES
  0
CLASS
  1
ACDBDICTIONARYWDFLT
  2
AcDbDictionaryWithDefault
  3
AutoCAD 2000
 90
0
 91
1
280
0
281
0
  0
CLASS
  1
ACDBPLACEHOLDER
  2
AcDbPlaceHolder
  3
AutoCAD 2000
 90
0
 91
1
280
0
281
0
  0
CLASS
  1
LAYOUT
  2
AcDbLayout
  3
AutoCAD 2000
 90
0
 91
0
280
0
281
0
  0
ENDSEC
  0
SECTION
  2
TABLES
  0
TABLE
  2
VPORT
  5
8
100
AcDbSymbolTable
 70
2
  0
VPORT
  5
1F4
100
AcDbSymbolTableRecord
100
AcDbViewportTableRecord
  2
*ACTIVE
 70
0
 10
0.0
 20
0.0
 11
1.0
 21
1.0
 12
132.8444262728
 22
187.8799743001
 13
0.0
 23
0.0
 14
1.0
 24
1.0
 15
0.0
 25
0.0
 16
0.0
 26
0.0
 36
1.0
 17
0.0
 27
0.0
 37
0.0
 40
375.7599486002
 41
0.7070707071
 42
50.0
 43
0.0
 44
0.0
 50
0.0
 51
0.0
 71
0
 72
100
 73
1
 74
1
 75
0
 76
0
 77
0
 78
0
  0
ENDTAB
  0
TABLE
  2
LTYPE
  5
5
100
AcDbSymbolTable
 70
6
  0
LTYPE
  5
14
100
AcDbSymbolTableRecord
100
AcDbLinetypeTableRecord
  2
BYBLOCK
 70
0
  3

 72
65
 73
0
 40
0.0
  0
LTYPE
  5
15
100
AcDbSymbolTableRecord
100
AcDbLinetypeTableRecord
  2
BYLAYER
 70
0
  3

 72
65
 73
0
 40
0.0
  0
LTYPE
  5
16
100
AcDbSymbolTableRecord
100
AcDbLinetypeTableRecord
  2
CONTINUOUS
 70
64
  3
Solid line
 72
65
 73
0
 40
0.0
  0
LTYPE
  5
1F5
100
AcDbSymbolTableRecord
100
AcDbLinetypeTableRecord
  2
CENTER
 70
64
  3
____ _ ____ _ ____ _ ____ _ ____ _ ____ _ ____
 72
65
 73
4
 40
0.6
 49
0.375
 74
0
 49
-0.075
 74
0
 49
0.075
 74
0
 49
-0.075
 74
0
  0
LTYPE
  5
1F6
100
AcDbSymbolTableRecord
100
AcDbLinetypeTableRecord
  2
HIDDEN
 70
64
  3
- - - - - - - - - - - - - - - - - - - -
 72
65
 73
2
 40
0.2
 49
0.1
 74
0
 49
-0.1
 74
0
  0
LTYPE
  5
1F7
100
AcDbSymbolTableRecord
100
AcDbLinetypeTableRecord
  2
PHANTOM
 70
64
  3
_____ _ _ _____ _ _ _____ _ _ _____
 72
65
 73
6
 40
0.8
 49
0.45
 74
0
 49
-0.05
 74
0
 49
0.1
 74
0
 49
-0.05
 74
0
 49
0.1
 74
0
 49
-0.05
 74
0
  0
LTYPE
  5
1F8
100
AcDbSymbolTableRecord
100
AcDbLinetypeTableRecord
  2
DOT
 70
64
  3
. . . . . . . . . . . . . . . . . . . .
 72
65
 73
2
 40
0.2
 49
0.1
 74
0
 49
-0.1
 74
0
  0
LTYPE
  5
1F9
100
AcDbSymbolTableRecord
100
AcDbLinetypeTableRecord
  2
DASHED
 70
64
  3
- - - - - - - - - - - - - - - - - - - -
 72
65
 73
2
 40
0.2
 49
0.1
 74
0
 49
-0.1
 74
0
  0
ENDTAB
  0
TABLE
  2
LAYER
  5
2
100
AcDbSymbolTable
 70
36
  0
LAYER
  5
10
100
AcDbSymbolTableRecord
100
AcDbLayerTableRecord
  2
0
 70
0
 62
7
  6
CONTINUOUS
370
-3
390
F
  0
LAYER
  5
1FA
100
AcDbSymbolTableRecord
100
AcDbLayerTableRecord
  2
DEFAULT_1
 70
0
 62
7
  6
CENTER
370
-3
390
F
  0
LAYER
  5
1FB
100
AcDbSymbolTableRecord
100
AcDbLayerTableRecord
  2
DEFAULT_2
 70
0
 62
7
  6
HIDDEN
370
-3
390
F
  0
LAYER
  5
1FC
100
AcDbSymbolTableRecord
100
AcDbLayerTableRecord
  2
DEFAULT_3
 70
0
 62
7
  6
PHANTOM
370
-3
390
F
  0
LAYER
  5
1FD
100
AcDbSymbolTableRecord
100
AcDbLayerTableRecord
  2
00_COMPONENTS
 70
0
 62
7
  6
CONTINUOUS
370
-3
390
F
  0
LAYER
  5
1FE
100
AcDbSymbolTableRecord
100
AcDbLayerTableRecord
  2
01_1_DEFAULT_DATUMS
 70
0
 62
7
  6
CONTINUOUS
370
-3
390
F
  0
LAYER
  5
1FF
100
AcDbSymbolTableRecord
100
AcDbLayerTableRecord
  2
01_PLANES
 70
0
 62
7
  6
CONTINUOUS
370
-3
390
F
  0
LAYER
  5
200
100
AcDbSymbolTableRecord
100
AcDbLayerTableRecord
  2
02_COORD_SYS
 70
0
 62
7
  6
CONTINUOUS
370
-3
390
F
  0
LAYER
  5
201
100
AcDbSymbolTableRecord
100
AcDbLayerTableRecord
  2
03_AXES
 70
0
 62
7
  6
CONTINUOUS
370
-3
390
F
  0
LAYER
  5
202
100
AcDbSymbolTableRecord
100
AcDbLayerTableRecord
  2
04_POINTS
 70
0
 62
7
  6
CONTINUOUS
370
-3
390
F
  0
LAYER
  5
203
100
AcDbSymbolTableRecord
100
AcDbLayerTableRecord
  2
05_CURVES
 70
0
 62
7
  6
CONTINUOUS
370
-3
390
F
  0
LAYER
  5
204
100
AcDbSymbolTableRecord
100
AcDbLayerTableRecord
  2
06_SURFS
 70
0
 62
7
  6
CONTINUOUS
370
-3
390
F
  0
LAYER
  5
205
100
AcDbSymbolTableRecord
100
AcDbLayerTableRecord
  2
07_COSMETICS
 70
0
 62
7
  6
CONTINUOUS
370
-3
390
F
  0
LAYER
  5
206
100
AcDbSymbolTableRecord
100
AcDbLayerTableRecord
  2
10_NOTES
 70
0
 62
7
  6
CONTINUOUS
370
-3
390
F
  0
LAYER
  5
207
100
AcDbSymbolTableRecord
100
AcDbLayerTableRecord
  2
11_NOTES_PUB
 70
0
 62
7
  6
CONTINUOUS
370
-3
390
F
  0
LAYER
  5
208
100
AcDbSymbolTableRecord
100
AcDbLayerTableRecord
  2
13_REF_GTOL
 70
0
 62
7
  6
CONTINUOUS
370
-3
390
F
  0
LAYER
  5
209
100
AcDbSymbolTableRecord
100
AcDbLayerTableRecord
  2
16_MISC
 70
0
 62
7
  6
CONTINUOUS
370
-3
390
F
  0
LAYER
  5
20A
100
AcDbSymbolTableRecord
100
AcDbLayerTableRecord
  2
17_NO_PRINT
 70
0
 62
7
  6
CONTINUOUS
370
-3
390
F
  0
LAYER
  5
20B
100
AcDbSymbolTableRecord
100
AcDbLayerTableRecord
  2
18_DATUM_CAMS_JOINTS
 70
0
 62
7
  6
CONTINUOUS
370
-3
390
F
  0
LAYER
  5
20C
100
AcDbSymbolTableRecord
100
AcDbLayerTableRecord
  2
19_DATUM_FUNCTIONAL
 70
0
 62
7
  6
CONTINUOUS
370
-3
390
F
  0
LAYER
  5
20D
100
AcDbSymbolTableRecord
100
AcDbLayerTableRecord
  2
20_DATUM_KINEMATIC_SCHEME
 70
0
 62
7
  6
CONTINUOUS
370
-3
390
F
  0
ENDTAB
  0
TABLE
  2
STYLE
  5
3
100
AcDbSymbolTable
 70
1
  0
STYLE
  5
11
100
AcDbSymbolTableRecord
100
AcDbTextStyleTableRecord
  2
STANDARD
 70
0
 40
0.0
 41
1.0
 50
0.0
 71
0
 42
0.2
  3
ARIAL.TTF
  4

  0
STYLE
  5
20E
100
AcDbSymbolTableRecord
100
AcDbTextStyleTableRecord
  2
TEXTSTYLE_1
 70
0
 40
0.0
 41
0.8
 50
0.0
 71
0
 42
0.2
  3
gdt
  4

  0
ENDTAB
  0
TABLE
  2
VIEW
  5
6
100
AcDbSymbolTable
 70
0
  0
ENDTAB
  0
TABLE
  2
UCS
  5
7
100
AcDbSymbolTable
 70
0
  0
ENDTAB
  0
TABLE
  2
APPID
  5
9
100
AcDbSymbolTable
 70
1
  0
APPID
  5
20F
100
AcDbSymbolTableRecord
100
AcDbRegAppTableRecord
  2
ACAD
 70
0
  0
ENDTAB
  0
TABLE
  2
BLOCK_RECORD
  5
1
100
AcDbSymbolTable
 70
0
  0
BLOCK_RECORD
  5
210
100
AcDbSymbolTableRecord
100
AcDbBlockTableRecord
  2
*Model_Space
  0
BLOCK_RECORD
  5
211
100
AcDbSymbolTableRecord
100
AcDbBlockTableRecord
  2
*Paper_Space
  0
BLOCK_RECORD
  5
212
100
AcDbSymbolTableRecord
100
AcDbBlockTableRecord
  2
_FILLED
  0
ENDTAB
  0
TABLE
  2
DIMSTYLE
  5
A
100
AcDbSymbolTable
 70
1
100
AcDbDimStyleTable
 71
0
  0
DIMSTYLE
105
213
100
AcDbSymbolTableRecord
100
AcDbDimStyleTableRecord
  2
STANDARD
 70
0
  3

  4

 40
1.0
 41
3.1629625303
 42
1.0
 43
0.38
 44
1.0
 45
0.0
 46
0.0
 47
0.01
 48
0.01
140
4.4281475424
141
0.09
142
0.0
143
25.4
144
1.0
145
0.0
146
1.0
147
0.625
 71
1
 72
0
 73
0
 74
0
 75
0
 76
0
 77
1
 78
8
 79
2
170
0
171
1
172
0
173
0
174
0
175
0
176
0
177
0
178
0
270
2
179
2
271
2
272
2
273
2
274
2
275
0
280
0
281
0
282
0
283
1
284
8
285
0
286
0
287
3
288
0
340
11
278
46
341
212
342
212
343
212
344
212
  0
ENDTAB
  0
ENDSEC
  0
SECTION
  2
BLOCKS
  0
BLOCK
  5
20
100
AcDbEntity
  8
0
100
AcDbBlockBegin
  2
*Model_Space
 70
0
 10
0.0
 20
0.0
 30
0.0
  3
*Model_Space
  1

  0
ENDBLK
  5
21
100
AcDbEntity
  8
0
100
AcDbBlockEnd
  0
BLOCK
  5
1C
100
AcDbEntity
  8
0
100
AcDbBlockBegin
  2
*Paper_Space
 70
0
 10
0.0
 20
0.0
 30
0.0
  3
*Paper_Space
  1

  0
ENDBLK
  5
1D
100
AcDbEntity
  8
0
100
AcDbBlockEnd
  0
BLOCK
  5
214
100
AcDbEntity
  8
0
100
AcDbBlockBegin
  2
_FILLED
 70
64
 10
0.0
 20
0.0
  3
_FILLED
  1

  0
SOLID
  5
215
100
AcDbEntity
  8
0
  6
BYBLOCK
 62
0
100
AcDbTrace
 10
0.0
 20
0.0
 11
-1.0
 21
0.25
 12
-1.0
 22
-0.25
 13
-1.0
 23
-0.25
  0
ENDBLK
  5
216
100
AcDbEntity
  8
0
  6
BYBLOCK
 62
0
100
AcDbBlockEnd
  0
ENDSEC
  0
SECTION
  2
ENTITIES
  0
LINE
  5
217
100
AcDbEntity
  8
0
100
AcDbLine
 62
7
  6
BYLAYER
 10
30.8229637181
 20
187.3982068289
 11
30.8229637181
 21
158.0041198122
  0
LINE
  5
218
100
AcDbEntity
  8
0
100
AcDbLine
 62
7
  6
BYLAYER
 10
32.9839832068
 20
151.3713506669
 11
32.9839832068
 21
154.5557100937
  0
LINE
  5
219
100
AcDbEntity
  8
0
100
AcDbLine
 62
7
  6
BYLAYER
 10
38.2454856287
 20
171.2037333893
 11
38.2454856287
 21
167.5750381417
  0
LINE
  5
21A
100
AcDbEntity
  8
0
100
AcDbLine
 62
7
  6
BYLAYER
 10
38.5990586382
 20
165.2388864119
 11
38.5990586382
 21
157.7975560544
  0
LINE
  5
21B
100
AcDbEntity
  8
0
100
AcDbLine
 62
7
  6
BYLAYER
 10
38.7537454986
 20
158.7062163112
 11
38.7537454986
 21
161.1557235626
  0
LINE
  5
21C
100
AcDbEntity
  8
0
100
AcDbLine
 62
7
  6
BYLAYER
 10
40.3448240414
 20
162.074218111
 11
40.3448240414
 21
163.2989717367
  0
LINE
  5
21D
100
AcDbEntity
  8
0
100
AcDbLine
 62
7
  6
BYLAYER
 10
59.0055957741
 20
132.1835402793
 11
59.288437309
 21
131.7811484725
  0
LINE
  5
21E
100
AcDbEntity
  8
0
100
AcDbLine
 62
7
  6
BYLAYER
 10
44.0163102799
 20
145.9876035185
 11
43.8091019371
 21
147.0001791251
  0
LINE
  5
21F
100
AcDbEntity
  8
0
100
AcDbLine
 62
7
  6
BYLAYER
 10
41.2286584679
 20
161.5638867262
 11
41.2286584679
 21
162.7886403519
  0
LINE
  5
220
100
AcDbEntity
  8
0
100
AcDbLine
 62
7
  6
BYLAYER
 10
43.0602967901
 20
147.3186590911
 11
43.0602967901
 21
145.553919915
  0
LINE
  5
221
100
AcDbEntity
  8
0
100
AcDbLine
 62
7
  6
BYLAYER
 10
44.9643145423
 20
180.457658298
 11
44.9643145423
 21
179.2329046723
  0
LINE
  5
222
100
AcDbEntity
  8
0
100
AcDbLine
 62
7
  6
BYLAYER
 10
45.1179615723
 20
162.5843419968
 11
45.1179615723
 21
166.2586028738
  0
LINE
  5
223
100
AcDbEntity
  8
0
100
AcDbLine
 62
7
  6
BYLAYER
 10
45.2948461742
 20
163.0946328328
 11
45.2948461742
 21
167.3812639576
  0
LINE
  5
224
100
AcDbEntity
  8
0
100
AcDbLine
 62
7
  6
BYLAYER
 10
46.0249158542
 20
184.2672427067
 11
46.0249158542
 21
179.8452606363
  0
LINE
  5
225
100
AcDbEntity
  8
0
100
AcDbLine
 62
7
  6
BYLAYER
 10
46.0249158542
 20
145.4494273663
 11
46.0249158542
 21
143.5796842977
  0
LINE
  5
226
100
AcDbEntity
  8
0
100
AcDbLine
 62
7
  6
BYLAYER
 10
46.1786806008
 20
166.8709325728
 11
46.1786806008
 21
163.1966716957
  0
LINE
  5
227
100
AcDbEntity
  8
0
100
AcDbLine
 62
7
  6
BYLAYER
 10
47.0279508299
 20
147.4894912555
 11
47.0279508299
 21
148.5584766092
  0
LINE
  5
228
100
AcDbEntity
  8
0
100
AcDbLine
 62
7
  6
BYLAYER
 10
48.8301838803
 20
163.7044637075
 11
48.8301838803
 21
165.3399384185
  0
LINE
  5
229
100
AcDbEntity
  8
0
100
AcDbLine
 62
7
  6
BYLAYER
 10
59.288437309
 20
131.7811484725
 11
60.3491018967
 21
131.1687873407
  0
LINE
  5
22A
100
AcDbEntity
  8
0
100
AcDbLine
 62
7
  6
BYLAYER
 10
59.0055957741
 20
132.1835402793
 11
60.0662603618
 21
131.5711791475
  0
LINE
  5
22B
100
AcDbEntity
  8
0
100
AcDbLine
 62
7
  6
BYLAYER
 10
60.3491018967
 20
131.1687873407
 11
60.0662603618
 21
131.5711791475
  0
LINE
  5
22C
100
AcDbEntity
  8
0
100
AcDbLine
 62
7
  6
BYLAYER
 10
50.1528412275
 20
167.9403742193
 11
50.1528412275
 21
166.7156205936
  0
LINE
  5
22D
100
AcDbEntity
  8
0
100
AcDbLine
 62
7
  6
BYLAYER
 10
50.3297258294
 20
167.8382816773
 11
50.3297258294
 21
169.063035303
  0
LINE
  5
22E
100
AcDbEntity
  8
0
100
AcDbLine
 62
7
  6
BYLAYER
 10
50.8470022936
 20
165.1847016234
 11
50.8470022936
 21
173.3497257947
  0
LINE
  5
22F
100
AcDbEntity
  8
0
100
AcDbLine
 62
7
  6
BYLAYER
 10
53.3470022936
 20
166.312234468
 11
53.3470022936
 21
173.3497257947
  0
LINE
  5
230
100
AcDbEntity
  8
0
100
AcDbLine
 62
7
  6
BYLAYER
 10
53.4499490535
 20
188.5535505995
 11
53.4499490535
 21
184.131568529
  0
LINE
  5
231
100
AcDbEntity
  8
0
100
AcDbLine
 62
7
  6
BYLAYER
 10
53.4516363257
 20
200.4612404069
 11
53.4516363257
 21
193.9297235777
  0
LINE
  5
232
100
AcDbEntity
  8
0
100
AcDbLine
 62
7
  6
BYLAYER
 10
53.8650635355
 20
167.0216680585
 11
53.8650635355
 21
168.2464633896
  0
LINE
  5
233
100
AcDbEntity
  8
0
100
AcDbLine
 62
7
  6
BYLAYER
 10
55.1028633604
 20
168.9610179264
 11
55.1028633604
 21
172.0226664401
  0
LINE
  5
234
100
AcDbEntity
  8
0
100
AcDbLine
 62
7
  6
BYLAYER
 10
55.1932567952
 20
189.8468006885
 11
55.1932567952
 21
191.4798055228
  0
LINE
  5
235
100
AcDbEntity
  8
0
100
AcDbLine
 62
7
  6
BYLAYER
 10
55.2797479623
 20
169.0631295056
 11
55.2797479623
 21
173.1453275239
  0
LINE
  5
236
100
AcDbEntity
  8
0
100
AcDbLine
 62
7
  6
BYLAYER
 10
56.1635823888
 20
172.6349961391
 11
56.1635823888
 21
169.5733476254
  0
LINE
  5
237
100
AcDbEntity
  8
0
100
AcDbLine
 62
7
  6
BYLAYER
 10
56.5041704455
 20
168.4504600179
 11
56.5041704455
 21
176.6154841892
  0
LINE
  5
238
100
AcDbEntity
  8
0
100
AcDbLine
 62
7
  6
BYLAYER
 10
56.6761979898
 20
153.4150172135
 11
56.6761979898
 21
156.5993766403
  0
LINE
  5
239
100
AcDbEntity
  8
0
100
AcDbLine
 62
7
  6
BYLAYER
 10
59.0055957741
 20
136.0845605955
 11
46.0249158542
 21
143.5796842977
  0
LINE
  5
23A
100
AcDbEntity
  8
0
100
AcDbLine
 62
7
  6
BYLAYER
 10
43.0602967901
 20
145.553919915
 11
32.9839832068
 21
151.3713506669
  0
LINE
  5
23B
100
AcDbEntity
  8
0
100
AcDbLine
 62
7
  6
BYLAYER
 10
49.0113229651
 20
144.6492637561
 11
61.4097759051
 21
137.4911755512
  0
LINE
  5
23C
100
AcDbEntity
  8
0
100
AcDbLine
 62
7
  6
BYLAYER
 10
44.3845585066
 20
147.9737337797
 11
32.9839832068
 21
154.5557100937
  0
LINE
  5
23D
100
AcDbEntity
  8
0
100
AcDbLine
 62
7
  6
BYLAYER
 10
30.8229637181
 20
158.0041198122
 11
34.8896929569
 21
155.6559655633
  0
LINE
  5
23E
100
AcDbEntity
  8
0
100
AcDbLine
 62
7
  6
BYLAYER
 10
63.9972460765
 20
139.0183143301
 11
63.1068174601
 21
139.5323919014
  0
LINE
  5
23F
100
AcDbEntity
  8
0
100
AcDbLine
 62
7
  6
BYLAYER
 10
50.6263078483
 20
153.1064917883
 11
64.6888414014
 21
142.6019641204
  0
LINE
  5
240
100
AcDbEntity
  8
0
100
AcDbLine
 62
7
  6
BYLAYER
 10
68.9050494951
 20
137.8989584335
 11
69.18789103
 21
137.4965666267
  0
LINE
  5
241
100
AcDbEntity
  8
0
100
AcDbLine
 62
7
  6
BYLAYER
 10
70.2485556177
 20
136.8842054949
 11
69.9657140828
 21
137.2865973017
  0
LINE
  5
242
100
AcDbEntity
  8
0
100
AcDbLine
 62
7
  6
BYLAYER
 10
59.0041704455
 20
169.5783825271
 11
59.0041704455
 21
176.6154841892
  0
LINE
  5
243
100
AcDbEntity
  8
0
100
AcDbLine
 62
7
  6
BYLAYER
 10
59.0055957741
 20
132.1835402793
 11
59.0055957741
 21
138.8791981958
  0
LINE
  5
244
100
AcDbEntity
  8
0
100
AcDbLine
 62
7
  6
BYLAYER
 10
60.0528854933
 20
173.6554514096
 11
60.0528854933
 21
172.4306977839
  0
LINE
  5
245
100
AcDbEntity
  8
0
100
AcDbLine
 62
7
  6
BYLAYER
 10
60.0662603618
 20
131.5711791475
 11
60.0662603618
 21
138.266837064
  0
LINE
  5
246
100
AcDbEntity
  8
0
100
AcDbLine
 62
7
  6
BYLAYER
 10
60.1932567952
 20
189.8468006885
 11
60.1932567952
 21
191.4798055228
  0
LINE
  5
247
100
AcDbEntity
  8
0
100
AcDbLine
 62
7
  6
BYLAYER
 10
60.2297700952
 20
173.5533588677
 11
60.2297700952
 21
174.7781124934
  0
LINE
  5
248
100
AcDbEntity
  8
0
100
AcDbLine
 62
7
  6
BYLAYER
 10
60.8733342196
 20
175.6936754423
 11
60.8733342196
 21
175.4632548483
  0
LINE
  5
249
100
AcDbEntity
  8
0
100
AcDbLine
 62
7
  6
BYLAYER
 10
60.8749822529
 20
190.4591324646
 11
60.8749822529
 21
188.4178764218
  0
LINE
  5
24A
100
AcDbEntity
  8
0
100
AcDbLine
 62
7
  6
BYLAYER
 10
61.1006195689
 20
171.1038887135
 11
61.1006195689
 21
179.2689128848
  0
LINE
  5
24B
100
AcDbEntity
  8
0
100
AcDbLine
 62
7
  6
BYLAYER
 10
61.4097759051
 20
137.4911755512
 11
61.4097759051
 21
140.675534978
  0
LINE
  5
24C
100
AcDbEntity
  8
0
100
AcDbLine
 62
7
  6
BYLAYER
 10
61.4804680362
 20
137.1292436982
 11
61.4804680362
 21
132.3876674553
  0
LINE
  5
24D
100
AcDbEntity
  8
0
100
AcDbLine
 62
7
  6
BYLAYER
 10
61.9339355314
 20
144.6598425834
 11
61.9339355314
 21
149.4875563994
  0
LINE
  5
24E
100
AcDbEntity
  8
0
100
AcDbLine
 62
7
  6
BYLAYER
 10
62.2583005098
 20
137.9810685359
 11
62.2583005098
 21
141.1654279627
  0
LINE
  5
24F
100
AcDbEntity
  8
0
100
AcDbLine
 62
7
  6
BYLAYER
 10
62.641199267
 20
136.0266665316
 11
62.641199267
 21
139.2239891966
  0
LINE
  5
250
100
AcDbEntity
  8
0
100
AcDbLine
 62
7
  6
BYLAYER
 10
63.1068174601
 20
139.5323919014
 11
63.1068174601
 21
142.7167513282
  0
LINE
  5
251
100
AcDbEntity
  8
0
100
AcDbLine
 62
7
  6
BYLAYER
 10
63.3482275694
 20
157.2670922935
 11
63.3482275694
 21
156.7135649506
  0
LINE
  5
252
100
AcDbEntity
  8
0
100
AcDbLine
 62
7
  6
BYLAYER
 10
63.6006195689
 20
172.2321278251
 11
63.6006195689
 21
179.2689128848
  0
LINE
  5
253
100
AcDbEntity
  8
0
100
AcDbLine
 62
7
  6
BYLAYER
 10
63.6724445945
 20
147.6155938543
 11
63.6724445945
 21
150.7999532811
  0
LINE
  5
254
100
AcDbEntity
  8
0
100
AcDbLine
 62
7
  6
BYLAYER
 10
63.7651078013
 20
172.7367452489
 11
63.7651078013
 21
173.9615405799
  0
LINE
  5
255
100
AcDbEntity
  8
0
100
AcDbLine
 62
7
  6
BYLAYER
 10
63.9972460765
 20
139.0183143301
 11
63.9972460765
 21
142.2026737569
  0
LINE
  5
256
100
AcDbEntity
  8
0
100
AcDbLine
 62
7
  6
BYLAYER
 10
64.6888414014
 20
139.4176046936
 11
64.6888414014
 21
142.6019641204
  0
LINE
  5
257
100
AcDbEntity
  8
0
100
AcDbLine
 62
7
  6
BYLAYER
 10
61.4097759051
 20
140.675534978
 11
57.012499367
 21
143.2142463377
  0
LINE
  5
258
100
AcDbEntity
  8
0
100
AcDbLine
 62
7
  6
BYLAYER
 10
51.8411274021
 20
146.1998717898
 11
46.576580402
 21
149.2392906567
  0
LINE
  5
259
100
AcDbEntity
  8
0
100
AcDbLine
 62
7
  6
BYLAYER
 10
61.3390578671
 20
141.6961409436
 11
62.2583005098
 21
141.1654279627
  0
LINE
  5
25A
100
AcDbEntity
  8
0
100
AcDbLine
 62
7
  6
BYLAYER
 10
69.18789103
 20
137.4965666267
 11
70.2485556177
 21
136.8842054949
  0
LINE
  5
25B
100
AcDbEntity
  8
0
100
AcDbLine
 62
7
  6
BYLAYER
 10
68.9050494951
 20
137.8989584335
 11
69.9657140828
 21
137.2865973017
  0
LINE
  5
25C
100
AcDbEntity
  8
0
100
AcDbLine
 62
7
  6
BYLAYER
 10
68.2983674189
 20
139.2924249261
 11
65.5293651987
 21
140.8912636849
  0
LINE
  5
25D
100
AcDbEntity
  8
0
100
AcDbLine
 62
7
  6
BYLAYER
 10
63.9972460765
 20
142.2026737569
 11
63.1068174601
 21
142.7167513282
  0
LINE
  5
25E
100
AcDbEntity
  8
0
100
AcDbLine
 62
7
  6
BYLAYER
 10
39.4632932094
 20
158.2965191383
 11
38.7537454986
 21
158.7062163112
  0
LINE
  5
25F
100
AcDbEntity
  8
0
100
AcDbLine
 62
7
  6
BYLAYER
 10
41.5845324924
 20
159.5212098989
 11
38.7537454986
 21
161.1557235626
  0
LINE
  5
260
100
AcDbEntity
  8
0
100
AcDbLine
 62
7
  6
BYLAYER
 10
71.3092296261
 20
143.2065937054
 11
63.6724445945
 21
147.6155938543
  0
LINE
  5
261
100
AcDbEntity
  8
0
100
AcDbLine
 62
7
  6
BYLAYER
 10
40.5215124489
 20
161.1556669269
 11
42.4684122905
 21
160.0315150922
  0
LINE
  5
262
100
AcDbEntity
  8
0
100
AcDbLine
 62
7
  6
BYLAYER
 10
56.6761979898
 20
153.4150172135
 11
63.6724445945
 21
148.1889129874
  0
LINE
  5
263
100
AcDbEntity
  8
0
100
AcDbLine
 62
7
  6
BYLAYER
 10
64.1053559854
 20
151.0498932972
 11
56.6761979898
 21
156.5993766403
  0
LINE
  5
264
100
AcDbEntity
  8
0
100
AcDbLine
 62
7
  6
BYLAYER
 10
78.8045032161
 20
143.6143765877
 11
79.087344751
 21
143.2119847809
  0
LINE
  5
265
100
AcDbEntity
  8
0
100
AcDbLine
 62
7
  6
BYLAYER
 10
80.1480093387
 20
142.5996236491
 11
79.8651678038
 21
143.0020154559
  0
LINE
  5
266
100
AcDbEntity
  8
0
100
AcDbLine
 62
7
  6
BYLAYER
 10
65.0029076261
 20
174.6760951168
 11
65.0029076261
 21
177.7377436305
  0
LINE
  5
267
100
AcDbEntity
  8
0
100
AcDbLine
 62
7
  6
BYLAYER
 10
65.1797922281
 20
174.7779161843
 11
65.1797922281
 21
178.8604047143
  0
LINE
  5
268
100
AcDbEntity
  8
0
100
AcDbLine
 62
7
  6
BYLAYER
 10
66.0636266546
 20
178.3500733295
 11
66.0636266546
 21
175.2884248158
  0
LINE
  5
269
100
AcDbEntity
  8
0
100
AcDbLine
 62
7
  6
BYLAYER
 10
66.5756517108
 20
159.1304353677
 11
66.5756517108
 21
162.3147947945
  0
LINE
  5
26A
100
AcDbEntity
  8
0
100
AcDbLine
 62
7
  6
BYLAYER
 10
66.7577877207
 20
174.369647108
 11
66.7577877207
 21
182.5346712793
  0
LINE
  5
26B
100
AcDbEntity
  8
0
100
AcDbLine
 62
7
  6
BYLAYER
 10
68.2983674189
 20
142.4897475911
 11
68.2983674189
 21
139.2924249261
  0
LINE
  5
26C
100
AcDbEntity
  8
0
100
AcDbLine
 62
7
  6
BYLAYER
 10
68.6535884617
 20
197.3302762847
 11
68.6535884617
 21
192.9082942143
  0
LINE
  5
26D
100
AcDbEntity
  8
0
100
AcDbLine
 62
7
  6
BYLAYER
 10
68.9050494951
 20
137.8989584335
 11
68.9050494951
 21
144.59461635
  0
LINE
  5
26E
100
AcDbEntity
  8
0
100
AcDbLine
 62
7
  6
BYLAYER
 10
69.0047678991
 20
156.3703293977
 11
69.004767899
 21
152.4882036974
  0
LINE
  5
26F
100
AcDbEntity
  8
0
100
AcDbLine
 62
7
  6
BYLAYER
 10
69.2577877207
 20
175.4982758841
 11
69.2577877207
 21
182.5346712793
  0
LINE
  5
270
100
AcDbEntity
  8
0
100
AcDbLine
 62
7
  6
BYLAYER
 10
69.3590864474
 20
179.7134173476
 11
69.3590864474
 21
180.5923130341
  0
LINE
  5
271
100
AcDbEntity
  8
0
100
AcDbLine
 62
7
  6
BYLAYER
 10
69.952929759
 20
179.3705286
 11
69.952929759
 21
178.1457749743
  0
LINE
  5
272
100
AcDbEntity
  8
0
100
AcDbLine
 62
7
  6
BYLAYER
 10
69.9657140828
 20
137.2865973017
 11
69.9657140828
 21
143.9822552182
  0
LINE
  5
273
100
AcDbEntity
  8
0
100
AcDbLine
 62
7
  6
BYLAYER
 10
70.0654869275
 20
151.6958605296
 11
70.0654869275
 21
156.0275015502
  0
LINE
  5
274
100
AcDbEntity
  8
0
100
AcDbLine
 62
7
  6
BYLAYER
 10
70.419059937
 20
156.2316114499
 11
70.419059937
 21
156.2594599564
  0
LINE
  5
275
100
AcDbEntity
  8
0
100
AcDbLine
 62
7
  6
BYLAYER
 10
70.5752182558
 20
177.280254772
 11
70.5752182558
 21
178.5050083977
  0
LINE
  5
276
100
AcDbEntity
  8
0
100
AcDbLine
 62
7
  6
BYLAYER
 10
71.3092296261
 20
143.2065937054
 11
71.3092296261
 21
146.3909531322
  0
LINE
  5
277
100
AcDbEntity
  8
0
100
AcDbLine
 62
7
  6
BYLAYER
 10
71.3799217572
 20
142.8446618524
 11
71.3799217572
 21
138.1030856094
  0
LINE
  5
278
100
AcDbEntity
  8
0
100
AcDbLine
 62
7
  6
BYLAYER
 10
72.1577542308
 20
143.6964866901
 11
72.1577542308
 21
146.8808461169
  0
LINE
  5
279
100
AcDbEntity
  8
0
100
AcDbLine
 62
7
  6
BYLAYER
 10
43.1718623809
 20
147.5652456164
 11
43.0602967901
 21
147.3186590911
  0
LINE
  5
27A
100
AcDbEntity
  8
0
100
AcDbLine
 62
7
  6
BYLAYER
 10
56.1739869905
 20
142.7301338811
 11
44.0163102799
 21
145.9876035185
  0
LINE
  5
27B
100
AcDbEntity
  8
0
100
AcDbLine
 62
7
  6
BYLAYER
 10
45.3304024593
 20
146.9880007631
 11
54.7883405755
 21
144.4538861474
  0
LINE
  5
27C
100
AcDbEntity
  8
0
100
AcDbLine
 62
7
  6
BYLAYER
 10
41.2286584679
 20
161.5638867262
 11
40.3448240414
 21
162.074218111
  0
LINE
  5
27D
100
AcDbEntity
  8
0
100
AcDbLine
 62
7
  6
BYLAYER
 10
76.0768559111
 20
142.5581153578
 11
72.2472523791
 21
144.7693517784
  0
LINE
  5
27E
100
AcDbEntity
  8
0
100
AcDbLine
 62
7
  6
BYLAYER
 10
41.2286584679
 20
162.7886403519
 11
40.3448240414
 21
163.2989717367
  0
LINE
  5
27F
100
AcDbEntity
  8
0
100
AcDbLine
 62
7
  6
BYLAYER
 10
73.8966997974
 20
144.7337324843
 11
73.0062711811
 21
145.2478100556
  0
LINE
  5
280
100
AcDbEntity
  8
0
100
AcDbLine
 62
7
  6
BYLAYER
 10
71.3092296261
 20
146.3909531322
 11
63.6724445945
 21
150.7999532811
  0
LINE
  5
281
100
AcDbEntity
  8
0
100
AcDbLine
 62
7
  6
BYLAYER
 10
39.3453037023
 20
165.6696772275
 11
41.4270238125
 21
164.4676793479
  0
LINE
  5
282
100
AcDbEntity
  8
0
100
AcDbLine
 62
7
  6
BYLAYER
 10
71.2385115881
 20
147.4115590978
 11
72.1577542308
 21
146.8808461169
  0
LINE
  5
283
100
AcDbEntity
  8
0
100
AcDbLine
 62
7
  6
BYLAYER
 10
46.0039675991
 20
162.0727567167
 11
45.1179615723
 21
162.5843419968
  0
LINE
  5
284
100
AcDbEntity
  8
0
100
AcDbLine
 62
7
  6
BYLAYER
 10
79.087344751
 20
143.2119847809
 11
80.1480093387
 21
142.5996236491
  0
LINE
  5
285
100
AcDbEntity
  8
0
100
AcDbLine
 62
7
  6
BYLAYER
 10
78.8045032161
 20
143.6143765877
 11
79.8651678038
 21
143.0020154559
  0
LINE
  5
286
100
AcDbEntity
  8
0
100
AcDbLine
 62
7
  6
BYLAYER
 10
74.5882951224
 20
146.3414396134
 11
78.8045032161
 21
143.9069753626
  0
LINE
  5
287
100
AcDbEntity
  8
0
100
AcDbLine
 62
7
  6
BYLAYER
 10
46.7110834763
 20
162.4810078219
 11
45.6483799449
 21
163.094619318
  0
LINE
  5
288
100
AcDbEntity
  8
0
100
AcDbLine
 62
7
  6
BYLAYER
 10
47.0646233568
 20
162.6851229486
 11
46.1786806008
 21
163.1966716957
  0
LINE
  5
289
100
AcDbEntity
  8
0
100
AcDbLine
 62
7
  6
BYLAYER
 10
73.8966997974
 20
147.9180919111
 11
73.0062711811
 21
148.4321694824
  0
LINE
  5
28A
100
AcDbEntity
  8
0
100
AcDbLine
 62
7
  6
BYLAYER
 10
45.1179615723
 20
165.6025190579
 11
45.2948461742
 21
165.5003848106
  0
LINE
  5
28B
100
AcDbEntity
  8
0
100
AcDbLine
 62
7
  6
BYLAYER
 10
44.2341271458
 20
166.7689342586
 11
45.1179615723
 21
166.2586028738
  0
LINE
  5
28C
100
AcDbEntity
  8
0
100
AcDbLine
 62
7
  6
BYLAYER
 10
45.2948461742
 20
167.1333896449
 11
38.2454856287
 21
171.2037333893
  0
LINE
  5
28D
100
AcDbEntity
  8
0
100
AcDbLine
 62
7
  6
BYLAYER
 10
46.1786806008
 20
166.8709325728
 11
45.2948461742
 21
167.3812639576
  0
LINE
  5
28E
100
AcDbEntity
  8
0
100
AcDbLine
 62
7
  6
BYLAYER
 10
48.8301838803
 20
165.3399384185
 11
50.2464822812
 21
164.5221590895
  0
LINE
  5
28F
100
AcDbEntity
  8
0
100
AcDbLine
 62
7
  6
BYLAYER
 10
60.5257615693
 20
158.8219099424
 11
74.5882951224
 21
148.3173822746
  0
LINE
  5
290
100
AcDbEntity
  8
0
100
AcDbLine
 62
7
  6
BYLAYER
 10
66.5756517108
 20
159.1304353677
 11
73.5718983155
 21
153.9043311416
  0
LINE
  5
291
100
AcDbEntity
  8
0
100
AcDbLine
 62
7
  6
BYLAYER
 10
60.8749822529
 20
190.4591324646
 11
62.2891173353
 21
187.6013462062
  0
LINE
  5
292
100
AcDbEntity
  8
0
100
AcDbLine
 62
7
  6
BYLAYER
 10
63.7034093732
 20
188.4177858048
 11
62.2892742908
 21
191.2755720633
  0
LINE
  5
293
100
AcDbEntity
  8
0
100
AcDbLine
 62
7
  6
BYLAYER
 10
75.8359829545
 20
164.3585904427
 11
75.6287746117
 21
165.3711660493
  0
LINE
  5
294
100
AcDbEntity
  8
0
100
AcDbLine
 62
7
  6
BYLAYER
 10
73.0062711811
 20
145.2478100556
 11
73.0062711811
 21
148.4321694824
  0
LINE
  5
295
100
AcDbEntity
  8
0
100
AcDbLine
 62
7
  6
BYLAYER
 10
73.5718983155
 20
153.3310120084
 11
73.5718983155
 21
156.5153714353
  0
LINE
  5
296
100
AcDbEntity
  8
0
100
AcDbLine
 62
7
  6
BYLAYER
 10
73.8966997974
 20
144.7337324843
 11
73.8966997974
 21
147.9180919111
  0
LINE
  5
297
100
AcDbEntity
  8
0
100
AcDbLine
 62
7
  6
BYLAYER
 10
74.5882951224
 20
145.1330228478
 11
74.5882951224
 21
148.3173822746
  0
LINE
  5
298
100
AcDbEntity
  8
0
100
AcDbLine
 62
7
  6
BYLAYER
 10
74.8799694648
 20
165.6896460155
 11
74.8799694648
 21
167.109266266
  0
LINE
  5
299
100
AcDbEntity
  8
0
100
AcDbLine
 62
7
  6
BYLAYER
 10
75.3714756421
 20
201.2083643782
 11
75.3714756421
 21
196.7863823077
  0
LINE
  5
29A
100
AcDbEntity
  8
0
100
AcDbLine
 62
7
  6
BYLAYER
 10
76.0768559111
 20
145.4819355413
 11
76.0768559111
 21
142.5581153578
  0
LINE
  5
29B
100
AcDbEntity
  8
0
100
AcDbLine
 62
7
  6
BYLAYER
 10
78.6764681382
 20
184.5305964023
 11
78.6764681382
 21
181.3462369755
  0
LINE
  5
29C
100
AcDbEntity
  8
0
100
AcDbLine
 62
7
  6
BYLAYER
 10
78.8045032161
 20
143.6143765877
 11
78.8045032161
 21
150.3100345042
  0
LINE
  5
29D
100
AcDbEntity
  8
0
100
AcDbLine
 62
7
  6
BYLAYER
 10
78.8476235045
 20
165.8604781797
 11
78.8476235045
 21
166.9294635334
  0
LINE
  5
29E
100
AcDbEntity
  8
0
100
AcDbLine
 62
7
  6
BYLAYER
 10
79.8651678038
 20
143.0020154559
 11
79.8651678038
 21
149.6976733724
  0
LINE
  5
29F
100
AcDbEntity
  8
0
100
AcDbLine
 62
7
  6
BYLAYER
 10
55.9197067151
 20
145.1070767936
 11
46.4617685988
 21
147.6411914093
  0
LINE
  5
2A0
100
AcDbEntity
  8
0
100
AcDbLine
 62
7
  6
BYLAYER
 10
81.2086833471
 20
148.9220118596
 11
73.5718983155
 21
153.3310120084
  0
LINE
  5
2A1
100
AcDbEntity
  8
0
100
AcDbLine
 62
7
  6
BYLAYER
 10
65.4000586843
 20
158.4517104688
 11
69.0047678991
 21
156.3703293977
  0
LINE
  5
2A2
100
AcDbEntity
  8
0
100
AcDbLine
 62
7
  6
BYLAYER
 10
49.2690068009
 20
168.450705604
 11
50.1528412275
 21
167.9403742193
  0
LINE
  5
2A3
100
AcDbEntity
  8
0
100
AcDbLine
 62
7
  6
BYLAYER
 10
50.8470022936
 20
167.5396030941
 11
50.3297258294
 21
167.8382816773
  0
LINE
  5
2A4
100
AcDbEntity
  8
0
100
AcDbLine
 62
7
  6
BYLAYER
 10
54.2204058534
 20
166.8164912384
 11
53.3470022936
 21
167.3207997772
  0
LINE
  5
2A5
100
AcDbEntity
  8
0
100
AcDbLine
 62
7
  6
BYLAYER
 10
50.8470022936
 20
168.7643567198
 11
50.3297258294
 21
169.063035303
  0
LINE
  5
2A6
100
AcDbEntity
  8
0
100
AcDbLine
 62
7
  6
BYLAYER
 10
83.7961535184
 20
150.4491506385
 11
82.9057249021
 21
150.9632282098
  0
LINE
  5
2A7
100
AcDbEntity
  8
0
100
AcDbLine
 62
7
  6
BYLAYER
 10
81.2086833471
 20
152.1063712864
 11
73.5718983155
 21
156.5153714353
  0
LINE
  5
2A8
100
AcDbEntity
  8
0
100
AcDbLine
 62
7
  6
BYLAYER
 10
50.8470022936
 20
169.6432524063
 11
43.1955077616
 21
174.0612719845
  0
LINE
  5
2A9
100
AcDbEntity
  8
0
100
AcDbLine
 62
7
  6
BYLAYER
 10
53.8650635355
 20
168.2464633896
 11
55.2810616111
 21
167.4288574703
  0
LINE
  5
2AA
100
AcDbEntity
  8
0
100
AcDbLine
 62
7
  6
BYLAYER
 10
81.1379653091
 20
153.1269772519
 11
82.0572079518
 21
152.5962642711
  0
LINE
  5
2AB
100
AcDbEntity
  8
0
100
AcDbLine
 62
7
  6
BYLAYER
 10
83.7961535184
 20
153.6335100653
 11
82.9057249021
 21
154.1475876366
  0
LINE
  5
2AC
100
AcDbEntity
  8
0
100
AcDbLine
 62
7
  6
BYLAYER
 10
91.1081099836
 20
150.1521353967
 11
92.1687745713
 21
149.5397742649
  0
LINE
  5
2AD
100
AcDbEntity
  8
0
100
AcDbLine
 62
7
  6
BYLAYER
 10
90.8252684487
 20
150.5545272035
 11
91.8859330364
 21
149.9421660717
  0
LINE
  5
2AE
100
AcDbEntity
  8
0
100
AcDbLine
 62
7
  6
BYLAYER
 10
74.0048097064
 20
156.7653114514
 11
66.5756517108
 21
162.3147947945
  0
LINE
  5
2AF
100
AcDbEntity
  8
0
100
AcDbLine
 62
7
  6
BYLAYER
 10
70.4252152903
 20
164.5373280966
 11
84.4877488433
 21
154.0328004288
  0
LINE
  5
2B0
100
AcDbEntity
  8
0
100
AcDbLine
 62
7
  6
BYLAYER
 10
90.8252684487
 20
150.5545272035
 11
91.1081099836
 21
150.1521353967
  0
LINE
  5
2B1
100
AcDbEntity
  8
0
100
AcDbLine
 62
7
  6
BYLAYER
 10
92.1687745713
 20
149.5397742649
 11
91.8859330364
 21
149.9421660717
  0
LINE
  5
2B2
100
AcDbEntity
  8
0
100
AcDbLine
 62
7
  6
BYLAYER
 10
81.2086833471
 20
148.9220118596
 11
81.2086833471
 21
152.1063712864
  0
LINE
  5
2B3
100
AcDbEntity
  8
0
100
AcDbLine
 62
7
  6
BYLAYER
 10
81.2793754782
 20
148.5600800066
 11
81.2793754782
 21
143.8185037636
  0
LINE
  5
2B4
100
AcDbEntity
  8
0
100
AcDbLine
 62
7
  6
BYLAYER
 10
82.0572079518
 20
149.4119048443
 11
82.0572079518
 21
152.5962642711
  0
LINE
  5
2B5
100
AcDbEntity
  8
0
100
AcDbLine
 62
7
  6
BYLAYER
 10
82.9057249021
 20
150.9632282098
 11
82.9057249021
 21
154.1475876366
  0
LINE
  5
2B6
100
AcDbEntity
  8
0
100
AcDbLine
 62
7
  6
BYLAYER
 10
83.5020068271
 20
188.7567090203
 11
83.5020068271
 21
187.3150873633
  0
LINE
  5
2B7
100
AcDbEntity
  8
0
100
AcDbLine
 62
7
  6
BYLAYER
 10
83.7961535184
 20
150.4491506385
 11
83.7961535184
 21
153.6335100653
  0
LINE
  5
2B8
100
AcDbEntity
  8
0
100
AcDbLine
 62
7
  6
BYLAYER
 10
84.1233349782
 20
187.6736136817
 11
84.1233349782
 21
189.1428921744
  0
LINE
  5
2B9
100
AcDbEntity
  8
0
100
AcDbLine
 62
7
  6
BYLAYER
 10
84.4877488433
 20
150.848441002
 11
84.4877488433
 21
154.0328004288
  0
LINE
  5
2BA
100
AcDbEntity
  8
0
100
AcDbLine
 62
7
  6
BYLAYER
 10
86.2452246669
 20
188.733882414
 11
86.2452246669
 21
190.367290742
  0
LINE
  5
2BB
100
AcDbEntity
  8
0
100
AcDbLine
 62
7
  6
BYLAYER
 10
61.4804680362
 20
132.3876674553
 11
61.1976265014
 21
131.6586803253
  0
LINE
  5
2BC
100
AcDbEntity
  8
0
100
AcDbLine
 62
7
  6
BYLAYER
 10
61.9373885535
 20
205.3598779986
 11
53.4516363257
 21
200.4612404069
  0
LINE
  5
2BD
100
AcDbEntity
  8
0
100
AcDbLine
 62
7
  6
BYLAYER
 10
39.308715946
 20
192.2968444206
 11
30.8229637181
 21
187.3982068289
  0
LINE
  5
2BE
100
AcDbEntity
  8
0
100
AcDbLine
 62
7
  6
BYLAYER
 10
43.4411886514
 20
147.5385733975
 11
43.1718623809
 21
147.5652456164
  0
LINE
  5
2BF
100
AcDbEntity
  8
0
100
AcDbLine
 62
7
  6
BYLAYER
 10
80.9757939221
 20
143.0459173624
 11
80.9581915842
 21
143.0491570601
  0
LINE
  5
2C0
100
AcDbEntity
  8
0
100
AcDbLine
 62
7
  6
BYLAYER
 10
92.8822821898
 20
151.6665788616
 11
93.8738561178
 21
151.1517452369
  0
LINE
  5
2C1
100
AcDbEntity
  8
0
100
AcDbLine
 62
7
  6
BYLAYER
 10
93.3430819023
 20
152.5540830165
 11
94.3643369238
 21
152.0238387154
  0
LINE
  5
2C2
100
AcDbEntity
  8
0
100
AcDbLine
 62
7
  6
BYLAYER
 10
59.1701327227
 20
169.6742003206
 11
59.0041704455
 21
169.770027951
  0
LINE
  5
2C3
100
AcDbEntity
  8
0
100
AcDbLine
 62
7
  6
BYLAYER
 10
54.2190289338
 20
172.5329978249
 11
55.1028633604
 21
172.0226664401
  0
LINE
  5
2C4
100
AcDbEntity
  8
0
100
AcDbLine
 62
7
  6
BYLAYER
 10
56.1635823888
 20
172.6349961391
 11
55.2797479623
 21
173.1453275239
  0
LINE
  5
2C5
100
AcDbEntity
  8
0
100
AcDbLine
 62
7
  6
BYLAYER
 10
59.0041704455
 20
170.994823282
 11
60.2307884804
 21
170.2865665525
  0
LINE
  5
2C6
100
AcDbEntity
  8
0
100
AcDbLine
 62
7
  6
BYLAYER
 10
44.9643145423
 20
179.2329046723
 11
30.8229637181
 21
187.3982068289
  0
LINE
  5
2C7
100
AcDbEntity
  8
0
100
AcDbLine
 62
7
  6
BYLAYER
 10
46.0249158542
 20
179.8452606363
 11
44.9643145423
 21
180.457658298
  0
LINE
  5
2C8
100
AcDbEntity
  8
0
100
AcDbLine
 62
7
  6
BYLAYER
 10
59.1690510667
 20
174.1657827944
 11
60.0528854933
 21
173.6554514096
  0
LINE
  5
2C9
100
AcDbEntity
  8
0
100
AcDbLine
 62
7
  6
BYLAYER
 10
61.1006195689
 20
173.0505250738
 11
60.2297700952
 21
173.5533588677
  0
LINE
  5
2CA
100
AcDbEntity
  8
0
100
AcDbLine
 62
7
  6
BYLAYER
 10
64.119859592
 20
172.5319094027
 11
63.6006195689
 21
172.8317217568
  0
LINE
  5
2CB
100
AcDbEntity
  8
0
100
AcDbLine
 62
7
  6
BYLAYER
 10
61.1006195689
 20
174.2752786995
 11
60.2297700952
 21
174.7781124934
  0
LINE
  5
2CC
100
AcDbEntity
  8
0
100
AcDbLine
 62
7
  6
BYLAYER
 10
80.8309956397
 20
163.0202506803
 11
93.2294485797
 21
155.8621624754
  0
LINE
  5
2CD
100
AcDbEntity
  8
0
100
AcDbLine
 62
7
  6
BYLAYER
 10
76.2042311813
 20
166.3447207039
 11
74.8799694648
 21
167.109266266
  0
LINE
  5
2CE
100
AcDbEntity
  8
0
100
AcDbLine
 62
7
  6
BYLAYER
 10
63.7651078013
 20
173.9615405799
 11
65.1805153497
 21
173.1442756346
  0
LINE
  5
2CF
100
AcDbEntity
  8
0
100
AcDbLine
 62
7
  6
BYLAYER
 10
60.8733342196
 20
175.6936754423
 11
58.9630410754
 21
176.7966903469
  0
LINE
  5
2D0
100
AcDbEntity
  8
0
100
AcDbLine
 62
7
  6
BYLAYER
 10
58.0681568137
 20
177.3134019738
 11
46.0249158542
 21
184.2672427067
  0
LINE
  5
2D1
100
AcDbEntity
  8
0
100
AcDbLine
 62
7
  6
BYLAYER
 10
88.4958706644
 20
171.7860041377
 11
88.4958706644
 21
174.9703635645
  0
LINE
  5
2D2
100
AcDbEntity
  8
0
100
AcDbLine
 62
7
  6
BYLAYER
 10
90.2198940075
 20
192.6347971138
 11
90.2198940075
 21
191.1915242413
  0
LINE
  5
2D3
100
AcDbEntity
  8
0
100
AcDbLine
 62
7
  6
BYLAYER
 10
90.8252684487
 20
150.5545272035
 11
90.8252684487
 21
157.25018512
  0
LINE
  5
2D4
100
AcDbEntity
  8
0
100
AcDbLine
 62
7
  6
BYLAYER
 10
91.8859330364
 20
149.9421660717
 11
91.8859330364
 21
156.6378239882
  0
LINE
  5
2D5
100
AcDbEntity
  8
0
100
AcDbLine
 62
7
  6
BYLAYER
 10
91.9877590549
 20
192.2116392093
 11
91.9877590549
 21
193.6553466121
  0
LINE
  5
2D6
100
AcDbEntity
  8
0
100
AcDbLine
 62
7
  6
BYLAYER
 10
93.2294485797
 20
155.8621624754
 11
93.2294485797
 21
159.0465219022
  0
LINE
  5
2D7
100
AcDbEntity
  8
0
100
AcDbLine
 62
7
  6
BYLAYER
 10
93.3001407109
 20
155.5002306224
 11
93.3001407109
 21
150.7586543795
  0
LINE
  5
2D8
100
AcDbEntity
  8
0
100
AcDbLine
 62
7
  6
BYLAYER
 10
94.0779731844
 20
156.3520554601
 11
94.0779731844
 21
159.5364148869
  0
LINE
  5
2D9
100
AcDbEntity
  8
0
100
AcDbLine
 62
7
  6
BYLAYER
 10
94.9264901347
 20
157.9033788256
 11
94.9264901347
 21
161.0877382524
  0
LINE
  5
2DA
100
AcDbEntity
  8
0
100
AcDbLine
 62
7
  6
BYLAYER
 10
95.4921172691
 20
165.9865807785
 11
95.4921172691
 21
169.1709402053
  0
LINE
  5
2DB
100
AcDbEntity
  8
0
100
AcDbLine
 62
7
  6
BYLAYER
 10
95.8169187511
 20
157.3893012543
 11
95.8169187511
 21
160.5736606811
  0
LINE
  5
2DC
100
AcDbEntity
  8
0
100
AcDbLine
 62
7
  6
BYLAYER
 10
95.8998227503
 20
194.4690257314
 11
95.8998227503
 21
195.9383042241
  0
LINE
  5
2DD
100
AcDbEntity
  8
0
100
AcDbLine
 62
7
  6
BYLAYER
 10
71.3799217572
 20
138.1030856094
 11
71.0970802223
 21
137.3740984795
  0
LINE
  5
2DE
100
AcDbEntity
  8
0
100
AcDbLine
 62
7
  6
BYLAYER
 10
74.9915350556
 20
165.9362325406
 11
74.8799694648
 21
165.6896460155
  0
LINE
  5
2DF
100
AcDbEntity
  8
0
100
AcDbLine
 62
7
  6
BYLAYER
 10
44.9652562756
 20
189.030723558
 11
59.1081766554
 21
197.1951195443
  0
LINE
  5
2E0
100
AcDbEntity
  8
0
100
AcDbLine
 62
7
  6
BYLAYER
 10
77.1393406895
 20
202.2289138765
 11
75.3714756421
 21
201.2083643782
  0
LINE
  5
2E1
100
AcDbEntity
  8
0
100
AcDbLine
 62
7
  6
BYLAYER
 10
69.7143074902
 20
197.9426059837
 11
68.6535884617
 21
197.3302762847
  0
LINE
  5
2E2
100
AcDbEntity
  8
0
100
AcDbLine
 62
7
  6
BYLAYER
 10
54.510668082
 20
189.1658802985
 11
53.4499490535
 21
188.5535505995
  0
LINE
  5
2E3
100
AcDbEntity
  8
0
100
AcDbLine
 62
7
  6
BYLAYER
 10
47.7927809016
 20
185.287792205
 11
46.0249158542
 21
184.2672427067
  0
LINE
  5
2E4
100
AcDbEntity
  8
0
100
AcDbLine
 62
7
  6
BYLAYER
 10
60.8749822529
 20
190.4591324646
 11
62.2892742908
 21
191.2755720633
  0
LINE
  5
2E5
100
AcDbEntity
  8
0
100
AcDbLine
 62
7
  6
BYLAYER
 10
81.0159402667
 20
143.1395338985
 11
80.9971647095
 21
143.1397695661
  0
LINE
  5
2E6
100
AcDbEntity
  8
0
100
AcDbLine
 62
7
  6
BYLAYER
 10
104.1356147741
 20
157.0884696323
 11
103.1116953484
 21
157.6200973148
  0
LINE
  5
2E7
100
AcDbEntity
  8
0
100
AcDbLine
 62
7
  6
BYLAYER
 10
104.5675825427
 20
157.9909435779
 11
103.5791710237
 21
158.504135253
  0
LINE
  5
2E8
100
AcDbEntity
  8
0
100
AcDbLine
 62
7
  6
BYLAYER
 10
95.8169187511
 20
157.3893012543
 11
94.9264901347
 21
157.9033788256
  0
LINE
  5
2E9
100
AcDbEntity
  8
0
100
AcDbLine
 62
7
  6
BYLAYER
 10
93.2294485797
 20
159.0465219022
 11
88.8321720416
 21
161.5852332619
  0
LINE
  5
2EA
100
AcDbEntity
  8
0
100
AcDbLine
 62
7
  6
BYLAYER
 10
83.6608000768
 20
164.570858714
 11
78.3962530766
 21
167.6102775809
  0
LINE
  5
2EB
100
AcDbEntity
  8
0
100
AcDbLine
 62
7
  6
BYLAYER
 10
61.1006195689
 20
177.6037650481
 11
47.7927809016
 21
185.287792205
  0
LINE
  5
2EC
100
AcDbEntity
  8
0
100
AcDbLine
 62
7
  6
BYLAYER
 10
93.1587305417
 20
160.0671278678
 11
94.0779731844
 21
159.5364148869
  0
LINE
  5
2ED
100
AcDbEntity
  8
0
100
AcDbLine
 62
7
  6
BYLAYER
 10
101.0075637046
 20
155.8675535509
 11
102.0682282923
 21
155.2551924191
  0
LINE
  5
2EE
100
AcDbEntity
  8
0
100
AcDbLine
 62
7
  6
BYLAYER
 10
100.7247221697
 20
156.2699453577
 11
101.7853867574
 21
155.6575842259
  0
LINE
  5
2EF
100
AcDbEntity
  8
0
100
AcDbLine
 62
7
  6
BYLAYER
 10
53.4499490535
 20
184.131568529
 11
61.2911513833
 21
179.6040105121
  0
LINE
  5
2F0
100
AcDbEntity
  8
0
100
AcDbLine
 62
7
  6
BYLAYER
 10
63.6006195689
 20
178.2705095057
 11
63.9075700881
 21
178.0932744051
  0
LINE
  5
2F1
100
AcDbEntity
  8
0
100
AcDbLine
 62
7
  6
BYLAYER
 10
65.0029076261
 20
177.4608198346
 11
65.1797922281
 21
177.3586855873
  0
LINE
  5
2F2
100
AcDbEntity
  8
0
100
AcDbLine
 62
7
  6
BYLAYER
 10
39.308715946
 20
192.2968444206
 11
44.9652562756
 21
189.030723558
  0
LINE
  5
2F3
100
AcDbEntity
  8
0
100
AcDbLine
 62
7
  6
BYLAYER
 10
64.1190731996
 20
178.2480750153
 11
65.0029076261
 21
177.7377436305
  0
LINE
  5
2F4
100
AcDbEntity
  8
0
100
AcDbLine
 62
7
  6
BYLAYER
 10
95.8169187511
 20
160.5736606811
 11
94.9264901347
 21
161.0877382524
  0
LINE
  5
2F5
100
AcDbEntity
  8
0
100
AcDbLine
 62
7
  6
BYLAYER
 10
66.0636266546
 20
178.3500733295
 11
65.1797922281
 21
178.8604047143
  0
LINE
  5
2F6
100
AcDbEntity
  8
0
100
AcDbLine
 62
7
  6
BYLAYER
 10
71.4597057841
 20
176.7695462823
 11
70.5752182558
 21
177.280254772
  0
LINE
  5
2F7
100
AcDbEntity
  8
0
100
AcDbLine
 62
7
  6
BYLAYER
 10
72.5203254255
 20
177.3818916626
 11
70.5752182558
 21
178.5050083977
  0
LINE
  5
2F8
100
AcDbEntity
  8
0
100
AcDbLine
 62
7
  6
BYLAYER
 10
66.7577877207
 20
180.8695234426
 11
53.4499490535
 21
188.5535505995
  0
LINE
  5
2F9
100
AcDbEntity
  8
0
100
AcDbLine
 62
7
  6
BYLAYER
 10
69.2577877207
 20
179.7719078498
 11
69.952929759
 21
179.3705286
  0
LINE
  5
2FA
100
AcDbEntity
  8
0
100
AcDbLine
 62
7
  6
BYLAYER
 10
73.4042052236
 20
177.8921968558
 11
70.575316353
 21
179.5256145316
  0
LINE
  5
2FB
100
AcDbEntity
  8
0
100
AcDbLine
 62
7
  6
BYLAYER
 10
69.3590864474
 20
180.5923130341
 11
69.2577877207
 21
180.6508035362
  0
LINE
  5
2FC
100
AcDbEntity
  8
0
100
AcDbLine
 62
7
  6
BYLAYER
 10
66.7577877207
 20
182.0943187736
 11
54.510668082
 21
189.1658802985
  0
LINE
  5
2FD
100
AcDbEntity
  8
0
100
AcDbLine
 62
7
  6
BYLAYER
 10
103.1289023007
 20
161.5775806296
 11
95.4921172691
 21
165.9865807785
  0
LINE
  5
2FE
100
AcDbEntity
  8
0
100
AcDbLine
 62
7
  6
BYLAYER
 10
82.4459805229
 20
171.4774787125
 11
96.508514076
 21
160.9729510446
  0
LINE
  5
2FF
100
AcDbEntity
  8
0
100
AcDbLine
 62
7
  6
BYLAYER
 10
88.4958706644
 20
171.7860041377
 11
95.4921172691
 21
166.5598999116
  0
LINE
  5
300
100
AcDbEntity
  8
0
100
AcDbLine
 62
7
  6
BYLAYER
 10
100.7247221697
 20
156.2699453577
 11
101.0075637046
 21
155.8675535509
  0
LINE
  5
301
100
AcDbEntity
  8
0
100
AcDbLine
 62
7
  6
BYLAYER
 10
102.0682282923
 20
155.2551924191
 11
101.7853867574
 21
155.6575842259
  0
LINE
  5
302
100
AcDbEntity
  8
0
100
AcDbLine
 62
7
  6
BYLAYER
 10
83.2695647059
 20
187.1809607865
 11
81.9569149108
 21
189.64885451
  0
LINE
  5
303
100
AcDbEntity
  8
0
100
AcDbLine
 62
7
  6
BYLAYER
 10
96.508514076
 20
157.7885916178
 11
96.508514076
 21
160.9729510446
  0
LINE
  5
304
100
AcDbEntity
  8
0
100
AcDbLine
 62
7
  6
BYLAYER
 10
98.0217124389
 20
195.5292944636
 11
98.0217124389
 21
197.1627027916
  0
LINE
  5
305
100
AcDbEntity
  8
0
100
AcDbLine
 62
7
  6
BYLAYER
 10
98.3953243854
 20
177.5014222919
 11
98.3953243854
 21
180.6857817187
  0
LINE
  5
306
100
AcDbEntity
  8
0
100
AcDbLine
 62
7
  6
BYLAYER
 10
99.7425932046
 20
172.3617061125
 11
99.7425932046
 21
171.667316382
  0
LINE
  5
307
100
AcDbEntity
  8
0
100
AcDbLine
 62
7
  6
BYLAYER
 10
100.7247221697
 20
156.2699453577
 11
100.7247221697
 21
162.9656032742
  0
LINE
  5
308
100
AcDbEntity
  8
0
100
AcDbLine
 62
7
  6
BYLAYER
 10
100.8783675402
 20
190.0036417698
 11
100.8783675402
 21
188.677795313
  0
LINE
  5
309
100
AcDbEntity
  8
0
100
AcDbLine
 62
7
  6
BYLAYER
 10
101.4493675456
 20
193.2634560137
 11
101.4493675456
 21
191.1400251874
  0
LINE
  5
30A
100
AcDbEntity
  8
0
100
AcDbLine
 62
7
  6
BYLAYER
 10
101.7853867574
 20
155.6575842259
 11
101.7853867574
 21
162.3532421424
  0
LINE
  5
30B
100
AcDbEntity
  8
0
100
AcDbLine
 62
7
  6
BYLAYER
 10
103.1289023007
 20
161.5775806296
 11
103.1289023007
 21
164.7619400564
  0
LINE
  5
30C
100
AcDbEntity
  8
0
100
AcDbLine
 62
7
  6
BYLAYER
 10
103.1995944319
 20
161.2156487766
 11
103.1995944319
 21
156.4740725337
  0
LINE
  5
30D
100
AcDbEntity
  8
0
100
AcDbLine
 62
7
  6
BYLAYER
 10
103.3302914766
 20
193.8005625577
 11
103.3302914766
 21
192.9840601405
  0
LINE
  5
30E
100
AcDbEntity
  8
0
100
AcDbLine
 62
7
  6
BYLAYER
 10
103.9774269054
 20
162.0674736143
 11
103.9774269054
 21
165.2518330411
  0
LINE
  5
30F
100
AcDbEntity
  8
0
100
AcDbLine
 62
7
  6
BYLAYER
 10
99.6759633833
 20
189.9192616159
 11
99.6760393061
 21
190.6920042927
  0
LINE
  5
310
100
AcDbEntity
  8
0
100
AcDbLine
 62
7
  6
BYLAYER
 10
98.6155879605
 20
190.5317896506
 11
98.515342109
 21
190.0420578181
  0
LINE
  5
311
100
AcDbEntity
  8
0
100
AcDbLine
 62
7
  6
BYLAYER
 10
99.5757786466
 20
189.4298283481
 11
99.6759633833
 21
189.9192616159
  0
LINE
  5
312
100
AcDbEntity
  8
0
100
AcDbLine
 62
7
  6
BYLAYER
 10
81.2793754782
 20
143.8185037636
 11
80.9965339433
 21
143.0895166337
  0
LINE
  5
313
100
AcDbEntity
  8
0
100
AcDbLine
 62
7
  6
BYLAYER
 10
98.6155879605
 20
190.5317896506
 11
98.8984306627
 21
191.1411915182
  0
LINE
  5
314
100
AcDbEntity
  8
0
100
AcDbLine
 62
7
  6
BYLAYER
 10
61.8340199548
 20
137.7416169837
 11
61.4804680362
 21
137.1292436982
  0
LINE
  5
315
100
AcDbEntity
  8
0
100
AcDbLine
 62
7
  6
BYLAYER
 10
71.7334736758
 20
143.4570351379
 11
71.3799217572
 21
142.8446618524
  0
LINE
  5
316
100
AcDbEntity
  8
0
100
AcDbLine
 62
7
  6
BYLAYER
 10
75.3714756421
 20
198.0110417132
 11
72.4833097104
 21
196.3437672248
  0
LINE
  5
317
100
AcDbEntity
  8
0
100
AcDbLine
 62
7
  6
BYLAYER
 10
68.6535884617
 20
194.1329536197
 11
62.6035735407
 21
190.6404134504
  0
LINE
  5
318
100
AcDbEntity
  8
0
100
AcDbLine
 62
7
  6
BYLAYER
 10
60.8749822529
 20
189.6425358273
 11
57.2796703022
 21
187.5670415396
  0
LINE
  5
319
100
AcDbEntity
  8
0
100
AcDbLine
 62
7
  6
BYLAYER
 10
53.4499490535
 20
185.3562279345
 11
50.5617831219
 21
183.6889534461
  0
LINE
  5
31A
100
AcDbEntity
  8
0
100
AcDbLine
 62
7
  6
BYLAYER
 10
46.0249158542
 20
181.0699200417
 11
44.9643145423
 21
180.457658298
  0
LINE
  5
31B
100
AcDbEntity
  8
0
100
AcDbLine
 62
7
  6
BYLAYER
 10
62.2891173353
 20
187.6013462062
 11
63.7034093732
 21
188.4177858048
  0
LINE
  5
31C
100
AcDbEntity
  8
0
100
AcDbLine
 62
7
  6
BYLAYER
 10
38.2454856287
 20
171.2037333893
 11
43.1955077616
 21
174.0612719845
  0
LINE
  5
31D
100
AcDbEntity
  8
0
100
AcDbLine
 62
7
  6
BYLAYER
 10
87.9936596651
 20
161.1011208053
 11
75.8359829545
 21
164.3585904427
  0
LINE
  5
31E
100
AcDbEntity
  8
0
100
AcDbLine
 62
7
  6
BYLAYER
 10
77.1500751339
 20
165.3589876873
 11
86.6080132501
 21
162.8248730716
  0
LINE
  5
31F
100
AcDbEntity
  8
0
100
AcDbLine
 62
7
  6
BYLAYER
 10
87.7393793897
 20
163.4780637178
 11
78.2814412734
 21
166.0121783335
  0
LINE
  5
320
100
AcDbEntity
  8
0
100
AcDbLine
 62
7
  6
BYLAYER
 10
60.8749822529
 20
188.4178764218
 11
62.2891173353
 21
187.6013462062
  0
LINE
  5
321
100
AcDbEntity
  8
0
100
AcDbLine
 62
7
  6
BYLAYER
 10
105.7163724721
 20
163.1047194085
 11
104.8259438557
 21
163.6187969798
  0
LINE
  5
322
100
AcDbEntity
  8
0
100
AcDbLine
 62
7
  6
BYLAYER
 10
103.1289023007
 20
164.7619400564
 11
95.4921172691
 21
169.1709402053
  0
LINE
  5
323
100
AcDbEntity
  8
0
100
AcDbLine
 62
7
  6
BYLAYER
 10
103.0581842627
 20
165.782546022
 11
103.9774269054
 21
165.2518330411
  0
LINE
  5
324
100
AcDbEntity
  8
0
100
AcDbLine
 62
7
  6
BYLAYER
 10
110.9070174256
 20
161.5829717051
 11
111.9676820133
 21
160.9706105733
  0
LINE
  5
325
100
AcDbEntity
  8
0
100
AcDbLine
 62
7
  6
BYLAYER
 10
110.6241758907
 20
161.9853635119
 11
111.6848404784
 21
161.3730023801
  0
LINE
  5
326
100
AcDbEntity
  8
0
100
AcDbLine
 62
7
  6
BYLAYER
 10
105.7163724721
 20
166.2890788353
 11
104.8259438557
 21
166.8031564066
  0
LINE
  5
327
100
AcDbEntity
  8
0
100
AcDbLine
 62
7
  6
BYLAYER
 10
78.6764681382
 20
181.3462369755
 11
79.0315471663
 21
181.1411248477
  0
LINE
  5
328
100
AcDbEntity
  8
0
100
AcDbLine
 62
7
  6
BYLAYER
 10
78.6764681382
 20
184.5305964023
 11
81.78857101
 21
182.7328838046
  0
LINE
  5
329
100
AcDbEntity
  8
0
100
AcDbLine
 62
7
  6
BYLAYER
 10
95.6419020586
 20
174.7304787515
 11
99.7425932046
 21
172.3617061125
  0
LINE
  5
32A
100
AcDbEntity
  8
0
100
AcDbLine
 62
7
  6
BYLAYER
 10
95.92502866
 20
169.4208802214
 11
88.4958706644
 21
174.9703635645
  0
LINE
  5
32B
100
AcDbEntity
  8
0
100
AcDbLine
 62
7
  6
BYLAYER
 10
92.3454342439
 20
177.1928968667
 11
106.407967797
 21
166.6883691988
  0
LINE
  5
32C
100
AcDbEntity
  8
0
100
AcDbLine
 62
7
  6
BYLAYER
 10
110.6241758907
 20
161.9853635119
 11
110.9070174256
 21
161.5829717051
  0
LINE
  5
32D
100
AcDbEntity
  8
0
100
AcDbLine
 62
7
  6
BYLAYER
 10
111.9676820133
 20
160.9706105733
 11
111.6848404784
 21
161.3730023801
  0
LINE
  5
32E
100
AcDbEntity
  8
0
100
AcDbLine
 62
7
  6
BYLAYER
 10
100.7369082276
 20
190.5314608996
 11
100.8783675402
 21
190.0036417698
  0
LINE
  5
32F
100
AcDbEntity
  8
0
100
AcDbLine
 62
7
  6
BYLAYER
 10
104.8259438557
 20
163.6187969798
 11
104.8259438557
 21
166.8031564066
  0
LINE
  5
330
100
AcDbEntity
  8
0
100
AcDbLine
 62
7
  6
BYLAYER
 10
105.3915709901
 20
171.7019989327
 11
105.3915709901
 21
174.8863583595
  0
LINE
  5
331
100
AcDbEntity
  8
0
100
AcDbLine
 62
7
  6
BYLAYER
 10
105.7163724721
 20
163.1047194085
 11
105.7163724721
 21
166.2890788353
  0
LINE
  5
332
100
AcDbEntity
  8
0
100
AcDbLine
 62
7
  6
BYLAYER
 10
106.0089818637
 20
190.4164398302
 11
106.0089818637
 21
188.506154638
  0
LINE
  5
333
100
AcDbEntity
  8
0
100
AcDbLine
 62
7
  6
BYLAYER
 10
106.407967797
 20
163.504009772
 11
106.407967797
 21
166.6883691988
  0
LINE
  5
334
100
AcDbEntity
  8
0
100
AcDbLine
 62
7
  6
BYLAYER
 10
106.5582213719
 20
182.2142449327
 11
106.5582213719
 21
185.3986043595
  0
LINE
  5
335
100
AcDbEntity
  8
0
100
AcDbLine
 62
7
  6
BYLAYER
 10
107.6689839654
 20
188.2819619768
 11
107.6689839654
 21
189.4577585047
  0
LINE
  5
336
100
AcDbEntity
  8
0
100
AcDbLine
 62
7
  6
BYLAYER
 10
108.7293593882
 20
187.6694339421
 11
108.7293593882
 21
188.8453724632
  0
LINE
  5
337
100
AcDbEntity
  8
0
100
AcDbLine
 62
7
  6
BYLAYER
 10
110.6241758907
 20
161.9853635119
 11
110.6241758907
 21
168.6810214284
  0
LINE
  5
338
100
AcDbEntity
  8
0
100
AcDbLine
 62
7
  6
BYLAYER
 10
111.6848404784
 20
161.3730023801
 11
111.6848404784
 21
168.0686602966
  0
LINE
  5
339
100
AcDbEntity
  8
0
100
AcDbLine
 62
7
  6
BYLAYER
 10
108.728903851
 20
185.3832482199
 11
108.7293593882
 21
187.6694339421
  0
LINE
  5
33A
100
AcDbEntity
  8
0
100
AcDbLine
 62
7
  6
BYLAYER
 10
93.3001407109
 20
150.7586543795
 11
93.017299176
 21
150.0296672495
  0
LINE
  5
33B
100
AcDbEntity
  8
0
100
AcDbLine
 62
7
  6
BYLAYER
 10
108.6107060894
 20
196.4459510897
 11
108.8005825432
 21
196.8550514999
  0
LINE
  5
33C
100
AcDbEntity
  8
0
100
AcDbLine
 62
7
  6
BYLAYER
 10
81.6329273968
 20
149.1724532921
 11
81.2793754782
 21
148.5600800066
  0
LINE
  5
33D
100
AcDbEntity
  8
0
100
AcDbLine
 62
7
  6
BYLAYER
 10
49.0096381764
 20
173.7889459837
 11
46.3380949353
 21
172.2467229965
  0
LINE
  5
33E
100
AcDbEntity
  8
0
100
AcDbLine
 62
7
  6
BYLAYER
 10
39.8167399296
 20
168.4820885926
 11
35.5738638157
 21
166.0327697968
  0
LINE
  5
33F
100
AcDbEntity
  8
0
100
AcDbLine
 62
7
  6
BYLAYER
 10
50.1095348218
 20
171.8836304273
 11
48.5380574755
 21
170.9764512172
  0
LINE
  5
340
100
AcDbEntity
  8
0
100
AcDbLine
 62
7
  6
BYLAYER
 10
40.916636575
 20
166.5767730362
 11
36.6737604611
 21
164.1274542403
  0
LINE
  5
341
100
AcDbEntity
  8
0
100
AcDbLine
 62
7
  6
BYLAYER
 10
81.4278083443
 20
189.4127387653
 11
69.2577877207
 21
182.3872542922
  0
LINE
  5
342
100
AcDbEntity
  8
0
100
AcDbLine
 62
7
  6
BYLAYER
 10
81.9569149108
 20
189.64885451
 11
69.2577877207
 21
182.3179284866
  0
LINE
  5
343
100
AcDbEntity
  8
0
100
AcDbLine
 62
7
  6
BYLAYER
 10
91.9877590549
 20
193.6553466121
 11
90.2198940075
 21
192.6347971138
  0
LINE
  5
344
100
AcDbEntity
  8
0
100
AcDbLine
 62
7
  6
BYLAYER
 10
84.1233349782
 20
189.1153880574
 11
83.5020068271
 21
188.7567090203
  0
LINE
  5
345
100
AcDbEntity
  8
0
100
AcDbLine
 62
7
  6
BYLAYER
 10
69.3590864474
 20
180.5923130341
 11
69.2577877207
 21
180.5338355135
  0
LINE
  5
346
100
AcDbEntity
  8
0
100
AcDbLine
 62
7
  6
BYLAYER
 10
61.1006195689
 20
175.8248822612
 11
60.8733342196
 21
175.6936754423
  0
LINE
  5
347
100
AcDbEntity
  8
0
100
AcDbLine
 62
7
  6
BYLAYER
 10
50.8470022936
 20
169.9055695443
 11
50.619825742
 21
169.7744255318
  0
LINE
  5
348
100
AcDbEntity
  8
0
100
AcDbLine
 62
7
  6
BYLAYER
 10
50.3297258294
 20
168.3824234725
 11
49.8584423592
 21
168.1103619202
  0
LINE
  5
349
100
AcDbEntity
  8
0
100
AcDbLine
 62
7
  6
BYLAYER
 10
45.2948461742
 20
165.4757728744
 11
45.1179615723
 21
165.3736612952
  0
LINE
  5
34A
100
AcDbEntity
  8
0
100
AcDbLine
 62
7
  6
BYLAYER
 10
38.7537454986
 20
161.1557235626
 11
40.3448240414
 21
162.074218111
  0
LINE
  5
34B
100
AcDbEntity
  8
0
100
AcDbLine
 62
7
  6
BYLAYER
 10
50.1528412275
 20
167.7361700981
 11
50.3297258294
 21
167.8382816773
  0
LINE
  5
34C
100
AcDbEntity
  8
0
100
AcDbLine
 62
7
  6
BYLAYER
 10
60.0528854933
 20
173.4512472885
 11
60.2297700952
 21
173.5533588677
  0
LINE
  5
34D
100
AcDbEntity
  8
0
100
AcDbLine
 62
7
  6
BYLAYER
 10
69.952929759
 20
179.1663244789
 11
70.575316353
 21
179.5256145316
  0
LINE
  5
34E
100
AcDbEntity
  8
0
100
AcDbLine
 62
7
  6
BYLAYER
 10
41.2286584679
 20
161.5638867262
 11
40.5215124489
 21
161.1556669269
  0
LINE
  5
34F
100
AcDbEntity
  8
0
100
AcDbLine
 62
7
  6
BYLAYER
 10
50.1528412275
 20
166.7156205936
 11
50.8470022936
 21
167.116344466
  0
LINE
  5
350
100
AcDbEntity
  8
0
100
AcDbLine
 62
7
  6
BYLAYER
 10
60.0528854933
 20
172.4306977839
 11
61.1006195689
 21
173.035531556
  0
LINE
  5
351
100
AcDbEntity
  8
0
100
AcDbLine
 62
7
  6
BYLAYER
 10
69.952929759
 20
178.1457749743
 11
70.5752182558
 21
178.5050083977
  0
LINE
  5
352
100
AcDbEntity
  8
0
100
AcDbLine
 62
7
  6
BYLAYER
 10
66.7577877207
 20
175.6891486882
 11
63.7651078013
 21
173.9615405799
  0
LINE
  5
353
100
AcDbEntity
  8
0
100
AcDbLine
 62
7
  6
BYLAYER
 10
61.1006195689
 20
172.4233902937
 11
59.0041704455
 21
171.2131564559
  0
LINE
  5
354
100
AcDbEntity
  8
0
100
AcDbLine
 62
7
  6
BYLAYER
 10
56.5041704455
 20
169.7699615982
 11
53.8650635355
 21
168.2464633896
  0
LINE
  5
355
100
AcDbEntity
  8
0
100
AcDbLine
 62
7
  6
BYLAYER
 10
50.8470022936
 20
166.5042032037
 11
48.8301838803
 21
165.3399384185
  0
LINE
  5
356
100
AcDbEntity
  8
0
100
AcDbLine
 62
7
  6
BYLAYER
 10
130.5573543317
 20
215.93681416
 11
129.8500577688
 21
215.5286813042
  0
LINE
  5
357
100
AcDbEntity
  8
0
100
AcDbLine
 62
7
  6
BYLAYER
 10
128.4354646431
 20
214.7124155925
 11
127.7281680802
 21
214.3042827367
  0
LINE
  5
358
100
AcDbEntity
  8
0
100
AcDbLine
 62
7
  6
BYLAYER
 10
118.851596216
 20
209.1822153959
 11
118.1442996531
 21
208.7740825401
  0
LINE
  5
359
100
AcDbEntity
  8
0
100
AcDbLine
 62
7
  6
BYLAYER
 10
116.7297065273
 20
207.9578168284
 11
116.0224099644
 21
207.5496839726
  0
LINE
  5
35A
100
AcDbEntity
  8
0
100
AcDbLine
 62
7
  6
BYLAYER
 10
98.7290090018
 20
197.5708356474
 11
98.0217124389
 21
197.1627027916
  0
LINE
  5
35B
100
AcDbEntity
  8
0
100
AcDbLine
 62
7
  6
BYLAYER
 10
96.6071193132
 20
196.3464370799
 11
95.8998227503
 21
195.9383042241
  0
LINE
  5
35C
100
AcDbEntity
  8
0
100
AcDbLine
 62
7
  6
BYLAYER
 10
86.9525212298
 20
190.7754235978
 11
86.2452246669
 21
190.367290742
  0
LINE
  5
35D
100
AcDbEntity
  8
0
100
AcDbLine
 62
7
  6
BYLAYER
 10
84.8306315411
 20
189.5510250303
 11
84.1233349782
 21
189.1428921744
  0
LINE
  5
35E
100
AcDbEntity
  8
0
100
AcDbLine
 62
7
  6
BYLAYER
 10
142.1916994854
 20
221.1809268563
 11
131.8298048391
 21
215.2017805183
  0
LINE
  5
35F
100
AcDbEntity
  8
0
100
AcDbLine
 62
7
  6
BYLAYER
 10
129.0006185875
 20
213.569249095
 11
120.1240467233
 21
208.4471817543
  0
LINE
  5
360
100
AcDbEntity
  8
0
100
AcDbLine
 62
7
  6
BYLAYER
 10
117.2948604718
 20
206.8146503309
 11
100.0014595092
 21
196.8358020058
  0
LINE
  5
361
100
AcDbEntity
  8
0
100
AcDbLine
 62
7
  6
BYLAYER
 10
97.1722732576
 20
195.2032705824
 11
88.2249717371
 21
190.0403899561
  0
LINE
  5
362
100
AcDbEntity
  8
0
100
AcDbLine
 62
7
  6
BYLAYER
 10
85.3957854856
 20
188.4078585328
 11
78.6764681382
 21
184.5305964023
  0
LINE
  5
363
100
AcDbEntity
  8
0
100
AcDbLine
 62
7
  6
BYLAYER
 10
131.8294252248
 20
214.3852956393
 11
130.414832099
 21
213.5690299277
  0
LINE
  5
364
100
AcDbEntity
  8
0
100
AcDbLine
 62
7
  6
BYLAYER
 10
120.123667109
 20
207.6306968753
 11
118.7090739832
 21
206.8144311636
  0
LINE
  5
365
100
AcDbEntity
  8
0
100
AcDbLine
 62
7
  6
BYLAYER
 10
100.0010798949
 20
196.0193171268
 11
98.5864867691
 21
195.2030514151
  0
LINE
  5
366
100
AcDbEntity
  8
0
100
AcDbLine
 62
7
  6
BYLAYER
 10
88.2245921228
 20
189.2239050771
 11
86.809998997
 21
188.4076393655
  0
LINE
  5
367
100
AcDbEntity
  8
0
100
AcDbLine
 62
7
  6
BYLAYER
 10
81.9569149108
 20
189.64885451
 11
81.4278083443
 21
189.4127387652
  0
LINE
  5
368
100
AcDbEntity
  8
0
100
AcDbLine
 62
7
  6
BYLAYER
 10
45.1179615723
 20
163.0946395947
 11
45.6483799449
 21
163.094619318
  0
LINE
  5
369
100
AcDbEntity
  8
0
100
AcDbLine
 62
7
  6
BYLAYER
 10
75.260861326
 20
165.9095603217
 11
74.9915350556
 21
165.9362325406
  0
LINE
  5
36A
100
AcDbEntity
  8
0
100
AcDbLine
 62
7
  6
BYLAYER
 10
121.1664356783
 20
167.9963450165
 11
122.1580096064
 21
167.4815113917
  0
LINE
  5
36B
100
AcDbEntity
  8
0
100
AcDbLine
 62
7
  6
BYLAYER
 10
121.6272353909
 20
168.8838491713
 11
122.6484904124
 21
168.3536048702
  0
LINE
  5
36C
100
AcDbEntity
  8
0
100
AcDbLine
 62
7
  6
BYLAYER
 10
53.4516363257
 20
200.4612404069
 11
59.1081766554
 21
197.1951195443
  0
LINE
  5
36D
100
AcDbEntity
  8
0
100
AcDbLine
 62
7
  6
BYLAYER
 10
68.6535884617
 20
192.9082942143
 11
78.067272612
 21
187.47277561
  0
LINE
  5
36E
100
AcDbEntity
  8
0
100
AcDbLine
 62
7
  6
BYLAYER
 10
113.0283560217
 20
167.2929987838
 11
105.3915709901
 21
171.7019989327
  0
LINE
  5
36F
100
AcDbEntity
  8
0
100
AcDbLine
 62
7
  6
BYLAYER
 10
115.6158261931
 20
168.8201375627
 11
114.7253975767
 21
169.334215134
  0
LINE
  5
370
100
AcDbEntity
  8
0
100
AcDbLine
 62
7
  6
BYLAYER
 10
113.0283560217
 20
170.4773582106
 11
105.3915709901
 21
174.8863583595
  0
LINE
  5
371
100
AcDbEntity
  8
0
100
AcDbLine
 62
7
  6
BYLAYER
 10
112.9576379837
 20
171.4979641762
 11
113.8768806264
 21
170.9672511953
  0
LINE
  5
372
100
AcDbEntity
  8
0
100
AcDbLine
 62
7
  6
BYLAYER
 10
83.5020068271
 20
188.7567090203
 11
68.6535884617
 21
197.3302762847
  0
LINE
  5
373
100
AcDbEntity
  8
0
100
AcDbLine
 62
7
  6
BYLAYER
 10
84.5389947313
 20
189.3827412151
 11
69.7143074902
 21
197.9426059837
  0
LINE
  5
374
100
AcDbEntity
  8
0
100
AcDbLine
 62
7
  6
BYLAYER
 10
115.6158261931
 20
172.0044969895
 11
114.7253975767
 21
172.5185745608
  0
LINE
  5
375
100
AcDbEntity
  8
0
100
AcDbLine
 62
7
  6
BYLAYER
 10
84.1233349782
 20
189.1428921744
 11
85.3957854856
 21
188.4078585328
  0
LINE
  5
376
100
AcDbEntity
  8
0
100
AcDbLine
 62
7
  6
BYLAYER
 10
86.809998997
 20
188.4076393655
 11
84.8306315411
 21
189.5510250303
  0
LINE
  5
377
100
AcDbEntity
  8
0
100
AcDbLine
 62
7
  6
BYLAYER
 10
98.3953243854
 20
177.5014222919
 11
105.3915709901
 21
172.2753180658
  0
LINE
  5
378
100
AcDbEntity
  8
0
100
AcDbLine
 62
7
  6
BYLAYER
 10
105.824482381
 20
175.1362983756
 11
98.3953243854
 21
180.6857817187
  0
LINE
  5
379
100
AcDbEntity
  8
0
100
AcDbLine
 62
7
  6
BYLAYER
 10
102.2448879649
 20
182.9083150209
 11
116.307421518
 21
172.403787353
  0
LINE
  5
37A
100
AcDbEntity
  8
0
100
AcDbLine
 62
7
  6
BYLAYER
 10
100.7369082276
 20
190.5314608996
 11
100.4540655253
 21
191.1409504341
  0
LINE
  5
37B
100
AcDbEntity
  8
0
100
AcDbLine
 62
7
  6
BYLAYER
 10
113.0283560217
 20
167.2929987838
 11
113.0283560217
 21
170.4773582106
  0
LINE
  5
37C
100
AcDbEntity
  8
0
100
AcDbLine
 62
7
  6
BYLAYER
 10
113.0990481529
 20
166.9310669308
 11
113.0990481529
 21
162.1894906879
  0
LINE
  5
37D
100
AcDbEntity
  8
0
100
AcDbLine
 62
7
  6
BYLAYER
 10
113.2282765568
 20
186.2471661898
 11
113.2282765568
 21
189.1049246497
  0
LINE
  5
37E
100
AcDbEntity
  8
0
100
AcDbLine
 62
7
  6
BYLAYER
 10
113.8768806264
 20
167.7828917685
 11
113.8768806264
 21
170.9672511953
  0
LINE
  5
37F
100
AcDbEntity
  8
0
100
AcDbLine
 62
7
  6
BYLAYER
 10
114.7253975767
 20
169.334215134
 11
114.7253975767
 21
172.5185745608
  0
LINE
  5
380
100
AcDbEntity
  8
0
100
AcDbLine
 62
7
  6
BYLAYER
 10
115.6158261931
 20
168.8201375627
 11
115.6158261931
 21
172.0044969895
  0
LINE
  5
381
100
AcDbEntity
  8
0
100
AcDbLine
 62
7
  6
BYLAYER
 10
116.0224099644
 20
206.0804054799
 11
116.0224099644
 21
207.5496839726
  0
LINE
  5
382
100
AcDbEntity
  8
0
100
AcDbLine
 62
7
  6
BYLAYER
 10
116.307421518
 20
169.2194279262
 11
116.307421518
 21
172.403787353
  0
LINE
  5
383
100
AcDbEntity
  8
0
100
AcDbLine
 62
7
  6
BYLAYER
 10
116.3640624324
 20
181.9528282246
 11
116.3640624324
 21
178.7684687978
  0
LINE
  5
384
100
AcDbEntity
  8
0
100
AcDbLine
 62
7
  6
BYLAYER
 10
117.6365129398
 20
176.9719820139
 11
117.6365129398
 21
181.217794583
  0
LINE
  5
385
100
AcDbEntity
  8
0
100
AcDbLine
 62
7
  6
BYLAYER
 10
117.7790351725
 20
181.9521704873
 11
117.7790351725
 21
183.5855788153
  0
LINE
  5
386
100
AcDbEntity
  8
0
100
AcDbLine
 62
7
  6
BYLAYER
 10
118.1442996531
 20
207.1406742121
 11
118.1442996531
 21
208.7740825401
  0
LINE
  5
387
100
AcDbEntity
  8
0
100
AcDbLine
 62
7
  6
BYLAYER
 10
118.2784324087
 20
197.346905176
 11
118.2784324087
 21
197.9378186507
  0
LINE
  5
388
100
AcDbEntity
  8
0
100
AcDbLine
 62
7
  6
BYLAYER
 10
118.3438095027
 20
177.3801148697
 11
118.3438095027
 21
181.6259274388
  0
LINE
  5
389
100
AcDbEntity
  8
0
100
AcDbLine
 62
7
  6
BYLAYER
 10
119.3388078315
 20
197.8644049051
 11
119.3388078315
 21
198.5498312337
  0
LINE
  5
38A
100
AcDbEntity
  8
0
100
AcDbLine
 62
7
  6
BYLAYER
 10
119.7584026284
 20
178.1963805814
 11
119.7584026284
 21
182.4421931505
  0
LINE
  5
38B
100
AcDbEntity
  8
0
100
AcDbLine
 62
7
  6
BYLAYER
 10
119.480338239
 20
202.0705851134
 11
119.4803430669
 21
202.1197242561
  0
LINE
  5
38C
100
AcDbEntity
  8
0
100
AcDbLine
 62
7
  6
BYLAYER
 10
118.4198917213
 20
201.959509614
 11
118.3036053633
 21
201.3914149712
  0
LINE
  5
38D
100
AcDbEntity
  8
0
100
AcDbLine
 62
7
  6
BYLAYER
 10
103.1995944319
 20
156.4740725337
 11
102.916752897
 21
155.7450854037
  0
LINE
  5
38E
100
AcDbEntity
  8
0
100
AcDbLine
 62
7
  6
BYLAYER
 10
118.4198917213
 20
201.959509614
 11
118.7027344236
 21
202.5689114816
  0
LINE
  5
38F
100
AcDbEntity
  8
0
100
AcDbLine
 62
7
  6
BYLAYER
 10
93.6536926295
 20
156.1126039079
 11
93.3001407109
 21
155.5002306224
  0
LINE
  5
390
100
AcDbEntity
  8
0
100
AcDbLine
 62
7
  6
BYLAYER
 10
105.9719277517
 20
186.9758211101
 11
107.6689839654
 21
188.2819619768
  0
LINE
  5
391
100
AcDbEntity
  8
0
100
AcDbLine
 62
7
  6
BYLAYER
 10
32.9839832068
 20
154.5557100937
 11
96.4819077886
 21
191.2160351114
  0
LINE
  5
392
100
AcDbEntity
  8
0
100
AcDbLine
 62
7
  6
BYLAYER
 10
70.5752182558
 20
177.280254772
 11
69.2577877207
 21
176.5197311826
  0
LINE
  5
393
100
AcDbEntity
  8
0
100
AcDbLine
 62
7
  6
BYLAYER
 10
63.7651078013
 20
173.3489282166
 11
63.6006195689
 21
173.2539727881
  0
LINE
  5
394
100
AcDbEntity
  8
0
100
AcDbLine
 62
7
  6
BYLAYER
 10
53.8650635355
 20
167.6338510262
 11
53.3470022936
 21
167.3347856981
  0
LINE
  5
395
100
AcDbEntity
  8
0
100
AcDbLine
 62
7
  6
BYLAYER
 10
48.8301838803
 20
164.7273260551
 11
46.1786806008
 21
163.1966716957
  0
LINE
  5
396
100
AcDbEntity
  8
0
100
AcDbLine
 62
7
  6
BYLAYER
 10
45.1179615723
 20
162.5843419968
 11
41.582195359
 21
160.5432221498
  0
LINE
  5
397
100
AcDbEntity
  8
0
100
AcDbLine
 62
7
  6
BYLAYER
 10
167.5093165299
 20
228.6039689821
 11
163.9732434718
 21
226.5630680338
  0
LINE
  5
398
100
AcDbEntity
  8
0
100
AcDbLine
 62
7
  6
BYLAYER
 10
160.0835631079
 20
224.3180769906
 11
156.5474900498
 21
222.2771760423
  0
LINE
  5
399
100
AcDbEntity
  8
0
100
AcDbLine
 62
7
  6
BYLAYER
 10
152.6578096858
 20
220.0321849991
 11
146.2928781813
 21
216.3585632921
  0
LINE
  5
39A
100
AcDbEntity
  8
0
100
AcDbLine
 62
7
  6
BYLAYER
 10
135.6846590069
 20
210.2358604471
 11
132.1485859488
 21
208.1949594988
  0
LINE
  5
39B
100
AcDbEntity
  8
0
100
AcDbLine
 62
7
  6
BYLAYER
 10
128.2589055849
 20
205.9499684556
 11
124.7228325268
 21
203.9090675073
  0
LINE
  5
39C
100
AcDbEntity
  8
0
100
AcDbLine
 62
7
  6
BYLAYER
 10
120.8331521629
 20
201.6640764642
 11
114.4682206583
 21
197.9904547572
  0
LINE
  5
39D
100
AcDbEntity
  8
0
100
AcDbLine
 62
7
  6
BYLAYER
 10
167.5093165299
 20
226.3522084099
 11
166.2845589856
 21
225.6453200643
  0
LINE
  5
39E
100
AcDbEntity
  8
0
100
AcDbLine
 62
7
  6
BYLAYER
 10
160.0835631079
 20
222.0663164184
 11
158.8588055635
 21
221.3594280728
  0
LINE
  5
39F
100
AcDbEntity
  8
0
100
AcDbLine
 62
7
  6
BYLAYER
 10
152.6578096858
 20
217.7804244269
 11
148.604193695
 21
215.4408153227
  0
LINE
  5
3A0
100
AcDbEntity
  8
0
100
AcDbLine
 62
7
  6
BYLAYER
 10
135.6846590069
 20
207.9840998749
 11
134.4599014626
 21
207.2772115294
  0
LINE
  5
3A1
100
AcDbEntity
  8
0
100
AcDbLine
 62
7
  6
BYLAYER
 10
128.2589055849
 20
203.6982078834
 11
127.0341480406
 21
202.9913195379
  0
LINE
  5
3A2
100
AcDbEntity
  8
0
100
AcDbLine
 62
7
  6
BYLAYER
 10
120.8331521629
 20
199.4123158919
 11
116.7795361721
 21
197.0727067877
  0
LINE
  5
3A3
100
AcDbEntity
  8
0
100
AcDbLine
 62
7
  6
BYLAYER
 10
108.986282951
 20
191.5547529052
 11
172.6355979969
 21
228.2909699751
  0
LINE
  5
3A4
100
AcDbEntity
  8
0
100
AcDbLine
 62
7
  6
BYLAYER
 10
133.2777128755
 20
211.6294345263
 11
131.438741812
 21
210.5682891011
  0
LINE
  5
3A5
100
AcDbEntity
  8
0
100
AcDbLine
 62
7
  6
BYLAYER
 10
101.4493675456
 20
193.2634560137
 11
99.6103964821
 21
192.2023105886
  0
LINE
  5
3A6
100
AcDbEntity
  8
0
100
AcDbLine
 62
7
  6
BYLAYER
 10
98.8984306627
 20
191.1411915182
 11
99.6764568819
 21
191.5901376596
  0
LINE
  5
3A7
100
AcDbEntity
  8
0
100
AcDbLine
 62
7
  6
BYLAYER
 10
108.8005825432
 20
196.8550514999
 11
109.5786087623
 21
197.3039976413
  0
LINE
  5
3A8
100
AcDbEntity
  8
0
100
AcDbLine
 62
7
  6
BYLAYER
 10
118.7027344236
 20
202.5689114816
 11
119.4807606427
 21
203.017857623
  0
LINE
  5
3A9
100
AcDbEntity
  8
0
100
AcDbLine
 62
7
  6
BYLAYER
 10
130.7267759926
 20
209.5071700308
 11
131.5048022118
 21
209.9561161722
  0
LINE
  5
3AA
100
AcDbEntity
  8
0
100
AcDbLine
 62
7
  6
BYLAYER
 10
140.628927873
 20
215.2210300124
 11
141.4069540922
 21
215.6699761539
  0
LINE
  5
3AB
100
AcDbEntity
  8
0
100
AcDbLine
 62
7
  6
BYLAYER
 10
150.5310797535
 20
220.9348899941
 11
151.3091059726
 21
221.3838361356
  0
LINE
  5
3AC
100
AcDbEntity
  8
0
100
AcDbLine
 62
7
  6
BYLAYER
 10
99.6760393061
 20
190.6920042927
 11
100.4540655253
 21
191.1409504341
  0
LINE
  5
3AD
100
AcDbEntity
  8
0
100
AcDbLine
 62
7
  6
BYLAYER
 10
119.4803430669
 20
202.1197242561
 11
120.2583692861
 21
202.5686703975
  0
LINE
  5
3AE
100
AcDbEntity
  8
0
100
AcDbLine
 62
7
  6
BYLAYER
 10
151.3086883968
 20
220.4857027687
 11
152.086714616
 21
220.9346489101
  0
LINE
  5
3AF
100
AcDbEntity
  8
0
100
AcDbLine
 62
7
  6
BYLAYER
 10
99.6759633833
 20
189.9192616159
 11
100.7369082276
 21
190.5314608996
  0
LINE
  5
3B0
100
AcDbEntity
  8
0
100
AcDbLine
 62
7
  6
BYLAYER
 10
102.0492599546
 20
190.7934961087
 11
103.8882310181
 21
191.8546415338
  0
LINE
  5
3B1
100
AcDbEntity
  8
0
100
AcDbLine
 62
7
  6
BYLAYER
 10
105.8243683078
 20
190.5230575075
 11
104.1700108002
 21
189.5684400392
  0
LINE
  5
3B2
100
AcDbEntity
  8
0
100
AcDbLine
 62
7
  6
BYLAYER
 10
75.3714756421
 20
196.7863823077
 11
86.3669484617
 21
190.4375292849
  0
LINE
  5
3B3
100
AcDbEntity
  8
0
100
AcDbLine
 62
7
  6
BYLAYER
 10
75.0180564676
 20
197.8070206191
 11
61.9373885535
 21
205.3598779986
  0
LINE
  5
3B4
100
AcDbEntity
  8
0
100
AcDbLine
 62
7
  6
BYLAYER
 10
90.2198940075
 20
192.6347971138
 11
75.3714756421
 21
201.2083643782
  0
LINE
  5
3B5
100
AcDbEntity
  8
0
100
AcDbLine
 62
7
  6
BYLAYER
 10
91.9877590549
 20
193.6553466121
 11
77.1393406895
 21
202.2289138765
  0
LINE
  5
3B6
100
AcDbEntity
  8
0
100
AcDbLine
 62
7
  6
BYLAYER
 10
96.4819077886
 20
191.2160351114
 11
106.5582213719
 21
185.3986043595
  0
LINE
  5
3B7
100
AcDbEntity
  8
0
100
AcDbLine
 62
7
  6
BYLAYER
 10
86.2452246669
 20
190.367290742
 11
88.2245921228
 21
189.2239050771
  0
LINE
  5
3B8
100
AcDbEntity
  8
0
100
AcDbLine
 62
7
  6
BYLAYER
 10
88.2249717371
 20
190.0403899561
 11
86.9525212298
 21
190.7754235978
  0
LINE
  5
3B9
100
AcDbEntity
  8
0
100
AcDbLine
 62
7
  6
BYLAYER
 10
115.4448040372
 20
178.2380271503
 11
117.6365129398
 21
176.9719820139
  0
LINE
  5
3BA
100
AcDbEntity
  8
0
100
AcDbLine
 62
7
  6
BYLAYER
 10
118.3438095027
 20
179.0135231977
 11
119.7584026284
 21
178.1963805814
  0
LINE
  5
3BB
100
AcDbEntity
  8
0
100
AcDbLine
 62
7
  6
BYLAYER
 10
108.728903851
 20
185.3832482199
 11
105.9719277517
 21
186.9758211101
  0
LINE
  5
3BC
100
AcDbEntity
  8
0
100
AcDbLine
 62
7
  6
BYLAYER
 10
98.8984306627
 20
191.1411915182
 11
99.6760393061
 21
190.6920042927
  0
LINE
  5
3BD
100
AcDbEntity
  8
0
100
AcDbLine
 62
7
  6
BYLAYER
 10
99.6764568819
 20
191.5901376596
 11
100.4540655253
 21
191.1409504341
  0
LINE
  5
3BE
100
AcDbEntity
  8
0
100
AcDbLine
 62
7
  6
BYLAYER
 10
116.3640624324
 20
181.9528282246
 11
117.6365129398
 21
181.217794583
  0
LINE
  5
3BF
100
AcDbEntity
  8
0
100
AcDbLine
 62
7
  6
BYLAYER
 10
104.7442893452
 20
191.1468227007
 11
103.3302914766
 21
192.9840601405
  0
LINE
  5
3C0
100
AcDbEntity
  8
0
100
AcDbLine
 62
7
  6
BYLAYER
 10
120.4656991913
 20
178.6045134372
 11
120.4656991913
 21
182.8503260063
  0
LINE
  5
3C1
100
AcDbEntity
  8
0
100
AcDbLine
 62
7
  6
BYLAYER
 10
120.682671301
 20
199.325463463
 11
120.682671301
 21
198.6143049003
  0
LINE
  5
3C2
100
AcDbEntity
  8
0
100
AcDbLine
 62
7
  6
BYLAYER
 10
120.8331521629
 20
201.6640764642
 11
120.8331521629
 21
199.4123158919
  0
LINE
  5
3C3
100
AcDbEntity
  8
0
100
AcDbLine
 62
7
  6
BYLAYER
 10
127.7281680802
 20
212.8350042439
 11
127.7281680802
 21
214.3042827367
  0
LINE
  5
3C4
100
AcDbEntity
  8
0
100
AcDbLine
 62
7
  6
BYLAYER
 10
113.0990481529
 20
162.1894906879
 11
112.816206618
 21
161.4605035579
  0
LINE
  5
3C5
100
AcDbEntity
  8
0
100
AcDbLine
 62
7
  6
BYLAYER
 10
130.5289438265
 20
209.0809285526
 11
130.7267759926
 21
209.5071700308
  0
LINE
  5
3C6
100
AcDbEntity
  8
0
100
AcDbLine
 62
7
  6
BYLAYER
 10
103.5531463505
 20
161.8280220621
 11
103.1995944319
 21
161.2156487766
  0
LINE
  5
3C7
100
AcDbEntity
  8
0
100
AcDbLine
 62
7
  6
BYLAYER
 10
113.4526000715
 20
167.5434402163
 11
113.0990481529
 21
166.9310669308
  0
LINE
  5
3C8
100
AcDbEntity
  8
0
100
AcDbLine
 62
7
  6
BYLAYER
 10
106.5582213719
 20
185.3986043595
 11
102.2448879649
 21
182.9083150209
  0
LINE
  5
3C9
100
AcDbEntity
  8
0
100
AcDbLine
 62
7
  6
BYLAYER
 10
98.3953243854
 20
180.6857817187
 11
92.3454342439
 21
177.1928968667
  0
LINE
  5
3CA
100
AcDbEntity
  8
0
100
AcDbLine
 62
7
  6
BYLAYER
 10
88.4958706644
 20
174.9703635645
 11
82.4459805229
 21
171.4774787125
  0
LINE
  5
3CB
100
AcDbEntity
  8
0
100
AcDbLine
 62
7
  6
BYLAYER
 10
74.8799694648
 20
167.109266266
 11
70.4252152903
 21
164.5373280966
  0
LINE
  5
3CC
100
AcDbEntity
  8
0
100
AcDbLine
 62
7
  6
BYLAYER
 10
66.5756517108
 20
162.3147947945
 11
60.5257615693
 21
158.8219099424
  0
LINE
  5
3CD
100
AcDbEntity
  8
0
100
AcDbLine
 62
7
  6
BYLAYER
 10
56.6761979898
 20
156.5993766403
 11
50.6263078483
 21
153.1064917883
  0
LINE
  5
3CE
100
AcDbEntity
  8
0
100
AcDbLine
 62
7
  6
BYLAYER
 10
75.260864617
 20
165.9095546215
 11
74.8799694648
 21
165.6896460155
  0
LINE
  5
3CF
100
AcDbEntity
  8
0
100
AcDbLine
 62
7
  6
BYLAYER
 10
43.4411919424
 20
147.5385676973
 11
43.0602967901
 21
147.3186590913
  0
LINE
  5
3D0
100
AcDbEntity
  8
0
100
AcDbLine
 62
7
  6
BYLAYER
 10
44.3845585066
 20
147.9737337797
 11
46.576580402
 21
149.2392906567
  0
LINE
  5
3D1
100
AcDbEntity
  8
0
100
AcDbLine
 62
7
  6
BYLAYER
 10
76.2042311813
 20
166.3447207039
 11
78.3962530766
 21
167.6102775809
  0
LINE
  5
3D2
100
AcDbEntity
  8
0
100
AcDbLine
 62
7
  6
BYLAYER
 10
78.8476235045
 20
166.9294635334
 11
77.7869677487
 21
166.3170973026
  0
LINE
  5
3D3
100
AcDbEntity
  8
0
100
AcDbLine
 62
7
  6
BYLAYER
 10
47.0279508299
 20
148.5584766092
 11
45.9672950741
 21
147.9461103784
  0
LINE
  5
3D4
100
AcDbEntity
  8
0
100
AcDbLine
 62
7
  6
BYLAYER
 10
78.2814412734
 20
166.0121783335
 11
77.1500751339
 21
165.3589876873
  0
LINE
  5
3D5
100
AcDbEntity
  8
0
100
AcDbLine
 62
7
  6
BYLAYER
 10
46.4617685988
 20
147.6411914093
 11
45.3304024593
 21
146.9880007631
  0
LINE
  5
3D6
100
AcDbEntity
  8
0
100
AcDbLine
 62
7
  6
BYLAYER
 10
106.5582213719
 20
182.2142449327
 11
104.6493872898
 21
181.1121856399
  0
LINE
  5
3D7
100
AcDbEntity
  8
0
100
AcDbLine
 62
7
  6
BYLAYER
 10
98.3953243854
 20
177.5014222919
 11
94.7499335688
 21
175.3967674857
  0
LINE
  5
3D8
100
AcDbEntity
  8
0
100
AcDbLine
 62
7
  6
BYLAYER
 10
88.4958706644
 20
171.7860041377
 11
84.8504798478
 21
169.6813493315
  0
LINE
  5
3D9
100
AcDbEntity
  8
0
100
AcDbLine
 62
7
  6
BYLAYER
 10
66.5756517108
 20
159.1304353677
 11
62.9302608942
 21
157.0257805615
  0
LINE
  5
3DA
100
AcDbEntity
  8
0
100
AcDbLine
 62
7
  6
BYLAYER
 10
56.6761979898
 20
153.4150172135
 11
53.0308071732
 21
151.3103624073
  0
LINE
  5
3DB
100
AcDbEntity
  8
0
100
AcDbLine
 62
7
  6
BYLAYER
 10
43.9946657654
 20
146.0933748743
 11
43.0602967901
 21
145.553919915
  0
LINE
  5
3DC
100
AcDbEntity
  8
0
100
AcDbLine
 62
7
  6
BYLAYER
 10
72.8297146152
 20
162.7411987157
 11
75.8143384401
 21
164.4643617985
  0
LINE
  5
3DD
100
AcDbEntity
  8
0
100
AcDbLine
 62
7
  6
BYLAYER
 10
37.2169688652
 20
148.9274905451
 11
36.6737604611
 21
148.6139083149
  0
LINE
  5
3DE
100
AcDbEntity
  8
0
100
AcDbLine
 62
7
  6
BYLAYER
 10
108.7293593882
 20
187.6694339421
 11
109.7478845512
 21
188.2571557059
  0
LINE
  5
3DF
100
AcDbEntity
  8
0
100
AcDbLine
 62
7
  6
BYLAYER
 10
108.728903851
 20
185.3832482199
 11
111.727809449
 21
187.1137131624
  0
LINE
  5
3E0
100
AcDbEntity
  8
0
100
AcDbLine
 62
7
  6
BYLAYER
 10
201.4890264759
 20
227.8065700745
 11
202.4875931527
 21
228.2100733518
  0
LINE
  5
3E1
100
AcDbEntity
  8
0
100
AcDbLine
 62
7
  6
BYLAYER
 10
132.4197682627
 20
173.4182357871
 11
131.3958488369
 21
173.9498634696
  0
LINE
  5
3E2
100
AcDbEntity
  8
0
100
AcDbLine
 62
7
  6
BYLAYER
 10
132.8517360313
 20
174.3207097328
 11
131.8633245122
 21
174.8339014078
  0
LINE
  5
3E3
100
AcDbEntity
  8
0
100
AcDbLine
 62
7
  6
BYLAYER
 10
113.2282765568
 20
186.2471661898
 11
104.7442893452
 21
191.1468227007
  0
LINE
  5
3E4
100
AcDbEntity
  8
0
100
AcDbLine
 62
7
  6
BYLAYER
 10
113.2282765568
 20
189.1049246497
 11
108.986282951
 21
191.5547529052
  0
LINE
  5
3E5
100
AcDbEntity
  8
0
100
AcDbLine
 62
7
  6
BYLAYER
 10
99.6103964821
 20
192.2023105886
 11
102.0492599546
 21
190.7934961087
  0
LINE
  5
3E6
100
AcDbEntity
  8
0
100
AcDbLine
 62
7
  6
BYLAYER
 10
104.1700108002
 20
189.5684400392
 11
107.1236641872
 21
187.8622561109
  0
LINE
  5
3E7
100
AcDbEntity
  8
0
100
AcDbLine
 62
7
  6
BYLAYER
 10
118.3438095027
 20
181.6259274388
 11
116.3644420468
 21
182.7693131036
  0
LINE
  5
3E8
100
AcDbEntity
  8
0
100
AcDbLine
 62
7
  6
BYLAYER
 10
107.6689839654
 20
188.2819619768
 11
108.7293593882
 21
187.669433942
  0
LINE
  5
3E9
100
AcDbEntity
  8
0
100
AcDbLine
 62
7
  6
BYLAYER
 10
95.8998227503
 20
195.9383042241
 11
97.1722732576
 21
195.2032705824
  0
LINE
  5
3EA
100
AcDbEntity
  8
0
100
AcDbLine
 62
7
  6
BYLAYER
 10
117.7790351725
 20
183.5855788153
 11
119.7584026284
 21
182.4421931505
  0
LINE
  5
3EB
100
AcDbEntity
  8
0
100
AcDbLine
 62
7
  6
BYLAYER
 10
103.8882310181
 20
191.8546415338
 11
101.4493675456
 21
193.2634560137
  0
LINE
  5
3EC
100
AcDbEntity
  8
0
100
AcDbLine
 62
7
  6
BYLAYER
 10
98.5864867691
 20
195.2030514151
 11
96.6071193132
 21
196.3464370799
  0
LINE
  5
3ED
100
AcDbEntity
  8
0
100
AcDbLine
 62
7
  6
BYLAYER
 10
120.4656991913
 20
182.8503260063
 11
119.1932486839
 21
183.585359648
  0
LINE
  5
3EE
100
AcDbEntity
  8
0
100
AcDbLine
 62
7
  6
BYLAYER
 10
98.0217124389
 20
197.1627027916
 11
100.0010798949
 21
196.0193171268
  0
LINE
  5
3EF
100
AcDbEntity
  8
0
100
AcDbLine
 62
7
  6
BYLAYER
 10
100.0014595092
 20
196.8358020058
 11
98.7290090018
 21
197.5708356474
  0
LINE
  5
3F0
100
AcDbEntity
  8
0
100
AcDbLine
 62
7
  6
BYLAYER
 10
120.2763164298
 20
202.5299966182
 11
120.2583692861
 21
202.5686703975
  0
LINE
  5
3F1
100
AcDbEntity
  8
0
100
AcDbLine
 62
7
  6
BYLAYER
 10
128.2589055849
 20
205.9499684556
 11
128.2589055849
 21
203.6982078834
  0
LINE
  5
3F2
100
AcDbEntity
  8
0
100
AcDbLine
 62
7
  6
BYLAYER
 10
129.8500577688
 20
213.8952729762
 11
129.8500577688
 21
215.5286813042
  0
LINE
  5
3F3
100
AcDbEntity
  8
0
100
AcDbLine
 62
7
  6
BYLAYER
 10
133.2777128755
 20
211.6294345263
 11
133.2777128755
 21
210.9156630174
  0
LINE
  5
3F4
100
AcDbEntity
  8
0
100
AcDbLine
 62
7
  6
BYLAYER
 10
133.6159753209
 20
190.4068897342
 11
133.6159753209
 21
187.5491312742
  0
LINE
  5
3F5
100
AcDbEntity
  8
0
100
AcDbLine
 62
7
  6
BYLAYER
 10
135.6846590069
 20
210.2358604471
 11
135.6846590069
 21
207.9840998749
  0
LINE
  5
3F6
100
AcDbEntity
  8
0
100
AcDbLine
 62
7
  6
BYLAYER
 10
140.4414568335
 20
214.817112214
 11
140.628927873
 21
215.2210300124
  0
LINE
  5
3F7
100
AcDbEntity
  8
0
100
AcDbLine
 62
7
  6
BYLAYER
 10
150.2482370512
 20
220.3254881266
 11
150.5310797535
 21
220.9348899941
  0
LINE
  5
3F8
100
AcDbEntity
  8
0
100
AcDbLine
 62
7
  6
BYLAYER
 10
63.6724445945
 20
150.7999532811
 11
64.1053559854
 21
151.0498932972
  0
LINE
  5
3F9
100
AcDbEntity
  8
0
100
AcDbLine
 62
7
  6
BYLAYER
 10
73.5718983155
 20
156.5153714353
 11
74.0048097064
 21
156.7653114514
  0
LINE
  5
3FA
100
AcDbEntity
  8
0
100
AcDbLine
 62
7
  6
BYLAYER
 10
95.4921172691
 20
169.1709402053
 11
95.92502866
 21
169.4208802214
  0
LINE
  5
3FB
100
AcDbEntity
  8
0
100
AcDbLine
 62
7
  6
BYLAYER
 10
105.3915709901
 20
174.8863583595
 11
105.824482381
 21
175.1362983756
  0
LINE
  5
3FC
100
AcDbEntity
  8
0
100
AcDbLine
 62
7
  6
BYLAYER
 10
54.7883405755
 20
144.4538861474
 11
55.919706715
 21
145.1070767936
  0
LINE
  5
3FD
100
AcDbEntity
  8
0
100
AcDbLine
 62
7
  6
BYLAYER
 10
86.6080132501
 20
162.8248730716
 11
87.7393793896
 21
163.4780637178
  0
LINE
  5
3FE
100
AcDbEntity
  8
0
100
AcDbLine
 62
7
  6
BYLAYER
 10
89.1250258047
 20
161.7543114515
 11
87.9936596651
 21
161.1011208053
  0
LINE
  5
3FF
100
AcDbEntity
  8
0
100
AcDbLine
 62
7
  6
BYLAYER
 10
57.30535313
 20
143.3833245273
 11
56.1739869905
 21
142.7301338811
  0
LINE
  5
400
100
AcDbEntity
  8
0
100
AcDbLine
 62
7
  6
BYLAYER
 10
69.718815512
 20
156.782533335
 11
69.0047678991
 21
156.3703293977
  0
LINE
  5
401
100
AcDbEntity
  8
0
100
AcDbLine
 62
7
  6
BYLAYER
 10
70.0654869275
 20
156.0275015502
 11
70.419059937
 21
156.2316114499
  0
LINE
  5
402
100
AcDbEntity
  8
0
100
AcDbLine
 62
7
  6
BYLAYER
 10
199.5703009859
 20
226.8366954083
 11
198.5023486825
 21
226.2203769583
  0
LINE
  5
403
100
AcDbEntity
  8
0
100
AcDbLine
 62
7
  6
BYLAYER
 10
167.632695632
 20
208.4054083857
 11
166.7858379635
 21
207.9166843069
  0
LINE
  5
404
100
AcDbEntity
  8
0
100
AcDbLine
 62
7
  6
BYLAYER
 10
222.0217444577
 20
238.977174302
 11
215.6564658286
 21
235.3037530767
  0
LINE
  5
405
100
AcDbEntity
  8
0
100
AcDbLine
 62
7
  6
BYLAYER
 10
214.2419594666
 20
234.4874372489
 11
207.8766808375
 21
230.8140160236
  0
LINE
  5
406
100
AcDbEntity
  8
0
100
AcDbLine
 62
7
  6
BYLAYER
 10
206.4621744754
 20
229.9977001957
 11
202.0772047531
 21
227.4671211294
  0
LINE
  5
407
100
AcDbEntity
  8
0
100
AcDbLine
 62
7
  6
BYLAYER
 10
190.1953513121
 20
220.6100681754
 11
183.830072683
 21
216.9366469501
  0
LINE
  5
408
100
AcDbEntity
  8
0
100
AcDbLine
 62
7
  6
BYLAYER
 10
182.4155663209
 20
216.1203311223
 11
176.0502876918
 21
212.4469098969
  0
LINE
  5
409
100
AcDbEntity
  8
0
100
AcDbLine
 62
7
  6
BYLAYER
 10
158.3689581665
 20
202.2429620488
 11
152.0036795373
 21
198.5695408235
  0
LINE
  5
40A
100
AcDbEntity
  8
0
100
AcDbLine
 62
7
  6
BYLAYER
 10
150.5891731753
 20
197.7532249957
 11
144.2238945462
 21
194.0798037703
  0
LINE
  5
40B
100
AcDbEntity
  8
0
100
AcDbLine
 62
7
  6
BYLAYER
 10
140.6876286411
 20
192.0390142007
 11
137.151362736
 21
189.9982246311
  0
LINE
  5
40C
100
AcDbEntity
  8
0
100
AcDbLine
 62
7
  6
BYLAYER
 10
116.3644420468
 20
182.7693131036
 11
117.7790351725
 21
183.5855788153
  0
LINE
  5
40D
100
AcDbEntity
  8
0
100
AcDbLine
 62
7
  6
BYLAYER
 10
148.1927873767
 20
201.1352916162
 11
149.6073805024
 21
201.9515573279
  0
LINE
  5
40E
100
AcDbEntity
  8
0
100
AcDbLine
 62
7
  6
BYLAYER
 10
99.7425932046
 20
172.3617061125
 11
102.8643943888
 21
174.1630857593
  0
LINE
  5
40F
100
AcDbEntity
  8
0
100
AcDbLine
 62
7
  6
BYLAYER
 10
109.1199436682
 20
177.7727388048
 11
116.3640624324
 21
181.9528282246
  0
LINE
  5
410
100
AcDbEntity
  8
0
100
AcDbLine
 62
7
  6
BYLAYER
 10
119.1932486839
 20
183.585359648
 11
148.1924077623
 21
200.3188067372
  0
LINE
  5
411
100
AcDbEntity
  8
0
100
AcDbLine
 62
7
  6
BYLAYER
 10
151.0215940139
 20
201.9513381605
 11
163.2578245518
 21
209.0120365665
  0
LINE
  5
412
100
AcDbEntity
  8
0
100
AcDbLine
 62
7
  6
BYLAYER
 10
117.6365129398
 20
181.217794583
 11
118.3438095027
 21
181.6259274388
  0
LINE
  5
413
100
AcDbEntity
  8
0
100
AcDbLine
 62
7
  6
BYLAYER
 10
119.7584026284
 20
182.4421931505
 11
120.4656991913
 21
182.8503260063
  0
LINE
  5
414
100
AcDbEntity
  8
0
100
AcDbLine
 62
7
  6
BYLAYER
 10
149.4648582697
 20
199.5837730955
 11
150.1721548326
 21
199.9919059514
  0
LINE
  5
415
100
AcDbEntity
  8
0
100
AcDbLine
 62
7
  6
BYLAYER
 10
151.5867479583
 20
200.808171663
 11
152.2940445212
 21
201.2163045189
  0
LINE
  5
416
100
AcDbEntity
  8
0
100
AcDbLine
 62
7
  6
BYLAYER
 10
101.6232079799
 20
170.2625218714
 11
105.2694651802
 21
172.3665295004
  0
LINE
  5
417
100
AcDbEntity
  8
0
100
AcDbLine
 62
7
  6
BYLAYER
 10
111.5250144596
 20
175.9761825458
 11
116.3640624324
 21
178.7684687978
  0
LINE
  5
418
100
AcDbEntity
  8
0
100
AcDbLine
 62
7
  6
BYLAYER
 10
120.4656991913
 20
181.1352450722
 11
133.6159753209
 21
188.7233771704
  0
LINE
  5
419
100
AcDbEntity
  8
0
100
AcDbLine
 62
7
  6
BYLAYER
 10
170.456356111
 20
208.9812963708
 11
171.4546473493
 21
209.3846869919
  0
LINE
  5
41A
100
AcDbEntity
  8
0
100
AcDbLine
 62
7
  6
BYLAYER
 10
208.086367737
 20
223.9963418251
 11
209.0846589752
 21
224.3997324462
  0
LINE
  5
41B
100
AcDbEntity
  8
0
100
AcDbLine
 62
7
  6
BYLAYER
 10
171.8853671617
 20
209.1359113446
 11
170.8870759234
 21
208.7325207235
  0
LINE
  5
41C
100
AcDbEntity
  8
0
100
AcDbLine
 62
7
  6
BYLAYER
 10
139.2507251295
 20
191.8886663515
 11
140.2493132235
 21
192.2921769264
  0
LINE
  5
41D
100
AcDbEntity
  8
0
100
AcDbLine
 62
7
  6
BYLAYER
 10
176.2599745914
 20
205.6292356985
 11
177.2582658296
 21
206.0326263196
  0
LINE
  5
41E
100
AcDbEntity
  8
0
100
AcDbLine
 62
7
  6
BYLAYER
 10
103.3302914766
 20
193.8005625577
 11
108.986282951
 21
191.5547529052
  0
LINE
  5
41F
100
AcDbEntity
  8
0
100
AcDbLine
 62
7
  6
BYLAYER
 10
133.6159753209
 20
187.5491312742
 11
143.5134202355
 21
181.8325535966
  0
LINE
  5
420
100
AcDbEntity
  8
0
100
AcDbLine
 62
7
  6
BYLAYER
 10
108.8005825432
 20
196.8550514999
 11
109.0916693139
 21
196.6869046306
  0
LINE
  5
421
100
AcDbEntity
  8
0
100
AcDbLine
 62
7
  6
BYLAYER
 10
109.5786087623
 20
197.3039976413
 11
109.9245516387
 21
197.1041630302
  0
LINE
  5
422
100
AcDbEntity
  8
0
100
AcDbLine
 62
7
  6
BYLAYER
 10
141.2483780136
 20
181.2202260175
 11
141.3947354071
 21
181.0161470379
  0
LINE
  5
423
100
AcDbEntity
  8
0
100
AcDbLine
 62
7
  6
BYLAYER
 10
139.1587419299
 20
192.9220703551
 11
139.1587419299
 21
191.9417941142
  0
LINE
  5
424
100
AcDbEntity
  8
0
100
AcDbLine
 62
7
  6
BYLAYER
 10
140.6876286411
 20
192.0390142007
 11
140.6876286411
 21
189.1812557408
  0
LINE
  5
425
100
AcDbEntity
  8
0
100
AcDbLine
 62
7
  6
BYLAYER
 10
141.2483619977
 20
183.1408085526
 11
141.2483619977
 21
181.2202259949
  0
LINE
  5
426
100
AcDbEntity
  8
0
100
AcDbLine
 62
7
  6
BYLAYER
 10
142.2483619977
 20
182.5632273963
 11
142.2483619977
 21
181.2202259949
  0
LINE
  5
427
100
AcDbEntity
  8
0
100
AcDbLine
 62
7
  6
BYLAYER
 10
143.5134202355
 20
181.8325535966
 11
143.5134202355
 21
184.6903120566
  0
LINE
  5
428
100
AcDbEntity
  8
0
100
AcDbLine
 62
7
  6
BYLAYER
 10
150.2482370512
 20
220.3254881266
 11
150.1329391702
 21
219.762222498
  0
LINE
  5
429
100
AcDbEntity
  8
0
100
AcDbLine
 62
7
  6
BYLAYER
 10
103.4732144542
 20
162.1818326079
 11
86.1837291871
 21
152.1251934558
  0
LINE
  5
42A
100
AcDbEntity
  8
0
100
AcDbLine
 62
7
  6
BYLAYER
 10
131.7573679428
 20
178.5115987627
 11
114.4678826757
 21
168.4549596106
  0
LINE
  5
42B
100
AcDbEntity
  8
0
100
AcDbLine
 62
7
  6
BYLAYER
 10
103.9760072635
 20
161.3174256488
 11
86.6865219964
 21
151.2607864966
  0
LINE
  5
42C
100
AcDbEntity
  8
0
100
AcDbLine
 62
7
  6
BYLAYER
 10
132.260160752
 20
177.6471918036
 11
114.9706754849
 21
167.5905526515
  0
LINE
  5
42D
100
AcDbEntity
  8
0
100
AcDbLine
 62
7
  6
BYLAYER
 10
88.3066014293
 20
151.0229801155
 11
90.6886403277
 21
152.4085219797
  0
LINE
  5
42E
100
AcDbEntity
  8
0
100
AcDbLine
 62
7
  6
BYLAYER
 10
103.1191032969
 20
159.638851781
 11
105.5960866964
 21
161.0796192676
  0
LINE
  5
42F
100
AcDbEntity
  8
0
100
AcDbLine
 62
7
  6
BYLAYER
 10
116.5907549179
 20
167.3527462704
 11
118.9727938162
 21
168.7382881345
  0
LINE
  5
430
100
AcDbEntity
  8
0
100
AcDbLine
 62
7
  6
BYLAYER
 10
131.4032567855
 20
175.9686179358
 11
133.880240185
 21
177.4093854225
  0
LINE
  5
431
100
AcDbEntity
  8
0
100
AcDbLine
 62
7
  6
BYLAYER
 10
114.7253975767
 20
172.5185745608
 11
112.9576379837
 21
171.4979641762
  0
LINE
  5
432
100
AcDbEntity
  8
0
100
AcDbLine
 62
7
  6
BYLAYER
 10
104.8259438557
 20
166.8031564066
 11
103.0581842627
 21
165.782546022
  0
LINE
  5
433
100
AcDbEntity
  8
0
100
AcDbLine
 62
7
  6
BYLAYER
 10
94.9264901347
 20
161.0877382524
 11
93.1587305417
 21
160.0671278678
  0
LINE
  5
434
100
AcDbEntity
  8
0
100
AcDbLine
 62
7
  6
BYLAYER
 10
82.9057249021
 20
154.1475876366
 11
81.1379653091
 21
153.1269772519
  0
LINE
  5
435
100
AcDbEntity
  8
0
100
AcDbLine
 62
7
  6
BYLAYER
 10
73.0062711811
 20
148.4321694824
 11
71.2385115881
 21
147.4115590978
  0
LINE
  5
436
100
AcDbEntity
  8
0
100
AcDbLine
 62
7
  6
BYLAYER
 10
63.1068174601
 20
142.7167513282
 11
61.3390578671
 21
141.6961409436
  0
LINE
  5
437
100
AcDbEntity
  8
0
100
AcDbLine
 62
7
  6
BYLAYER
 10
116.307421518
 20
172.403787353
 11
115.6158261931
 21
172.0044969895
  0
LINE
  5
438
100
AcDbEntity
  8
0
100
AcDbLine
 62
7
  6
BYLAYER
 10
106.407967797
 20
166.6883691988
 11
105.7163724721
 21
166.2890788353
  0
LINE
  5
439
100
AcDbEntity
  8
0
100
AcDbLine
 62
7
  6
BYLAYER
 10
96.508514076
 20
160.9729510446
 11
95.8169187511
 21
160.5736606811
  0
LINE
  5
43A
100
AcDbEntity
  8
0
100
AcDbLine
 62
7
  6
BYLAYER
 10
84.4877488433
 20
154.0328004288
 11
83.7961535184
 21
153.6335100653
  0
LINE
  5
43B
100
AcDbEntity
  8
0
100
AcDbLine
 62
7
  6
BYLAYER
 10
74.5882951224
 20
148.3173822746
 11
73.8966997974
 21
147.9180919111
  0
LINE
  5
43C
100
AcDbEntity
  8
0
100
AcDbLine
 62
7
  6
BYLAYER
 10
64.6888414014
 20
142.6019641204
 11
63.9972460765
 21
142.2026737569
  0
LINE
  5
43D
100
AcDbEntity
  8
0
100
AcDbLine
 62
7
  6
BYLAYER
 10
113.8768806264
 20
170.9672511953
 11
113.0283560217
 21
170.4773582106
  0
LINE
  5
43E
100
AcDbEntity
  8
0
100
AcDbLine
 62
7
  6
BYLAYER
 10
103.9774269054
 20
165.2518330411
 11
103.1289023007
 21
164.7619400564
  0
LINE
  5
43F
100
AcDbEntity
  8
0
100
AcDbLine
 62
7
  6
BYLAYER
 10
94.0779731844
 20
159.5364148869
 11
93.2294485797
 21
159.0465219022
  0
LINE
  5
440
100
AcDbEntity
  8
0
100
AcDbLine
 62
7
  6
BYLAYER
 10
82.0572079518
 20
152.5962642711
 11
81.2086833471
 21
152.1063712864
  0
LINE
  5
441
100
AcDbEntity
  8
0
100
AcDbLine
 62
7
  6
BYLAYER
 10
72.1577542308
 20
146.8808461169
 11
71.3092296261
 21
146.3909531322
  0
LINE
  5
442
100
AcDbEntity
  8
0
100
AcDbLine
 62
7
  6
BYLAYER
 10
62.2583005098
 20
141.1654279627
 11
61.4097759051
 21
140.675534978
  0
LINE
  5
443
100
AcDbEntity
  8
0
100
AcDbLine
 62
7
  6
BYLAYER
 10
114.7253975767
 20
169.334215134
 11
113.8768806264
 21
168.8443265686
  0
LINE
  5
444
100
AcDbEntity
  8
0
100
AcDbLine
 62
7
  6
BYLAYER
 10
104.8259438557
 20
163.6187969798
 11
103.9774269054
 21
163.1289084144
  0
LINE
  5
445
100
AcDbEntity
  8
0
100
AcDbLine
 62
7
  6
BYLAYER
 10
94.9264901347
 20
157.9033788256
 11
94.0779731844
 21
157.4134902602
  0
LINE
  5
446
100
AcDbEntity
  8
0
100
AcDbLine
 62
7
  6
BYLAYER
 10
82.9057249021
 20
150.9632282098
 11
82.0572079518
 21
150.4733396444
  0
LINE
  5
447
100
AcDbEntity
  8
0
100
AcDbLine
 62
7
  6
BYLAYER
 10
73.0062711811
 20
145.2478100556
 11
72.1577542308
 21
144.7579214902
  0
LINE
  5
448
100
AcDbEntity
  8
0
100
AcDbLine
 62
7
  6
BYLAYER
 10
63.1068174601
 20
139.5323919014
 11
62.2583005098
 21
139.042503336
  0
LINE
  5
449
100
AcDbEntity
  8
0
100
AcDbLine
 62
7
  6
BYLAYER
 10
116.307421518
 20
169.2194279262
 11
115.6158261931
 21
168.8201375627
  0
LINE
  5
44A
100
AcDbEntity
  8
0
100
AcDbLine
 62
7
  6
BYLAYER
 10
106.407967797
 20
163.504009772
 11
105.7163724721
 21
163.1047194085
  0
LINE
  5
44B
100
AcDbEntity
  8
0
100
AcDbLine
 62
7
  6
BYLAYER
 10
96.508514076
 20
157.7885916178
 11
95.8169187511
 21
157.3893012543
  0
LINE
  5
44C
100
AcDbEntity
  8
0
100
AcDbLine
 62
7
  6
BYLAYER
 10
84.4877488433
 20
150.848441002
 11
83.7961535184
 21
150.4491506385
  0
LINE
  5
44D
100
AcDbEntity
  8
0
100
AcDbLine
 62
7
  6
BYLAYER
 10
74.5882951224
 20
145.1330228478
 11
73.8966997974
 21
144.7337324843
  0
LINE
  5
44E
100
AcDbEntity
  8
0
100
AcDbLine
 62
7
  6
BYLAYER
 10
64.6888414014
 20
139.4176046936
 11
63.9972460765
 21
139.0183143301
  0
LINE
  5
44F
100
AcDbEntity
  8
0
100
AcDbLine
 62
7
  6
BYLAYER
 10
113.8768806264
 20
167.7828917685
 11
113.0283560217
 21
167.2929987838
  0
LINE
  5
450
100
AcDbEntity
  8
0
100
AcDbLine
 62
7
  6
BYLAYER
 10
103.9774269054
 20
162.0674736143
 11
103.1289023007
 21
161.5775806296
  0
LINE
  5
451
100
AcDbEntity
  8
0
100
AcDbLine
 62
7
  6
BYLAYER
 10
94.0779731844
 20
156.3520554601
 11
93.2294485797
 21
155.8621624754
  0
LINE
  5
452
100
AcDbEntity
  8
0
100
AcDbLine
 62
7
  6
BYLAYER
 10
82.0572079518
 20
149.4119048443
 11
81.2086833471
 21
148.9220118596
  0
LINE
  5
453
100
AcDbEntity
  8
0
100
AcDbLine
 62
7
  6
BYLAYER
 10
72.1577542308
 20
143.6964866901
 11
71.3092296261
 21
143.2065937054
  0
LINE
  5
454
100
AcDbEntity
  8
0
100
AcDbLine
 62
7
  6
BYLAYER
 10
62.2583005098
 20
137.9810685359
 11
61.4097759051
 21
137.4911755512
  0
LINE
  5
455
100
AcDbEntity
  8
0
100
AcDbLine
 62
7
  6
BYLAYER
 10
65.1211608931
 20
146.7791960311
 11
65.0225396439
 21
146.7222641592
  0
LINE
  5
456
100
AcDbEntity
  8
0
100
AcDbLine
 62
7
  6
BYLAYER
 10
169.2368472165
 20
206.4740633929
 11
170.1849030901
 21
207.0211892568
  0
LINE
  5
457
100
AcDbEntity
  8
0
100
AcDbLine
 62
7
  6
BYLAYER
 10
201.0275304702
 20
224.8205612347
 11
202.0742651781
 21
225.4246349473
  0
LINE
  5
458
100
AcDbEntity
  8
0
100
AcDbLine
 62
7
  6
BYLAYER
 10
222.0217444577
 20
236.1194158421
 11
218.1313924218
 21
233.8742821134
  0
LINE
  5
459
100
AcDbEntity
  8
0
100
AcDbLine
 62
7
  6
BYLAYER
 10
214.2419594666
 20
231.6296787889
 11
210.3516074307
 21
229.3845450602
  0
LINE
  5
45A
100
AcDbEntity
  8
0
100
AcDbLine
 62
7
  6
BYLAYER
 10
206.4621744754
 20
227.1399417358
 11
204.5521313463
 21
226.0376501661
  0
LINE
  5
45B
100
AcDbEntity
  8
0
100
AcDbLine
 62
7
  6
BYLAYER
 10
190.1953513121
 20
217.7523097155
 11
186.3049992762
 21
215.5071759868
  0
LINE
  5
45C
100
AcDbEntity
  8
0
100
AcDbLine
 62
7
  6
BYLAYER
 10
182.4155663209
 20
213.2625726623
 11
178.525214285
 21
211.0174389336
  0
LINE
  5
45D
100
AcDbEntity
  8
0
100
AcDbLine
 62
7
  6
BYLAYER
 10
158.3689581665
 20
199.3852035889
 11
154.4786061306
 21
197.1400698602
  0
LINE
  5
45E
100
AcDbEntity
  8
0
100
AcDbLine
 62
7
  6
BYLAYER
 10
150.5891731753
 20
194.8954665357
 11
146.6988211394
 21
192.650332807
  0
LINE
  5
45F
100
AcDbEntity
  8
0
100
AcDbLine
 62
7
  6
BYLAYER
 10
140.6876286411
 20
189.1812557408
 11
139.6262893293
 21
188.5687536678
  0
LINE
  5
460
100
AcDbEntity
  8
0
100
AcDbLine
 62
7
  6
BYLAYER
 10
74.7793911176
 20
146.231099621
 11
74.5882951224
 21
146.120784118
  0
LINE
  5
461
100
AcDbEntity
  8
0
100
AcDbLine
 62
7
  6
BYLAYER
 10
73.0411689255
 20
145.2276622893
 11
72.1577542308
 21
144.7176864715
  0
LINE
  5
462
100
AcDbEntity
  8
0
100
AcDbLine
 62
7
  6
BYLAYER
 10
68.9050494951
 20
142.8399717721
 11
64.6888414014
 21
140.4060478361
  0
LINE
  5
463
100
AcDbEntity
  8
0
100
AcDbLine
 62
7
  6
BYLAYER
 10
63.1411246421
 20
139.5125850888
 11
62.2583005098
 21
139.0029501896
  0
LINE
  5
464
100
AcDbEntity
  8
0
100
AcDbLine
 62
7
  6
BYLAYER
 10
117.6365129398
 20
176.9719820139
 11
118.3438095027
 21
177.3801148697
  0
LINE
  5
465
100
AcDbEntity
  8
0
100
AcDbLine
 62
7
  6
BYLAYER
 10
119.7584026284
 20
178.1963805814
 11
120.4656991913
 21
178.6045134372
  0
LINE
  5
466
100
AcDbEntity
  8
0
100
AcDbLine
 62
7
  6
BYLAYER
 10
144.0185376418
 20
190.1151439288
 11
143.0202464036
 21
189.7117533076
  0
LINE
  5
467
100
AcDbEntity
  8
0
100
AcDbLine
 62
7
  6
BYLAYER
 10
145.8480878078
 20
188.0784453998
 11
146.846379046
 21
188.4818360209
  0
LINE
  5
468
100
AcDbEntity
  8
0
100
AcDbLine
 62
7
  6
BYLAYER
 10
117.2962163955
 20
196.8675499309
 11
114.4682206583
 21
197.9904547572
  0
LINE
  5
469
100
AcDbEntity
  8
0
100
AcDbLine
 62
7
  6
BYLAYER
 10
120.8331521629
 20
201.6640764642
 11
123.6611479001
 21
200.5411716379
  0
LINE
  5
46A
100
AcDbEntity
  8
0
100
AcDbLine
 62
7
  6
BYLAYER
 10
133.6159753209
 20
190.4068897342
 11
143.5134202355
 21
184.6903120566
  0
LINE
  5
46B
100
AcDbEntity
  8
0
100
AcDbLine
 62
7
  6
BYLAYER
 10
121.4490423204
 20
199.056628154
 11
120.8331521629
 21
199.4123158919
  0
LINE
  5
46C
100
AcDbEntity
  8
0
100
AcDbLine
 62
7
  6
BYLAYER
 10
137.151362736
 20
189.9982246311
 11
139.9792041402
 21
188.3649167232
  0
LINE
  5
46D
100
AcDbEntity
  8
0
100
AcDbLine
 62
7
  6
BYLAYER
 10
141.1353283774
 20
188.9226728094
 11
140.6876286411
 21
189.1812557408
  0
LINE
  5
46E
100
AcDbEntity
  8
0
100
AcDbLine
 62
7
  6
BYLAYER
 10
138.223957696
 20
192.4817078729
 11
139.2507251295
 21
191.8886663515
  0
LINE
  5
46F
100
AcDbEntity
  8
0
100
AcDbLine
 62
7
  6
BYLAYER
 10
143.0202464036
 20
189.7117533076
 11
145.8480878078
 21
188.0784453998
  0
LINE
  5
470
100
AcDbEntity
  8
0
100
AcDbLine
 62
7
  6
BYLAYER
 10
146.846379046
 20
188.4818360209
 11
144.0185376418
 21
190.1151439288
  0
LINE
  5
471
100
AcDbEntity
  8
0
100
AcDbLine
 62
7
  6
BYLAYER
 10
143.6337747008
 20
190.3373757531
 11
140.6876286411
 21
192.0390142007
  0
LINE
  5
472
100
AcDbEntity
  8
0
100
AcDbLine
 62
7
  6
BYLAYER
 10
139.1587419299
 20
192.9220703551
 11
140.2493132235
 21
192.2921769264
  0
LINE
  5
473
100
AcDbEntity
  8
0
100
AcDbLine
 62
7
  6
BYLAYER
 10
118.7027344236
 20
202.5689114816
 11
119.4803430669
 21
202.1197242561
  0
LINE
  5
474
100
AcDbEntity
  8
0
100
AcDbLine
 62
7
  6
BYLAYER
 10
119.4807606427
 20
203.017857623
 11
120.2583692861
 21
202.5686703975
  0
LINE
  5
475
100
AcDbEntity
  8
0
100
AcDbLine
 62
7
  6
BYLAYER
 10
116.0224099644
 20
207.5496839726
 11
117.2948604718
 21
206.8146503309
  0
LINE
  5
476
100
AcDbEntity
  8
0
100
AcDbLine
 62
7
  6
BYLAYER
 10
118.7090739832
 20
206.8144311636
 11
116.7297065273
 21
207.9578168284
  0
LINE
  5
477
100
AcDbEntity
  8
0
100
AcDbLine
 62
7
  6
BYLAYER
 10
144.0185376418
 20
190.1151439288
 11
144.0185376418
 21
189.1351591
  0
LINE
  5
478
100
AcDbEntity
  8
0
100
AcDbLine
 62
7
  6
BYLAYER
 10
145.0529340798
 20
207.4730331847
 11
145.0529340798
 21
204.6152747247
  0
LINE
  5
479
100
AcDbEntity
  8
0
100
AcDbLine
 62
7
  6
BYLAYER
 10
148.1924077623
 20
200.3188067372
 11
148.1924077623
 21
197.5693768659
  0
LINE
  5
47A
100
AcDbEntity
  8
0
100
AcDbLine
 62
7
  6
BYLAYER
 10
149.4648582697
 20
198.2973055666
 11
149.4648582697
 21
199.5837730955
  0
LINE
  5
47B
100
AcDbEntity
  8
0
100
AcDbLine
 62
7
  6
BYLAYER
 10
149.6073805024
 20
200.3181489999
 11
149.6073805024
 21
201.9515573279
  0
LINE
  5
47C
100
AcDbEntity
  8
0
100
AcDbLine
 62
7
  6
BYLAYER
 10
150.1067777386
 20
215.7168134878
 11
150.1067777386
 21
216.3080556622
  0
LINE
  5
47D
100
AcDbEntity
  8
0
100
AcDbLine
 62
7
  6
BYLAYER
 10
150.1721548326
 20
198.7238833986
 11
150.1721548326
 21
199.9919059514
  0
LINE
  5
47E
100
AcDbEntity
  8
0
100
AcDbLine
 62
7
  6
BYLAYER
 10
150.5891731753
 20
197.7532249957
 11
150.5891731753
 21
194.8954665357
  0
LINE
  5
47F
100
AcDbEntity
  8
0
100
AcDbLine
 62
7
  6
BYLAYER
 10
151.1671531614
 20
216.2343132169
 11
151.1671531614
 21
216.9200682452
  0
LINE
  5
480
100
AcDbEntity
  8
0
100
AcDbLine
 62
7
  6
BYLAYER
 10
151.5867479583
 20
199.5770390626
 11
151.5867479583
 21
200.808171663
  0
LINE
  5
481
100
AcDbEntity
  8
0
100
AcDbLine
 62
7
  6
BYLAYER
 10
151.3086839873
 20
220.4408223665
 11
151.3086883968
 21
220.4857027687
  0
LINE
  5
482
100
AcDbEntity
  8
0
100
AcDbLine
 62
7
  6
BYLAYER
 10
166.7858379635
 20
207.9166843069
 11
166.5967706841
 21
207.6718660161
  0
LINE
  5
483
100
AcDbEntity
  8
0
100
AcDbLine
 62
7
  6
BYLAYER
 10
88.8093942386
 20
150.1585731564
 11
91.2161262462
 21
151.5584780676
  0
LINE
  5
484
100
AcDbEntity
  8
0
100
AcDbLine
 62
7
  6
BYLAYER
 10
103.6218961062
 20
158.7744448219
 11
106.0988795057
 21
160.2152123085
  0
LINE
  5
485
100
AcDbEntity
  8
0
100
AcDbLine
 62
7
  6
BYLAYER
 10
117.0935477272
 20
166.4883393113
 11
119.5002797348
 21
167.8882442224
  0
LINE
  5
486
100
AcDbEntity
  8
0
100
AcDbLine
 62
7
  6
BYLAYER
 10
131.9060495948
 20
175.1042109767
 11
134.3830329943
 21
176.5449784634
  0
LINE
  5
487
100
AcDbEntity
  8
0
100
AcDbLine
 62
7
  6
BYLAYER
 10
95.9686046847
 20
151.9741657378
 11
99.8397720478
 21
154.2258772646
  0
LINE
  5
488
100
AcDbEntity
  8
0
100
AcDbLine
 62
7
  6
BYLAYER
 10
100.5814148844
 20
154.6572628306
 11
104.430920657
 21
156.8963746301
  0
LINE
  5
489
100
AcDbEntity
  8
0
100
AcDbLine
 62
7
  6
BYLAYER
 10
124.2527581732
 20
168.3039318926
 11
128.1239255363
 21
170.5556434194
  0
LINE
  5
48A
100
AcDbEntity
  8
0
100
AcDbLine
 62
7
  6
BYLAYER
 10
128.865568373
 20
170.9870289854
 11
132.7150741455
 21
173.2261407849
  0
LINE
  5
48B
100
AcDbEntity
  8
0
100
AcDbLine
 62
7
  6
BYLAYER
 10
96.4522261605
 20
151.0986075396
 11
100.3425648571
 21
153.3614703055
  0
LINE
  5
48C
100
AcDbEntity
  8
0
100
AcDbLine
 62
7
  6
BYLAYER
 10
101.0842076937
 20
153.7928558715
 11
104.9938649657
 21
156.0669555214
  0
LINE
  5
48D
100
AcDbEntity
  8
0
100
AcDbLine
 62
7
  6
BYLAYER
 10
124.736379649
 20
167.4283736945
 11
128.6267183456
 21
169.6912364603
  0
LINE
  5
48E
100
AcDbEntity
  8
0
100
AcDbLine
 62
7
  6
BYLAYER
 10
129.3683611822
 20
170.1226220263
 11
133.2780184543
 21
172.3967216762
  0
LINE
  5
48F
100
AcDbEntity
  8
0
100
AcDbLine
 62
7
  6
BYLAYER
 10
112.816206618
 20
161.4605035579
 11
111.9676820133
 21
160.9706105733
  0
LINE
  5
490
100
AcDbEntity
  8
0
100
AcDbLine
 62
7
  6
BYLAYER
 10
102.916752897
 20
155.7450854037
 11
102.0682282923
 21
155.2551924191
  0
LINE
  5
491
100
AcDbEntity
  8
0
100
AcDbLine
 62
7
  6
BYLAYER
 10
93.017299176
 20
150.0296672495
 11
92.1687745713
 21
149.5397742649
  0
LINE
  5
492
100
AcDbEntity
  8
0
100
AcDbLine
 62
7
  6
BYLAYER
 10
80.9965339433
 20
143.0895166337
 11
80.1480093387
 21
142.5996236491
  0
LINE
  5
493
100
AcDbEntity
  8
0
100
AcDbLine
 62
7
  6
BYLAYER
 10
71.0970802223
 20
137.3740984795
 11
70.2485556177
 21
136.8842054949
  0
LINE
  5
494
100
AcDbEntity
  8
0
100
AcDbLine
 62
7
  6
BYLAYER
 10
61.1976265014
 20
131.6586803253
 11
60.3491018967
 21
131.1687873407
  0
LINE
  5
495
100
AcDbEntity
  8
0
100
AcDbLine
 62
7
  6
BYLAYER
 10
61.4804680362
 20
135.3566019942
 11
62.641199267
 21
136.0266665316
  0
LINE
  5
496
100
AcDbEntity
  8
0
100
AcDbLine
 62
7
  6
BYLAYER
 10
68.2983674189
 20
139.2924249261
 11
68.9050494951
 21
139.6426491071
  0
LINE
  5
497
100
AcDbEntity
  8
0
100
AcDbLine
 62
7
  6
BYLAYER
 10
76.0768559111
 20
142.5581153578
 11
78.6089946496
 21
144.0198632004
  0
LINE
  5
498
100
AcDbEntity
  8
0
100
AcDbLine
 62
7
  6
BYLAYER
 10
127.9043277312
 20
202.6457995778
 11
124.7228325268
 21
203.9090675073
  0
LINE
  5
499
100
AcDbEntity
  8
0
100
AcDbLine
 62
7
  6
BYLAYER
 10
128.2589055849
 20
205.9499684556
 11
131.0869013221
 21
204.8270636294
  0
LINE
  5
49A
100
AcDbEntity
  8
0
100
AcDbLine
 62
7
  6
BYLAYER
 10
144.2238945462
 20
194.0798037703
 11
147.0517359504
 21
192.4464958625
  0
LINE
  5
49B
100
AcDbEntity
  8
0
100
AcDbLine
 62
7
  6
BYLAYER
 10
128.9624245898
 20
203.2919128965
 11
128.2589055849
 21
203.6982078834
  0
LINE
  5
49C
100
AcDbEntity
  8
0
100
AcDbLine
 62
7
  6
BYLAYER
 10
151.1553354901
 20
194.5684618513
 11
150.5891731753
 21
194.8954665357
  0
LINE
  5
49D
100
AcDbEntity
  8
0
100
AcDbLine
 62
7
  6
BYLAYER
 10
153.4170145795
 20
196.1199170878
 11
150.5891731753
 21
197.7532249957
  0
LINE
  5
49E
100
AcDbEntity
  8
0
100
AcDbLine
 62
7
  6
BYLAYER
 10
118.1442996531
 20
208.7740825401
 11
120.123667109
 21
207.6306968753
  0
LINE
  5
49F
100
AcDbEntity
  8
0
100
AcDbLine
 62
7
  6
BYLAYER
 10
120.1240467233
 20
208.4471817543
 11
118.851596216
 21
209.1822153959
  0
LINE
  5
4A0
100
AcDbEntity
  8
0
100
AcDbLine
 62
7
  6
BYLAYER
 10
130.7267759926
 20
209.5071700308
 11
130.9630518636
 21
209.37068479
  0
LINE
  5
4A1
100
AcDbEntity
  8
0
100
AcDbLine
 62
7
  6
BYLAYER
 10
152.2940445212
 20
200.0036168946
 11
152.2940445212
 21
201.2163045189
  0
LINE
  5
4A2
100
AcDbEntity
  8
0
100
AcDbLine
 62
7
  6
BYLAYER
 10
152.5110166309
 20
217.6957004746
 11
152.5110166309
 21
216.9845419118
  0
LINE
  5
4A3
100
AcDbEntity
  8
0
100
AcDbLine
 62
7
  6
BYLAYER
 10
152.6578096858
 20
220.0321849991
 11
152.6578096858
 21
217.7804244269
  0
LINE
  5
4A4
100
AcDbEntity
  8
0
100
AcDbLine
 62
7
  6
BYLAYER
 10
158.3689581665
 20
202.2429620488
 11
158.3689581665
 21
199.3852035889
  0
LINE
  5
4A5
100
AcDbEntity
  8
0
100
AcDbLine
 62
7
  6
BYLAYER
 10
170.1849030901
 20
207.0211892568
 11
170.312426347
 21
207.2580976433
  0
LINE
  5
4A6
100
AcDbEntity
  8
0
100
AcDbLine
 62
7
  6
BYLAYER
 10
135.3300811532
 20
206.9316915693
 11
132.1485859488
 21
208.1949594988
  0
LINE
  5
4A7
100
AcDbEntity
  8
0
100
AcDbLine
 62
7
  6
BYLAYER
 10
135.6846590069
 20
210.2358604471
 11
138.5126547442
 21
209.1129556209
  0
LINE
  5
4A8
100
AcDbEntity
  8
0
100
AcDbLine
 62
7
  6
BYLAYER
 10
136.3881780118
 20
207.577804888
 11
135.6846590069
 21
207.9840998749
  0
LINE
  5
4A9
100
AcDbEntity
  8
0
100
AcDbLine
 62
7
  6
BYLAYER
 10
152.0036795373
 20
198.5695408235
 11
154.8315209415
 21
196.9362329156
  0
LINE
  5
4AA
100
AcDbEntity
  8
0
100
AcDbLine
 62
7
  6
BYLAYER
 10
158.9351204813
 20
199.0581989045
 11
158.3689581665
 21
199.3852035889
  0
LINE
  5
4AB
100
AcDbEntity
  8
0
100
AcDbLine
 62
7
  6
BYLAYER
 10
161.1967995706
 20
200.6096541409
 11
158.3689581665
 21
202.2429620488
  0
LINE
  5
4AC
100
AcDbEntity
  8
0
100
AcDbLine
 62
7
  6
BYLAYER
 10
131.5048022118
 20
209.9561161722
 11
131.6845642769
 21
209.8522762471
  0
LINE
  5
4AD
100
AcDbEntity
  8
0
100
AcDbLine
 62
7
  6
BYLAYER
 10
148.1924077623
 20
200.3188067372
 11
149.4648582697
 21
199.5837730955
  0
LINE
  5
4AE
100
AcDbEntity
  8
0
100
AcDbLine
 62
7
  6
BYLAYER
 10
131.438741812
 20
210.5682891011
 11
132.1455718751
 21
210.1599872675
  0
LINE
  5
4AF
100
AcDbEntity
  8
0
100
AcDbLine
 62
7
  6
BYLAYER
 10
150.1721548326
 20
199.9919059514
 11
148.1927873767
 21
201.1352916162
  0
LINE
  5
4B0
100
AcDbEntity
  8
0
100
AcDbLine
 62
7
  6
BYLAYER
 10
127.7281680802
 20
214.3042827367
 11
129.0006185875
 21
213.569249095
  0
LINE
  5
4B1
100
AcDbEntity
  8
0
100
AcDbLine
 62
7
  6
BYLAYER
 10
149.6073805024
 20
201.9515573279
 11
151.5867479583
 21
200.808171663
  0
LINE
  5
4B2
100
AcDbEntity
  8
0
100
AcDbLine
 62
7
  6
BYLAYER
 10
133.8509648521
 20
211.2982943479
 11
133.2777128755
 21
211.6294345263
  0
LINE
  5
4B3
100
AcDbEntity
  8
0
100
AcDbLine
 62
7
  6
BYLAYER
 10
130.414832099
 20
213.5690299277
 11
128.4354646431
 21
214.7124155925
  0
LINE
  5
4B4
100
AcDbEntity
  8
0
100
AcDbLine
 62
7
  6
BYLAYER
 10
152.2940445212
 20
201.2163045189
 11
151.0215940139
 21
201.9513381605
  0
LINE
  5
4B5
100
AcDbEntity
  8
0
100
AcDbLine
 62
7
  6
BYLAYER
 10
129.8500577688
 20
215.5286813042
 11
131.8294252248
 21
214.3852956393
  0
LINE
  5
4B6
100
AcDbEntity
  8
0
100
AcDbLine
 62
7
  6
BYLAYER
 10
131.8298048391
 20
215.2017805183
 11
130.5573543317
 21
215.93681416
  0
LINE
  5
4B7
100
AcDbEntity
  8
0
100
AcDbLine
 62
7
  6
BYLAYER
 10
160.0835631079
 20
224.3180769906
 11
160.0835631079
 21
222.0663164184
  0
LINE
  5
4B8
100
AcDbEntity
  8
0
100
AcDbLine
 62
7
  6
BYLAYER
 10
163.2578245518
 20
209.0120365665
 11
163.2578245518
 21
207.2276717066
  0
LINE
  5
4B9
100
AcDbEntity
  8
0
100
AcDbLine
 62
7
  6
BYLAYER
 10
166.7858379635
 20
207.9166843068
 11
166.7858379635
 21
207.4392159721
  0
LINE
  5
4BA
100
AcDbEntity
  8
0
100
AcDbLine
 62
7
  6
BYLAYER
 10
167.5093165299
 20
228.6039689821
 11
167.5093165299
 21
226.3522084099
  0
LINE
  5
4BB
100
AcDbEntity
  8
0
100
AcDbLine
 62
7
  6
BYLAYER
 10
167.632695632
 20
206.9372463472
 11
167.632695632
 21
208.4054083857
  0
LINE
  5
4BC
100
AcDbEntity
  8
0
100
AcDbLine
 62
7
  6
BYLAYER
 10
149.1208739185
 20
215.2356584659
 11
146.2928781813
 21
216.3585632921
  0
LINE
  5
4BD
100
AcDbEntity
  8
0
100
AcDbLine
 62
7
  6
BYLAYER
 10
168.3169152929
 20
206.5420539643
 11
166.7636062938
 21
207.4392159721
  0
LINE
  5
4BE
100
AcDbEntity
  8
0
100
AcDbLine
 62
7
  6
BYLAYER
 10
140.628927873
 20
215.2210300124
 11
140.9163270657
 21
215.0550132802
  0
LINE
  5
4BF
100
AcDbEntity
  8
0
100
AcDbLine
 62
7
  6
BYLAYER
 10
141.4069540922
 20
215.6699761539
 11
141.7492093906
 21
215.4722716798
  0
LINE
  5
4C0
100
AcDbEntity
  8
0
100
AcDbLine
 62
7
  6
BYLAYER
 10
163.2578245518
 20
209.0120365665
 11
159.0454489949
 21
211.4453239342
  0
LINE
  5
4C1
100
AcDbEntity
  8
0
100
AcDbLine
 62
7
  6
BYLAYER
 10
147.2786703171
 20
218.2424277368
 11
142.1916994854
 21
221.1809268563
  0
LINE
  5
4C2
100
AcDbEntity
  8
0
100
AcDbLine
 62
7
  6
BYLAYER
 10
152.103103033
 20
220.8993339858
 11
152.086714616
 21
220.9346489101
  0
LINE
  5
4C3
100
AcDbEntity
  8
0
100
AcDbLine
 62
7
  6
BYLAYER
 10
168.5213205568
 20
208.4656283956
 11
168.5213205568
 21
206.4841063431
  0
LINE
  5
4C4
100
AcDbEntity
  8
0
100
AcDbLine
 62
7
  6
BYLAYER
 10
169.424033646
 20
210.5575312025
 11
169.424033646
 21
209.5775463737
  0
LINE
  5
4C5
100
AcDbEntity
  8
0
100
AcDbLine
 62
7
  6
BYLAYER
 10
170.1007411555
 20
206.972619154
 11
170.1007411555
 21
207.55338482
  0
LINE
  5
4C6
100
AcDbEntity
  8
0
100
AcDbLine
 62
7
  6
BYLAYER
 10
171.8853671617
 20
209.1359113446
 11
171.8853671617
 21
208.1559265158
  0
LINE
  5
4C7
100
AcDbEntity
  8
0
100
AcDbLine
 62
7
  6
BYLAYER
 10
175.3398133811
 20
200.1996597232
 11
175.3398133811
 21
203.0574181832
  0
LINE
  5
4C8
100
AcDbEntity
  8
0
100
AcDbLine
 62
7
  6
BYLAYER
 10
202.0742651781
 20
225.4246349473
 11
202.2049255411
 21
225.6343041014
  0
LINE
  5
4C9
100
AcDbEntity
  8
0
100
AcDbLine
 62
7
  6
BYLAYER
 10
152.6578096858
 20
220.0321849991
 11
155.4858054231
 21
218.9092801729
  0
LINE
  5
4CA
100
AcDbEntity
  8
0
100
AcDbLine
 62
7
  6
BYLAYER
 10
159.7289852541
 20
221.0139081127
 11
156.5474900498
 21
222.2771760423
  0
LINE
  5
4CB
100
AcDbEntity
  8
0
100
AcDbLine
 62
7
  6
BYLAYER
 10
170.1007411556
 20
207.55338482
 11
168.5213205568
 21
208.4656283956
  0
LINE
  5
4CC
100
AcDbEntity
  8
0
100
AcDbLine
 62
7
  6
BYLAYER
 10
153.2736998433
 20
217.4247366889
 11
152.6578096858
 21
217.7804244269
  0
LINE
  5
4CD
100
AcDbEntity
  8
0
100
AcDbLine
 62
7
  6
BYLAYER
 10
168.4787392309
 20
210.123530615
 11
170.456356111
 21
208.9812963708
  0
LINE
  5
4CE
100
AcDbEntity
  8
0
100
AcDbLine
 62
7
  6
BYLAYER
 10
170.8870759234
 20
208.7325207235
 11
176.2599745914
 21
205.6292356985
  0
LINE
  5
4CF
100
AcDbEntity
  8
0
100
AcDbLine
 62
7
  6
BYLAYER
 10
177.2582658296
 20
206.0326263196
 11
171.8853671617
 21
209.1359113446
  0
LINE
  5
4D0
100
AcDbEntity
  8
0
100
AcDbLine
 62
7
  6
BYLAYER
 10
169.424033646
 20
210.5575312025
 11
171.4546473493
 21
209.3846869919
  0
LINE
  5
4D1
100
AcDbEntity
  8
0
100
AcDbLine
 62
7
  6
BYLAYER
 10
150.5310797535
 20
220.9348899941
 11
151.3086883968
 21
220.4857027687
  0
LINE
  5
4D2
100
AcDbEntity
  8
0
100
AcDbLine
 62
7
  6
BYLAYER
 10
151.3091059726
 20
221.3838361356
 11
152.086714616
 21
220.9346489101
  0
LINE
  5
4D3
100
AcDbEntity
  8
0
100
AcDbLine
 62
7
  6
BYLAYER
 10
166.5967706841
 20
207.6718660161
 11
166.7636062938
 21
207.4392159721
  0
LINE
  5
4D4
100
AcDbEntity
  8
0
100
AcDbLine
 62
7
  6
BYLAYER
 10
176.8775916027
 20
225.8411417196
 11
176.8775916027
 21
222.9833832597
  0
LINE
  5
4D5
100
AcDbEntity
  8
0
100
AcDbLine
 62
7
  6
BYLAYER
 10
182.4155663209
 20
216.1203311223
 11
182.4155663209
 21
213.2625726623
  0
LINE
  5
4D6
100
AcDbEntity
  8
0
100
AcDbLine
 62
7
  6
BYLAYER
 10
160.0835631079
 20
224.3180769906
 11
162.9115588451
 21
223.1951721643
  0
LINE
  5
4D7
100
AcDbEntity
  8
0
100
AcDbLine
 62
7
  6
BYLAYER
 10
167.1547386762
 20
225.2998001042
 11
163.9732434718
 21
226.5630680338
  0
LINE
  5
4D8
100
AcDbEntity
  8
0
100
AcDbLine
 62
7
  6
BYLAYER
 10
176.0502876918
 20
212.4469098969
 11
178.878129096
 21
210.8136019891
  0
LINE
  5
4D9
100
AcDbEntity
  8
0
100
AcDbLine
 62
7
  6
BYLAYER
 10
160.7870821128
 20
221.6600214315
 11
160.0835631079
 21
222.0663164184
  0
LINE
  5
4DA
100
AcDbEntity
  8
0
100
AcDbLine
 62
7
  6
BYLAYER
 10
182.9817286357
 20
212.9355679779
 11
182.4155663209
 21
213.2625726623
  0
LINE
  5
4DB
100
AcDbEntity
  8
0
100
AcDbLine
 62
7
  6
BYLAYER
 10
185.2434077251
 20
214.4870232144
 11
182.4155663209
 21
216.1203311223
  0
LINE
  5
4DC
100
AcDbEntity
  8
0
100
AcDbLine
 62
7
  6
BYLAYER
 10
190.1953513121
 20
220.6100681754
 11
190.1953513121
 21
217.7523097155
  0
LINE
  5
4DD
100
AcDbEntity
  8
0
100
AcDbLine
 62
7
  6
BYLAYER
 10
167.5093165299
 20
228.6039689821
 11
170.3373122671
 21
227.4810641558
  0
LINE
  5
4DE
100
AcDbEntity
  8
0
100
AcDbLine
 62
7
  6
BYLAYER
 10
172.6355979969
 20
228.2909699751
 11
166.9796065224
 21
230.5367796276
  0
LINE
  5
4DF
100
AcDbEntity
  8
0
100
AcDbLine
 62
7
  6
BYLAYER
 10
168.2128355348
 20
225.945913423
 11
167.5093165299
 21
226.3522084099
  0
LINE
  5
4E0
100
AcDbEntity
  8
0
100
AcDbLine
 62
7
  6
BYLAYER
 10
183.830072683
 20
216.9366469501
 11
186.6579140871
 21
215.3033390422
  0
LINE
  5
4E1
100
AcDbEntity
  8
0
100
AcDbLine
 62
7
  6
BYLAYER
 10
190.7615136269
 20
217.4253050311
 11
190.1953513121
 21
217.7523097155
  0
LINE
  5
4E2
100
AcDbEntity
  8
0
100
AcDbLine
 62
7
  6
BYLAYER
 10
172.6355979969
 20
228.2909699751
 11
176.8775916027
 21
225.8411417196
  0
LINE
  5
4E3
100
AcDbEntity
  8
0
100
AcDbLine
 62
7
  6
BYLAYER
 10
193.0231927163
 20
218.9767602676
 11
190.1953513121
 21
220.6100681754
  0
LINE
  5
4E4
100
AcDbEntity
  8
0
100
AcDbLine
 62
7
  6
BYLAYER
 10
198.502408008
 20
225.8757577268
 11
198.5023486825
 21
226.2203769583
  0
LINE
  5
4E5
100
AcDbEntity
  8
0
100
AcDbLine
 62
7
  6
BYLAYER
 10
198.5168794623
 20
225.8566693835
 11
200.3397196481
 21
224.8038757918
  0
LINE
  5
4E6
100
AcDbEntity
  8
0
100
AcDbLine
 62
7
  6
BYLAYER
 10
199.5703009859
 20
225.2482587077
 11
199.5703009859
 21
226.8366954083
  0
LINE
  5
4E7
100
AcDbEntity
  8
0
100
AcDbLine
 62
7
  6
BYLAYER
 10
200.2738731263
 20
226.8835499878
 11
200.2738731263
 21
224.8419058927
  0
LINE
  5
4E8
100
AcDbEntity
  8
0
100
AcDbLine
 62
7
  6
BYLAYER
 10
201.2504267916
 20
228.9246373291
 11
201.2504267916
 21
227.9443892588
  0
LINE
  5
4E9
100
AcDbEntity
  8
0
100
AcDbLine
 62
7
  6
BYLAYER
 10
202.0766220215
 20
225.4246349473
 11
202.0766220215
 21
225.8423161965
  0
LINE
  5
4EA
100
AcDbEntity
  8
0
100
AcDbLine
 62
7
  6
BYLAYER
 10
206.0023118447
 20
226.1800380658
 11
206.0023118447
 21
225.2000532371
  0
LINE
  5
4EB
100
AcDbEntity
  8
0
100
AcDbLine
 62
7
  6
BYLAYER
 10
206.4621744754
 20
229.9977001957
 11
206.4621744754
 21
227.1399417358
  0
LINE
  5
4EC
100
AcDbEntity
  8
0
100
AcDbLine
 62
7
  6
BYLAYER
 10
207.1662065268
 20
218.5667658498
 11
207.1662065268
 21
221.4245243098
  0
LINE
  5
4ED
100
AcDbEntity
  8
0
100
AcDbLine
 62
7
  6
BYLAYER
 10
200.2738731263
 20
226.8835499878
 11
202.0766220215
 21
225.8423161965
  0
LINE
  5
4EE
100
AcDbEntity
  8
0
100
AcDbLine
 62
7
  6
BYLAYER
 10
202.0772047531
 20
227.4671211294
 11
208.086367737
 21
223.9963418251
  0
LINE
  5
4EF
100
AcDbEntity
  8
0
100
AcDbLine
 62
7
  6
BYLAYER
 10
200.3049101952
 20
228.4905355222
 11
201.4890264759
 21
227.8065700745
  0
LINE
  5
4F0
100
AcDbEntity
  8
0
100
AcDbLine
 62
7
  6
BYLAYER
 10
209.0846589752
 20
224.3997324462
 11
206.0023118447
 21
226.1800380658
  0
LINE
  5
4F1
100
AcDbEntity
  8
0
100
AcDbLine
 62
7
  6
BYLAYER
 10
201.2504267916
 20
228.9246373291
 11
202.4875931527
 21
228.2100733518
  0
LINE
  5
4F2
100
AcDbEntity
  8
0
100
AcDbLine
 62
7
  6
BYLAYER
 10
207.0483251582
 20
226.8013921467
 11
206.4621744754
 21
227.1399417358
  0
LINE
  5
4F3
100
AcDbEntity
  8
0
100
AcDbLine
 62
7
  6
BYLAYER
 10
209.2900158796
 20
228.3643922878
 11
206.4621744754
 21
229.9977001957
  0
LINE
  5
4F4
100
AcDbEntity
  8
0
100
AcDbLine
 62
7
  6
BYLAYER
 10
214.2419594666
 20
234.4874372489
 11
214.2419594666
 21
231.6296787889
  0
LINE
  5
4F5
100
AcDbEntity
  8
0
100
AcDbLine
 62
7
  6
BYLAYER
 10
207.8766808375
 20
230.8140160236
 11
210.7045222416
 21
229.1807081157
  0
LINE
  5
4F6
100
AcDbEntity
  8
0
100
AcDbLine
 62
7
  6
BYLAYER
 10
214.8081217814
 20
231.3026741045
 11
214.2419594666
 21
231.6296787889
  0
LINE
  5
4F7
100
AcDbEntity
  8
0
100
AcDbLine
 62
7
  6
BYLAYER
 10
217.0698008707
 20
232.854129341
 11
214.2419594666
 21
234.4874372489
  0
LINE
  5
4F8
100
AcDbEntity
  8
0
100
AcDbLine
 62
7
  6
BYLAYER
 10
202.2049255411
 20
225.6343041014
 11
202.0766220215
 21
225.8423161965
  0
LINE
  5
4F9
100
AcDbEntity
  8
0
100
AcDbLine
 62
7
  6
BYLAYER
 10
222.0217444577
 20
238.977174302
 11
222.0217444577
 21
236.1194158421
  0
LINE
  5
4FA
100
AcDbEntity
  8
0
100
AcDbLine
 62
7
  6
BYLAYER
 10
215.6564658286
 20
235.3037530767
 11
218.4843072328
 21
233.6704451688
  0
LINE
  5
4FB
100
AcDbEntity
  8
0
100
AcDbLine
 62
7
  6
BYLAYER
 10
222.5879067725
 20
235.7924111577
 11
222.0217444577
 21
236.1194158421
  0
LINE
  5
4FC
100
AcDbEntity
  8
0
100
AcDbLine
 62
7
  6
BYLAYER
 10
224.8495858619
 20
237.3438663942
 11
222.0217444577
 21
238.977174302
  0
LINE
  5
4FD
100
AcDbEntity
  8
0
100
AcDbLine
 62
7
  6
BYLAYER
 10
238.9925996724
 20
239.7916304364
 11
229.0951547578
 21
245.508208114
  0
LINE
  5
4FE
100
AcDbEntity
  8
0
100
AcDbLine
 62
7
  6
BYLAYER
 10
238.9925996724
 20
239.7916304364
 11
238.9925996724
 21
236.9338719764
  0
ARC
  5
4FF
100
AcDbEntity
  8
0
100
AcDbCircle
 62
7
  6
BYLAYER
 10
125.2145805975
 20
393.3492021603
 40
181.1544577557
100
AcDbArc
 50
293.4375936918
 51
294.4884610129
  0
ARC
  5
500
100
AcDbEntity
  8
0
100
AcDbCircle
 62
7
  6
BYLAYER
 10
93.3882574387
 20
374.9819361922
 40
181.154283265
100
AcDbArc
 50
293.4375934907
 51
294.4885390447
  0
ARC
  5
501
100
AcDbEntity
  8
0
100
AcDbCircle
 62
7
  6
BYLAYER
 10
63.7936406046
 20
158.3623075064
 40
17.1983306298
100
AcDbArc
 50
138.953752857
 51
141.5233441542
  0
ARC
  5
502
100
AcDbEntity
  8
0
100
AcDbCircle
 62
7
  6
BYLAYER
 10
91.7739179698
 20
151.2644281913
 40
16.0517339624
100
AcDbArc
 50
177.4032240806
 51
179.9908344816
  0
ARC
  5
503
100
AcDbEntity
  8
0
100
AcDbCircle
 62
7
  6
BYLAYER
 10
69.4446149202
 20
169.0282502324
 40
10.6473735562
100
AcDbArc
 50
120.0115267049
 51
123.3120373169
  0
ARC
  5
504
100
AcDbEntity
  8
0
100
AcDbCircle
 62
7
  6
BYLAYER
 10
61.1235554859
 20
164.0450637574
 40
9.9190862203
100
AcDbArc
 50
117.7448821735
 51
120.0028680182
  0
ARC
  5
505
100
AcDbEntity
  8
0
100
AcDbCircle
 62
7
  6
BYLAYER
 10
58.7211092104
 20
169.8183853499
 40
4.3704137616
100
AcDbArc
 50
84.1171869149
 51
86.1475544863
  0
ARC
  5
506
100
AcDbEntity
  8
0
100
AcDbCircle
 62
7
  6
BYLAYER
 10
62.7015414023
 20
146.5907955368
 40
2.7082962041
100
AcDbArc
 50
299.9980339519
 51
300.6477498694
  0
ARC
  5
507
100
AcDbEntity
  8
0
100
AcDbCircle
 62
7
  6
BYLAYER
 10
57.6933241488
 20
188.1408366288
 40
2.572015672
100
AcDbArc
 50
82.9147654446
 51
97.1096370771
  0
ARC
  5
508
100
AcDbEntity
  8
0
100
AcDbCircle
 62
7
  6
BYLAYER
 10
65.1780208161
 20
143.6181629301
 40
1.002909307
100
AcDbArc
 50
240.0095937805
 51
243.6629576893
  0
SPLINE
  5
509
100
AcDbEntity
  8
0
100
AcDbSpline
 62
7
  6
BYLAYER
 70
0
 71
3
 72
15
 73
11
 74
0
 42
0.0000001
 43
0.0000001
 44
0.0000000001
 40
0.0
 40
0.0
 40
0.0
 40
0.0
 40
0.1297719095
 40
0.2609372902
 40
0.3920676842
 40
0.5217350745
 40
0.6485601892
 40
0.7712633909
 40
0.888711825
 40
1.0
 40
1.0
 40
1.0
 40
1.0
 10
65.7922519029
 20
146.3940815695
 30
0.0
 10
65.7481746539
 20
146.2822042484
 30
0.0
 10
65.6507624591
 20
146.0606107337
 30
0.0
 10
65.4800871697
 20
145.7395539019
 30
0.0
 10
65.2862841872
 20
145.4319921096
 30
0.0
 10
65.0725080066
 20
145.1429419618
 30
0.0
 10
64.8422241992
 20
144.8770828199
 30
0.0
 10
64.5991404529
 20
144.638715696
 30
0.0
 10
64.347209872
 20
144.4317064892
 30
0.0
 10
64.170835525
 20
144.3133654261
 30
0.0
 10
64.0821186154
 20
144.2608009257
 30
0.0
  0
SPLINE
  5
50A
100
AcDbEntity
  8
0
100
AcDbSpline
 62
7
  6
BYLAYER
 70
0
 71
3
 72
17
 73
13
 74
0
 42
0.0000001
 43
0.0000001
 44
0.0000000001
 40
0.0
 40
0.0
 40
0.0
 40
0.0
 40
0.0428565175
 40
0.0874840184
 40
0.1353147758
 40
0.1872797004
 40
0.3045406511
 40
0.4382098661
 40
0.5825559328
 40
0.7297181482
 40
0.8713076397
 40
1.0
 40
1.0
 40
1.0
 40
1.0
 10
50.1095316367
 20
171.8836359454
 30
0.0
 10
50.1366468735
 20
171.8992951295
 30
0.0
 10
50.1880628824
 20
171.9386264591
 30
0.0
 10
50.2499063275
 20
172.0168625664
 30
0.0
 10
50.2961651288
 20
172.1125183908
 30
0.0
 10
50.3376590462
 20
172.2663486209
 30
0.0
 10
50.3428940541
 20
172.490618821
 30
0.0
 10
50.2848362358
 20
172.7752529553
 30
0.0
 10
50.1678733159
 20
173.0647626292
 30
0.0
 10
50.0013548075
 20
173.3356038535
 30
0.0
 10
49.7990705053
 20
173.5657878026
 30
0.0
 10
49.6410133963
 20
173.6874244776
 30
0.0
 10
49.5595864991
 20
173.7344408643
 30
0.0
  0
SPLINE
  5
50B
100
AcDbEntity
  8
0
100
AcDbSpline
 62
7
  6
BYLAYER
 70
0
 71
3
 72
11
 73
7
 74
0
 42
0.0000001
 43
0.0000001
 44
0.0000000001
 40
0.0
 40
0.0
 40
0.0
 40
0.0
 40
0.2189725444
 40
0.4526509274
 40
0.7114564869
 40
1.0
 40
1.0
 40
1.0
 40
1.0
 10
36.348786984
 20
149.1768494381
 30
0.0
 10
36.3632151388
 20
149.1851707685
 30
0.0
 10
36.390244368
 20
149.2076608654
 30
0.0
 10
36.4194606794
 20
149.2540538673
 30
0.0
 10
36.4373908112
 20
149.3112345721
 30
0.0
 10
36.4414912398
 20
149.3529379962
 30
0.0
 10
36.4419091737
 20
149.3748816426
 30
0.0
  0
SPLINE
  5
50C
100
AcDbEntity
  8
0
100
AcDbSpline
 62
7
  6
BYLAYER
 70
0
 71
3
 72
11
 73
7
 74
0
 42
0.0000001
 43
0.0000001
 44
0.0000000001
 40
0.0
 40
0.0
 40
0.0
 40
0.0
 40
0.21777905
 40
0.4509228246
 40
0.7102584206
 40
1.0
 40
1.0
 40
1.0
 40
1.0
 10
36.6737571849
 20
148.6139139928
 30
0.0
 10
36.6374791523
 20
148.5929629392
 30
0.0
 10
36.554107496
 20
148.5627227866
 30
0.0
 10
36.4156542816
 20
148.5592222737
 30
0.0
 10
36.2680810791
 20
148.5948533212
 30
0.0
 10
36.1720800659
 20
148.6405432387
 30
0.0
 10
36.1238121384
 20
148.6684134342
 30
0.0
  0
SPLINE
  5
50D
100
AcDbEntity
  8
0
100
AcDbSpline
 62
7
  6
BYLAYER
 70
0
 71
3
 72
15
 73
11
 74
0
 42
0.0000001
 43
0.0000001
 44
0.0000000001
 40
0.0
 40
0.0
 40
0.0
 40
0.0
 40
0.0869266694
 40
0.1863947429
 40
0.3037832307
 40
0.4375975968
 40
0.5820988637
 40
0.7294190798
 40
0.8711722077
 40
1.0
 40
1.0
 40
1.0
 40
1.0
 10
36.348786984
 20
164.6903953636
 30
0.0
 10
36.3712692614
 20
164.703361849
 30
0.0
 10
36.4120690502
 20
164.7450202702
 30
0.0
 10
36.4417551457
 20
164.8328360318
 30
0.0
 10
36.4442612733
 20
164.9386227199
 30
0.0
 10
36.4205019215
 20
165.0551660054
 30
0.0
 10
36.372658839
 20
165.1735701882
 30
0.0
 10
36.3045391083
 20
165.2843812096
 30
0.0
 10
36.2217818649
 20
165.3785421406
 30
0.0
 10
36.1571219418
 20
165.4283048228
 30
0.0
 10
36.1238121384
 20
165.4475381063
 30
0.0
  0
SPLINE
  5
50E
100
AcDbEntity
  8
0
100
AcDbSpline
 62
7
  6
BYLAYER
 70
0
 71
3
 72
11
 73
7
 74
0
 42
0.0000001
 43
0.0000001
 44
0.0000000001
 40
0.0
 40
0.0
 40
0.0
 40
0.0
 40
0.21777905
 40
0.4509228246
 40
0.7102584206
 40
1.0
 40
1.0
 40
1.0
 40
1.0
 10
36.6737571849
 20
164.1274599183
 30
0.0
 10
36.6374791523
 20
164.1065088647
 30
0.0
 10
36.554107496
 20
164.0762687121
 30
0.0
 10
36.4156542816
 20
164.0727681992
 30
0.0
 10
36.2680810791
 20
164.1083992467
 30
0.0
 10
36.1720800659
 20
164.1540891642
 30
0.0
 10
36.1238121384
 20
164.1819593597
 30
0.0
  0
SPLINE
  5
50F
100
AcDbEntity
  8
0
100
AcDbSpline
 62
7
  6
BYLAYER
 70
0
 71
3
 72
11
 73
7
 74
0
 42
0.0000001
 43
0.0000001
 44
0.0000000001
 40
0.0
 40
0.0
 40
0.0
 40
0.0
 40
0.2897483568
 40
0.549081086
 40
0.7822231539
 40
1.0
 40
1.0
 40
1.0
 40
1.0
 10
49.5595864991
 20
173.7344408643
 30
0.0
 10
49.511317407
 20
173.7623117323
 30
0.0
 10
49.4153156258
 20
173.8080021798
 30
0.0
 10
49.2677418131
 20
173.8436324756
 30
0.0
 10
49.1292896198
 20
173.8401322911
 30
0.0
 10
49.0459191877
 20
173.8098910907
 30
0.0
 10
49.0096413615
 20
173.7889404656
 30
0.0
  0
SPLINE
  5
510
100
AcDbEntity
  8
0
100
AcDbSpline
 62
7
  6
BYLAYER
 70
0
 71
3
 72
11
 73
7
 74
0
 42
0.0000001
 43
0.0000001
 44
0.0000000001
 40
0.0
 40
0.0
 40
0.0
 40
0.0
 40
0.2369656617
 40
0.4994386651
 40
0.7622266794
 40
1.0
 40
1.0
 40
1.0
 40
1.0
 10
36.1238121384
 20
148.6684134342
 30
0.0
 10
36.0140623182
 20
148.7317836494
 30
0.0
 10
35.8062288878
 20
148.9063651019
 30
0.0
 10
35.5630948334
 20
149.2372844417
 30
0.0
 10
35.3960375356
 20
149.6128786579
 30
0.0
 10
35.347062416
 20
149.8804076963
 30
0.0
 10
35.3460793849
 20
150.0075670795
 30
0.0
  0
SPLINE
  5
511
100
AcDbEntity
  8
0
100
AcDbSpline
 62
7
  6
BYLAYER
 70
0
 71
3
 72
17
 73
13
 74
0
 42
0.0000001
 43
0.0000001
 44
0.0000000001
 40
0.0
 40
0.0
 40
0.0
 40
0.0
 40
0.1286911084
 40
0.2702758049
 40
0.4174337021
 40
0.5617805761
 40
0.6954529333
 40
0.8127158138
 40
0.8646814206
 40
0.9125129658
 40
0.9571414877
 40
1.0
 40
1.0
 40
1.0
 40
1.0
 10
36.1238121384
 20
164.1819593597
 30
0.0
 10
36.042386042
 20
164.228975284
 30
0.0
 10
35.8843323007
 20
164.35060892
 30
0.0
 10
35.6820517402
 20
164.5807858441
 30
0.0
 10
35.5155335621
 20
164.8516199695
 30
0.0
 10
35.3985670366
 20
165.1411278857
 30
0.0
 10
35.3405060494
 20
165.4257659354
 30
0.0
 10
35.3457393401
 20
165.6500401074
 30
0.0
 10
35.3872301162
 20
165.8038736848
 30
0.0
 10
35.4334886288
 20
165.8995319353
 30
0.0
 10
35.4953342812
 20
165.9777696061
 30
0.0
 10
35.546750696
 20
166.0171040341
 30
0.0
 10
35.5738670919
 20
166.0327641188
 30
0.0
  0
SPLINE
  5
512
100
AcDbEntity
  8
0
100
AcDbSpline
 62
7
  6
BYLAYER
 70
0
 71
3
 72
11
 73
7
 74
0
 42
0.0000001
 43
0.0000001
 44
0.0000000001
 40
0.0
 40
0.0
 40
0.0
 40
0.0
 40
0.2896438287
 40
0.5491136526
 40
0.7822374482
 40
1.0
 40
1.0
 40
1.0
 40
1.0
 10
36.1238121384
 20
165.4475381063
 30
0.0
 10
36.1040729341
 20
165.4589356431
 30
0.0
 10
36.0647920776
 20
165.4776161671
 30
0.0
 10
36.0044269398
 20
165.4922080518
 30
0.0
 10
35.9477729365
 20
165.4907867675
 30
0.0
 10
35.9136820574
 20
165.4783902806
 30
0.0
 10
35.8988372928
 20
165.4698286735
 30
0.0
  0
SPLINE
  5
513
100
AcDbEntity
  8
0
100
AcDbSpline
 62
7
  6
BYLAYER
 70
0
 71
3
 72
11
 73
7
 74
0
 42
0.0000001
 43
0.0000001
 44
0.0000000001
 40
0.0
 40
0.0
 40
0.0
 40
0.0
 40
0.2385578281
 40
0.5013553773
 40
0.7633930391
 40
1.0
 40
1.0
 40
1.0
 40
1.0
 10
35.8057157387
 20
149.7421812944
 30
0.0
 10
35.8066852689
 20
149.6903747743
 30
0.0
 10
35.8273900001
 20
149.5817555358
 30
0.0
 10
35.8959449392
 20
149.4294644074
 30
0.0
 10
35.9949498152
 20
149.2954925358
 30
0.0
 10
36.0793065612
 20
149.2248377969
 30
0.0
 10
36.1238121384
 20
149.1991400054
 30
0.0
  0
SPLINE
  5
514
100
AcDbEntity
  8
0
100
AcDbSpline
 62
7
  6
BYLAYER
 70
0
 71
3
 72
15
 73
11
 74
0
 42
0.0000001
 43
0.0000001
 44
0.0000000001
 40
0.0
 40
0.0
 40
0.0
 40
0.0
 40
0.0869266694
 40
0.1863947429
 40
0.3037832307
 40
0.4375975968
 40
0.5820988637
 40
0.7294190798
 40
0.8711722077
 40
1.0
 40
1.0
 40
1.0
 40
1.0
 10
35.8988372928
 20
165.4698286735
 30
0.0
 10
35.8763550154
 20
165.4568621881
 30
0.0
 10
35.8355552266
 20
165.4152037669
 30
0.0
 10
35.8058691312
 20
165.3273880053
 30
0.0
 10
35.8033630035
 20
165.2216013172
 30
0.0
 10
35.8271223553
 20
165.1050580317
 30
0.0
 10
35.8749654379
 20
164.9866538489
 30
0.0
 10
35.9430851685
 20
164.8758428275
 30
0.0
 10
36.0258424119
 20
164.7816818965
 30
0.0
 10
36.090502335
 20
164.7319192143
 30
0.0
 10
36.1238121384
 20
164.7126859308
 30
0.0
  0
SPLINE
  5
515
100
AcDbEntity
  8
0
100
AcDbSpline
 62
7
  6
BYLAYER
 70
0
 71
3
 72
11
 73
7
 74
0
 42
0.0000001
 43
0.0000001
 44
0.0000000001
 40
0.0
 40
0.0
 40
0.0
 40
0.0
 40
0.2896438287
 40
0.5491136526
 40
0.7822374482
 40
1.0
 40
1.0
 40
1.0
 40
1.0
 10
36.1238121384
 20
149.1991400054
 30
0.0
 10
36.1435513427
 20
149.1877424685
 30
0.0
 10
36.1828321992
 20
149.1690619446
 30
0.0
 10
36.243197337
 20
149.1544700599
 30
0.0
 10
36.2998513403
 20
149.1558913441
 30
0.0
 10
36.3339422194
 20
149.1682878311
 30
0.0
 10
36.348786984
 20
149.1768494381
 30
0.0
  0
SPLINE
  5
516
100
AcDbEntity
  8
0
100
AcDbSpline
 62
7
  6
BYLAYER
 70
0
 71
3
 72
17
 73
13
 74
0
 42
0.0000001
 43
0.0000001
 44
0.0000000001
 40
0.0
 40
0.0
 40
0.0
 40
0.0
 40
0.0428565175
 40
0.0874840184
 40
0.1353147758
 40
0.1872797004
 40
0.3045406511
 40
0.4382098661
 40
0.5825559328
 40
0.7297181482
 40
0.8713076397
 40
1.0
 40
1.0
 40
1.0
 40
1.0
 10
40.9166333899
 20
166.5767785543
 30
0.0
 10
40.9437486267
 20
166.5924377384
 30
0.0
 10
40.9951646355
 20
166.6317690681
 30
0.0
 10
41.0570080807
 20
166.7100051753
 30
0.0
 10
41.1032668819
 20
166.8056609997
 30
0.0
 10
41.1447607994
 20
166.9594912299
 30
0.0
 10
41.1499958073
 20
167.18376143
 30
0.0
 10
41.091937989
 20
167.4683955642
 30
0.0
 10
40.9749750691
 20
167.7579052381
 30
0.0
 10
40.8084565607
 20
168.0287464624
 30
0.0
 10
40.6061722585
 20
168.2589304116
 30
0.0
 10
40.4481151495
 20
168.3805670866
 30
0.0
 10
40.3666882523
 20
168.4275834733
 30
0.0
  0
SPLINE
  5
517
100
AcDbEntity
  8
0
100
AcDbSpline
 62
7
  6
BYLAYER
 70
0
 71
3
 72
11
 73
7
 74
0
 42
0.0000001
 43
0.0000001
 44
0.0000000001
 40
0.0
 40
0.0
 40
0.0
 40
0.0
 40
0.289290753
 40
0.5483567884
 40
0.7817439788
 40
1.0
 40
1.0
 40
1.0
 40
1.0
 10
36.9015458241
 20
149.1095389818
 30
0.0
 10
36.9011240681
 20
149.0546449673
 30
0.0
 10
36.8920395478
 20
148.9502986036
 30
0.0
 10
36.8487011702
 20
148.807063391
 30
0.0
 10
36.7768035551
 20
148.69081496
 30
0.0
 10
36.7096220685
 20
148.6346264473
 30
0.0
 10
36.6737571849
 20
148.6139139928
 30
0.0
  0
SPLINE
  5
518
100
AcDbEntity
  8
0
100
AcDbSpline
 62
7
  6
BYLAYER
 70
0
 71
3
 72
11
 73
7
 74
0
 42
0.0000001
 43
0.0000001
 44
0.0000000001
 40
0.0
 40
0.0
 40
0.0
 40
0.0
 40
0.2897483568
 40
0.549081086
 40
0.7822231539
 40
1.0
 40
1.0
 40
1.0
 40
1.0
 10
40.3666882523
 20
168.4275834733
 30
0.0
 10
40.3184191602
 20
168.4554543412
 30
0.0
 10
40.222417379
 20
168.5011447887
 30
0.0
 10
40.0748435663
 20
168.5367750846
 30
0.0
 10
39.936391373
 20
168.5332749001
 30
0.0
 10
39.8530209409
 20
168.5030336996
 30
0.0
 10
39.8167431147
 20
168.4820830745
 30
0.0
  0
SPLINE
  5
519
100
AcDbEntity
  8
0
100
AcDbSpline
 62
7
  6
BYLAYER
 70
0
 71
3
 72
17
 73
13
 74
0
 42
0.0000001
 43
0.0000001
 44
0.0000000001
 40
0.0
 40
0.0
 40
0.0
 40
0.0
 40
0.1286911084
 40
0.2702758049
 40
0.4174337021
 40
0.5617805761
 40
0.6954529333
 40
0.8127158138
 40
0.8646814206
 40
0.9125129658
 40
0.9571414877
 40
1.0
 40
1.0
 40
1.0
 40
1.0
 10
36.1238121384
 20
165.9782646774
 30
0.0
 10
36.2052382348
 20
165.9312487531
 30
0.0
 10
36.3632919761
 20
165.8096151171
 30
0.0
 10
36.5655725366
 20
165.579438193
 30
0.0
 10
36.7320907147
 20
165.3086040676
 30
0.0
 10
36.8490572402
 20
165.0190961514
 30
0.0
 10
36.9071182274
 20
164.7344581017
 30
0.0
 10
36.9018849367
 20
164.5101839297
 30
0.0
 10
36.8603941606
 20
164.3563503523
 30
0.0
 10
36.814135648
 20
164.2606921018
 30
0.0
 10
36.7522899956
 20
164.182454431
 30
0.0
 10
36.7008735808
 20
164.143120003
 30
0.0
 10
36.6737571849
 20
164.1274599183
 30
0.0
  0
SPLINE
  5
51A
100
AcDbEntity
  8
0
100
AcDbSpline
 62
7
  6
BYLAYER
 70
0
 71
3
 72
11
 73
7
 74
0
 42
0.0000001
 43
0.0000001
 44
0.0000000001
 40
0.0
 40
0.0
 40
0.0
 40
0.0
 40
0.2896438287
 40
0.5491136526
 40
0.7822374482
 40
1.0
 40
1.0
 40
1.0
 40
1.0
 10
36.1238121384
 20
164.7126859308
 30
0.0
 10
36.1435513427
 20
164.701288394
 30
0.0
 10
36.1828321992
 20
164.68260787
 30
0.0
 10
36.243197337
 20
164.6680159853
 30
0.0
 10
36.2998513403
 20
164.6694372696
 30
0.0
 10
36.3339422194
 20
164.6818337565
 30
0.0
 10
36.348786984
 20
164.6903953636
 30
0.0
  0
SPLINE
  5
51B
100
AcDbEntity
  8
0
100
AcDbSpline
 62
7
  6
BYLAYER
 70
0
 71
3
 72
11
 73
7
 74
0
 42
0.0000001
 43
0.0000001
 44
0.0000000001
 40
0.0
 40
0.0
 40
0.0
 40
0.0
 40
0.21777905
 40
0.4509228246
 40
0.7102584206
 40
1.0
 40
1.0
 40
1.0
 40
1.0
 10
35.5738670919
 20
166.0327641188
 30
0.0
 10
35.6101451245
 20
166.0537151724
 30
0.0
 10
35.6935167809
 20
166.083955325
 30
0.0
 10
35.8319699952
 20
166.0874558379
 30
0.0
 10
35.9795431977
 20
166.0518247904
 30
0.0
 10
36.075544211
 20
166.0061348729
 30
0.0
 10
36.1238121384
 20
165.9782646774
 30
0.0
  0
SPLINE
  5
51C
100
AcDbEntity
  8
0
100
AcDbSpline
 62
7
  6
BYLAYER
 70
0
 71
3
 72
17
 73
13
 74
0
 42
0.0000001
 43
0.0000001
 44
0.0000000001
 40
0.0
 40
0.0
 40
0.0
 40
0.0
 40
0.0428585087
 40
0.0874840961
 40
0.1353182269
 40
0.187280337
 40
0.3045417507
 40
0.4382088208
 40
0.58255201
 40
0.729716797
 40
0.871308879
 40
1.0
 40
1.0
 40
1.0
 40
1.0
 10
66.7577919849
 20
182.5346712817
 30
0.0
 10
66.7577892722
 20
182.5702552398
 30
0.0
 10
66.7673278627
 20
182.643196499
 30
0.0
 10
66.8091396773
 20
182.7485289088
 30
0.0
 10
66.87703618
 20
182.8483785959
 30
0.0
 10
67.0048264445
 20
182.9766356877
 30
0.0
 10
67.2225872005
 20
183.109183514
 30
0.0
 10
67.5356850907
 20
183.2137645343
 30
0.0
 10
67.8870587844
 20
183.2631437695
 30
0.0
 10
68.2482173075
 20
183.2531389775
 30
0.0
 10
68.5896828382
 20
183.1848276309
 30
0.0
 10
68.7991895296
 20
183.0983738271
 30
0.0
 10
68.8917202445
 20
183.0449460284
 30
0.0
  0
SPLINE
  5
51D
100
AcDbEntity
  8
0
100
AcDbSpline
 62
7
  6
BYLAYER
 70
0
 71
3
 72
9
 73
5
 74
0
 42
0.0000001
 43
0.0000001
 44
0.0000000001
 40
0.0
 40
0.0
 40
0.0
 40
0.0
 40
0.2475905574
 40
1.0
 40
1.0
 40
1.0
 40
1.0
 10
61.0738074865
 20
175.7612019231
 30
0.0
 10
61.0010554294
 20
175.6828092744
 30
0.0
 10
60.7103441583
 20
175.3632948724
 30
0.0
 10
60.432043877
 20
175.0325109305
 30
0.0
 10
60.2297700952
 20
174.7781124934
 30
0.0
  0
SPLINE
  5
51E
100
AcDbEntity
  8
0
100
AcDbSpline
 62
7
  6
BYLAYER
 70
0
 71
3
 72
9
 73
5
 74
0
 42
0.0000001
 43
0.0000001
 44
0.0000000001
 40
0.0
 40
0.0
 40
0.0
 40
0.0
 40
0.2419705736
 40
1.0
 40
1.0
 40
1.0
 40
1.0
 10
56.5145906104
 20
173.7425039294
 30
0.0
 10
56.4114144792
 20
173.7024014741
 30
0.0
 10
55.9885341534
 20
173.5276700751
 30
0.0
 10
55.5800776005
 20
173.3187011997
 30
0.0
 10
55.2797479623
 20
173.1453275239
 30
0.0
  0
SPLINE
  5
51F
100
AcDbEntity
  8
0
100
AcDbSpline
 62
7
  6
BYLAYER
 70
0
 71
3
 72
17
 73
13
 74
0
 42
0.0000001
 43
0.0000001
 44
0.0000000001
 40
0.0
 40
0.0
 40
0.0
 40
0.0
 40
0.0428585087
 40
0.0874840961
 40
0.1353182269
 40
0.187280337
 40
0.3045417507
 40
0.4382088208
 40
0.58255201
 40
0.729716797
 40
0.871308879
 40
1.0
 40
1.0
 40
1.0
 40
1.0
 10
50.8470065577
 20
173.3497257972
 30
0.0
 10
50.847003845
 20
173.3853097553
 30
0.0
 10
50.8565424355
 20
173.4582510144
 30
0.0
 10
50.8983542502
 20
173.5635834243
 30
0.0
 10
50.9662507528
 20
173.6634331114
 30
0.0
 10
51.0940410173
 20
173.7916902031
 30
0.0
 10
51.3118017733
 20
173.9242380294
 30
0.0
 10
51.6248996636
 20
174.0288190498
 30
0.0
 10
51.9762733573
 20
174.078198285
 30
0.0
 10
52.3374318803
 20
174.068193493
 30
0.0
 10
52.6788974111
 20
173.9998821464
 30
0.0
 10
52.8884041024
 20
173.9134283426
 30
0.0
 10
52.9809348173
 20
173.8600005439
 30
0.0
  0
SPLINE
  5
520
100
AcDbEntity
  8
0
100
AcDbSpline
 62
7
  6
BYLAYER
 70
0
 71
3
 72
17
 73
13
 74
0
 42
0.0000001
 43
0.0000001
 44
0.0000000001
 40
0.0
 40
0.0
 40
0.0
 40
0.0
 40
0.0428585087
 40
0.0874840961
 40
0.1353182269
 40
0.187280337
 40
0.3045417507
 40
0.4382088208
 40
0.58255201
 40
0.729716797
 40
0.871308879
 40
1.0
 40
1.0
 40
1.0
 40
1.0
 10
61.100623833
 20
179.2689128872
 30
0.0
 10
61.1006211203
 20
179.3044968453
 30
0.0
 10
61.1101597108
 20
179.3774381045
 30
0.0
 10
61.1519715254
 20
179.4827705143
 30
0.0
 10
61.2198680281
 20
179.5826202014
 30
0.0
 10
61.3476582926
 20
179.7108772932
 30
0.0
 10
61.5654190486
 20
179.8434251195
 30
0.0
 10
61.8785169389
 20
179.9480061398
 30
0.0
 10
62.2298906326
 20
179.997385375
 30
0.0
 10
62.5910491556
 20
179.987380583
 30
0.0
 10
62.9325146863
 20
179.9190692364
 30
0.0
 10
63.1420213777
 20
179.8326154326
 30
0.0
 10
63.2345520926
 20
179.7791876339
 30
0.0
  0
SPLINE
  5
521
100
AcDbEntity
  8
0
100
AcDbSpline
 62
7
  6
BYLAYER
 70
0
 71
3
 72
9
 73
5
 74
0
 42
0.0000001
 43
0.0000001
 44
0.0000000001
 40
0.0
 40
0.0
 40
0.0
 40
0.0
 40
0.2394855692
 40
1.0
 40
1.0
 40
1.0
 40
1.0
 10
66.7673247442
 20
179.5848328354
 30
0.0
 10
66.6350163313
 20
179.5408151454
 30
0.0
 10
66.0878618468
 20
179.3411368349
 30
0.0
 10
65.5632828941
 20
179.0817854171
 30
0.0
 10
65.1797922281
 20
178.8604047143
 30
0.0
  0
SPLINE
  5
522
100
AcDbEntity
  8
0
100
AcDbSpline
 62
7
  6
BYLAYER
 70
0
 71
3
 72
17
 73
13
 74
0
 42
0.0000001
 43
0.0000001
 44
0.0000000001
 40
0.0
 40
0.0
 40
0.0
 40
0.0
 40
0.0428585087
 40
0.0874840961
 40
0.1353182269
 40
0.187280337
 40
0.3045417507
 40
0.4382088208
 40
0.58255201
 40
0.729716797
 40
0.871308879
 40
1.0
 40
1.0
 40
1.0
 40
1.0
 10
56.5041747096
 20
176.6154841917
 30
0.0
 10
56.5041719969
 20
176.6510681498
 30
0.0
 10
56.5137105874
 20
176.7240094089
 30
0.0
 10
56.555522402
 20
176.8293418188
 30
0.0
 10
56.6234189047
 20
176.9291915059
 30
0.0
 10
56.7512091692
 20
177.0574485976
 30
0.0
 10
56.9689699252
 20
177.1899964239
 30
0.0
 10
57.2820678155
 20
177.2945774443
 30
0.0
 10
57.6334415092
 20
177.3439566795
 30
0.0
 10
57.9946000322
 20
177.3339518875
 30
0.0
 10
58.3360655629
 20
177.2656405409
 30
0.0
 10
58.5455722543
 20
177.1791867371
 30
0.0
 10
58.6381029692
 20
177.1257589384
 30
0.0
  0
SPLINE
  5
523
100
AcDbEntity
  8
0
100
AcDbSpline
 62
7
  6
BYLAYER
 70
0
 71
3
 72
11
 73
7
 74
0
 42
0.0000001
 43
0.0000001
 44
0.0000000001
 40
0.0
 40
0.0
 40
0.0
 40
0.0
 40
0.2897001665
 40
0.5490873747
 40
0.7822172769
 40
1.0
 40
1.0
 40
1.0
 40
1.0
 10
68.8917202445
 20
183.0449460284
 30
0.0
 10
68.946561992
 20
183.0132800691
 30
0.0
 10
69.046059149
 20
182.9447432328
 30
0.0
 10
69.1649733954
 20
182.819763886
 30
0.0
 10
69.2401925236
 20
182.6815047224
 30
0.0
 10
69.2577798274
 20
182.5822777304
 30
0.0
 10
69.2577834566
 20
182.5346712768
 30
0.0
  0
SPLINE
  5
524
100
AcDbEntity
  8
0
100
AcDbSpline
 62
7
  6
BYLAYER
 70
0
 71
3
 72
11
 73
7
 74
0
 42
0.0000001
 43
0.0000001
 44
0.0000000001
 40
0.0
 40
0.0
 40
0.0
 40
0.0
 40
0.2234866738
 40
0.463417413
 40
0.7220346809
 40
1.0
 40
1.0
 40
1.0
 40
1.0
 10
49.2690068009
 20
168.450705604
 30
0.0
 10
48.959164844
 20
168.4774623841
 30
0.0
 10
48.3098734497
 20
168.4668068375
 30
0.0
 10
47.319391177
 20
168.2753038956
 30
0.0
 10
46.2976229617
 20
167.9133270599
 30
0.0
 10
45.6298399873
 20
167.5746484969
 30
0.0
 10
45.2948461742
 20
167.3812639576
 30
0.0
  0
SPLINE
  5
525
100
AcDbEntity
  8
0
100
AcDbSpline
 62
7
  6
BYLAYER
 70
0
 71
3
 72
9
 73
5
 74
0
 42
0.0000001
 43
0.0000001
 44
0.0000000001
 40
0.0
 40
0.0
 40
0.0
 40
0.0
 40
0.2448271253
 40
1.0
 40
1.0
 40
1.0
 40
1.0
 10
54.2190289338
 20
172.5329978249
 30
0.0
 10
54.1450702473
 20
172.4903031065
 30
0.0
 10
53.8451859448
 20
172.3121193477
 30
0.0
 10
53.5540725274
 20
172.1192651871
 30
0.0
 10
53.3393638405
 20
171.9666714018
 30
0.0
  0
SPLINE
  5
526
100
AcDbEntity
  8
0
100
AcDbSpline
 62
7
  6
BYLAYER
 70
0
 71
3
 72
11
 73
7
 74
0
 42
0.0000001
 43
0.0000001
 44
0.0000000001
 40
0.0
 40
0.0
 40
0.0
 40
0.0
 40
0.2897001665
 40
0.5490873747
 40
0.7822172769
 40
1.0
 40
1.0
 40
1.0
 40
1.0
 10
52.9809348173
 20
173.8600005439
 30
0.0
 10
53.0357765649
 20
173.8283345846
 30
0.0
 10
53.1352737218
 20
173.7597977483
 30
0.0
 10
53.2541879682
 20
173.6348184015
 30
0.0
 10
53.3294070964
 20
173.4965592379
 30
0.0
 10
53.3469944002
 20
173.3973322459
 30
0.0
 10
53.3469980294
 20
173.3497257923
 30
0.0
  0
SPLINE
  5
527
100
AcDbEntity
  8
0
100
AcDbSpline
 62
7
  6
BYLAYER
 70
0
 71
3
 72
10
 73
6
 74
0
 42
0.0000001
 43
0.0000001
 44
0.0000000001
 40
0.0
 40
0.0
 40
0.0
 40
0.0
 40
0.2319925822
 40
0.4775184016
 40
1.0
 40
1.0
 40
1.0
 40
1.0
 10
44.2341271458
 20
166.7689342586
 30
0.0
 10
43.8833396831
 20
166.5664323937
 30
0.0
 10
43.1854919569
 20
166.1065665443
 30
0.0
 10
41.8307568051
 20
165.0022030967
 30
0.0
 10
40.9125464141
 20
164.0129925212
 30
0.0
 10
40.3448240414
 20
163.2989717367
 30
0.0
  0
SPLINE
  5
528
100
AcDbEntity
  8
0
100
AcDbSpline
 62
7
  6
BYLAYER
 70
0
 71
3
 72
11
 73
7
 74
0
 42
0.0000001
 43
0.0000001
 44
0.0000000001
 40
0.0
 40
0.0
 40
0.0
 40
0.0
 40
0.2897001665
 40
0.5490873747
 40
0.7822172769
 40
1.0
 40
1.0
 40
1.0
 40
1.0
 10
63.2345520926
 20
179.7791876339
 30
0.0
 10
63.2893938401
 20
179.7475216746
 30
0.0
 10
63.3888909971
 20
179.6789848383
 30
0.0
 10
63.5078052435
 20
179.5540054915
 30
0.0
 10
63.5830243717
 20
179.4157463279
 30
0.0
 10
63.6006116755
 20
179.3165193359
 30
0.0
 10
63.6006153047
 20
179.2689128823
 30
0.0
  0
SPLINE
  5
529
100
AcDbEntity
  8
0
100
AcDbSpline
 62
7
  6
BYLAYER
 70
0
 71
3
 72
11
 73
7
 74
0
 42
0.0000001
 43
0.0000001
 44
0.0000000001
 40
0.0
 40
0.0
 40
0.0
 40
0.0
 40
0.2897001665
 40
0.5490873747
 40
0.7822172769
 40
1.0
 40
1.0
 40
1.0
 40
1.0
 10
58.6381029692
 20
177.1257589384
 30
0.0
 10
58.6929447167
 20
177.0940929791
 30
0.0
 10
58.7924418737
 20
177.0255561428
 30
0.0
 10
58.9113561201
 20
176.900576796
 30
0.0
 10
58.9865752483
 20
176.7623176324
 30
0.0
 10
59.0041625521
 20
176.6630906404
 30
0.0
 10
59.0041661813
 20
176.6154841868
 30
0.0
  0
SPLINE
  5
52A
100
AcDbEntity
  8
0
100
AcDbSpline
 62
7
  6
BYLAYER
 70
0
 71
3
 72
9
 73
5
 74
0
 42
0.0000001
 43
0.0000001
 44
0.0000000001
 40
0.0
 40
0.0
 40
0.0
 40
0.0
 40
0.4850101763
 40
1.0
 40
1.0
 40
1.0
 40
1.0
 10
56.5041761978
 20
168.4504600323
 30
0.0
 10
56.504182273
 20
168.4061490378
 30
0.0
 10
56.5192543633
 20
168.3142872649
 30
0.0
 10
56.5608787191
 20
168.2315000301
 30
0.0
 10
56.5868920135
 20
168.1922953409
 30
0.0
  0
SPLINE
  5
52B
100
AcDbEntity
  8
0
100
AcDbSpline
 62
7
  6
BYLAYER
 70
0
 71
3
 72
10
 73
6
 74
0
 42
0.0000001
 43
0.0000001
 44
0.0000000001
 40
0.0
 40
0.0
 40
0.0
 40
0.0
 40
0.5224815984
 40
0.7680074178
 40
1.0
 40
1.0
 40
1.0
 40
1.0
 10
41.2286584679
 20
162.7886403519
 30
0.0
 10
41.7963808406
 20
163.5026611364
 30
0.0
 10
42.7145912317
 20
164.491871712
 30
0.0
 10
44.0693263834
 20
165.5962351595
 30
0.0
 10
44.7671741096
 20
166.0561010089
 30
0.0
 10
45.1179615723
 20
166.2586028738
 30
0.0
  0
SPLINE
  5
52C
100
AcDbEntity
  8
0
100
AcDbSpline
 62
7
  6
BYLAYER
 70
0
 71
3
 72
17
 73
13
 74
0
 42
0.0000001
 43
0.0000001
 44
0.0000000001
 40
0.0
 40
0.0
 40
0.0
 40
0.0
 40
0.0428585087
 40
0.0874840961
 40
0.1353182269
 40
0.187280337
 40
0.3045417507
 40
0.4382088208
 40
0.58255201
 40
0.729716797
 40
0.871308879
 40
1.0
 40
1.0
 40
1.0
 40
1.0
 10
63.6006153047
 20
179.2689128823
 30
0.0
 10
63.6006180174
 20
179.2333289242
 30
0.0
 10
63.5910794269
 20
179.160387665
 30
0.0
 10
63.5492676123
 20
179.0550552552
 30
0.0
 10
63.4813711096
 20
178.9552055681
 30
0.0
 10
63.3535808452
 20
178.8269484764
 30
0.0
 10
63.1358200891
 20
178.69440065
 30
0.0
 10
62.8227221989
 20
178.5898196297
 30
0.0
 10
62.4713485052
 20
178.5404403945
 30
0.0
 10
62.1101899821
 20
178.5504451865
 30
0.0
 10
61.7687244514
 20
178.6187565331
 30
0.0
 10
61.55921776
 20
178.7052103369
 30
0.0
 10
61.4666870451
 20
178.7586381356
 30
0.0
  0
SPLINE
  5
52D
100
AcDbEntity
  8
0
100
AcDbSpline
 62
7
  6
BYLAYER
 70
0
 71
3
 72
17
 73
13
 74
0
 42
0.0000001
 43
0.0000001
 44
0.0000000001
 40
0.0
 40
0.0
 40
0.0
 40
0.0
 40
0.0428585087
 40
0.0874840961
 40
0.1353182269
 40
0.187280337
 40
0.3045417507
 40
0.4382088208
 40
0.58255201
 40
0.729716797
 40
0.871308879
 40
1.0
 40
1.0
 40
1.0
 40
1.0
 10
53.3469980294
 20
173.3497257923
 30
0.0
 10
53.3470007421
 20
173.3141418342
 30
0.0
 10
53.3374621517
 20
173.241200575
 30
0.0
 10
53.295650337
 20
173.1358681652
 30
0.0
 10
53.2277538344
 20
173.0360184781
 30
0.0
 10
53.0999635699
 20
172.9077613863
 30
0.0
 10
52.8822028138
 20
172.77521356
 30
0.0
 10
52.5691049236
 20
172.6706325397
 30
0.0
 10
52.2177312299
 20
172.6212533045
 30
0.0
 10
51.8565727068
 20
172.6312580965
 30
0.0
 10
51.5151071761
 20
172.6995694431
 30
0.0
 10
51.3056004847
 20
172.7860232468
 30
0.0
 10
51.2130697698
 20
172.8394510456
 30
0.0
  0
SPLINE
  5
52E
100
AcDbEntity
  8
0
100
AcDbSpline
 62
7
  6
BYLAYER
 70
0
 71
3
 72
11
 73
7
 74
0
 42
0.0000001
 43
0.0000001
 44
0.0000000001
 40
0.0
 40
0.0
 40
0.0
 40
0.0
 40
0.2897001665
 40
0.5490873747
 40
0.7822172769
 40
1.0
 40
1.0
 40
1.0
 40
1.0
 10
51.2130697698
 20
172.8394510456
 30
0.0
 10
51.1582280223
 20
172.8711170049
 30
0.0
 10
51.0587308653
 20
172.9396538412
 30
0.0
 10
50.9398166189
 20
173.0646331879
 30
0.0
 10
50.8645974907
 20
173.2028923516
 30
0.0
 10
50.8470101869
 20
173.3021193436
 30
0.0
 10
50.8470065577
 20
173.3497257972
 30
0.0
  0
SPLINE
  5
52F
100
AcDbEntity
  8
0
100
AcDbSpline
 62
7
  6
BYLAYER
 70
0
 71
3
 72
11
 73
7
 74
0
 42
0.0000001
 43
0.0000001
 44
0.0000000001
 40
0.0
 40
0.0
 40
0.0
 40
0.0
 40
0.2897001665
 40
0.5490873747
 40
0.7822172769
 40
1.0
 40
1.0
 40
1.0
 40
1.0
 10
67.123855197
 20
182.0243965301
 30
0.0
 10
67.0690134495
 20
182.0560624894
 30
0.0
 10
66.9695162925
 20
182.1245993257
 30
0.0
 10
66.8506020461
 20
182.2495786725
 30
0.0
 10
66.7753829179
 20
182.3878378361
 30
0.0
 10
66.7577956141
 20
182.4870648281
 30
0.0
 10
66.7577919849
 20
182.5346712817
 30
0.0
  0
SPLINE
  5
530
100
AcDbEntity
  8
0
100
AcDbSpline
 62
7
  6
BYLAYER
 70
0
 71
3
 72
9
 73
5
 74
0
 42
0.0000001
 43
0.0000001
 44
0.0000000001
 40
0.0
 40
0.0
 40
0.0
 40
0.0
 40
0.4850342316
 40
1.0
 40
1.0
 40
1.0
 40
1.0
 10
61.1006253212
 20
171.1038887278
 30
0.0
 10
61.100631391
 20
171.0596176211
 30
0.0
 10
61.1156748705
 20
170.9678438188
 30
0.0
 10
61.1572260726
 20
170.8851202598
 30
0.0
 10
61.1831959152
 20
170.8459430066
 30
0.0
  0
SPLINE
  5
531
100
AcDbEntity
  8
0
100
AcDbSpline
 62
7
  6
BYLAYER
 70
0
 71
3
 72
9
 73
5
 74
0
 42
0.0000001
 43
0.0000001
 44
0.0000000001
 40
0.0
 40
0.0
 40
0.0
 40
0.0
 40
0.254380292
 40
1.0
 40
1.0
 40
1.0
 40
1.0
 10
66.0636266546
 20
178.3500733295
 30
0.0
 10
66.1216595273
 20
178.3835744269
 30
0.0
 10
66.3510855988
 20
178.5130147072
 30
0.0
 10
66.5857144083
 20
178.6332823009
 30
0.0
 10
66.7633744268
 20
178.7170309367
 30
0.0
  0
SPLINE
  5
532
100
AcDbEntity
  8
0
100
AcDbSpline
 62
7
  6
BYLAYER
 70
0
 71
3
 72
9
 73
5
 74
0
 42
0.0000001
 43
0.0000001
 44
0.0000000001
 40
0.0
 40
0.0
 40
0.0
 40
0.0
 40
0.2547027099
 40
1.0
 40
1.0
 40
1.0
 40
1.0
 10
69.2843791142
 20
179.3896080683
 30
0.0
 10
69.3411398663
 20
179.3920039807
 30
0.0
 10
69.5641276278
 20
179.3975953026
 30
0.0
 10
69.787568795
 20
179.3875835488
 30
0.0
 10
69.952929759
 20
179.3705286
 30
0.0
  0
SPLINE
  5
533
100
AcDbEntity
  8
0
100
AcDbSpline
 62
7
  6
BYLAYER
 70
0
 71
3
 72
17
 73
13
 74
0
 42
0.0000001
 43
0.0000001
 44
0.0000000001
 40
0.0
 40
0.0
 40
0.0
 40
0.0
 40
0.0428585087
 40
0.0874840961
 40
0.1353182269
 40
0.187280337
 40
0.3045417507
 40
0.4382088208
 40
0.58255201
 40
0.729716797
 40
0.871308879
 40
1.0
 40
1.0
 40
1.0
 40
1.0
 10
69.2577834566
 20
182.5346712768
 30
0.0
 10
69.2577861693
 20
182.4990873187
 30
0.0
 10
69.2482475788
 20
182.4261460595
 30
0.0
 10
69.2064357642
 20
182.3208136497
 30
0.0
 10
69.1385392615
 20
182.2209639626
 30
0.0
 10
69.010748997
 20
182.0927068709
 30
0.0
 10
68.792988241
 20
181.9601590445
 30
0.0
 10
68.4798903507
 20
181.8555780242
 30
0.0
 10
68.128516657
 20
181.806198789
 30
0.0
 10
67.767358134
 20
181.816203581
 30
0.0
 10
67.4258926033
 20
181.8845149276
 30
0.0
 10
67.2163859119
 20
181.9709687314
 30
0.0
 10
67.123855197
 20
182.0243965301
 30
0.0
  0
SPLINE
  5
534
100
AcDbEntity
  8
0
100
AcDbSpline
 62
7
  6
BYLAYER
 70
0
 71
3
 72
9
 73
5
 74
0
 42
0.0000001
 43
0.0000001
 44
0.0000000001
 40
0.0
 40
0.0
 40
0.0
 40
0.0
 40
0.2574410537
 40
1.0
 40
1.0
 40
1.0
 40
1.0
 10
59.0291623922
 20
173.6470922907
 30
0.0
 10
59.1165650094
 20
173.6568435342
 30
0.0
 10
59.4569057386
 20
173.6864094452
 30
0.0
 10
59.8005571263
 20
173.6814759759
 30
0.0
 10
60.0528854933
 20
173.6554514096
 30
0.0
  0
SPLINE
  5
535
100
AcDbEntity
  8
0
100
AcDbSpline
 62
7
  6
BYLAYER
 70
0
 71
3
 72
17
 73
13
 74
0
 42
0.0000001
 43
0.0000001
 44
0.0000000001
 40
0.0
 40
0.0
 40
0.0
 40
0.0
 40
0.0428585087
 40
0.0874840961
 40
0.1353182269
 40
0.187280337
 40
0.3045417507
 40
0.4382088208
 40
0.58255201
 40
0.729716797
 40
0.871308879
 40
1.0
 40
1.0
 40
1.0
 40
1.0
 10
59.0041661813
 20
176.6154841868
 30
0.0
 10
59.004168894
 20
176.5799002287
 30
0.0
 10
58.9946303035
 20
176.5069589695
 30
0.0
 10
58.9528184889
 20
176.4016265597
 30
0.0
 10
58.8849219862
 20
176.3017768726
 30
0.0
 10
58.7571317217
 20
176.1735197808
 30
0.0
 10
58.5393709657
 20
176.0409719545
 30
0.0
 10
58.2262730755
 20
175.9363909342
 30
0.0
 10
57.8748993818
 20
175.887011699
 30
0.0
 10
57.5137408587
 20
175.897016491
 30
0.0
 10
57.172275328
 20
175.9653278376
 30
0.0
 10
56.9627686366
 20
176.0517816413
 30
0.0
 10
56.8702379217
 20
176.1052094401
 30
0.0
  0
SPLINE
  5
536
100
AcDbEntity
  8
0
100
AcDbSpline
 62
7
  6
BYLAYER
 70
0
 71
3
 72
9
 73
5
 74
0
 42
0.0000001
 43
0.0000001
 44
0.0000000001
 40
0.0
 40
0.0
 40
0.0
 40
0.0
 40
0.2578153879
 40
1.0
 40
1.0
 40
1.0
 40
1.0
 10
63.5900401303
 20
176.7703852818
 30
0.0
 10
63.7053430977
 20
176.8619311991
 30
0.0
 10
64.1584947055
 20
177.2094303089
 30
0.0
 10
64.6358525818
 20
177.5258508495
 30
0.0
 10
65.0029076261
 20
177.7377436305
 30
0.0
  0
SPLINE
  5
537
100
AcDbEntity
  8
0
100
AcDbSpline
 62
7
  6
BYLAYER
 70
0
 71
3
 72
11
 73
7
 74
0
 42
0.0000001
 43
0.0000001
 44
0.0000000001
 40
0.0
 40
0.0
 40
0.0
 40
0.0
 40
0.2779653191
 40
0.536582587
 40
0.7765133262
 40
1.0
 40
1.0
 40
1.0
 40
1.0
 10
46.1786806008
 20
166.8709325728
 30
0.0
 10
46.5136744138
 20
167.0643171122
 30
0.0
 10
47.1814573882
 20
167.4029956751
 30
0.0
 10
48.2032256036
 20
167.7649725108
 30
0.0
 10
49.1937078762
 20
167.9564754527
 30
0.0
 10
49.8429992705
 20
167.9671309993
 30
0.0
 10
50.1528412275
 20
167.9403742193
 30
0.0
  0
SPLINE
  5
538
100
AcDbEntity
  8
0
100
AcDbSpline
 62
7
  6
BYLAYER
 70
0
 71
3
 72
9
 73
5
 74
0
 42
0.0000001
 43
0.0000001
 44
0.0000000001
 40
0.0
 40
0.0
 40
0.0
 40
0.0
 40
0.4850638165
 40
1.0
 40
1.0
 40
1.0
 40
1.0
 10
66.7577934731
 20
174.3696471223
 30
0.0
 10
66.7577995361
 20
174.3254251009
 30
0.0
 10
66.7728078508
 20
174.233759537
 30
0.0
 10
66.8142691103
 20
174.1511143766
 30
0.0
 10
66.840185522
 20
174.1119709096
 30
0.0
  0
SPLINE
  5
539
100
AcDbEntity
  8
0
100
AcDbSpline
 62
7
  6
BYLAYER
 70
0
 71
3
 72
9
 73
5
 74
0
 42
0.0000001
 43
0.0000001
 44
0.0000000001
 40
0.0
 40
0.0
 40
0.0
 40
0.0
 40
0.2594322532
 40
1.0
 40
1.0
 40
1.0
 40
1.0
 10
53.340014667
 20
170.7676277627
 30
0.0
 10
53.4826851714
 20
170.8889398019
 30
0.0
 10
54.0419890627
 20
171.3452722659
 30
0.0
 10
54.6398834697
 20
171.7553983612
 30
0.0
 10
55.1028633604
 20
172.0226664401
 30
0.0
  0
SPLINE
  5
53A
100
AcDbEntity
  8
0
100
AcDbSpline
 62
7
  6
BYLAYER
 70
0
 71
3
 72
11
 73
7
 74
0
 42
0.0000001
 43
0.0000001
 44
0.0000000001
 40
0.0
 40
0.0
 40
0.0
 40
0.0
 40
0.2897001665
 40
0.5490873747
 40
0.7822172769
 40
1.0
 40
1.0
 40
1.0
 40
1.0
 10
61.4666870451
 20
178.7586381356
 30
0.0
 10
61.4118452976
 20
178.7903040949
 30
0.0
 10
61.3123481406
 20
178.8588409312
 30
0.0
 10
61.1934338942
 20
178.983820278
 30
0.0
 10
61.118214766
 20
179.1220794416
 30
0.0
 10
61.1006274622
 20
179.2213064336
 30
0.0
 10
61.100623833
 20
179.2689128872
 30
0.0
  0
SPLINE
  5
53B
100
AcDbEntity
  8
0
100
AcDbSpline
 62
7
  6
BYLAYER
 70
0
 71
3
 72
9
 73
5
 74
0
 42
0.0000001
 43
0.0000001
 44
0.0000000001
 40
0.0
 40
0.0
 40
0.0
 40
0.0
 40
0.4849805483
 40
1.0
 40
1.0
 40
1.0
 40
1.0
 10
50.847008046
 20
165.1847016378
 30
0.0
 10
50.8470141279
 20
165.1403415431
 30
0.0
 10
50.8621214796
 20
165.0483714657
 30
0.0
 10
50.9038359637
 20
164.9655058892
 30
0.0
 10
50.9299027852
 20
164.9262674515
 30
0.0
  0
SPLINE
  5
53C
100
AcDbEntity
  8
0
100
AcDbSpline
 62
7
  6
BYLAYER
 70
0
 71
3
 72
11
 73
7
 74
0
 42
0.0000001
 43
0.0000001
 44
0.0000000001
 40
0.0
 40
0.0
 40
0.0
 40
0.0
 40
0.2897001665
 40
0.5490873747
 40
0.7822172769
 40
1.0
 40
1.0
 40
1.0
 40
1.0
 10
56.8702379217
 20
176.1052094401
 30
0.0
 10
56.8153961742
 20
176.1368753994
 30
0.0
 10
56.7158990172
 20
176.2054122357
 30
0.0
 10
56.5969847708
 20
176.3303915824
 30
0.0
 10
56.5217656426
 20
176.4686507461
 30
0.0
 10
56.5041783388
 20
176.5678777381
 30
0.0
 10
56.5041747096
 20
176.6154841917
 30
0.0
  0
SPLINE
  5
53D
100
AcDbEntity
  8
0
100
AcDbSpline
 62
7
  6
BYLAYER
 70
0
 71
3
 72
10
 73
6
 74
0
 42
0.0000001
 43
0.0000001
 44
0.0000000001
 40
0.0
 40
0.0
 40
0.0
 40
0.0
 40
0.2630713177
 40
0.5176992492
 40
1.0
 40
1.0
 40
1.0
 40
1.0
 10
113.2282765568
 20
186.2471661898
 30
0.0
 10
116.1906901214
 20
187.5316535015
 30
0.0
 10
121.9558306134
 20
190.2140503399
 30
0.0
 10
132.7739186567
 20
196.0184183622
 30
0.0
 10
140.3586346417
 20
201.0088477365
 30
0.0
 10
145.0529340798
 20
204.6152747247
 30
0.0
  0
SPLINE
  5
53E
100
AcDbEntity
  8
0
100
AcDbSpline
 62
7
  6
BYLAYER
 70
0
 71
3
 72
10
 73
6
 74
0
 42
0.0000001
 43
0.0000001
 44
0.0000000001
 40
0.0
 40
0.0
 40
0.0
 40
0.0
 40
0.2630713177
 40
0.5176992492
 40
1.0
 40
1.0
 40
1.0
 40
1.0
 10
145.0529340798
 20
204.6152747247
 30
0.0
 10
148.0153476444
 20
205.8997620364
 30
0.0
 10
153.7804881363
 20
208.5821588749
 30
0.0
 10
164.5985761796
 20
214.3865268972
 30
0.0
 10
172.1832921646
 20
219.3769562715
 30
0.0
 10
176.8775916027
 20
222.9833832597
 30
0.0
  0
SPLINE
  5
53F
100
AcDbEntity
  8
0
100
AcDbSpline
 62
7
  6
BYLAYER
 70
0
 71
3
 72
10
 73
6
 74
0
 42
0.0000001
 43
0.0000001
 44
0.0000000001
 40
0.0
 40
0.0
 40
0.0
 40
0.0
 40
0.4823007508
 40
0.7369286823
 40
1.0
 40
1.0
 40
1.0
 40
1.0
 10
176.8775916027
 20
225.8411417196
 30
0.0
 10
172.1832921646
 20
222.2347147314
 30
0.0
 10
164.5985761796
 20
217.2442853571
 30
0.0
 10
153.7804881363
 20
211.4399173348
 30
0.0
 10
148.0153476443
 20
208.7575204964
 30
0.0
 10
145.0529340798
 20
207.4730331847
 30
0.0
  0
SPLINE
  5
540
100
AcDbEntity
  8
0
100
AcDbSpline
 62
7
  6
BYLAYER
 70
0
 71
3
 72
10
 73
6
 74
0
 42
0.0000001
 43
0.0000001
 44
0.0000000001
 40
0.0
 40
0.0
 40
0.0
 40
0.0
 40
0.4823007508
 40
0.7369286823
 40
1.0
 40
1.0
 40
1.0
 40
1.0
 10
145.0529340798
 20
207.4730331847
 30
0.0
 10
140.3586346417
 20
203.8666061965
 30
0.0
 10
132.7739186567
 20
198.8761768222
 30
0.0
 10
121.9558306134
 20
193.0718087999
 30
0.0
 10
116.1906901214
 20
190.3894119614
 30
0.0
 10
113.2282765568
 20
189.1049246497
 30
0.0
  0
SPLINE
  5
541
100
AcDbEntity
  8
0
100
AcDbSpline
 62
7
  6
BYLAYER
 70
0
 71
3
 72
11
 73
7
 74
0
 42
0.0000001
 43
0.0000001
 44
0.0000000001
 40
0.0
 40
0.0
 40
0.0
 40
0.0
 40
0.2617417894
 40
0.5228564091
 40
0.7721087991
 40
1.0
 40
1.0
 40
1.0
 40
1.0
 10
65.0810593658
 20
146.8124146022
 30
0.0
 10
64.9234720395
 20
146.611713539
 30
0.0
 10
64.6393576723
 20
146.1858221339
 30
0.0
 10
64.3159055999
 20
145.5031479616
 30
0.0
 10
64.1093132837
 20
144.8107402649
 30
0.0
 10
64.0553735884
 20
144.345047293
 30
0.0
 10
64.0553735884
 20
144.1228729256
 30
0.0
  0
SPLINE
  5
542
100
AcDbEntity
  8
0
100
AcDbSpline
 62
7
  6
BYLAYER
 70
0
 71
3
 72
11
 73
7
 74
0
 42
0.0000001
 43
0.0000001
 44
0.0000000001
 40
0.0
 40
0.0
 40
0.0
 40
0.0
 40
0.2897397109
 40
0.5490700904
 40
0.7822158696
 40
1.0
 40
1.0
 40
1.0
 40
1.0
 10
64.0553735884
 20
144.1228729256
 30
0.0
 10
64.0553735884
 20
143.9708498953
 30
0.0
 10
64.078384817
 20
143.6817761615
 30
0.0
 10
64.1955000365
 20
143.284605841
 30
0.0
 10
64.3926036911
 20
142.9623431074
 30
0.0
 10
64.5777445632
 20
142.8066556603
 30
0.0
 10
64.6767116015
 20
142.7495340397
 30
0.0
  0
SPLINE
  5
543
100
AcDbEntity
  8
0
100
AcDbSpline
 62
7
  6
BYLAYER
 70
0
 71
3
 72
11
 73
7
 74
0
 42
0.0000001
 43
0.0000001
 44
0.0000000001
 40
0.0
 40
0.0
 40
0.0
 40
0.0
 40
0.2177676304
 40
0.4508990622
 40
0.7103714674
 40
1.0
 40
1.0
 40
1.0
 40
1.0
 10
56.1932882556
 20
191.479805624
 30
0.0
 10
56.1933109381
 20
191.4226821617
 30
0.0
 10
56.2143297166
 20
191.3036044497
 30
0.0
 10
56.3046436972
 20
191.1376818401
 30
0.0
 10
56.4473607055
 20
190.9877332071
 30
0.0
 10
56.5667443094
 20
190.905465367
 30
0.0
 10
56.6325377667
 20
190.8674758238
 30
0.0
  0
SPLINE
  5
544
100
AcDbEntity
  8
0
100
AcDbSpline
 62
7
  6
BYLAYER
 70
0
 71
3
 72
17
 73
13
 74
0
 42
0.0000001
 43
0.0000001
 44
0.0000000001
 40
0.0
 40
0.0
 40
0.0
 40
0.0
 40
0.0428569593
 40
0.0874846987
 40
0.1353156844
 40
0.1872809112
 40
0.3045427196
 40
0.4382117193
 40
0.5825558776
 40
0.7297169619
 40
0.8713062459
 40
1.0
 40
1.0
 40
1.0
 40
1.0
 10
55.1932709338
 20
191.479805523
 30
0.0
 10
55.1932827835
 20
191.5509710862
 30
0.0
 10
55.2122774582
 20
191.6968668303
 30
0.0
 10
55.2959970269
 20
191.9074956254
 30
0.0
 10
55.4317139887
 20
192.1072426896
 30
0.0
 10
55.6873497592
 20
192.363717086
 30
0.0
 10
56.1228368689
 20
192.6288611681
 30
0.0
 10
56.7490564707
 20
192.8380112256
 30
0.0
 10
57.4518033052
 20
192.9367533148
 30
0.0
 10
58.1741133079
 20
192.9167363987
 30
0.0
 10
58.857040444
 20
192.7801194736
 30
0.0
 10
59.2760560528
 20
192.6072131361
 30
0.0
 10
59.4611218426
 20
192.500355021
 30
0.0
  0
SPLINE
  5
545
100
AcDbEntity
  8
0
100
AcDbSpline
 62
7
  6
BYLAYER
 70
0
 71
3
 72
11
 73
7
 74
0
 42
0.0000001
 43
0.0000001
 44
0.0000000001
 40
0.0
 40
0.0
 40
0.0
 40
0.0
 40
0.2307807178
 40
0.4806403491
 40
0.7405121003
 40
1.0
 40
1.0
 40
1.0
 40
1.0
 10
99.0420072815
 20
164.0245018695
 30
0.0
 10
98.9889776699
 20
162.8258360994
 30
0.0
 10
98.6148259534
 20
160.3382844503
 30
0.0
 10
97.4249916857
 20
156.6623828602
 30
0.0
 10
95.649192209
 20
153.0644836613
 30
0.0
 10
94.1204431201
 20
150.8254458945
 30
0.0
 10
93.2786177819
 20
149.7712312194
 30
0.0
  0
SPLINE
  5
546
100
AcDbEntity
  8
0
100
AcDbSpline
 62
7
  6
BYLAYER
 70
0
 71
3
 72
14
 73
10
 74
0
 42
0.0000001
 43
0.0000001
 44
0.0000000001
 40
0.0
 40
0.0
 40
0.0
 40
0.0
 40
0.296400886
 40
0.4350745016
 40
0.5655624563
 40
0.6870951115
 40
0.799489935
 40
0.9033082435
 40
1.0
 40
1.0
 40
1.0
 40
1.0
 10
93.2786177819
 20
149.7712312194
 30
0.0
 10
92.3765688642
 20
148.6415987843
 30
0.0
 10
90.9145206667
 20
147.0828175253
 30
0.0
 10
88.7516004382
 20
145.3649962054
 30
0.0
 10
87.1372978976
 20
144.3444855519
 30
0.0
 10
85.5256219455
 20
143.5833411019
 30
0.0
 10
83.9448676724
 20
143.096809727
 30
0.0
 10
82.4241330539
 20
142.8962281572
 30
0.0
 10
81.439710243
 20
142.9612275131
 30
0.0
 10
80.9757939221
 20
143.0459173624
 30
0.0
  0
SPLINE
  5
547
100
AcDbEntity
  8
0
100
AcDbSpline
 62
7
  6
BYLAYER
 70
0
 71
3
 72
16
 73
12
 74
0
 42
0.0000001
 43
0.0000001
 44
0.0000000001
 40
0.0
 40
0.0
 40
0.0
 40
0.0
 40
0.1287418671
 40
0.2703933672
 40
0.417610104
 40
0.5620160505
 40
0.6957481228
 40
0.8130642791
 40
0.9124719414
 40
0.9571211477
 40
1.0
 40
1.0
 40
1.0
 40
1.0
 10
56.6325377667
 20
190.8674758238
 30
0.0
 10
56.7435700204
 20
190.8033651238
 30
0.0
 10
56.9949730979
 20
190.6996290661
 30
0.0
 10
57.404701708
 20
190.6176320991
 30
0.0
 10
57.8381029911
 20
190.6056569048
 30
0.0
 10
58.2596562079
 20
190.6647888109
 30
0.0
 10
58.6356881635
 20
190.7906418108
 30
0.0
 10
58.9369779974
 20
190.9734858935
 30
0.0
 10
59.112495981
 20
191.1750359214
 30
0.0
 10
59.1818153241
 20
191.3495615845
 30
0.0
 10
59.193242291
 20
191.4371030163
 30
0.0
 10
59.1932253348
 20
191.4798054215
 30
0.0
  0
SPLINE
  5
548
100
AcDbEntity
  8
0
100
AcDbSpline
 62
7
  6
BYLAYER
 70
0
 71
3
 72
11
 73
7
 74
0
 42
0.0000001
 43
0.0000001
 44
0.0000000001
 40
0.0
 40
0.0
 40
0.0
 40
0.0
 40
0.2897468651
 40
0.549080621
 40
0.7822220383
 40
1.0
 40
1.0
 40
1.0
 40
1.0
 10
59.4611218426
 20
192.500355021
 30
0.0
 10
59.5708232025
 20
192.4370127873
 30
0.0
 10
59.7698316876
 20
192.2999613936
 30
0.0
 10
60.0076367741
 20
192.0499723247
 30
0.0
 10
60.1580538299
 20
191.7734750803
 30
0.0
 10
60.1932585099
 20
191.5750165068
 30
0.0
 10
60.1932426565
 20
191.4798055225
 30
0.0
  0
SPLINE
  5
549
100
AcDbEntity
  8
0
100
AcDbSpline
 62
7
  6
BYLAYER
 70
0
 71
3
 72
11
 73
7
 74
0
 42
0.0000001
 43
0.0000001
 44
0.0000000001
 40
0.0
 40
0.0
 40
0.0
 40
0.0
 40
0.2177676304
 40
0.4508990622
 40
0.7103714674
 40
1.0
 40
1.0
 40
1.0
 40
1.0
 10
59.1932253348
 20
191.4798054215
 30
0.0
 10
59.1932026522
 20
191.5369288838
 30
0.0
 10
59.1721838737
 20
191.6560065958
 30
0.0
 10
59.0818698931
 20
191.8219292054
 30
0.0
 10
58.9391528849
 20
191.9718778385
 30
0.0
 10
58.8197692809
 20
192.0541456785
 30
0.0
 10
58.7539758237
 20
192.0921352217
 30
0.0
  0
SPLINE
  5
54A
100
AcDbEntity
  8
0
100
AcDbSpline
 62
7
  6
BYLAYER
 70
0
 71
3
 72
12
 73
8
 74
0
 42
0.0000001
 43
0.0000001
 44
0.0000000001
 40
0.0
 40
0.0
 40
0.0
 40
0.0
 40
0.1078714218
 40
0.2183626119
 40
0.4525808513
 40
0.7119463057
 40
1.0
 40
1.0
 40
1.0
 40
1.0
 10
78.7829517801
 20
143.9380643152
 30
0.0
 10
78.5382670863
 20
144.1055198392
 30
0.0
 10
78.0695460263
 20
144.4852174008
 30
0.0
 10
77.2330700055
 20
145.4116330203
 30
0.0
 10
76.4102830826
 20
146.8796914666
 30
0.0
 10
75.8361848149
 20
148.9658613889
 30
0.0
 10
75.7221842128
 20
150.4752406105
 30
0.0
 10
75.7221842128
 20
151.2669959627
 30
0.0
  0
SPLINE
  5
54B
100
AcDbEntity
  8
0
100
AcDbSpline
 62
7
  6
BYLAYER
 70
0
 71
3
 72
11
 73
7
 74
0
 42
0.0000001
 43
0.0000001
 44
0.0000000001
 40
0.0
 40
0.0
 40
0.0
 40
0.0
 40
0.2177811294
 40
0.4509247421
 40
0.7102610689
 40
1.0
 40
1.0
 40
1.0
 40
1.0
 10
55.1932714215
 20
189.8468006938
 30
0.0
 10
55.19325493
 20
189.7515883986
 30
0.0
 10
55.2284634343
 20
189.5531279696
 30
0.0
 10
55.3788816357
 20
189.276628152
 30
0.0
 10
55.6166873182
 20
189.0266415667
 30
0.0
 10
55.8156934768
 20
188.8895916404
 30
0.0
 10
55.9253917477
 20
188.8262511902
 30
0.0
  0
SPLINE
  5
54C
100
AcDbEntity
  8
0
100
AcDbSpline
 62
7
  6
BYLAYER
 70
0
 71
3
 72
17
 73
13
 74
0
 42
0.0000001
 43
0.0000001
 44
0.0000000001
 40
0.0
 40
0.0
 40
0.0
 40
0.0
 40
0.0428569593
 40
0.0874846987
 40
0.1353156844
 40
0.1872809112
 40
0.3045427196
 40
0.4382117193
 40
0.5825558776
 40
0.7297169619
 40
0.8713062459
 40
1.0
 40
1.0
 40
1.0
 40
1.0
 10
60.1932426565
 20
191.4798055225
 30
0.0
 10
60.1932308069
 20
191.4086399593
 30
0.0
 10
60.1742361322
 20
191.2627442153
 30
0.0
 10
60.0905165635
 20
191.0521154201
 30
0.0
 10
59.9547996017
 20
190.8523683559
 30
0.0
 10
59.6991638311
 20
190.5958939595
 30
0.0
 10
59.2636767214
 20
190.3307498774
 30
0.0
 10
58.6374571196
 20
190.1215998199
 30
0.0
 10
57.9347102852
 20
190.0228577307
 30
0.0
 10
57.2124002824
 20
190.0428746468
 30
0.0
 10
56.5294731464
 20
190.1794915719
 30
0.0
 10
56.1104575376
 20
190.3523979094
 30
0.0
 10
55.9253917477
 20
190.4592560245
 30
0.0
  0
SPLINE
  5
54D
100
AcDbEntity
  8
0
100
AcDbSpline
 62
7
  6
BYLAYER
 70
0
 71
3
 72
14
 73
10
 74
0
 42
0.0000001
 43
0.0000001
 44
0.0000000001
 40
0.0
 40
0.0
 40
0.0
 40
0.0
 40
0.0884653681
 40
0.1857381896
 40
0.2960647517
 40
0.4202840833
 40
0.5566874441
 40
0.7018834253
 40
1.0
 40
1.0
 40
1.0
 40
1.0
 10
64.7330794142
 20
142.7193558168
 30
0.0
 10
64.8502119311
 20
142.6613678289
 30
0.0
 10
65.1226698615
 20
142.5890025691
 30
0.0
 10
65.5648074673
 20
142.6278314471
 30
0.0
 10
66.0290299855
 20
142.798694589
 30
0.0
 10
66.4964593164
 20
143.090507505
 30
0.0
 10
66.9475893431
 20
143.4891603359
 30
0.0
 10
67.5036682514
 20
144.1428825875
 30
0.0
 10
67.8292579101
 20
144.7222885443
 30
0.0
 10
67.993353237
 20
145.1310222394
 30
0.0
  0
SPLINE
  5
54E
100
AcDbEntity
  8
0
100
AcDbSpline
 62
7
  6
BYLAYER
 70
0
 71
3
 72
17
 73
13
 74
0
 42
0.0000001
 43
0.0000001
 44
0.0000000001
 40
0.0
 40
0.0
 40
0.0
 40
0.0
 40
0.1286927582
 40
0.2702768165
 40
0.4174325902
 40
0.5617767151
 40
0.695448836
 40
0.8127129984
 40
0.8646792522
 40
0.9125114343
 40
0.9571406195
 40
1.0
 40
1.0
 40
1.0
 40
1.0
 10
55.9253917477
 20
188.8262511902
 30
0.0
 10
56.1104560813
 20
188.719393916
 30
0.0
 10
56.5294616391
 20
188.5464909209
 30
0.0
 10
57.2123687482
 20
188.4098737803
 30
0.0
 10
57.9346605335
 20
188.3898489007
 30
0.0
 10
58.6374051016
 20
188.4885798119
 30
0.0
 10
59.2636358432
 20
188.6977264745
 30
0.0
 10
59.6991343347
 20
188.9628709775
 30
0.0
 10
59.954783596
 20
189.2193424752
 30
0.0
 10
60.0905072359
 20
189.4190930961
 30
0.0
 10
60.1742288386
 20
189.6297296482
 30
0.0
 10
60.1932298418
 20
189.7756311088
 30
0.0
 10
60.1932421689
 20
189.8468006832
 30
0.0
  0
SPLINE
  5
54F
100
AcDbEntity
  8
0
100
AcDbSpline
 62
7
  6
BYLAYER
 70
0
 71
3
 72
9
 73
5
 74
0
 42
0.0000001
 43
0.0000001
 44
0.0000000001
 40
0.0
 40
0.0
 40
0.0
 40
0.0
 40
0.2479684609
 40
1.0
 40
1.0
 40
1.0
 40
1.0
 10
77.4226665024
 20
159.2521272002
 30
0.0
 10
77.5669672056
 20
159.6092268528
 30
0.0
 10
78.1796353964
 20
161.0367390782
 30
0.0
 10
78.9116183587
 20
162.412855407
 30
0.0
 10
79.5219930958
 20
163.4087749228
 30
0.0
  0
SPLINE
  5
550
100
AcDbEntity
  8
0
100
AcDbSpline
 62
7
  6
BYLAYER
 70
0
 71
3
 72
16
 73
12
 74
0
 42
0.0000001
 43
0.0000001
 44
0.0000000001
 40
0.0
 40
0.0
 40
0.0
 40
0.0
 40
0.1287418671
 40
0.2703933672
 40
0.417610104
 40
0.5620160505
 40
0.6957481228
 40
0.8130642791
 40
0.9124719414
 40
0.9571211477
 40
1.0
 40
1.0
 40
1.0
 40
1.0
 10
58.7539758237
 20
192.0921352217
 30
0.0
 10
58.6429435699
 20
192.1562459218
 30
0.0
 10
58.3915404925
 20
192.2599819794
 30
0.0
 10
57.9818118823
 20
192.3419789464
 30
0.0
 10
57.5484105993
 20
192.3539541407
 30
0.0
 10
57.1268573825
 20
192.2948222346
 30
0.0
 10
56.7508254268
 20
192.1689692348
 30
0.0
 10
56.4495355929
 20
191.986125152
 30
0.0
 10
56.2740176094
 20
191.7845751241
 30
0.0
 10
56.2046982663
 20
191.610049461
 30
0.0
 10
56.1932712993
 20
191.5225080292
 30
0.0
 10
56.1932882556
 20
191.479805624
 30
0.0
  0
SPLINE
  5
551
100
AcDbEntity
  8
0
100
AcDbSpline
 62
7
  6
BYLAYER
 70
0
 71
3
 72
11
 73
7
 74
0
 42
0.0000001
 43
0.0000001
 44
0.0000000001
 40
0.0
 40
0.0
 40
0.0
 40
0.0
 40
0.2897468651
 40
0.549080621
 40
0.7822220383
 40
1.0
 40
1.0
 40
1.0
 40
1.0
 10
55.9253917477
 20
190.4592560245
 30
0.0
 10
55.8156903879
 20
190.5225982583
 30
0.0
 10
55.6166819028
 20
190.6596496519
 30
0.0
 10
55.3788768163
 20
190.9096387208
 30
0.0
 10
55.2284597604
 20
191.1861359652
 30
0.0
 10
55.1932550804
 20
191.3845945387
 30
0.0
 10
55.1932709338
 20
191.479805523
 30
0.0
  0
SPLINE
  5
552
100
AcDbEntity
  8
0
100
AcDbSpline
 62
7
  6
BYLAYER
 70
0
 71
3
 72
12
 73
8
 74
0
 42
0.0000001
 43
0.0000001
 44
0.0000000001
 40
0.0
 40
0.0
 40
0.0
 40
0.0
 40
0.3040004664
 40
0.5705985773
 40
0.7979833974
 40
0.9008583643
 40
1.0
 40
1.0
 40
1.0
 40
1.0
 10
106.5918357006
 20
183.4902436739
 30
0.0
 10
106.7924030581
 20
183.5457260178
 30
0.0
 10
107.1613388458
 20
183.68313676
 30
0.0
 10
107.6232972709
 20
183.9842299964
 30
0.0
 10
107.8894088734
 20
184.3078877014
 30
0.0
 10
107.9939892755
 20
184.5851055574
 30
0.0
 10
108.0112907811
 20
184.7239290433
 30
0.0
 10
108.0112813449
 20
184.7917952588
 30
0.0
  0
SPLINE
  5
553
100
AcDbEntity
  8
0
100
AcDbSpline
 62
7
  6
BYLAYER
 70
0
 71
3
 72
10
 73
6
 74
0
 42
0.0000001
 43
0.0000001
 44
0.0000000001
 40
0.0
 40
0.0
 40
0.0
 40
0.0
 40
0.2279479926
 40
0.4759506674
 40
1.0
 40
1.0
 40
1.0
 40
1.0
 10
107.2795342993
 20
185.8121274278
 30
0.0
 10
107.1374258974
 20
185.8942166372
 30
0.0
 10
106.8226032397
 20
186.0352021009
 30
0.0
 10
106.1254959237
 20
186.2218014641
 30
0.0
 10
105.5614126744
 20
186.2513770106
 30
0.0
 10
105.1852004585
 20
186.2227991565
 30
0.0
  0
SPLINE
  5
554
100
AcDbEntity
  8
0
100
AcDbSpline
 62
7
  6
BYLAYER
 70
0
 71
3
 72
11
 73
7
 74
0
 42
0.0000001
 43
0.0000001
 44
0.0000000001
 40
0.0
 40
0.0
 40
0.0
 40
0.0
 40
0.2177973461
 40
0.4509359997
 40
0.710321682
 40
1.0
 40
1.0
 40
1.0
 40
1.0
 10
108.0112813449
 20
184.7917952588
 30
0.0
 10
108.0112681099
 20
184.8869831109
 30
0.0
 10
107.9761264856
 20
185.0853822368
 30
0.0
 10
107.8257600966
 20
185.3618333387
 30
0.0
 10
107.5880572027
 20
185.6117425561
 30
0.0
 10
107.3891616229
 20
185.7488009798
 30
0.0
 10
107.2795342993
 20
185.8121274278
 30
0.0
  0
SPLINE
  5
555
100
AcDbEntity
  8
0
100
AcDbSpline
 62
7
  6
BYLAYER
 70
0
 71
3
 72
9
 73
5
 74
0
 42
0.0000001
 43
0.0000001
 44
0.0000000001
 40
0.0
 40
0.0
 40
0.0
 40
0.0
 40
0.5142507085
 40
1.0
 40
1.0
 40
1.0
 40
1.0
 10
43.8091019371
 20
147.0001791251
 30
0.0
 10
43.7862557904
 20
147.1118225588
 30
0.0
 10
43.6929890351
 20
147.3187311319
 30
0.0
 10
43.5344091569
 20
147.4847537311
 30
0.0
 10
43.4411886514
 20
147.5385733975
 30
0.0
  0
SPLINE
  5
556
100
AcDbEntity
  8
0
100
AcDbSpline
 62
7
  6
BYLAYER
 70
0
 71
3
 72
11
 73
7
 74
0
 42
0.0000001
 43
0.0000001
 44
0.0000000001
 40
0.0
 40
0.0
 40
0.0
 40
0.0
 40
0.2514971614
 40
0.5139436322
 40
0.7690069698
 40
1.0
 40
1.0
 40
1.0
 40
1.0
 10
57.30535313
 20
143.3833245273
 30
0.0
 10
57.2719872345
 20
143.5463753554
 30
0.0
 10
57.1649719408
 20
143.872201879
 30
0.0
 10
56.9171355041
 20
144.3198025247
 30
0.0
 10
56.5999357336
 20
144.703839411
 30
0.0
 10
56.3449105165
 20
144.9061054503
 30
0.0
 10
56.2125282572
 20
144.9825346543
 30
0.0
  0
SPLINE
  5
557
100
AcDbEntity
  8
0
100
AcDbSpline
 62
7
  6
BYLAYER
 70
0
 71
3
 72
9
 73
5
 74
0
 42
0.0000001
 43
0.0000001
 44
0.0000000001
 40
0.0
 40
0.0
 40
0.0
 40
0.0
 40
0.2638119214
 40
1.0
 40
1.0
 40
1.0
 40
1.0
 10
56.2125282572
 20
144.9825346543
 30
0.0
 10
56.1882575566
 20
144.9965470328
 30
0.0
 10
56.0948311363
 20
145.047071983
 30
0.0
 10
55.9952487856
 20
145.0868364132
 30
0.0
 10
55.9197067151
 20
145.1070767936
 30
0.0
  0
SPLINE
  5
558
100
AcDbEntity
  8
0
100
AcDbSpline
 62
7
  6
BYLAYER
 70
0
 71
3
 72
9
 73
5
 74
0
 42
0.0000001
 43
0.0000001
 44
0.0000000001
 40
0.0
 40
0.0
 40
0.0
 40
0.0
 40
0.2366981803
 40
1.0
 40
1.0
 40
1.0
 40
1.0
 10
46.4617685988
 20
147.6411914093
 30
0.0
 10
46.4435503551
 20
147.6460727182
 30
0.0
 10
46.3673805929
 20
147.6696600466
 30
0.0
 10
46.2948263669
 20
147.7041873971
 30
0.0
 10
46.2421524422
 20
147.7345980137
 30
0.0
  0
SPLINE
  5
559
100
AcDbEntity
  8
0
100
AcDbSpline
 62
7
  6
BYLAYER
 70
0
 71
3
 72
9
 73
5
 74
0
 42
0.0000001
 43
0.0000001
 44
0.0000000001
 40
0.0
 40
0.0
 40
0.0
 40
0.0
 40
0.2372995869
 40
1.0
 40
1.0
 40
1.0
 40
1.0
 10
46.2421524422
 20
147.7345980137
 30
0.0
 10
46.218359285
 20
147.7483346887
 30
0.0
 10
46.1202115347
 20
147.8098744057
 30
0.0
 10
46.0305932836
 20
147.8845411052
 30
0.0
 10
45.9672950741
 20
147.9461103784
 30
0.0
  0
SPLINE
  5
55A
100
AcDbEntity
  8
0
100
AcDbSpline
 62
7
  6
BYLAYER
 70
0
 71
3
 72
9
 73
5
 74
0
 42
0.0000001
 43
0.0000001
 44
0.0000000001
 40
0.0
 40
0.0
 40
0.0
 40
0.0
 40
0.5142507085
 40
1.0
 40
1.0
 40
1.0
 40
1.0
 10
75.6287746117
 20
165.3711660493
 30
0.0
 10
75.605928465
 20
165.482809483
 30
0.0
 10
75.5126617097
 20
165.6897180561
 30
0.0
 10
75.3540818315
 20
165.8557406553
 30
0.0
 10
75.260861326
 20
165.9095603217
 30
0.0
  0
SPLINE
  5
55B
100
AcDbEntity
  8
0
100
AcDbSpline
 62
7
  6
BYLAYER
 70
0
 71
3
 72
11
 73
7
 74
0
 42
0.0000001
 43
0.0000001
 44
0.0000000001
 40
0.0
 40
0.0
 40
0.0
 40
0.0
 40
0.2514971614
 40
0.5139436322
 40
0.7690069698
 40
1.0
 40
1.0
 40
1.0
 40
1.0
 10
89.1250258047
 20
161.7543114515
 30
0.0
 10
89.0916599092
 20
161.9173622796
 30
0.0
 10
88.9846446155
 20
162.2431888032
 30
0.0
 10
88.7368081787
 20
162.6907894489
 30
0.0
 10
88.4196084082
 20
163.0748263352
 30
0.0
 10
88.1645831911
 20
163.2770923745
 30
0.0
 10
88.0322009318
 20
163.3535215785
 30
0.0
  0
SPLINE
  5
55C
100
AcDbEntity
  8
0
100
AcDbSpline
 62
7
  6
BYLAYER
 70
0
 71
3
 72
9
 73
5
 74
0
 42
0.0000001
 43
0.0000001
 44
0.0000000001
 40
0.0
 40
0.0
 40
0.0
 40
0.0
 40
0.2638119214
 40
1.0
 40
1.0
 40
1.0
 40
1.0
 10
88.0322009318
 20
163.3535215785
 30
0.0
 10
88.0079302312
 20
163.367533957
 30
0.0
 10
87.9145038109
 20
163.4180589072
 30
0.0
 10
87.8149214602
 20
163.4578233374
 30
0.0
 10
87.7393793897
 20
163.4780637178
 30
0.0
  0
SPLINE
  5
55D
100
AcDbEntity
  8
0
100
AcDbSpline
 62
7
  6
BYLAYER
 70
0
 71
3
 72
9
 73
5
 74
0
 42
0.0000001
 43
0.0000001
 44
0.0000000001
 40
0.0
 40
0.0
 40
0.0
 40
0.0
 40
0.2366981803
 40
1.0
 40
1.0
 40
1.0
 40
1.0
 10
78.2814412734
 20
166.0121783335
 30
0.0
 10
78.2632230297
 20
166.0170596424
 30
0.0
 10
78.1870532675
 20
166.0406469708
 30
0.0
 10
78.1144990415
 20
166.0751743214
 30
0.0
 10
78.0618251169
 20
166.1055849379
 30
0.0
  0
SPLINE
  5
55E
100
AcDbEntity
  8
0
100
AcDbSpline
 62
7
  6
BYLAYER
 70
0
 71
3
 72
9
 73
5
 74
0
 42
0.0000001
 43
0.0000001
 44
0.0000000001
 40
0.0
 40
0.0
 40
0.0
 40
0.0
 40
0.2372995869
 40
1.0
 40
1.0
 40
1.0
 40
1.0
 10
78.0618251169
 20
166.1055849379
 30
0.0
 10
78.0380319596
 20
166.1193216129
 30
0.0
 10
77.9398842093
 20
166.1808613299
 30
0.0
 10
77.8502659582
 20
166.2555280294
 30
0.0
 10
77.7869677487
 20
166.3170973026
 30
0.0
  0
SPLINE
  5
55F
100
AcDbEntity
  8
0
100
AcDbSpline
 62
7
  6
BYLAYER
 70
0
 71
3
 72
9
 73
5
 74
0
 42
0.0000001
 43
0.0000001
 44
0.0000000001
 40
0.0
 40
0.0
 40
0.0
 40
0.0
 40
0.5231891397
 40
1.0
 40
1.0
 40
1.0
 40
1.0
 10
44.3845585066
 20
147.9737337797
 30
0.0
 10
44.4603264549
 20
147.7852123691
 30
0.0
 10
44.6595624936
 20
147.4457169528
 30
0.0
 10
44.9504262615
 20
147.173989186
 30
0.0
 10
45.1107863027
 20
147.0814073675
 30
0.0
  0
SPLINE
  5
560
100
AcDbEntity
  8
0
100
AcDbSpline
 62
7
  6
BYLAYER
 70
0
 71
3
 72
9
 73
5
 74
0
 42
0.0000001
 43
0.0000001
 44
0.0000000001
 40
0.0
 40
0.0
 40
0.0
 40
0.0
 40
0.2638119214
 40
1.0
 40
1.0
 40
1.0
 40
1.0
 10
45.1107863027
 20
147.0814073675
 30
0.0
 10
45.1289893281
 20
147.0708980837
 30
0.0
 10
45.1990591434
 20
147.033004371
 30
0.0
 10
45.2737459064
 20
147.0031810484
 30
0.0
 10
45.3304024593
 20
146.9880007631
 30
0.0
  0
SPLINE
  5
561
100
AcDbEntity
  8
0
100
AcDbSpline
 62
7
  6
BYLAYER
 70
0
 71
3
 72
9
 73
5
 74
0
 42
0.0000001
 43
0.0000001
 44
0.0000000001
 40
0.0
 40
0.0
 40
0.0
 40
0.0
 40
0.2366981802
 40
1.0
 40
1.0
 40
1.0
 40
1.0
 10
54.7883405755
 20
144.4538861474
 30
0.0
 10
54.8126315671
 20
144.4473777355
 30
0.0
 10
54.9141912501
 20
144.4159279642
 30
0.0
 10
55.0109302181
 20
144.3698914969
 30
0.0
 10
55.0811621176
 20
144.3293440081
 30
0.0
  0
SPLINE
  5
562
100
AcDbEntity
  8
0
100
AcDbSpline
 62
7
  6
BYLAYER
 70
0
 71
3
 72
11
 73
7
 74
0
 42
0.0000001
 43
0.0000001
 44
0.0000000001
 40
0.0
 40
0.0
 40
0.0
 40
0.0
 40
0.2309931447
 40
0.4860565254
 40
0.7485029599
 40
1.0
 40
1.0
 40
1.0
 40
1.0
 10
55.0811621176
 20
144.3293440081
 30
0.0
 10
55.2135444426
 20
144.2529147662
 30
0.0
 10
55.4685697311
 20
144.0506486419
 30
0.0
 10
55.7857695124
 20
143.6666116604
 30
0.0
 10
56.0336058684
 20
143.2190110573
 30
0.0
 10
56.1406211111
 20
142.8931846305
 30
0.0
 10
56.1739869905
 20
142.7301338811
 30
0.0
  0
SPLINE
  5
563
100
AcDbEntity
  8
0
100
AcDbSpline
 62
7
  6
BYLAYER
 70
0
 71
3
 72
9
 73
5
 74
0
 42
0.0000001
 43
0.0000001
 44
0.0000000001
 40
0.0
 40
0.0
 40
0.0
 40
0.0
 40
0.2434594588
 40
1.0
 40
1.0
 40
1.0
 40
1.0
 10
47.0279508299
 20
148.5584766092
 30
0.0
 10
46.9802428555
 20
148.6048814812
 30
0.0
 10
46.7956947675
 20
148.8069331213
 30
0.0
 10
46.653704654
 20
149.0473945696
 30
0.0
 10
46.576580402
 20
149.2392906567
 30
0.0
  0
SPLINE
  5
564
100
AcDbEntity
  8
0
100
AcDbSpline
 62
7
  6
BYLAYER
 70
0
 71
3
 72
9
 73
5
 74
0
 42
0.0000001
 43
0.0000001
 44
0.0000000001
 40
0.0
 40
0.0
 40
0.0
 40
0.0
 40
0.5231891397
 40
1.0
 40
1.0
 40
1.0
 40
1.0
 10
76.2042311813
 20
166.3447207039
 30
0.0
 10
76.2799991295
 20
166.1561992933
 30
0.0
 10
76.4792351682
 20
165.816703877
 30
0.0
 10
76.7700989361
 20
165.5449761102
 30
0.0
 10
76.9304589773
 20
165.4523942917
 30
0.0
  0
SPLINE
  5
565
100
AcDbEntity
  8
0
100
AcDbSpline
 62
7
  6
BYLAYER
 70
0
 71
3
 72
9
 73
5
 74
0
 42
0.0000001
 43
0.0000001
 44
0.0000000001
 40
0.0
 40
0.0
 40
0.0
 40
0.0
 40
0.2638119214
 40
1.0
 40
1.0
 40
1.0
 40
1.0
 10
76.9304589773
 20
165.4523942917
 30
0.0
 10
76.9486620027
 20
165.4418850079
 30
0.0
 10
77.018731818
 20
165.4039912952
 30
0.0
 10
77.093418581
 20
165.3741679726
 30
0.0
 10
77.1500751339
 20
165.3589876873
 30
0.0
  0
SPLINE
  5
566
100
AcDbEntity
  8
0
100
AcDbSpline
 62
7
  6
BYLAYER
 70
0
 71
3
 72
9
 73
5
 74
0
 42
0.0000001
 43
0.0000001
 44
0.0000000001
 40
0.0
 40
0.0
 40
0.0
 40
0.0
 40
0.2366981802
 40
1.0
 40
1.0
 40
1.0
 40
1.0
 10
86.6080132501
 20
162.8248730716
 30
0.0
 10
86.6323042417
 20
162.8183646597
 30
0.0
 10
86.7338639247
 20
162.7869148884
 30
0.0
 10
86.8306028927
 20
162.7408784211
 30
0.0
 10
86.9008347923
 20
162.7003309323
 30
0.0
  0
SPLINE
  5
567
100
AcDbEntity
  8
0
100
AcDbSpline
 62
7
  6
BYLAYER
 70
0
 71
3
 72
11
 73
7
 74
0
 42
0.0000001
 43
0.0000001
 44
0.0000000001
 40
0.0
 40
0.0
 40
0.0
 40
0.0
 40
0.2309931447
 40
0.4860565254
 40
0.7485029599
 40
1.0
 40
1.0
 40
1.0
 40
1.0
 10
86.9008347923
 20
162.7003309323
 30
0.0
 10
87.0332171172
 20
162.6239016904
 30
0.0
 10
87.2882424057
 20
162.4216355661
 30
0.0
 10
87.6054421871
 20
162.0375985846
 30
0.0
 10
87.853278543
 20
161.5899979815
 30
0.0
 10
87.9602937857
 20
161.2641715547
 30
0.0
 10
87.9936596651
 20
161.1011208053
 30
0.0
  0
SPLINE
  5
568
100
AcDbEntity
  8
0
100
AcDbSpline
 62
7
  6
BYLAYER
 70
0
 71
3
 72
9
 73
5
 74
0
 42
0.0000001
 43
0.0000001
 44
0.0000000001
 40
0.0
 40
0.0
 40
0.0
 40
0.0
 40
0.2434594588
 40
1.0
 40
1.0
 40
1.0
 40
1.0
 10
78.8476235045
 20
166.9294635334
 30
0.0
 10
78.7999155301
 20
166.9758684054
 30
0.0
 10
78.6153674421
 20
167.1779200455
 30
0.0
 10
78.4733773287
 20
167.4183814938
 30
0.0
 10
78.3962530766
 20
167.6102775809
 30
0.0
  0
SPLINE
  5
569
100
AcDbEntity
  8
0
100
AcDbSpline
 62
7
  6
BYLAYER
 70
0
 71
3
 72
9
 73
5
 74
0
 42
0.0000001
 43
0.0000001
 44
0.0000000001
 40
0.0
 40
0.0
 40
0.0
 40
0.0
 40
0.5175966254
 40
1.0
 40
1.0
 40
1.0
 40
1.0
 10
143.5134202355
 20
181.8325535966
 30
0.0
 10
149.3410451703
 20
184.3590947776
 30
0.0
 10
160.3588431681
 20
189.8261829106
 30
0.0
 10
170.6451802646
 20
196.59338605
 30
0.0
 10
175.3398133811
 20
200.1996597232
 30
0.0
  0
SPLINE
  5
56A
100
AcDbEntity
  8
0
100
AcDbSpline
 62
7
  6
BYLAYER
 70
0
 71
3
 72
9
 73
5
 74
0
 42
0.0000001
 43
0.0000001
 44
0.0000000001
 40
0.0
 40
0.0
 40
0.0
 40
0.0
 40
0.5175966254
 40
1.0
 40
1.0
 40
1.0
 40
1.0
 10
175.3398133811
 20
200.1996597232
 30
0.0
 10
181.1674383159
 20
202.7262009042
 30
0.0
 10
192.1852363137
 20
208.1932890372
 30
0.0
 10
202.4715734103
 20
214.9604921766
 30
0.0
 10
207.1662065268
 20
218.5667658498
 30
0.0
  0
SPLINE
  5
56B
100
AcDbEntity
  8
0
100
AcDbSpline
 62
7
  6
BYLAYER
 70
0
 71
3
 72
9
 73
5
 74
0
 42
0.0000001
 43
0.0000001
 44
0.0000000001
 40
0.0
 40
0.0
 40
0.0
 40
0.0
 40
0.5175966254
 40
1.0
 40
1.0
 40
1.0
 40
1.0
 10
207.1662065268
 20
218.5667658498
 30
0.0
 10
212.9938314615
 20
221.0933070308
 30
0.0
 10
224.0116294594
 20
226.5603951638
 30
0.0
 10
234.2979665559
 20
233.3275983033
 30
0.0
 10
238.9925996724
 20
236.9338719764
 30
0.0
  0
SPLINE
  5
56C
100
AcDbEntity
  8
0
100
AcDbSpline
 62
7
  6
BYLAYER
 70
0
 71
3
 72
9
 73
5
 74
0
 42
0.0000001
 43
0.0000001
 44
0.0000000001
 40
0.0
 40
0.0
 40
0.0
 40
0.0
 40
0.4648225425
 40
1.0
 40
1.0
 40
1.0
 40
1.0
 10
198.4143309064
 20
226.0447328839
 30
0.0
 10
198.4143303582
 20
226.0107130496
 30
0.0
 10
198.4358989129
 20
225.9369664623
 30
0.0
 10
198.4867186042
 20
225.8816600937
 30
0.0
 10
198.5168794623
 20
225.8566693835
 30
0.0
  0
SPLINE
  5
56D
100
AcDbEntity
  8
0
100
AcDbSpline
 62
7
  6
BYLAYER
 70
0
 71
3
 72
13
 73
9
 74
0
 42
0.0000001
 43
0.0000001
 44
0.0000000001
 40
0.0
 40
0.0
 40
0.0
 40
0.0
 40
0.2699184667
 40
0.5613136411
 40
0.6954624664
 40
0.8131372273
 40
0.91285157
 40
1.0
 40
1.0
 40
1.0
 40
1.0
 10
141.3947354071
 20
181.0161470379
 30
0.0
 10
141.4720889635
 20
180.9714690814
 30
0.0
 10
141.656999274
 20
180.9214110384
 30
0.0
 10
141.8908033954
 20
180.9332324732
 30
0.0
 10
142.0624785929
 20
180.9904263558
 30
0.0
 10
142.1628840442
 20
181.0516379806
 30
0.0
 10
142.230908884
 20
181.1289842263
 30
0.0
 10
142.2483409629
 20
181.1913843277
 30
0.0
 10
142.2483539147
 20
181.2202259711
 30
0.0
  0
SPLINE
  5
56E
100
AcDbEntity
  8
0
100
AcDbSpline
 62
7
  6
BYLAYER
 70
0
 71
3
 72
9
 73
5
 74
0
 42
0.0000001
 43
0.0000001
 44
0.0000000001
 40
0.0
 40
0.0
 40
0.0
 40
0.0
 40
0.5158802955
 40
1.0
 40
1.0
 40
1.0
 40
1.0
 10
169.424033646
 20
210.5575312025
 30
0.0
 10
174.48964299
 20
212.9013104938
 30
0.0
 10
184.1017990592
 20
217.9125844591
 30
0.0
 10
193.1149331309
 20
223.9502579057
 30
0.0
 10
197.2687616122
 20
227.1411019874
 30
0.0
  0
SPLINE
  5
56F
100
AcDbEntity
  8
0
100
AcDbSpline
 62
7
  6
BYLAYER
 70
0
 71
3
 72
9
 73
5
 74
0
 42
0.0000001
 43
0.0000001
 44
0.0000000001
 40
0.0
 40
0.0
 40
0.0
 40
0.0
 40
0.5158802955
 40
1.0
 40
1.0
 40
1.0
 40
1.0
 10
201.2504267916
 20
228.9246373291
 30
0.0
 10
206.3160361357
 20
231.2684166205
 30
0.0
 10
215.9281922049
 20
236.2796905857
 30
0.0
 10
224.9413262765
 20
242.3173640324
 30
0.0
 10
229.0951547578
 20
245.508208114
 30
0.0
  0
SPLINE
  5
570
100
AcDbEntity
  8
0
100
AcDbSpline
 62
7
  6
BYLAYER
 70
0
 71
3
 72
9
 73
5
 74
0
 42
0.0000001
 43
0.0000001
 44
0.0000000001
 40
0.0
 40
0.0
 40
0.0
 40
0.0
 40
0.2514789466
 40
1.0
 40
1.0
 40
1.0
 40
1.0
 10
133.6159753209
 20
190.4068897342
 30
0.0
 10
134.004647814
 20
190.5753969855
 30
0.0
 10
135.5478686061
 20
191.2508126304
 30
0.0
 10
137.0816853171
 20
191.9477300616
 30
0.0
 10
138.223957696
 20
192.4817078729
 30
0.0
  0
SPLINE
  5
571
100
AcDbEntity
  8
0
100
AcDbSpline
 62
7
  6
BYLAYER
 70
0
 71
3
 72
9
 73
5
 74
0
 42
0.0000001
 43
0.0000001
 44
0.0000000001
 40
0.0
 40
0.0
 40
0.0
 40
0.0
 40
0.5151761302
 40
1.0
 40
1.0
 40
1.0
 40
1.0
 10
139.1587419299
 20
192.9220703551
 30
0.0
 10
143.9269831701
 20
195.1856583695
 30
0.0
 10
152.9892601669
 20
200.0037852101
 30
0.0
 10
161.5031651587
 20
205.7480202776
 30
0.0
 10
165.4423684665
 20
208.7739958608
 30
0.0
  0
SPLINE
  5
572
100
AcDbEntity
  8
0
100
AcDbSpline
 62
7
  6
BYLAYER
 70
0
 71
3
 72
9
 73
5
 74
0
 42
0.0000001
 43
0.0000001
 44
0.0000000001
 40
0.0
 40
0.0
 40
0.0
 40
0.0
 40
0.5187732885
 40
1.0
 40
1.0
 40
1.0
 40
1.0
 10
218.4843072328
 20
233.6704451688
 30
0.0
 10
219.6563900918
 20
234.1686392368
 30
0.0
 10
221.8658358908
 20
235.2531217825
 30
0.0
 10
223.9196441565
 20
236.6152395581
 30
0.0
 10
224.8495858619
 20
237.3438663942
 30
0.0
  0
SPLINE
  5
573
100
AcDbEntity
  8
0
100
AcDbSpline
 62
7
  6
BYLAYER
 70
0
 71
3
 72
9
 73
5
 74
0
 42
0.0000001
 43
0.0000001
 44
0.0000000001
 40
0.0
 40
0.0
 40
0.0
 40
0.0
 40
0.5187732885
 40
1.0
 40
1.0
 40
1.0
 40
1.0
 10
210.7045222416
 20
229.1807081157
 30
0.0
 10
211.8766051007
 20
229.6789021836
 30
0.0
 10
214.0860508996
 20
230.7633847293
 30
0.0
 10
216.1398591653
 20
232.1255025049
 30
0.0
 10
217.0698008707
 20
232.854129341
 30
0.0
  0
SPLINE
  5
574
100
AcDbEntity
  8
0
100
AcDbSpline
 62
7
  6
BYLAYER
 70
0
 71
3
 72
9
 73
5
 74
0
 42
0.0000001
 43
0.0000001
 44
0.0000000001
 40
0.0
 40
0.0
 40
0.0
 40
0.0
 40
0.5187732885
 40
1.0
 40
1.0
 40
1.0
 40
1.0
 10
186.6579140871
 20
215.3033390422
 30
0.0
 10
187.8299969462
 20
215.8015331102
 30
0.0
 10
190.0394427452
 20
216.8860156559
 30
0.0
 10
192.0932510108
 20
218.2481334315
 30
0.0
 10
193.0231927163
 20
218.9767602676
 30
0.0
  0
SPLINE
  5
575
100
AcDbEntity
  8
0
100
AcDbSpline
 62
7
  6
BYLAYER
 70
0
 71
3
 72
9
 73
5
 74
0
 42
0.0000001
 43
0.0000001
 44
0.0000000001
 40
0.0
 40
0.0
 40
0.0
 40
0.0
 40
0.5187732885
 40
1.0
 40
1.0
 40
1.0
 40
1.0
 10
178.878129096
 20
210.8136019891
 30
0.0
 10
180.050211955
 20
211.311796057
 30
0.0
 10
182.259657754
 20
212.3962786027
 30
0.0
 10
184.3134660197
 20
213.7583963783
 30
0.0
 10
185.2434077251
 20
214.4870232144
 30
0.0
  0
SPLINE
  5
576
100
AcDbEntity
  8
0
100
AcDbSpline
 62
7
  6
BYLAYER
 70
0
 71
3
 72
9
 73
5
 74
0
 42
0.0000001
 43
0.0000001
 44
0.0000000001
 40
0.0
 40
0.0
 40
0.0
 40
0.0
 40
0.5187732885
 40
1.0
 40
1.0
 40
1.0
 40
1.0
 10
154.8315209415
 20
196.9362329156
 30
0.0
 10
156.0036038005
 20
197.4344269835
 30
0.0
 10
158.2130495995
 20
198.5189095293
 30
0.0
 10
160.2668578652
 20
199.8810273048
 30
0.0
 10
161.1967995706
 20
200.6096541409
 30
0.0
  0
SPLINE
  5
577
100
AcDbEntity
  8
0
100
AcDbSpline
 62
7
  6
BYLAYER
 70
0
 71
3
 72
9
 73
5
 74
0
 42
0.0000001
 43
0.0000001
 44
0.0000000001
 40
0.0
 40
0.0
 40
0.0
 40
0.0
 40
0.5187732885
 40
1.0
 40
1.0
 40
1.0
 40
1.0
 10
147.0517359504
 20
192.4464958625
 30
0.0
 10
148.2238188094
 20
192.9446899304
 30
0.0
 10
150.4332646084
 20
194.0291724761
 30
0.0
 10
152.487072874
 20
195.3912902517
 30
0.0
 10
153.4170145795
 20
196.1199170878
 30
0.0
  0
SPLINE
  5
578
100
AcDbEntity
  8
0
100
AcDbSpline
 62
7
  6
BYLAYER
 70
0
 71
3
 72
9
 73
5
 74
0
 42
0.0000001
 43
0.0000001
 44
0.0000000001
 40
0.0
 40
0.0
 40
0.0
 40
0.0
 40
0.2583972044
 40
1.0
 40
1.0
 40
1.0
 40
1.0
 10
206.0023118447
 20
226.1800380658
 30
0.0
 10
206.2988851184
 20
226.3466536119
 30
0.0
 10
207.4350481749
 20
227.0116440758
 30
0.0
 10
208.523528542
 20
227.7597029385
 30
0.0
 10
209.2900158796
 20
228.3643922878
 30
0.0
  0
SPLINE
  5
579
100
AcDbEntity
  8
0
100
AcDbSpline
 62
7
  6
BYLAYER
 70
0
 71
3
 72
9
 73
5
 74
0
 42
0.0000001
 43
0.0000001
 44
0.0000000001
 40
0.0
 40
0.0
 40
0.0
 40
0.0
 40
0.5045321812
 40
1.0
 40
1.0
 40
1.0
 40
1.0
 10
200.3397196481
 20
224.8038757918
 30
0.0
 10
200.4491471348
 20
224.7600678849
 30
0.0
 10
200.6865674796
 20
224.7254992668
 30
0.0
 10
200.9230480628
 20
224.770739548
 30
0.0
 10
201.0275304702
 20
224.8205612347
 30
0.0
  0
SPLINE
  5
57A
100
AcDbEntity
  8
0
100
AcDbSpline
 62
7
  6
BYLAYER
 70
0
 71
3
 72
9
 73
5
 74
0
 42
0.0000001
 43
0.0000001
 44
0.0000000001
 40
0.0
 40
0.0
 40
0.0
 40
0.0
 40
0.4860589424
 40
1.0
 40
1.0
 40
1.0
 40
1.0
 10
168.316915293
 20
206.5420539643
 30
0.0
 10
168.448881052
 20
206.4658330286
 30
0.0
 10
168.7646930754
 20
206.3893803356
 30
0.0
 10
169.0842404718
 20
206.4223266413
 30
0.0
 10
169.2368472165
 20
206.4740633929
 30
0.0
  0
SPLINE
  5
57B
100
AcDbEntity
  8
0
100
AcDbSpline
 62
7
  6
BYLAYER
 70
0
 71
3
 72
9
 73
5
 74
0
 42
0.0000001
 43
0.0000001
 44
0.0000000001
 40
0.0
 40
0.0
 40
0.0
 40
0.0
 40
0.2575545059
 40
1.0
 40
1.0
 40
1.0
 40
1.0
 10
139.9792041402
 20
188.3649167232
 30
0.0
 10
140.3037751904
 20
188.5128455018
 30
0.0
 10
141.5546068635
 20
189.1073575257
 30
0.0
 10
142.7669145581
 20
189.7843801652
 30
0.0
 10
143.6337747008
 20
190.3373757531
 30
0.0
  0
SPLINE
  5
57C
100
AcDbEntity
  8
0
100
AcDbSpline
 62
7
  6
BYLAYER
 70
0
 71
3
 72
9
 73
5
 74
0
 42
0.0000001
 43
0.0000001
 44
0.0000000001
 40
0.0
 40
0.0
 40
0.0
 40
0.0
 40
0.5308802114
 40
1.0
 40
1.0
 40
1.0
 40
1.0
 10
198.5023486825
 20
226.2203769583
 30
0.0
 10
198.4761254195
 20
226.1963893984
 30
0.0
 10
198.4323589748
 20
226.1435960056
 30
0.0
 10
198.4143314126
 20
226.0761379451
 30
0.0
 10
198.4143309064
 20
226.0447328839
 30
0.0
  0
SPLINE
  5
57D
100
AcDbEntity
  8
0
100
AcDbSpline
 62
7
  6
BYLAYER
 70
0
 71
3
 72
9
 73
5
 74
0
 42
0.0000001
 43
0.0000001
 44
0.0000000001
 40
0.0
 40
0.0
 40
0.0
 40
0.0
 40
0.5128055792
 40
1.0
 40
1.0
 40
1.0
 40
1.0
 10
200.2738731263
 20
226.8835499878
 30
0.0
 10
200.1580945799
 20
226.9250407672
 30
0.0
 10
199.913570016
 20
226.9524495323
 30
0.0
 10
199.671503428
 20
226.8950996386
 30
0.0
 10
199.5703009859
 20
226.8366954083
 30
0.0
  0
SPLINE
  5
57E
100
AcDbEntity
  8
0
100
AcDbSpline
 62
7
  6
BYLAYER
 70
0
 71
3
 72
9
 73
5
 74
0
 42
0.0000001
 43
0.0000001
 44
0.0000000001
 40
0.0
 40
0.0
 40
0.0
 40
0.0
 40
0.449145426
 40
1.0
 40
1.0
 40
1.0
 40
1.0
 10
170.3125143628
 20
207.2580976362
 30
0.0
 10
170.3125280103
 20
207.3144200318
 30
0.0
 10
170.2633076702
 20
207.4401321957
 30
0.0
 10
170.1605572864
 20
207.5188361499
 30
0.0
 10
170.1007411556
 20
207.55338482
 30
0.0
  0
SPLINE
  5
57F
100
AcDbEntity
  8
0
100
AcDbSpline
 62
7
  6
BYLAYER
 70
0
 71
3
 72
9
 73
5
 74
0
 42
0.0000001
 43
0.0000001
 44
0.0000000001
 40
0.0
 40
0.0
 40
0.0
 40
0.0
 40
0.4824033746
 40
1.0
 40
1.0
 40
1.0
 40
1.0
 10
238.9925996724
 20
239.7916304364
 30
0.0
 10
234.2979665559
 20
236.1853567632
 30
0.0
 10
224.0116294594
 20
229.4181536238
 30
0.0
 10
212.9938314615
 20
223.9510654908
 30
0.0
 10
207.1662065268
 20
221.4245243098
 30
0.0
  0
SPLINE
  5
580
100
AcDbEntity
  8
0
100
AcDbSpline
 62
7
  6
BYLAYER
 70
0
 71
3
 72
9
 73
5
 74
0
 42
0.0000001
 43
0.0000001
 44
0.0000000001
 40
0.0
 40
0.0
 40
0.0
 40
0.0
 40
0.4824033746
 40
1.0
 40
1.0
 40
1.0
 40
1.0
 10
207.1662065268
 20
221.4245243098
 30
0.0
 10
202.4715734103
 20
217.8182506366
 30
0.0
 10
192.1852363137
 20
211.0510474972
 30
0.0
 10
181.1674383159
 20
205.5839593642
 30
0.0
 10
175.3398133811
 20
203.0574181832
 30
0.0
  0
SPLINE
  5
581
100
AcDbEntity
  8
0
100
AcDbSpline
 62
7
  6
BYLAYER
 70
0
 71
3
 72
9
 73
5
 74
0
 42
0.0000001
 43
0.0000001
 44
0.0000000001
 40
0.0
 40
0.0
 40
0.0
 40
0.0
 40
0.4824033746
 40
1.0
 40
1.0
 40
1.0
 40
1.0
 10
175.3398133811
 20
203.0574181832
 30
0.0
 10
170.6451802647
 20
199.45114451
 30
0.0
 10
160.3588431681
 20
192.6839413706
 30
0.0
 10
149.3410451703
 20
187.2168532376
 30
0.0
 10
143.5134202355
 20
184.6903120566
 30
0.0
  0
SPLINE
  5
582
100
AcDbEntity
  8
0
100
AcDbSpline
 62
7
  6
BYLAYER
 70
0
 71
3
 72
11
 73
7
 74
0
 42
0.0000001
 43
0.0000001
 44
0.0000000001
 40
0.0
 40
0.0
 40
0.0
 40
0.0
 40
0.2454398268
 40
0.5166541504
 40
0.778515749
 40
1.0
 40
1.0
 40
1.0
 40
1.0
 10
168.5213205568
 20
208.4656283956
 30
0.0
 10
168.4549806138
 20
208.5039450966
 30
0.0
 10
168.2988633902
 20
208.5561056575
 30
0.0
 10
168.053984016
 20
208.5702220095
 30
0.0
 10
167.8204707718
 20
208.525919394
 30
0.0
 10
167.6831055993
 20
208.4527181461
 30
0.0
 10
167.632695632
 20
208.4054083857
 30
0.0
  0
SPLINE
  5
583
100
AcDbEntity
  8
0
100
AcDbSpline
 62
7
  6
BYLAYER
 70
0
 71
3
 72
13
 73
9
 74
0
 42
0.0000001
 43
0.0000001
 44
0.0000000001
 40
0.0
 40
0.0
 40
0.0
 40
0.0
 40
0.1841283061
 40
0.3416882627
 40
0.4843739664
 40
0.6316571131
 40
0.8010825014
 40
1.0
 40
1.0
 40
1.0
 40
1.0
 10
124.5117934676
 20
167.4485369446
 30
0.0
 10
124.5391374116
 20
167.4330867783
 30
0.0
 10
124.5933595934
 20
167.409649082
 30
0.0
 10
124.6777335227
 20
167.4023768627
 30
0.0
 10
124.7518467795
 20
167.4308556413
 30
0.0
 10
124.804557827
 20
167.4924109196
 30
0.0
 10
124.8328865155
 20
167.5772198329
 30
0.0
 10
124.8361690612
 20
167.6406081999
 30
0.0
 10
124.8347243224
 20
167.674507026
 30
0.0
  0
SPLINE
  5
584
100
AcDbEntity
  8
0
100
AcDbSpline
 62
7
  6
BYLAYER
 70
0
 71
3
 72
18
 73
14
 74
0
 42
0.0000001
 43
0.0000001
 44
0.0000000001
 40
0.0
 40
0.0
 40
0.0
 40
0.0
 40
0.0879208031
 40
0.1627062136
 40
0.2289892041
 40
0.2961651483
 40
0.3730581852
 40
0.4633286749
 40
0.5658532541
 40
0.6765331405
 40
0.789727508
 40
0.8993694096
 40
1.0
 40
1.0
 40
1.0
 40
1.0
 10
128.7291339813
 20
169.9397377165
 30
0.0
 10
128.7307026008
 20
169.9029321998
 30
0.0
 10
128.7263491905
 20
169.8340177148
 30
0.0
 10
128.6904106724
 20
169.7426225993
 30
0.0
 10
128.623619817
 20
169.6808674549
 30
0.0
 10
128.5341335806
 20
169.660925239
 30
0.0
 10
128.4360200137
 20
169.6813562087
 30
0.0
 10
128.3357429725
 20
169.7358546639
 30
0.0
 10
128.2392262265
 20
169.8198870456
 30
0.0
 10
128.1532978527
 20
169.9271050141
 30
0.0
 10
128.0844222124
 20
170.0494207462
 30
0.0
 10
128.037889578
 20
170.1773466833
 30
0.0
 10
128.0233052789
 20
170.2650160595
 30
0.0
 10
128.0215099006
 20
170.3071421632
 30
0.0
  0
SPLINE
  5
585
100
AcDbEntity
  8
0
100
AcDbSpline
 62
7
  6
BYLAYER
 70
0
 71
3
 72
13
 73
9
 74
0
 42
0.0000001
 43
0.0000001
 44
0.0000000001
 40
0.0
 40
0.0
 40
0.0
 40
0.0
 40
0.1584026047
 40
0.3303156791
 40
0.50813546
 40
0.6846401256
 40
0.8508392165
 40
1.0
 40
1.0
 40
1.0
 40
1.0
 10
124.1558172677
 20
168.0586150798
 30
0.0
 10
124.1574614136
 20
168.0200374378
 30
0.0
 10
124.1694850222
 20
167.9398777002
 30
0.0
 10
124.2074829151
 20
167.8215409153
 30
0.0
 10
124.2640716121
 20
167.7059302167
 30
0.0
 10
124.3357447311
 20
167.6006576453
 30
0.0
 10
124.4178901677
 20
167.5126692292
 30
0.0
 10
124.4801374013
 20
167.4664235921
 30
0.0
 10
124.5117934676
 20
167.4485369446
 30
0.0
  0
SPLINE
  5
586
100
AcDbEntity
  8
0
100
AcDbSpline
 62
7
  6
BYLAYER
 70
0
 71
3
 72
13
 73
9
 74
0
 42
0.0000001
 43
0.0000001
 44
0.0000000001
 40
0.0
 40
0.0
 40
0.0
 40
0.0
 40
0.1862113195
 40
0.3513021838
 40
0.5024656496
 40
0.6523579771
 40
0.8155313265
 40
1.0
 40
1.0
 40
1.0
 40
1.0
 10
122.4201445414
 20
167.5007301093
 30
0.0
 10
122.3894402977
 20
167.484800869
 30
0.0
 10
122.3278656278
 20
167.4608126269
 30
0.0
 10
122.2330972247
 20
167.4533781691
 30
0.0
 10
122.148039569
 20
167.4799221869
 30
0.0
 10
122.0821558912
 20
167.5393847784
 30
0.0
 10
122.0410752691
 20
167.6241438157
 30
0.0
 10
122.0311799065
 20
167.6888236101
 30
0.0
 10
122.0297208171
 20
167.7230591555
 30
0.0
  0
SPLINE
  5
587
100
AcDbEntity
  8
0
100
AcDbSpline
 62
7
  6
BYLAYER
 70
0
 71
3
 72
13
 73
9
 74
0
 42
0.0000001
 43
0.0000001
 44
0.0000000001
 40
0.0
 40
0.0
 40
0.0
 40
0.0
 40
0.155133308
 40
0.3231241699
 40
0.4978604969
 40
0.6740520497
 40
0.8434073665
 40
1.0
 40
1.0
 40
1.0
 40
1.0
 10
122.7788221767
 20
168.1109963765
 30
0.0
 10
122.7804525793
 20
168.0727412008
 30
0.0
 10
122.7737876889
 20
167.9925007673
 30
0.0
 10
122.7397681486
 20
167.8737810097
 30
0.0
 10
122.6837089132
 20
167.7579539399
 30
0.0
 10
122.6093285699
 20
167.6525411373
 30
0.0
 10
122.5214873129
 20
167.5642808979
 30
0.0
 10
122.4544524448
 20
167.518528914
 30
0.0
 10
122.4201445414
 20
167.5007301093
 30
0.0
  0
SPLINE
  5
588
100
AcDbEntity
  8
0
100
AcDbSpline
 62
7
  6
BYLAYER
 70
0
 71
3
 72
13
 73
9
 74
0
 42
0.0000001
 43
0.0000001
 44
0.0000000001
 40
0.0
 40
0.0
 40
0.0
 40
0.0
 40
0.1849198647
 40
0.347604334
 40
0.4965769356
 40
0.6461177318
 40
0.8114214837
 40
1.0
 40
1.0
 40
1.0
 40
1.0
 10
119.2535992646
 20
167.8955560611
 30
0.0
 10
119.2839715602
 20
167.8814231827
 30
0.0
 10
119.3444081315
 20
167.8609377488
 30
0.0
 10
119.4361915819
 20
167.8589999833
 30
0.0
 10
119.5162274443
 20
167.8910449446
 30
0.0
 10
119.5747278799
 20
167.9548658797
 30
0.0
 10
119.6071096651
 20
168.041936071
 30
0.0
 10
119.6112030069
 20
168.1067166594
 30
0.0
 10
119.6097483613
 20
168.1408479364
 30
0.0
  0
SPLINE
  5
589
100
AcDbEntity
  8
0
100
AcDbSpline
 62
7
  6
BYLAYER
 70
0
 71
3
 72
18
 73
14
 74
0
 42
0.0000001
 43
0.0000001
 44
0.0000000001
 40
0.0
 40
0.0
 40
0.0
 40
0.0
 40
0.0870543716
 40
0.1621700383
 40
0.2301085679
 40
0.2995656127
 40
0.3783186086
 40
0.4694859092
 40
0.5718718218
 40
0.6815387076
 40
0.7931323254
 40
0.9009583605
 40
1.0
 40
1.0
 40
1.0
 40
1.0
 10
121.0439888965
 20
168.2348595602
 30
0.0
 10
121.0455635636
 20
168.1979121437
 30
0.0
 10
121.0562629296
 20
168.1288650005
 30
0.0
 10
121.1021783117
 20
168.0398881533
 30
0.0
 10
121.1769459087
 20
167.9831643638
 30
0.0
 10
121.271003365
 20
167.968955512
 30
0.0
 10
121.3713221042
 20
167.9950739103
 30
0.0
 10
121.4712975099
 20
168.0555720616
 30
0.0
 10
121.5647980889
 20
168.1454149319
 30
0.0
 10
121.6452040047
 20
168.2577936979
 30
0.0
 10
121.7064754016
 20
168.384215871
 30
0.0
 10
121.7439253198
 20
168.514897758
 30
0.0
 10
121.7514736693
 20
168.6032996024
 30
0.0
 10
121.7496821727
 20
168.6453346276
 30
0.0
  0
SPLINE
  5
58A
100
AcDbEntity
  8
0
100
AcDbSpline
 62
7
  6
BYLAYER
 70
0
 71
3
 72
13
 73
9
 74
0
 42
0.0000001
 43
0.0000001
 44
0.0000000001
 40
0.0
 40
0.0
 40
0.0
 40
0.0
 40
0.1565014248
 40
0.3259798087
 40
0.5019778573
 40
0.6781867448
 40
0.8462338277
 40
1.0
 40
1.0
 40
1.0
 40
1.0
 10
118.8651353826
 20
168.4867373413
 30
0.0
 10
118.8667728836
 20
168.4483156121
 30
0.0
 10
118.8796329982
 20
168.3685818054
 30
0.0
 10
118.9210888208
 20
168.2518451821
 30
0.0
 10
118.9830210245
 20
168.1389923931
 30
0.0
 10
119.0615647779
 20
168.0374227199
 30
0.0
 10
119.1516937533
 20
167.9538150963
 30
0.0
 10
119.2193419637
 20
167.9114967155
 30
0.0
 10
119.2535992646
 20
167.8955560611
 30
0.0
  0
SPLINE
  5
58B
100
AcDbEntity
  8
0
100
AcDbSpline
 62
7
  6
BYLAYER
 70
0
 71
3
 72
18
 73
14
 74
0
 42
0.0000001
 43
0.0000001
 44
0.0000000001
 40
0.0
 40
0.0
 40
0.0
 40
0.0
 40
0.0879208031
 40
0.1627062136
 40
0.2289892041
 40
0.2961651483
 40
0.3730581852
 40
0.4633286749
 40
0.5658532541
 40
0.6765331405
 40
0.789727508
 40
0.8993694096
 40
1.0
 40
1.0
 40
1.0
 40
1.0
 10
115.0730911207
 20
167.8390539077
 30
0.0
 10
115.0746597401
 20
167.802248391
 30
0.0
 10
115.0703063299
 20
167.733333906
 30
0.0
 10
115.0343678117
 20
167.6419387905
 30
0.0
 10
114.9675769563
 20
167.580183646
 30
0.0
 10
114.87809072
 20
167.5602414302
 30
0.0
 10
114.779977153
 20
167.5806723999
 30
0.0
 10
114.6797001119
 20
167.6351708551
 30
0.0
 10
114.5831833659
 20
167.7192032368
 30
0.0
 10
114.497254992
 20
167.8264212053
 30
0.0
 10
114.4283793517
 20
167.9487369374
 30
0.0
 10
114.3818467173
 20
168.0766628745
 30
0.0
 10
114.3672624182
 20
168.1643322507
 30
0.0
 10
114.3654670399
 20
168.2064583544
 30
0.0
  0
SPLINE
  5
58C
100
AcDbEntity
  8
0
100
AcDbSpline
 62
7
  6
BYLAYER
 70
0
 71
3
 72
18
 73
14
 74
0
 42
0.0000001
 43
0.0000001
 44
0.0000000001
 40
0.0
 40
0.0
 40
0.0
 40
0.0
 40
0.0879208031
 40
0.1627062136
 40
0.2289892041
 40
0.2961651483
 40
0.3730581852
 40
0.4633286749
 40
0.5658532541
 40
0.6765331405
 40
0.789727508
 40
0.8993694096
 40
1.0
 40
1.0
 40
1.0
 40
1.0
 10
117.1959633629
 20
166.7368405675
 30
0.0
 10
117.1975319823
 20
166.7000350508
 30
0.0
 10
117.1931785721
 20
166.6311205658
 30
0.0
 10
117.1572400539
 20
166.5397254503
 30
0.0
 10
117.0904491986
 20
166.4779703058
 30
0.0
 10
117.0009629622
 20
166.45802809
 30
0.0
 10
116.9028493952
 20
166.4784590597
 30
0.0
 10
116.8025723541
 20
166.5329575149
 30
0.0
 10
116.7060556081
 20
166.6169898966
 30
0.0
 10
116.6201272342
 20
166.7242078651
 30
0.0
 10
116.5512515939
 20
166.8465235972
 30
0.0
 10
116.5047189596
 20
166.9744495342
 30
0.0
 10
116.4901346604
 20
167.0621189104
 30
0.0
 10
116.4883392822
 20
167.1042450142
 30
0.0
  0
SPLINE
  5
58D
100
AcDbEntity
  8
0
100
AcDbSpline
 62
7
  6
BYLAYER
 70
0
 71
3
 72
18
 73
14
 74
0
 42
0.0000001
 43
0.0000001
 44
0.0000000001
 40
0.0
 40
0.0
 40
0.0
 40
0.0
 40
0.1006305904
 40
0.210272492
 40
0.3234668595
 40
0.4341467459
 40
0.5366713251
 40
0.6269418148
 40
0.7038348517
 40
0.7710107959
 40
0.8372937864
 40
0.9120791969
 40
1.0
 40
1.0
 40
1.0
 40
1.0
 10
133.7778245493
 20
177.1608841663
 30
0.0
 10
133.7796199275
 20
177.1187580625
 30
0.0
 10
133.7942042266
 20
177.0310886863
 30
0.0
 10
133.840736861
 20
176.9031627493
 30
0.0
 10
133.9096125013
 20
176.7808470172
 30
0.0
 10
133.9955408752
 20
176.6736290487
 30
0.0
 10
134.0920576212
 20
176.589596667
 30
0.0
 10
134.1923346623
 20
176.5350982118
 30
0.0
 10
134.2904482293
 20
176.5146672421
 30
0.0
 10
134.3799344657
 20
176.5346094579
 30
0.0
 10
134.446725321
 20
176.5963646024
 30
0.0
 10
134.4826638392
 20
176.6877597179
 30
0.0
 10
134.4870172494
 20
176.7566742029
 30
0.0
 10
134.48544863
 20
176.7934797196
 30
0.0
  0
SPLINE
  5
58E
100
AcDbEntity
  8
0
100
AcDbSpline
 62
7
  6
BYLAYER
 70
0
 71
3
 72
18
 73
14
 74
0
 42
0.0000001
 43
0.0000001
 44
0.0000000001
 40
0.0
 40
0.0
 40
0.0
 40
0.0
 40
0.1006305904
 40
0.210272492
 40
0.3234668595
 40
0.4341467459
 40
0.5366713251
 40
0.6269418148
 40
0.7038348517
 40
0.7710107959
 40
0.8372937864
 40
0.9120791969
 40
1.0
 40
1.0
 40
1.0
 40
1.0
 10
131.654952307
 20
178.2630975065
 30
0.0
 10
131.6567476853
 20
178.2209714028
 30
0.0
 10
131.6713319844
 20
178.1333020266
 30
0.0
 10
131.7178646188
 20
178.0053760895
 30
0.0
 10
131.7867402591
 20
177.8830603574
 30
0.0
 10
131.872668633
 20
177.7758423889
 30
0.0
 10
131.969185379
 20
177.6918100072
 30
0.0
 10
132.0694624201
 20
177.637311552
 30
0.0
 10
132.1675759871
 20
177.6168805823
 30
0.0
 10
132.2570622234
 20
177.6368227982
 30
0.0
 10
132.3238530788
 20
177.6985779426
 30
0.0
 10
132.359791597
 20
177.7899730581
 30
0.0
 10
132.3641450072
 20
177.8588875431
 30
0.0
 10
132.3625763878
 20
177.8956930598
 30
0.0
  0
SPLINE
  5
58F
100
AcDbEntity
  8
0
100
AcDbSpline
 62
7
  6
BYLAYER
 70
0
 71
3
 72
13
 73
9
 74
0
 42
0.0000001
 43
0.0000001
 44
0.0000000001
 40
0.0
 40
0.0
 40
0.0
 40
0.0
 40
0.1541483072
 40
0.3222148709
 40
0.4980899504
 40
0.674438498
 40
0.8438531338
 40
1.0
 40
1.0
 40
1.0
 40
1.0
 10
131.6471622191
 20
173.974700799
 30
0.0
 10
131.6801259718
 20
173.9933594197
 30
0.0
 10
131.7442973561
 20
174.0409378905
 30
0.0
 10
131.8276745471
 20
174.1312940773
 30
0.0
 10
131.8981214553
 20
174.2386495935
 30
0.0
 10
131.9510108748
 20
174.3560126906
 30
0.0
 10
131.9829353219
 20
174.4757059993
 30
0.0
 10
131.9891199648
 20
174.5561441662
 30
0.0
 10
131.9875180328
 20
174.5944799425
 30
0.0
  0
SPLINE
  5
590
100
AcDbEntity
  8
0
100
AcDbSpline
 62
7
  6
BYLAYER
 70
0
 71
3
 72
18
 73
14
 74
0
 42
0.0000001
 43
0.0000001
 44
0.0000000001
 40
0.0
 40
0.0
 40
0.0
 40
0.0
 40
0.0879208031
 40
0.1627062136
 40
0.2289892041
 40
0.2961651483
 40
0.3730581852
 40
0.4633286749
 40
0.5658532541
 40
0.6765331405
 40
0.789727508
 40
0.8993694096
 40
1.0
 40
1.0
 40
1.0
 40
1.0
 10
132.0084652305
 20
175.3527122329
 30
0.0
 10
132.0100338499
 20
175.3159067162
 30
0.0
 10
132.0056804397
 20
175.2469922312
 30
0.0
 10
131.9697419215
 20
175.1555971157
 30
0.0
 10
131.9029510662
 20
175.0938419712
 30
0.0
 10
131.8134648298
 20
175.0738997554
 30
0.0
 10
131.7153512628
 20
175.0943307251
 30
0.0
 10
131.6150742217
 20
175.1488291803
 30
0.0
 10
131.5185574757
 20
175.232861562
 30
0.0
 10
131.4326291018
 20
175.3400795305
 30
0.0
 10
131.3637534615
 20
175.4623952626
 30
0.0
 10
131.3172208272
 20
175.5903211997
 30
0.0
 10
131.302636528
 20
175.6779905759
 30
0.0
 10
131.3008411498
 20
175.7201166796
 30
0.0
  0
SPLINE
  5
591
100
AcDbEntity
  8
0
100
AcDbSpline
 62
7
  6
BYLAYER
 70
0
 71
3
 72
10
 73
6
 74
0
 42
0.0000001
 43
0.0000001
 44
0.0000000001
 40
0.0
 40
0.0
 40
0.0
 40
0.0
 40
0.3467673968
 40
0.6801374348
 40
1.0
 40
1.0
 40
1.0
 40
1.0
 10
131.2717536148
 20
174.1892338976
 30
0.0
 10
131.2722529082
 20
174.1778152472
 30
0.0
 10
131.2740462172
 20
174.1554430387
 30
0.0
 10
131.2792976801
 20
174.1228693921
 30
0.0
 10
131.2845585218
 20
174.1019547942
 30
0.0
 10
131.2876182637
 20
174.0918657917
 30
0.0
  0
SPLINE
  5
592
100
AcDbEntity
  8
0
100
AcDbSpline
 62
7
  6
BYLAYER
 70
0
 71
3
 72
12
 73
8
 74
0
 42
0.0000001
 43
0.0000001
 44
0.0000000001
 40
0.0
 40
0.0
 40
0.0
 40
0.0
 40
0.2049464857
 40
0.3891065783
 40
0.5716033577
 40
0.7717742157
 40
1.0
 40
1.0
 40
1.0
 40
1.0
 10
131.2876182637
 20
174.0918657917
 30
0.0
 10
131.2963648635
 20
174.0627910012
 30
0.0
 10
131.3206920433
 20
174.009137874
 30
0.0
 10
131.3840669958
 20
173.9491898381
 30
0.0
 10
131.4667974386
 20
173.9232014682
 30
0.0
 10
131.5587050694
 20
173.9325351397
 30
0.0
 10
131.617748014
 20
173.9580285279
 30
0.0
 10
131.6471622191
 20
173.974700799
 30
0.0
  0
SPLINE
  5
593
100
AcDbEntity
  8
0
100
AcDbSpline
 62
7
  6
BYLAYER
 70
0
 71
3
 72
13
 73
9
 74
0
 42
0.0000001
 43
0.0000001
 44
0.0000000001
 40
0.0
 40
0.0
 40
0.0
 40
0.0
 40
0.1506197765
 40
0.3175780682
 40
0.4942309475
 40
0.6715560377
 40
0.8424594723
 40
1.0
 40
1.0
 40
1.0
 40
1.0
 10
132.6526970465
 20
173.4526185871
 30
0.0
 10
132.6835583832
 20
173.4726940895
 30
0.0
 10
132.7434892815
 20
173.5230675238
 30
0.0
 10
132.8208637968
 20
173.616475587
 30
0.0
 10
132.886213768
 20
173.7263324979
 30
0.0
 10
132.9351677451
 20
173.8454363323
 30
0.0
 10
132.9645672604
 20
173.965995567
 30
0.0
 10
132.9701272412
 20
174.0466790776
 30
0.0
 10
132.9684875491
 20
174.0851522186
 30
0.0
  0
SPLINE
  5
594
100
AcDbEntity
  8
0
100
AcDbSpline
 62
7
  6
BYLAYER
 70
0
 71
3
 72
13
 73
9
 74
0
 42
0.0000001
 43
0.0000001
 44
0.0000000001
 40
0.0
 40
0.0
 40
0.0
 40
0.0
 40
0.1967506735
 40
0.3650248549
 40
0.5118280796
 40
0.6555177706
 40
0.8144877996
 40
1.0
 40
1.0
 40
1.0
 40
1.0
 10
132.3049396619
 20
173.6527949064
 30
0.0
 10
132.30638492
 20
173.6188838955
 30
0.0
 10
132.3151252069
 20
173.5558612308
 30
0.0
 10
132.3510521461
 20
173.4735435524
 30
0.0
 10
132.4097740589
 20
173.4165593848
 30
0.0
 10
132.4871353856
 20
173.3942280537
 30
0.0
 10
132.572241397
 20
173.407813796
 30
0.0
 10
132.6258705245
 20
173.4351677582
 30
0.0
 10
132.6526970465
 20
173.4526185871
 30
0.0
  0
SPLINE
  5
595
100
AcDbEntity
  8
0
100
AcDbSpline
 62
7
  6
BYLAYER
 70
0
 71
3
 72
13
 73
9
 74
0
 42
0.0000001
 43
0.0000001
 44
0.0000000001
 40
0.0
 40
0.0
 40
0.0
 40
0.0
 40
0.1876175856
 40
0.353451487
 40
0.5059533578
 40
0.6555509873
 40
0.8179736934
 40
1.0
 40
1.0
 40
1.0
 40
1.0
 10
133.0160623425
 20
172.3951482524
 30
0.0
 10
133.0488420677
 20
172.3821498074
 30
0.0
 10
133.1136170616
 20
172.3640910991
 30
0.0
 10
133.2103532253
 20
172.3655068759
 30
0.0
 10
133.294112952
 20
172.3995723639
 30
0.0
 10
133.3558643488
 20
172.4647956348
 30
0.0
 10
133.3902198981
 20
172.5530217555
 30
0.0
 10
133.394686589
 20
172.6184847725
 30
0.0
 10
133.3932298261
 20
172.6526657278
 30
0.0
  0
SPLINE
  5
596
100
AcDbEntity
  8
0
100
AcDbSpline
 62
7
  6
BYLAYER
 70
0
 71
3
 72
13
 73
9
 74
0
 42
0.0000001
 43
0.0000001
 44
0.0000000001
 40
0.0
 40
0.0
 40
0.0
 40
0.0
 40
0.1536124031
 40
0.3213977211
 40
0.4948404743
 40
0.6715044679
 40
0.8412581552
 40
1.0
 40
1.0
 40
1.0
 40
1.0
 10
132.5955273626
 20
172.9676749888
 30
0.0
 10
132.5971497409
 20
172.929608095
 30
0.0
 10
132.6109635646
 20
172.8502647452
 30
0.0
 10
132.656364384
 20
172.7355104178
 30
0.0
 10
132.7241934298
 20
172.6256927042
 30
0.0
 10
132.8095424673
 20
172.5282228082
 30
0.0
 10
132.9071839522
 20
172.4487774029
 30
0.0
 10
132.9794612283
 20
172.4096620278
 30
0.0
 10
133.0160623425
 20
172.3951482524
 30
0.0
  0
SPLINE
  5
597
100
AcDbEntity
  8
0
100
AcDbSpline
 62
7
  6
BYLAYER
 70
0
 71
3
 72
18
 73
14
 74
0
 42
0.0000001
 43
0.0000001
 44
0.0000000001
 40
0.0
 40
0.0
 40
0.0
 40
0.0
 40
0.1006305904
 40
0.210272492
 40
0.3234668595
 40
0.4341467459
 40
0.5366713251
 40
0.6269418148
 40
0.7038348517
 40
0.7710107959
 40
0.8372937864
 40
0.9120791969
 40
1.0
 40
1.0
 40
1.0
 40
1.0
 10
128.7631527372
 20
170.7385277292
 30
0.0
 10
128.7649481155
 20
170.6964016255
 30
0.0
 10
128.7795324146
 20
170.6087322493
 30
0.0
 10
128.826065049
 20
170.4808063122
 30
0.0
 10
128.8949406893
 20
170.3584905801
 30
0.0
 10
128.9808690632
 20
170.2512726116
 30
0.0
 10
129.0773858092
 20
170.1672402299
 30
0.0
 10
129.1776628503
 20
170.1127417747
 30
0.0
 10
129.2757764173
 20
170.092310805
 30
0.0
 10
129.3652626536
 20
170.1122530209
 30
0.0
 10
129.432053509
 20
170.1740081653
 30
0.0
 10
129.4679920272
 20
170.2654032808
 30
0.0
 10
129.4723454374
 20
170.3343177658
 30
0.0
 10
129.470776818
 20
170.3711232825
 30
0.0
  0
SPLINE
  5
598
100
AcDbEntity
  8
0
100
AcDbSpline
 62
7
  6
BYLAYER
 70
0
 71
3
 72
18
 73
14
 74
0
 42
0.0000001
 43
0.0000001
 44
0.0000000001
 40
0.0
 40
0.0
 40
0.0
 40
0.0
 40
0.1006305904
 40
0.210272492
 40
0.3234668595
 40
0.4341467459
 40
0.5366713251
 40
0.6269418148
 40
0.7038348517
 40
0.7710107959
 40
0.8372937864
 40
0.9120791969
 40
1.0
 40
1.0
 40
1.0
 40
1.0
 10
129.470776818
 20
170.3711232825
 30
0.0
 10
129.4689814397
 20
170.4132493862
 30
0.0
 10
129.4543971406
 20
170.5009187625
 30
0.0
 10
129.4078645062
 20
170.6288446995
 30
0.0
 10
129.3389888659
 20
170.7511604316
 30
0.0
 10
129.253060492
 20
170.8583784001
 30
0.0
 10
129.156543746
 20
170.9424107818
 30
0.0
 10
129.0562667049
 20
170.996909237
 30
0.0
 10
128.9581531379
 20
171.0173402067
 30
0.0
 10
128.8686669016
 20
170.9973979909
 30
0.0
 10
128.8018760462
 20
170.9356428464
 30
0.0
 10
128.7659375281
 20
170.8442477309
 30
0.0
 10
128.7615841178
 20
170.7753332459
 30
0.0
 10
128.7631527372
 20
170.7385277292
 30
0.0
  0
SPLINE
  5
599
100
AcDbEntity
  8
0
100
AcDbSpline
 62
7
  6
BYLAYER
 70
0
 71
3
 72
13
 73
9
 74
0
 42
0.0000001
 43
0.0000001
 44
0.0000000001
 40
0.0
 40
0.0
 40
0.0
 40
0.0
 40
0.1859554035
 40
0.3520136475
 40
0.5063839515
 40
0.6575120411
 40
0.8204476694
 40
1.0
 40
1.0
 40
1.0
 40
1.0
 10
132.980493251
 20
173.2297285011
 30
0.0
 10
132.9475456463
 20
173.2427935169
 30
0.0
 10
132.881977102
 20
173.2607298004
 30
0.0
 10
132.7838026707
 20
173.2582162171
 30
0.0
 10
132.6985315219
 20
173.222947298
 30
0.0
 10
132.6349214122
 20
173.1568801186
 30
0.0
 10
132.5989348567
 20
173.0679183059
 30
0.0
 10
132.5940701295
 20
173.0018669778
 30
0.0
 10
132.5955273626
 20
172.9676749888
 30
0.0
  0
SPLINE
  5
59A
100
AcDbEntity
  8
0
100
AcDbSpline
 62
7
  6
BYLAYER
 70
0
 71
3
 72
13
 73
9
 74
0
 42
0.0000001
 43
0.0000001
 44
0.0000000001
 40
0.0
 40
0.0
 40
0.0
 40
0.0
 40
0.1545337042
 40
0.3224556211
 40
0.496436351
 40
0.6727153387
 40
0.8418145566
 40
1.0
 40
1.0
 40
1.0
 40
1.0
 10
133.3932298261
 20
172.6526657278
 30
0.0
 10
133.3915995215
 20
172.6909186038
 30
0.0
 10
133.3781774428
 20
172.7704397817
 30
0.0
 10
133.3343279579
 20
172.8860197502
 30
0.0
 10
133.2685418147
 20
172.9969825628
 30
0.0
 10
133.1850377823
 20
173.0957155856
 30
0.0
 10
133.0887458963
 20
173.1760309345
 30
0.0
 10
133.0169257633
 20
173.2152815829
 30
0.0
 10
132.980493251
 20
173.2297285011
 30
0.0
  0
SPLINE
  5
59B
100
AcDbEntity
  8
0
100
AcDbSpline
 62
7
  6
BYLAYER
 70
0
 71
3
 72
13
 73
9
 74
0
 42
0.0000001
 43
0.0000001
 44
0.0000000001
 40
0.0
 40
0.0
 40
0.0
 40
0.0
 40
0.1505068444
 40
0.3172566273
 40
0.493841667
 40
0.6712183486
 40
0.8424347911
 40
1.0
 40
1.0
 40
1.0
 40
1.0
 10
132.6171279549
 20
174.2871988358
 30
0.0
 10
132.5862863204
 20
174.2671361499
 30
0.0
 10
132.5265096088
 20
174.2166456458
 30
0.0
 10
132.4497571077
 20
174.122809134
 30
0.0
 10
132.3853260295
 20
174.0124497014
 30
0.0
 10
132.3373244361
 20
173.8928724755
 30
0.0
 10
132.3086627532
 20
173.772040008
 30
0.0
 10
132.3032995301
 20
173.6912783636
 30
0.0
 10
132.3049396619
 20
173.6527949064
 30
0.0
  0
SPLINE
  5
59C
100
AcDbEntity
  8
0
100
AcDbSpline
 62
7
  6
BYLAYER
 70
0
 71
3
 72
13
 73
9
 74
0
 42
0.0000001
 43
0.0000001
 44
0.0000000001
 40
0.0
 40
0.0
 40
0.0
 40
0.0
 40
0.1958564447
 40
0.3640627771
 40
0.5118391344
 40
0.6564625511
 40
0.8155056354
 40
1.0
 40
1.0
 40
1.0
 40
1.0
 10
132.9684875491
 20
174.0851522186
 30
0.0
 10
132.9670391277
 20
174.1191374522
 30
0.0
 10
132.9581029875
 20
174.1824289016
 30
0.0
 10
132.9213700173
 20
174.2650783522
 30
0.0
 10
132.8617757214
 20
174.3223334441
 30
0.0
 10
132.7837014485
 20
174.3451527399
 30
0.0
 10
132.6979267976
 20
174.3320232887
 30
0.0
 10
132.6439877616
 20
174.3046713166
 30
0.0
 10
132.6171279549
 20
174.2871988358
 30
0.0
  0
SPLINE
  5
59D
100
AcDbEntity
  8
0
100
AcDbSpline
 62
7
  6
BYLAYER
 70
0
 71
3
 72
12
 73
8
 74
0
 42
0.0000001
 43
0.0000001
 44
0.0000000001
 40
0.0
 40
0.0
 40
0.0
 40
0.0
 40
0.182675639
 40
0.3823312704
 40
0.5908293947
 40
0.7995103511
 40
1.0
 40
1.0
 40
1.0
 40
1.0
 10
131.611601374
 20
174.8092752428
 30
0.0
 10
131.5783847608
 20
174.7904530482
 30
0.0
 10
131.5136910233
 20
174.7423158164
 30
0.0
 10
131.4299162636
 20
174.650832615
 30
0.0
 10
131.3593756983
 20
174.5422233335
 30
0.0
 10
131.3069624133
 20
174.42369998
 30
0.0
 10
131.2853586737
 20
174.3404217691
 30
0.0
 10
131.2787890205
 20
174.2990381365
 30
0.0
  0
SPLINE
  5
59E
100
AcDbEntity
  8
0
100
AcDbSpline
 62
7
  6
BYLAYER
 70
0
 71
3
 72
10
 73
6
 74
0
 42
0.0000001
 43
0.0000001
 44
0.0000000001
 40
0.0
 40
0.0
 40
0.0
 40
0.0
 40
0.3438895097
 40
0.6775017971
 40
1.0
 40
1.0
 40
1.0
 40
1.0
 10
131.2787890205
 20
174.2990381365
 30
0.0
 10
131.2767775884
 20
174.2865677794
 30
0.0
 10
131.2735552516
 20
174.2618718879
 30
0.0
 10
131.2711653334
 20
174.225193897
 30
0.0
 10
131.2712603695
 20
174.2010694371
 30
0.0
 10
131.271753596
 20
174.1892339074
 30
0.0
  0
SPLINE
  5
59F
100
AcDbEntity
  8
0
100
AcDbSpline
 62
7
  6
BYLAYER
 70
0
 71
3
 72
18
 73
14
 74
0
 42
0.0000001
 43
0.0000001
 44
0.0000000001
 40
0.0
 40
0.0
 40
0.0
 40
0.0
 40
0.0879208031
 40
0.1627062136
 40
0.2289892041
 40
0.2961651483
 40
0.3730581852
 40
0.4633286749
 40
0.5658532541
 40
0.6765331405
 40
0.789727508
 40
0.8993694096
 40
1.0
 40
1.0
 40
1.0
 40
1.0
 10
131.3008411498
 20
175.7201166796
 30
0.0
 10
131.2992725303
 20
175.7569221963
 30
0.0
 10
131.3036259406
 20
175.8258366813
 30
0.0
 10
131.3395644587
 20
175.9172317968
 30
0.0
 10
131.4063553141
 20
175.9789869413
 30
0.0
 10
131.4958415505
 20
175.9989291571
 30
0.0
 10
131.5939551174
 20
175.9784981874
 30
0.0
 10
131.6942321586
 20
175.9239997322
 30
0.0
 10
131.7907489046
 20
175.8399673505
 30
0.0
 10
131.8766772784
 20
175.732749382
 30
0.0
 10
131.9455529187
 20
175.6104336499
 30
0.0
 10
131.9920855531
 20
175.4825077128
 30
0.0
 10
132.0066698522
 20
175.3948383366
 30
0.0
 10
132.0084652305
 20
175.3527122329
 30
0.0
  0
SPLINE
  5
5A0
100
AcDbEntity
  8
0
100
AcDbSpline
 62
7
  6
BYLAYER
 70
0
 71
3
 72
13
 73
9
 74
0
 42
0.0000001
 43
0.0000001
 44
0.0000000001
 40
0.0
 40
0.0
 40
0.0
 40
0.0
 40
0.1885683407
 40
0.353876683
 40
0.5034944674
 40
0.6520249422
 40
0.8146383276
 40
1.0
 40
1.0
 40
1.0
 40
1.0
 10
131.9875183553
 20
174.594479775
 30
0.0
 10
131.986040364
 20
174.6286210171
 30
0.0
 10
131.976464321
 20
174.6928314844
 30
0.0
 10
131.9368949314
 20
174.7769311479
 30
0.0
 10
131.8732117844
 20
174.8355621982
 30
0.0
 10
131.7908037833
 20
174.8606518846
 30
0.0
 10
131.6995017712
 20
174.8511333262
 30
0.0
 10
131.6408373361
 20
174.8258187348
 30
0.0
 10
131.611601374
 20
174.8092752428
 30
0.0
  0
SPLINE
  5
5A1
100
AcDbEntity
  8
0
100
AcDbSpline
 62
7
  6
BYLAYER
 70
0
 71
3
 72
18
 73
14
 74
0
 42
0.0000001
 43
0.0000001
 44
0.0000000001
 40
0.0
 40
0.0
 40
0.0
 40
0.0
 40
0.1006305904
 40
0.210272492
 40
0.3234668595
 40
0.4341467459
 40
0.5366713251
 40
0.6269418148
 40
0.7038348517
 40
0.7710107959
 40
0.8372937864
 40
0.9120791969
 40
1.0
 40
1.0
 40
1.0
 40
1.0
 10
134.48544863
 20
176.7934797196
 30
0.0
 10
134.4836532517
 20
176.8356058233
 30
0.0
 10
134.4690689526
 20
176.9232751995
 30
0.0
 10
134.4225363182
 20
177.0512011366
 30
0.0
 10
134.3536606779
 20
177.1735168687
 30
0.0
 10
134.2677323041
 20
177.2807348372
 30
0.0
 10
134.171215558
 20
177.3647672189
 30
0.0
 10
134.0709385169
 20
177.4192656741
 30
0.0
 10
133.97282495
 20
177.4396966438
 30
0.0
 10
133.8833387136
 20
177.4197544279
 30
0.0
 10
133.8165478582
 20
177.3579992835
 30
0.0
 10
133.7806093401
 20
177.266604168
 30
0.0
 10
133.7762559298
 20
177.197689683
 30
0.0
 10
133.7778245493
 20
177.1608841663
 30
0.0
  0
SPLINE
  5
5A2
100
AcDbEntity
  8
0
100
AcDbSpline
 62
7
  6
BYLAYER
 70
0
 71
3
 72
18
 73
14
 74
0
 42
0.0000001
 43
0.0000001
 44
0.0000000001
 40
0.0
 40
0.0
 40
0.0
 40
0.0
 40
0.1006305904
 40
0.210272492
 40
0.3234668595
 40
0.4341467459
 40
0.5366713251
 40
0.6269418148
 40
0.7038348517
 40
0.7710107959
 40
0.8372937864
 40
0.9120791969
 40
1.0
 40
1.0
 40
1.0
 40
1.0
 10
132.3625763878
 20
177.8956930598
 30
0.0
 10
132.3607810095
 20
177.9378191635
 30
0.0
 10
132.3461967104
 20
178.0254885397
 30
0.0
 10
132.299664076
 20
178.1534144768
 30
0.0
 10
132.2307884357
 20
178.2757302089
 30
0.0
 10
132.1448600618
 20
178.3829481774
 30
0.0
 10
132.0483433158
 20
178.4669805591
 30
0.0
 10
131.9480662747
 20
178.5214790143
 30
0.0
 10
131.8499527077
 20
178.541909984
 30
0.0
 10
131.7604664714
 20
178.5219677682
 30
0.0
 10
131.693675616
 20
178.4602126237
 30
0.0
 10
131.6577370978
 20
178.3688175082
 30
0.0
 10
131.6533836876
 20
178.2999030232
 30
0.0
 10
131.654952307
 20
178.2630975065
 30
0.0
  0
SPLINE
  5
5A3
100
AcDbEntity
  8
0
100
AcDbSpline
 62
7
  6
BYLAYER
 70
0
 71
3
 72
18
 73
14
 74
0
 42
0.0000001
 43
0.0000001
 44
0.0000000001
 40
0.0
 40
0.0
 40
0.0
 40
0.0
 40
0.0879208031
 40
0.1627062136
 40
0.2289892041
 40
0.2961651483
 40
0.3730581852
 40
0.4633286749
 40
0.5658532541
 40
0.6765331405
 40
0.789727508
 40
0.8993694096
 40
1.0
 40
1.0
 40
1.0
 40
1.0
 10
114.3654670399
 20
168.2064583544
 30
0.0
 10
114.3638984205
 20
168.2432638711
 30
0.0
 10
114.3682518308
 20
168.3121783561
 30
0.0
 10
114.4041903489
 20
168.4035734716
 30
0.0
 10
114.4709812043
 20
168.4653286161
 30
0.0
 10
114.5604674407
 20
168.4852708319
 30
0.0
 10
114.6585810076
 20
168.4648398622
 30
0.0
 10
114.7588580487
 20
168.410341407
 30
0.0
 10
114.8553747947
 20
168.3263090253
 30
0.0
 10
114.9413031686
 20
168.2190910568
 30
0.0
 10
115.0101788089
 20
168.0967753247
 30
0.0
 10
115.0567114433
 20
167.9688493876
 30
0.0
 10
115.0712957424
 20
167.8811800114
 30
0.0
 10
115.0730911207
 20
167.8390539077
 30
0.0
  0
SPLINE
  5
5A4
100
AcDbEntity
  8
0
100
AcDbSpline
 62
7
  6
BYLAYER
 70
0
 71
3
 72
18
 73
14
 74
0
 42
0.0000001
 43
0.0000001
 44
0.0000000001
 40
0.0
 40
0.0
 40
0.0
 40
0.0
 40
0.0879208031
 40
0.1627062136
 40
0.2289892041
 40
0.2961651483
 40
0.3730581852
 40
0.4633286749
 40
0.5658532541
 40
0.6765331405
 40
0.789727508
 40
0.8993694096
 40
1.0
 40
1.0
 40
1.0
 40
1.0
 10
116.4883392822
 20
167.1042450142
 30
0.0
 10
116.4867706627
 20
167.1410505309
 30
0.0
 10
116.491124073
 20
167.2099650159
 30
0.0
 10
116.5270625911
 20
167.3013601314
 30
0.0
 10
116.5938534465
 20
167.3631152758
 30
0.0
 10
116.6833396829
 20
167.3830574917
 30
0.0
 10
116.7814532498
 20
167.362626522
 30
0.0
 10
116.881730291
 20
167.3081280668
 30
0.0
 10
116.978247037
 20
167.2240956851
 30
0.0
 10
117.0641754108
 20
167.1168777166
 30
0.0
 10
117.1330510511
 20
166.9945619844
 30
0.0
 10
117.1795836855
 20
166.8666360474
 30
0.0
 10
117.1941679846
 20
166.7789666712
 30
0.0
 10
117.1959633629
 20
166.7368405675
 30
0.0
  0
SPLINE
  5
5A5
100
AcDbEntity
  8
0
100
AcDbSpline
 62
7
  6
BYLAYER
 70
0
 71
3
 72
13
 73
9
 74
0
 42
0.0000001
 43
0.0000001
 44
0.0000000001
 40
0.0
 40
0.0
 40
0.0
 40
0.0
 40
0.1857024179
 40
0.3482918768
 40
0.4964418605
 40
0.6452452398
 40
0.8104517936
 40
1.0
 40
1.0
 40
1.0
 40
1.0
 10
119.2180301731
 20
168.7301363098
 30
0.0
 10
119.1877134261
 20
168.7442433402
 30
0.0
 10
119.1275931498
 20
168.7647641742
 30
0.0
 10
119.0364050918
 20
168.767162127
 30
0.0
 10
118.9569957794
 20
168.7356067849
 30
0.0
 10
118.8992859103
 20
168.6721067945
 30
0.0
 10
118.8676112966
 20
168.5853653777
 30
0.0
 10
118.8636820813
 20
168.5208370753
 30
0.0
 10
118.8651353826
 20
168.4867373413
 30
0.0
  0
SPLINE
  5
5A6
100
AcDbEntity
  8
0
100
AcDbSpline
 62
7
  6
BYLAYER
 70
0
 71
3
 72
18
 73
14
 74
0
 42
0.0000001
 43
0.0000001
 44
0.0000000001
 40
0.0
 40
0.0
 40
0.0
 40
0.0
 40
0.0870543716
 40
0.1621700383
 40
0.2301085679
 40
0.2995656127
 40
0.3783186086
 40
0.4694859092
 40
0.5718718218
 40
0.6815387076
 40
0.7931323254
 40
0.9009583605
 40
1.0
 40
1.0
 40
1.0
 40
1.0
 10
121.7496821727
 20
168.6453346276
 30
0.0
 10
121.7481075056
 20
168.6822820441
 30
0.0
 10
121.7374081396
 20
168.7513291873
 30
0.0
 10
121.6914927576
 20
168.8403060346
 30
0.0
 10
121.6167251605
 20
168.897029824
 30
0.0
 10
121.5226677042
 20
168.9112386758
 30
0.0
 10
121.422348965
 20
168.8851202775
 30
0.0
 10
121.3223735593
 20
168.8246221262
 30
0.0
 10
121.2288729804
 20
168.7347792559
 30
0.0
 10
121.1484670645
 20
168.62240049
 30
0.0
 10
121.0871956676
 20
168.4959783168
 30
0.0
 10
121.0497457494
 20
168.3652964298
 30
0.0
 10
121.0421973999
 20
168.2768945854
 30
0.0
 10
121.0439888965
 20
168.2348595602
 30
0.0
  0
SPLINE
  5
5A7
100
AcDbEntity
  8
0
100
AcDbSpline
 62
7
  6
BYLAYER
 70
0
 71
3
 72
13
 73
9
 74
0
 42
0.0000001
 43
0.0000001
 44
0.0000000001
 40
0.0
 40
0.0
 40
0.0
 40
0.0
 40
0.1562512981
 40
0.3255799823
 40
0.5014339622
 40
0.6777739205
 40
0.846063715
 40
1.0
 40
1.0
 40
1.0
 40
1.0
 10
119.6097483613
 20
168.1408479364
 30
0.0
 10
119.6081130446
 20
168.1792184115
 30
0.0
 10
119.5950816368
 20
168.2588727193
 30
0.0
 10
119.5529674233
 20
168.375284726
 30
0.0
 10
119.490178784
 20
168.4876617303
 30
0.0
 10
119.4108373249
 20
168.5887148193
 30
0.0
 10
119.3201487707
 20
168.6719349408
 30
0.0
 10
119.2523344503
 20
168.7141737963
 30
0.0
 10
119.2180301731
 20
168.7301363098
 30
0.0
  0
SPLINE
  5
5A8
100
AcDbEntity
  8
0
100
AcDbSpline
 62
7
  6
BYLAYER
 70
0
 71
3
 72
13
 73
9
 74
0
 42
0.0000001
 43
0.0000001
 44
0.0000000001
 40
0.0
 40
0.0
 40
0.0
 40
0.0
 40
0.1853384479
 40
0.3505030119
 40
0.5025440125
 40
0.653248351
 40
0.8165909904
 40
1.0
 40
1.0
 40
1.0
 40
1.0
 10
122.3845754499
 20
168.335310358
 30
0.0
 10
122.4153438473
 20
168.351272881
 30
0.0
 10
122.4772826097
 20
168.3752332791
 30
0.0
 10
122.5727596552
 20
168.3821838112
 30
0.0
 10
122.6585723321
 20
168.3551020488
 30
0.0
 10
122.7253534598
 20
168.2952994896
 30
0.0
 10
122.7672487877
 20
168.2102272638
 30
0.0
 10
122.7773615912
 20
168.1452670246
 30
0.0
 10
122.7788221767
 20
168.1109963765
 30
0.0
  0
SPLINE
  5
5A9
100
AcDbEntity
  8
0
100
AcDbSpline
 62
7
  6
BYLAYER
 70
0
 71
3
 72
13
 73
9
 74
0
 42
0.0000001
 43
0.0000001
 44
0.0000000001
 40
0.0
 40
0.0
 40
0.0
 40
0.0
 40
0.1554385292
 40
0.3235968015
 40
0.4985201157
 40
0.6745581007
 40
0.8436237162
 40
1.0
 40
1.0
 40
1.0
 40
1.0
 10
122.0297208171
 20
167.7230591555
 30
0.0
 10
122.0280876108
 20
167.7613801154
 30
0.0
 10
122.034556858
 20
167.8417027514
 30
0.0
 10
122.0678058278
 20
167.9607551758
 30
0.0
 10
122.1228579599
 20
168.0770782855
 30
0.0
 10
122.1963013652
 20
168.1830418188
 30
0.0
 10
122.2834837049
 20
168.2717119216
 30
0.0
 10
122.3503234218
 20
168.3175405412
 30
0.0
 10
122.3845754499
 20
168.335310358
 30
0.0
  0
SPLINE
  5
5AA
100
AcDbEntity
  8
0
100
AcDbSpline
 62
7
  6
BYLAYER
 70
0
 71
3
 72
13
 73
9
 74
0
 42
0.0000001
 43
0.0000001
 44
0.0000000001
 40
0.0
 40
0.0
 40
0.0
 40
0.0
 40
0.1848283675
 40
0.3423117284
 40
0.4843015965
 40
0.6309146248
 40
0.8003917817
 40
1.0
 40
1.0
 40
1.0
 40
1.0
 10
124.4762243761
 20
168.2831171933
 30
0.0
 10
124.4489105326
 20
168.2985503519
 30
0.0
 10
124.3949185566
 20
168.3219984387
 30
0.0
 10
124.3110090147
 20
168.3296326672
 30
0.0
 10
124.2373756778
 20
168.3015217058
 30
0.0
 10
124.1852971567
 20
168.2401849065
 30
0.0
 10
124.1575352237
 20
168.1556551386
 30
0.0
 10
124.1543745933
 20
168.0924654698
 30
0.0
 10
124.1558172677
 20
168.0586150798
 30
0.0
  0
SPLINE
  5
5AB
100
AcDbEntity
  8
0
100
AcDbSpline
 62
7
  6
BYLAYER
 70
0
 71
3
 72
18
 73
14
 74
0
 42
0.0000001
 43
0.0000001
 44
0.0000000001
 40
0.0
 40
0.0
 40
0.0
 40
0.0
 40
0.0879208031
 40
0.1627062136
 40
0.2289892041
 40
0.2961651483
 40
0.3730581852
 40
0.4633286749
 40
0.5658532541
 40
0.6765331405
 40
0.789727508
 40
0.8993694096
 40
1.0
 40
1.0
 40
1.0
 40
1.0
 10
128.0215099006
 20
170.3071421632
 30
0.0
 10
128.0199412812
 20
170.3439476799
 30
0.0
 10
128.0242946914
 20
170.4128621649
 30
0.0
 10
128.0602332096
 20
170.5042572804
 30
0.0
 10
128.1270240649
 20
170.5660124249
 30
0.0
 10
128.2165103013
 20
170.5859546407
 30
0.0
 10
128.3146238683
 20
170.565523671
 30
0.0
 10
128.4149009094
 20
170.5110252158
 30
0.0
 10
128.5114176554
 20
170.4269928341
 30
0.0
 10
128.5973460293
 20
170.3197748656
 30
0.0
 10
128.6662216696
 20
170.1974591335
 30
0.0
 10
128.7127543039
 20
170.0695331965
 30
0.0
 10
128.7273386031
 20
169.9818638202
 30
0.0
 10
128.7291339813
 20
169.9397377165
 30
0.0
  0
SPLINE
  5
5AC
100
AcDbEntity
  8
0
100
AcDbSpline
 62
7
  6
BYLAYER
 70
0
 71
3
 72
13
 73
9
 74
0
 42
0.0000001
 43
0.0000001
 44
0.0000000001
 40
0.0
 40
0.0
 40
0.0
 40
0.0
 40
0.1583427673
 40
0.3300476153
 40
0.5078408979
 40
0.6844162991
 40
0.8507685996
 40
1.0
 40
1.0
 40
1.0
 40
1.0
 10
124.8347243224
 20
167.674507026
 30
0.0
 10
124.8330807843
 20
167.713070408
 30
0.0
 10
124.8209188347
 20
167.7931628091
 30
0.0
 10
124.7824033065
 20
167.9112692794
 30
0.0
 10
124.7251471825
 20
168.0265125818
 30
0.0
 10
124.6528315614
 20
168.1313986703
 30
0.0
 10
124.5702523293
 20
168.2190638337
 30
0.0
 10
124.5078956862
 20
168.2652219326
 30
0.0
 10
124.4762243761
 20
168.2831171933
 30
0.0
  0
SPLINE
  5
5AD
100
AcDbEntity
  8
0
100
AcDbSpline
 62
7
  6
BYLAYER
 70
0
 71
3
 72
14
 73
10
 74
0
 42
0.0000001
 43
0.0000001
 44
0.0000000001
 40
0.0
 40
0.0
 40
0.0
 40
0.0
 40
0.1130714209
 40
0.2585278345
 40
0.407644555
 40
0.5585296209
 40
0.7091721326
 40
0.8576376604
 40
1.0
 40
1.0
 40
1.0
 40
1.0
 10
122.1405926471
 20
167.4916936567
 30
0.0
 10
122.2255717167
 20
167.4362331289
 30
0.0
 10
122.4321952271
 20
167.3275063799
 30
0.0
 10
122.7813141007
 20
167.2139665616
 30
0.0
 10
123.176914971
 20
167.1492348475
 30
0.0
 10
123.5820068824
 20
167.1378391206
 30
0.0
 10
123.9847021674
 20
167.1780944868
 30
0.0
 10
124.3711498824
 20
167.2693043939
 30
0.0
 10
124.6147130551
 20
167.3663986998
 30
0.0
 10
124.7285886678
 20
167.4241367744
 30
0.0
  0
SPLINE
  5
5AE
100
AcDbEntity
  8
0
100
AcDbSpline
 62
7
  6
BYLAYER
 70
0
 71
3
 72
16
 73
12
 74
0
 42
0.0000001
 43
0.0000001
 44
0.0000000001
 40
0.0
 40
0.0
 40
0.0
 40
0.0
 40
0.0730778192
 40
0.1707638444
 40
0.2865883383
 40
0.4148985237
 40
0.5489667836
 40
0.6813410817
 40
0.8048060116
 40
0.9126702976
 40
1.0
 40
1.0
 40
1.0
 40
1.0
 10
119.5167412666
 20
167.8990125866
 30
0.0
 10
119.5504807096
 20
167.9237013444
 30
0.0
 10
119.6344929865
 20
167.9743980116
 30
0.0
 10
119.7853009757
 20
168.039743617
 30
0.0
 10
119.9732883177
 20
168.0952585908
 30
0.0
 10
120.1867550032
 20
168.1330616627
 30
0.0
 10
120.4124815313
 20
168.1485788665
 30
0.0
 10
120.6358117469
 20
168.140286188
 30
0.0
 10
120.8421124354
 20
168.1098861807
 30
0.0
 10
121.0185274449
 20
168.0623123445
 30
0.0
 10
121.1220961216
 20
168.0193664918
 30
0.0
 10
121.1664356783
 20
167.9963450165
 30
0.0
  0
SPLINE
  5
5AF
100
AcDbEntity
  8
0
100
AcDbSpline
 62
7
  6
BYLAYER
 70
0
 71
3
 72
11
 73
7
 74
0
 42
0.0000001
 43
0.0000001
 44
0.0000000001
 40
0.0
 40
0.0
 40
0.0
 40
0.0
 40
0.5091025016
 40
0.8357064558
 40
0.9619797978
 40
1.0
 40
1.0
 40
1.0
 40
1.0
 10
114.9706754849
 20
167.5905526515
 30
0.0
 10
114.9313055718
 20
167.5676526632
 30
0.0
 10
114.8671543229
 20
167.5128884829
 30
0.0
 10
114.8101495416
 20
167.4855269658
 30
0.0
 10
114.7803319104
 20
167.4076043262
 30
0.0
 10
114.7805673525
 20
167.4258481808
 30
0.0
 10
114.7810438344
 20
167.4297385689
 30
0.0
  0
SPLINE
  5
5B0
100
AcDbEntity
  8
0
100
AcDbSpline
 62
7
  6
BYLAYER
 70
0
 71
3
 72
18
 73
14
 74
0
 42
0.0000001
 43
0.0000001
 44
0.0000000001
 40
0.0
 40
0.0
 40
0.0
 40
0.0
 40
0.0453934875
 40
0.1168857988
 40
0.1962997802
 40
0.2862267476
 40
0.3841965021
 40
0.4864992402
 40
0.5907764225
 40
0.695686122
 40
0.7998645202
 40
0.9018164705
 40
1.0
 40
1.0
 40
1.0
 40
1.0
 10
113.7825693914
 20
167.3862470889
 30
0.0
 10
113.7851616862
 20
167.3262200948
 30
0.0
 10
113.8063764342
 20
167.1722507598
 30
0.0
 10
113.9032541133
 20
166.9283373368
 30
0.0
 10
114.100285196
 20
166.6741140678
 30
0.0
 10
114.38299661
 20
166.4577113857
 30
0.0
 10
114.7319502174
 20
166.2945571227
 30
0.0
 10
115.1214132792
 20
166.1894493963
 30
0.0
 10
115.5306964693
 20
166.1407632281
 30
0.0
 10
115.9451542167
 20
166.1458193922
 30
0.0
 10
116.3526313987
 20
166.2031843736
 30
0.0
 10
116.740179523
 20
166.3125185723
 30
0.0
 10
116.9815909759
 20
166.4232183067
 30
0.0
 10
117.0935477272
 20
166.4883393113
 30
0.0
  0
SPLINE
  5
5B1
100
AcDbEntity
  8
0
100
AcDbSpline
 62
7
  6
BYLAYER
 70
0
 71
3
 72
19
 73
15
 74
0
 42
0.0000001
 43
0.0000001
 44
0.0000000001
 40
0.0
 40
0.0
 40
0.0
 40
0.0
 40
0.0011045253
 40
0.0024854754
 40
0.0285296686
 40
0.0819884663
 40
0.160453505
 40
0.2624533992
 40
0.3834396634
 40
0.516516755
 40
0.6535697852
 40
0.7853657109
 40
0.9032390142
 40
1.0
 40
1.0
 40
1.0
 40
1.0
 10
134.0698718355
 20
177.5701995051
 30
0.0
 10
134.0697729518
 20
177.5693921376
 30
0.0
 10
134.0695095394
 20
177.567607477
 30
0.0
 10
134.0654945241
 20
177.5493574447
 30
0.0
 10
134.0225823435
 20
177.6461581328
 30
0.0
 10
133.9469422591
 20
177.6641692344
 30
0.0
 10
133.8094686174
 20
177.7511083208
 30
0.0
 10
133.6265921981
 20
177.8021735877
 30
0.0
 10
133.4016903774
 20
177.8456346453
 30
0.0
 10
133.1517044723
 20
177.8594417434
 30
0.0
 10
132.8946513293
 20
177.8449048986
 30
0.0
 10
132.6506623122
 20
177.8017815783
 30
0.0
 10
132.4385287856
 20
177.7364589233
 30
0.0
 10
132.3136143102
 20
177.6782837151
 30
0.0
 10
132.260160752
 20
177.6471918036
 30
0.0
  0
SPLINE
  5
5B2
100
AcDbEntity
  8
0
100
AcDbSpline
 62
7
  6
BYLAYER
 70
0
 71
3
 72
12
 73
8
 74
0
 42
0.0000001
 43
0.0000001
 44
0.0000000001
 40
0.0
 40
0.0
 40
0.0
 40
0.0
 40
0.2745739807
 40
0.5131264148
 40
0.7293229988
 40
0.9320367002
 40
1.0
 40
1.0
 40
1.0
 40
1.0
 10
134.3830329943
 20
176.5449784634
 30
0.0
 10
134.4884684356
 20
176.6063062688
 30
0.0
 10
134.675888599
 20
176.7395393909
 30
0.0
 10
134.8928809769
 20
176.9841912703
 30
0.0
 10
135.0267335395
 20
177.2477061016
 30
0.0
 10
135.069141873
 20
177.462654205
 30
0.0
 10
135.0696532945
 20
177.5834258166
 30
0.0
 10
135.0683462785
 20
177.6136909851
 30
0.0
  0
SPLINE
  5
5B3
100
AcDbEntity
  8
0
100
AcDbSpline
 62
7
  6
BYLAYER
 70
0
 71
3
 72
11
 73
7
 74
0
 42
0.0000001
 43
0.0000001
 44
0.0000000001
 40
0.0
 40
0.0
 40
0.0
 40
0.0
 40
0.2989354302
 40
0.5618653823
 40
0.7975547694
 40
1.0
 40
1.0
 40
1.0
 40
1.0
 10
131.3923358122
 20
173.9517356598
 30
0.0
 10
131.2860117853
 20
174.0098543626
 30
0.0
 10
131.0959807576
 20
174.1396211159
 30
0.0
 10
130.8797422645
 20
174.3848252776
 30
0.0
 10
130.7552128605
 20
174.6444444015
 30
0.0
 10
130.724231512
 20
174.8214787764
 30
0.0
 10
130.7206760795
 20
174.9037287175
 30
0.0
  0
SPLINE
  5
5B4
100
AcDbEntity
  8
0
100
AcDbSpline
 62
7
  6
BYLAYER
 70
0
 71
3
 72
12
 73
8
 74
0
 42
0.0000001
 43
0.0000001
 44
0.0000000001
 40
0.0
 40
0.0
 40
0.0
 40
0.0
 40
0.0089100863
 40
0.0265926653
 40
0.1800787336
 40
0.5069666823
 40
1.0
 40
1.0
 40
1.0
 40
1.0
 10
131.7195270033
 20
174.9460617762
 30
0.0
 10
131.7196407995
 20
174.9451141757
 30
0.0
 10
131.71990971
 20
174.9423111789
 30
0.0
 10
131.7193265781
 20
174.925736522
 30
0.0
 10
131.7539392281
 20
175.0076242571
 30
0.0
 10
131.8075483634
 20
175.0305906354
 30
0.0
 10
131.8693123808
 20
175.0828423299
 30
0.0
 10
131.9060495948
 20
175.1042109767
 30
0.0
  0
SPLINE
  5
5B5
100
AcDbEntity
  8
0
100
AcDbSpline
 62
7
  6
BYLAYER
 70
0
 71
3
 72
12
 73
8
 74
0
 42
0.0000001
 43
0.0000001
 44
0.0000000001
 40
0.0
 40
0.0
 40
0.0
 40
0.0
 40
0.0295599039
 40
0.0995722863
 40
0.2938264016
 40
0.6045411229
 40
1.0
 40
1.0
 40
1.0
 40
1.0
 10
132.7069616829
 20
173.2369148279
 30
0.0
 10
132.7073138932
 20
173.2327428879
 30
0.0
 10
132.7110913608
 20
173.2184161437
 30
0.0
 10
132.6831093534
 20
173.2733985846
 30
0.0
 10
132.6413585842
 20
173.2962355081
 30
0.0
 10
132.5505049763
 20
173.3645661453
 30
0.0
 10
132.4775274432
 20
173.394998094
 30
0.0
 10
132.4353256155
 20
173.4112187746
 30
0.0
  0
SPLINE
  5
5B6
100
AcDbEntity
  8
0
100
AcDbSpline
 62
7
  6
BYLAYER
 70
0
 71
3
 72
11
 73
7
 74
0
 42
0.0000001
 43
0.0000001
 44
0.0000000001
 40
0.0
 40
0.0
 40
0.0
 40
0.0
 40
0.3276560912
 40
0.6264837623
 40
0.9033380937
 40
1.0
 40
1.0
 40
1.0
 40
1.0
 10
133.3129490259
 20
172.4222733344
 30
0.0
 10
133.3916271053
 20
172.4935662445
 30
0.0
 10
133.5283940075
 20
172.6466079492
 30
0.0
 10
133.6632467022
 20
172.9101144786
 30
0.0
 10
133.7065827408
 20
173.1264241128
 30
0.0
 10
133.7073180788
 20
173.2479465634
 30
0.0
 10
133.7059648382
 20
173.2793310729
 30
0.0
  0
SPLINE
  5
5B7
100
AcDbEntity
  8
0
100
AcDbSpline
 62
7
  6
BYLAYER
 70
0
 71
3
 72
12
 73
8
 74
0
 42
0.0000001
 43
0.0000001
 44
0.0000000001
 40
0.0
 40
0.0
 40
0.0
 40
0.0
 40
0.1203366872
 40
0.3150399107
 40
0.5311055514
 40
0.7755456537
 40
1.0
 40
1.0
 40
1.0
 40
1.0
 10
133.7059648382
 20
173.2793310729
 30
0.0
 10
133.7034786379
 20
173.3369913136
 30
0.0
 10
133.6833300268
 20
173.4873780537
 30
0.0
 10
133.5905654981
 20
173.7273120361
 30
0.0
 10
133.3992188098
 20
173.98013027
 30
0.0
 10
133.1392958445
 20
174.184263941
 30
0.0
 10
132.9379952625
 20
174.2857477287
 30
0.0
 10
132.8387346393
 20
174.3267587891
 30
0.0
  0
SPLINE
  5
5B8
100
AcDbEntity
  8
0
100
AcDbSpline
 62
7
  6
BYLAYER
 70
0
 71
3
 72
11
 73
7
 74
0
 42
0.0000001
 43
0.0000001
 44
0.0000000001
 40
0.0
 40
0.0
 40
0.0
 40
0.0
 40
0.4365511745
 40
0.8983557355
 40
0.9813376341
 40
1.0
 40
1.0
 40
1.0
 40
1.0
 10
132.6684061445
 20
173.1854232768
 30
0.0
 10
132.6753415919
 20
173.1923281901
 30
0.0
 10
132.6897690837
 20
173.2109208087
 30
0.0
 10
132.7087253708
 20
173.2558232395
 30
0.0
 10
132.7067336065
 20
173.2404886894
 30
0.0
 10
132.7069147765
 20
173.2374704344
 30
0.0
 10
132.7069616829
 20
173.2369148279
 30
0.0
  0
SPLINE
  5
5B9
100
AcDbEntity
  8
0
100
AcDbSpline
 62
7
  6
BYLAYER
 70
0
 71
3
 72
11
 73
7
 74
0
 42
0.0000001
 43
0.0000001
 44
0.0000000001
 40
0.0
 40
0.0
 40
0.0
 40
0.0
 40
0.5094218506
 40
0.8364556623
 40
0.9449307578
 40
1.0
 40
1.0
 40
1.0
 40
1.0
 10
131.8677812079
 20
174.8315401184
 30
0.0
 10
131.8366327615
 20
174.8491946481
 30
0.0
 10
131.7851468868
 20
174.8886330562
 30
0.0
 10
131.7426934803
 20
174.9116424863
 30
0.0
 10
131.7155219958
 20
174.9654517723
 30
0.0
 10
131.718959272
 20
174.9507891229
 30
0.0
 10
131.7195269857
 20
174.9460617698
 30
0.0
  0
SPLINE
  5
5BA
100
AcDbEntity
  8
0
100
AcDbSpline
 62
7
  6
BYLAYER
 70
0
 71
3
 72
12
 73
8
 74
0
 42
0.0000001
 43
0.0000001
 44
0.0000000001
 40
0.0
 40
0.0
 40
0.0
 40
0.0
 40
0.0205056007
 40
0.2298827541
 40
0.456559762
 40
0.7126308019
 40
1.0
 40
1.0
 40
1.0
 40
1.0
 10
130.72067608
 20
174.9037287117
 30
0.0
 10
130.7202829692
 20
174.9128227747
 30
0.0
 10
130.7173505481
 20
175.0148354142
 30
0.0
 10
130.7446155245
 20
175.2178952395
 30
0.0
 10
130.8728663708
 20
175.5006431779
 30
0.0
 10
131.0960744181
 20
175.7632143782
 30
0.0
 10
131.2933504544
 20
175.9046895831
 30
0.0
 10
131.4032567855
 20
175.9686179358
 30
0.0
  0
SPLINE
  5
5BB
100
AcDbEntity
  8
0
100
AcDbSpline
 62
7
  6
BYLAYER
 70
0
 71
3
 72
18
 73
14
 74
0
 42
0.0000001
 43
0.0000001
 44
0.0000000001
 40
0.0
 40
0.0
 40
0.0
 40
0.0
 40
0.0453934875
 40
0.1168857988
 40
0.1962997802
 40
0.2862267476
 40
0.3841965021
 40
0.4864992402
 40
0.5907764225
 40
0.695686122
 40
0.7998645202
 40
0.9018164705
 40
1.0
 40
1.0
 40
1.0
 40
1.0
 10
135.0683462785
 20
177.6136909851
 30
0.0
 10
135.0657539837
 20
177.6737179792
 30
0.0
 10
135.0445392357
 20
177.8276873142
 30
0.0
 10
134.9476615566
 20
178.0716007372
 30
0.0
 10
134.7506304739
 20
178.3258240061
 30
0.0
 10
134.4679190599
 20
178.5422266883
 30
0.0
 10
134.1189654526
 20
178.7053809512
 30
0.0
 10
133.7295023907
 20
178.8104886777
 30
0.0
 10
133.3202192006
 20
178.8591748459
 30
0.0
 10
132.9057614532
 20
178.8541186818
 30
0.0
 10
132.4982842712
 20
178.7967537004
 30
0.0
 10
132.110736147
 20
178.6874195017
 30
0.0
 10
131.8693246941
 20
178.5767197672
 30
0.0
 10
131.7573679428
 20
178.5115987627
 30
0.0
  0
SPLINE
  5
5BC
100
AcDbEntity
  8
0
100
AcDbSpline
 62
7
  6
BYLAYER
 70
0
 71
3
 72
11
 73
7
 74
0
 42
0.0000001
 43
0.0000001
 44
0.0000000001
 40
0.0
 40
0.0
 40
0.0
 40
0.0
 40
0.5091025016
 40
0.8357064558
 40
0.9619797978
 40
1.0
 40
1.0
 40
1.0
 40
1.0
 10
133.880240185
 20
177.4093854225
 30
0.0
 10
133.9196100981
 20
177.4322854108
 30
0.0
 10
133.983761347
 20
177.4870495911
 30
0.0
 10
134.0407661283
 20
177.5144111082
 30
0.0
 10
134.0705837595
 20
177.5923337478
 30
0.0
 10
134.0703483174
 20
177.5740898931
 30
0.0
 10
134.0698718355
 20
177.5701995051
 30
0.0
  0
SPLINE
  5
5BD
100
AcDbEntity
  8
0
100
AcDbSpline
 62
7
  6
BYLAYER
 70
0
 71
3
 72
12
 73
8
 74
0
 42
0.0000001
 43
0.0000001
 44
0.0000000001
 40
0.0
 40
0.0
 40
0.0
 40
0.0
 40
0.2745739807
 40
0.5131264148
 40
0.7293229988
 40
0.9320367002
 40
1.0
 40
1.0
 40
1.0
 40
1.0
 10
114.4678826757
 20
168.4549596106
 30
0.0
 10
114.3624472343
 20
168.3936318052
 30
0.0
 10
114.1750270709
 20
168.2603986831
 30
0.0
 10
113.958034693
 20
168.0157468037
 30
0.0
 10
113.8241821304
 20
167.7522319724
 30
0.0
 10
113.7817737969
 20
167.537283869
 30
0.0
 10
113.7812623755
 20
167.4165122574
 30
0.0
 10
113.7825693914
 20
167.3862470889
 30
0.0
  0
SPLINE
  5
5BE
100
AcDbEntity
  8
0
100
AcDbSpline
 62
7
  6
BYLAYER
 70
0
 71
3
 72
19
 73
15
 74
0
 42
0.0000001
 43
0.0000001
 44
0.0000000001
 40
0.0
 40
0.0
 40
0.0
 40
0.0
 40
0.0011045253
 40
0.0024854754
 40
0.0285296686
 40
0.0819884663
 40
0.160453505
 40
0.2624533992
 40
0.3834396634
 40
0.516516755
 40
0.6535697852
 40
0.7853657109
 40
0.9032390142
 40
1.0
 40
1.0
 40
1.0
 40
1.0
 10
114.7810438344
 20
167.4297385689
 30
0.0
 10
114.7811427182
 20
167.4305459364
 30
0.0
 10
114.7814061305
 20
167.432330597
 30
0.0
 10
114.7854211458
 20
167.4505806293
 30
0.0
 10
114.8283333264
 20
167.3537799412
 30
0.0
 10
114.9039734109
 20
167.3357688396
 30
0.0
 10
115.0414470525
 20
167.2488297532
 30
0.0
 10
115.2243234718
 20
167.1977644863
 30
0.0
 10
115.4492252925
 20
167.1543034287
 30
0.0
 10
115.6992111977
 20
167.1404963306
 30
0.0
 10
115.9562643406
 20
167.1550331754
 30
0.0
 10
116.2002533577
 20
167.1981564957
 30
0.0
 10
116.4123868843
 20
167.2634791507
 30
0.0
 10
116.5373013597
 20
167.3216543589
 30
0.0
 10
116.5907549179
 20
167.3527462704
 30
0.0
  0
SPLINE
  5
5BF
100
AcDbEntity
  8
0
100
AcDbSpline
 62
7
  6
BYLAYER
 70
0
 71
3
 72
14
 73
10
 74
0
 42
0.0000001
 43
0.0000001
 44
0.0000000001
 40
0.0
 40
0.0
 40
0.0
 40
0.0
 40
0.11942481
 40
0.2654821404
 40
0.4145096198
 40
0.5646070696
 40
0.7136219412
 40
0.8595552284
 40
1.0
 40
1.0
 40
1.0
 40
1.0
 10
118.960226926
 20
168.7302795769
 30
0.0
 10
119.0512579928
 20
168.7935301981
 30
0.0
 10
119.2674222271
 20
168.9150412256
 30
0.0
 10
119.6305705074
 20
169.0459885251
 30
0.0
 10
120.0368694622
 20
169.1274057233
 30
0.0
 10
120.4529369958
 20
169.1539714849
 30
0.0
 10
120.8661405086
 20
169.1258107379
 30
0.0
 10
121.2625937144
 20
169.0416278133
 30
0.0
 10
121.511601393
 20
168.9438873275
 30
0.0
 10
121.6272353909
 20
168.8838491713
 30
0.0
  0
SPLINE
  5
5C0
100
AcDbEntity
  8
0
100
AcDbSpline
 62
7
  6
BYLAYER
 70
0
 71
3
 72
15
 73
11
 74
0
 42
0.0000001
 43
0.0000001
 44
0.0000000001
 40
0.0
 40
0.0
 40
0.0
 40
0.0
 40
0.0751012939
 40
0.1809147373
 40
0.3101940468
 40
0.4558787588
 40
0.6086928477
 40
0.7585199958
 40
0.8956289824
 40
1.0
 40
1.0
 40
1.0
 40
1.0
 10
122.6717245408
 20
168.3395287862
 30
0.0
 10
122.7055133668
 20
168.3158856527
 30
0.0
 10
122.7930268871
 20
168.2676362659
 30
0.0
 10
122.9533597355
 20
168.2086313198
 30
0.0
 10
123.1581198948
 20
168.1633843329
 30
0.0
 10
123.3925134379
 20
168.1410954316
 30
0.0
 10
123.6391895051
 20
168.1463884816
 30
0.0
 10
123.8789732447
 20
168.179421932
 30
0.0
 10
124.0872817818
 20
168.2341845641
 30
0.0
 10
124.2107723643
 20
168.2837850494
 30
0.0
 10
124.262245949
 20
168.3090038507
 30
0.0
  0
SPLINE
  5
5C1
100
AcDbEntity
  8
0
100
AcDbSpline
 62
7
  6
BYLAYER
 70
0
 71
3
 72
13
 73
9
 74
0
 42
0.0000001
 43
0.0000001
 44
0.0000000001
 40
0.0
 40
0.0
 40
0.0
 40
0.0
 40
0.1841283061
 40
0.3416882627
 40
0.4843739664
 40
0.6316571131
 40
0.8010825014
 40
1.0
 40
1.0
 40
1.0
 40
1.0
 10
96.227639979
 20
151.1187707898
 30
0.0
 10
96.2549839231
 20
151.1033206234
 30
0.0
 10
96.3092061049
 20
151.0798829272
 30
0.0
 10
96.3935800341
 20
151.0726107078
 30
0.0
 10
96.4676932909
 20
151.1010894864
 30
0.0
 10
96.5204043384
 20
151.1626447648
 30
0.0
 10
96.548733027
 20
151.247453678
 30
0.0
 10
96.5520155726
 20
151.3108420451
 30
0.0
 10
96.5505708339
 20
151.3447408711
 30
0.0
  0
SPLINE
  5
5C2
100
AcDbEntity
  8
0
100
AcDbSpline
 62
7
  6
BYLAYER
 70
0
 71
3
 72
18
 73
14
 74
0
 42
0.0000001
 43
0.0000001
 44
0.0000000001
 40
0.0
 40
0.0
 40
0.0
 40
0.0
 40
0.0879208031
 40
0.1627062136
 40
0.2289892041
 40
0.2961651483
 40
0.3730581852
 40
0.4633286749
 40
0.5658532541
 40
0.6765331405
 40
0.789727508
 40
0.8993694096
 40
1.0
 40
1.0
 40
1.0
 40
1.0
 10
100.4449804928
 20
153.6099715616
 30
0.0
 10
100.4465491122
 20
153.5731660449
 30
0.0
 10
100.442195702
 20
153.50425156
 30
0.0
 10
100.4062571838
 20
153.4128564444
 30
0.0
 10
100.3394663284
 20
153.3511013
 30
0.0
 10
100.2499800921
 20
153.3311590842
 30
0.0
 10
100.1518665251
 20
153.3515900539
 30
0.0
 10
100.051589484
 20
153.4060885091
 30
0.0
 10
99.955072738
 20
153.4901208908
 30
0.0
 10
99.8691443641
 20
153.5973388593
 30
0.0
 10
99.8002687238
 20
153.7196545914
 30
0.0
 10
99.7537360894
 20
153.8475805284
 30
0.0
 10
99.7391517903
 20
153.9352499046
 30
0.0
 10
99.737356412
 20
153.9773760084
 30
0.0
  0
SPLINE
  5
5C3
100
AcDbEntity
  8
0
100
AcDbSpline
 62
7
  6
BYLAYER
 70
0
 71
3
 72
13
 73
9
 74
0
 42
0.0000001
 43
0.0000001
 44
0.0000000001
 40
0.0
 40
0.0
 40
0.0
 40
0.0
 40
0.1584026047
 40
0.3303156791
 40
0.50813546
 40
0.6846401256
 40
0.8508392165
 40
1.0
 40
1.0
 40
1.0
 40
1.0
 10
95.8716637792
 20
151.7288489249
 30
0.0
 10
95.8733079251
 20
151.6902712829
 30
0.0
 10
95.8853315336
 20
151.6101115453
 30
0.0
 10
95.9233294266
 20
151.4917747605
 30
0.0
 10
95.9799181236
 20
151.3761640618
 30
0.0
 10
96.0515912425
 20
151.2708914904
 30
0.0
 10
96.1337366791
 20
151.1829030744
 30
0.0
 10
96.1959839128
 20
151.1366574373
 30
0.0
 10
96.227639979
 20
151.1187707898
 30
0.0
  0
SPLINE
  5
5C4
100
AcDbEntity
  8
0
100
AcDbSpline
 62
7
  6
BYLAYER
 70
0
 71
3
 72
13
 73
9
 74
0
 42
0.0000001
 43
0.0000001
 44
0.0000000001
 40
0.0
 40
0.0
 40
0.0
 40
0.0
 40
0.1862113195
 40
0.3513021838
 40
0.5024656496
 40
0.6523579771
 40
0.8155313265
 40
1.0
 40
1.0
 40
1.0
 40
1.0
 10
94.1359910529
 20
151.1709639545
 30
0.0
 10
94.1052868091
 20
151.1550347141
 30
0.0
 10
94.0437121393
 20
151.131046472
 30
0.0
 10
93.9489437361
 20
151.1236120143
 30
0.0
 10
93.8638860805
 20
151.1501560321
 30
0.0
 10
93.7980024027
 20
151.2096186235
 30
0.0
 10
93.7569217805
 20
151.2943776609
 30
0.0
 10
93.747026418
 20
151.3590574553
 30
0.0
 10
93.7455673285
 20
151.3932930006
 30
0.0
  0
SPLINE
  5
5C5
100
AcDbEntity
  8
0
100
AcDbSpline
 62
7
  6
BYLAYER
 70
0
 71
3
 72
13
 73
9
 74
0
 42
0.0000001
 43
0.0000001
 44
0.0000000001
 40
0.0
 40
0.0
 40
0.0
 40
0.0
 40
0.155133308
 40
0.3231241699
 40
0.4978604969
 40
0.6740520497
 40
0.8434073665
 40
1.0
 40
1.0
 40
1.0
 40
1.0
 10
94.4946686881
 20
151.7812302216
 30
0.0
 10
94.4962990908
 20
151.7429750459
 30
0.0
 10
94.4896342003
 20
151.6627346125
 30
0.0
 10
94.45561466
 20
151.5440148548
 30
0.0
 10
94.3995554246
 20
151.4281877851
 30
0.0
 10
94.3251750813
 20
151.3227749824
 30
0.0
 10
94.2373338243
 20
151.2345147431
 30
0.0
 10
94.1702989562
 20
151.1887627592
 30
0.0
 10
94.1359910529
 20
151.1709639545
 30
0.0
  0
SPLINE
  5
5C6
100
AcDbEntity
  8
0
100
AcDbSpline
 62
7
  6
BYLAYER
 70
0
 71
3
 72
13
 73
9
 74
0
 42
0.0000001
 43
0.0000001
 44
0.0000000001
 40
0.0
 40
0.0
 40
0.0
 40
0.0
 40
0.1849198647
 40
0.347604334
 40
0.4965769356
 40
0.6461177318
 40
0.8114214837
 40
1.0
 40
1.0
 40
1.0
 40
1.0
 10
90.9694457761
 20
151.5657899062
 30
0.0
 10
90.9998180717
 20
151.5516570278
 30
0.0
 10
91.060254643
 20
151.5311715939
 30
0.0
 10
91.1520380933
 20
151.5292338284
 30
0.0
 10
91.2320739558
 20
151.5612787898
 30
0.0
 10
91.2905743913
 20
151.6250997248
 30
0.0
 10
91.3229561766
 20
151.7121699162
 30
0.0
 10
91.3270495183
 20
151.7769505045
 30
0.0
 10
91.3255948727
 20
151.8110817815
 30
0.0
  0
SPLINE
  5
5C7
100
AcDbEntity
  8
0
100
AcDbSpline
 62
7
  6
BYLAYER
 70
0
 71
3
 72
18
 73
14
 74
0
 42
0.0000001
 43
0.0000001
 44
0.0000000001
 40
0.0
 40
0.0
 40
0.0
 40
0.0
 40
0.0870543716
 40
0.1621700383
 40
0.2301085679
 40
0.2995656127
 40
0.3783186086
 40
0.4694859092
 40
0.5718718218
 40
0.6815387076
 40
0.7931323254
 40
0.9009583605
 40
1.0
 40
1.0
 40
1.0
 40
1.0
 10
92.759835408
 20
151.9050934053
 30
0.0
 10
92.761410075
 20
151.8681459889
 30
0.0
 10
92.772109441
 20
151.7990988457
 30
0.0
 10
92.8180248231
 20
151.7101219984
 30
0.0
 10
92.8927924202
 20
151.653398209
 30
0.0
 10
92.9868498765
 20
151.6391893572
 30
0.0
 10
93.0871686156
 20
151.6653077554
 30
0.0
 10
93.1871440214
 20
151.7258059068
 30
0.0
 10
93.2806446003
 20
151.815648777
 30
0.0
 10
93.3610505162
 20
151.928027543
 30
0.0
 10
93.4223219131
 20
152.0544497161
 30
0.0
 10
93.4597718313
 20
152.1851316031
 30
0.0
 10
93.4673201807
 20
152.2735334476
 30
0.0
 10
93.4655286842
 20
152.3155684728
 30
0.0
  0
SPLINE
  5
5C8
100
AcDbEntity
  8
0
100
AcDbSpline
 62
7
  6
BYLAYER
 70
0
 71
3
 72
13
 73
9
 74
0
 42
0.0000001
 43
0.0000001
 44
0.0000000001
 40
0.0
 40
0.0
 40
0.0
 40
0.0
 40
0.1565014248
 40
0.3259798087
 40
0.5019778573
 40
0.6781867448
 40
0.8462338277
 40
1.0
 40
1.0
 40
1.0
 40
1.0
 10
90.5809818941
 20
152.1569711864
 30
0.0
 10
90.5826193951
 20
152.1185494573
 30
0.0
 10
90.5954795097
 20
152.0388156506
 30
0.0
 10
90.6369353322
 20
151.9220790273
 30
0.0
 10
90.698867536
 20
151.8092262382
 30
0.0
 10
90.7774112893
 20
151.707656565
 30
0.0
 10
90.8675402647
 20
151.6240489414
 30
0.0
 10
90.9351884751
 20
151.5817305606
 30
0.0
 10
90.9694457761
 20
151.5657899062
 30
0.0
  0
SPLINE
  5
5C9
100
AcDbEntity
  8
0
100
AcDbSpline
 62
7
  6
BYLAYER
 70
0
 71
3
 72
18
 73
14
 74
0
 42
0.0000001
 43
0.0000001
 44
0.0000000001
 40
0.0
 40
0.0
 40
0.0
 40
0.0
 40
0.0879208031
 40
0.1627062136
 40
0.2289892041
 40
0.2961651483
 40
0.3730581852
 40
0.4633286749
 40
0.5658532541
 40
0.6765331405
 40
0.789727508
 40
0.8993694096
 40
1.0
 40
1.0
 40
1.0
 40
1.0
 10
86.7889376321
 20
151.5092877528
 30
0.0
 10
86.7905062516
 20
151.4724822361
 30
0.0
 10
86.7861528413
 20
151.4035677511
 30
0.0
 10
86.7502143232
 20
151.3121726356
 30
0.0
 10
86.6834234678
 20
151.2504174912
 30
0.0
 10
86.5939372314
 20
151.2304752754
 30
0.0
 10
86.4958236645
 20
151.2509062451
 30
0.0
 10
86.3955466233
 20
151.3054047003
 30
0.0
 10
86.2990298773
 20
151.389437082
 30
0.0
 10
86.2131015034
 20
151.4966550504
 30
0.0
 10
86.1442258631
 20
151.6189707826
 30
0.0
 10
86.0976932288
 20
151.7468967196
 30
0.0
 10
86.0831089297
 20
151.8345660958
 30
0.0
 10
86.0813135514
 20
151.8766921996
 30
0.0
  0
SPLINE
  5
5CA
100
AcDbEntity
  8
0
100
AcDbSpline
 62
7
  6
BYLAYER
 70
0
 71
3
 72
18
 73
14
 74
0
 42
0.0000001
 43
0.0000001
 44
0.0000000001
 40
0.0
 40
0.0
 40
0.0
 40
0.0
 40
0.0879208031
 40
0.1627062136
 40
0.2289892041
 40
0.2961651483
 40
0.3730581852
 40
0.4633286749
 40
0.5658532541
 40
0.6765331405
 40
0.789727508
 40
0.8993694096
 40
1.0
 40
1.0
 40
1.0
 40
1.0
 10
88.9118098743
 20
150.4070744126
 30
0.0
 10
88.9133784938
 20
150.3702688959
 30
0.0
 10
88.9090250835
 20
150.3013544109
 30
0.0
 10
88.8730865654
 20
150.2099592954
 30
0.0
 10
88.80629571
 20
150.148204151
 30
0.0
 10
88.7168094736
 20
150.1282619351
 30
0.0
 10
88.6186959067
 20
150.1486929048
 30
0.0
 10
88.5184188656
 20
150.2031913601
 30
0.0
 10
88.4219021195
 20
150.2872237418
 30
0.0
 10
88.3359737457
 20
150.3944417102
 30
0.0
 10
88.2670981054
 20
150.5167574424
 30
0.0
 10
88.220565471
 20
150.6446833794
 30
0.0
 10
88.2059811719
 20
150.7323527556
 30
0.0
 10
88.2041857936
 20
150.7744788594
 30
0.0
  0
SPLINE
  5
5CB
100
AcDbEntity
  8
0
100
AcDbSpline
 62
7
  6
BYLAYER
 70
0
 71
3
 72
18
 73
14
 74
0
 42
0.0000001
 43
0.0000001
 44
0.0000000001
 40
0.0
 40
0.0
 40
0.0
 40
0.0
 40
0.1006305904
 40
0.210272492
 40
0.3234668595
 40
0.4341467459
 40
0.5366713251
 40
0.6269418148
 40
0.7038348517
 40
0.7710107959
 40
0.8372937864
 40
0.9120791969
 40
1.0
 40
1.0
 40
1.0
 40
1.0
 10
105.4936710607
 20
160.8311180115
 30
0.0
 10
105.495466439
 20
160.7889919077
 30
0.0
 10
105.5100507381
 20
160.7013225315
 30
0.0
 10
105.5565833725
 20
160.5733965945
 30
0.0
 10
105.6254590128
 20
160.4510808623
 30
0.0
 10
105.7113873866
 20
160.3438628939
 30
0.0
 10
105.8079041326
 20
160.2598305122
 30
0.0
 10
105.9081811738
 20
160.205332057
 30
0.0
 10
106.0062947407
 20
160.1849010873
 30
0.0
 10
106.0957809771
 20
160.2048433031
 30
0.0
 10
106.1625718325
 20
160.2665984475
 30
0.0
 10
106.1985103506
 20
160.357993563
 30
0.0
 10
106.2028637609
 20
160.426908048
 30
0.0
 10
106.2012951414
 20
160.4637135647
 30
0.0
  0
SPLINE
  5
5CC
100
AcDbEntity
  8
0
100
AcDbSpline
 62
7
  6
BYLAYER
 70
0
 71
3
 72
18
 73
14
 74
0
 42
0.0000001
 43
0.0000001
 44
0.0000000001
 40
0.0
 40
0.0
 40
0.0
 40
0.0
 40
0.1006305904
 40
0.210272492
 40
0.3234668595
 40
0.4341467459
 40
0.5366713251
 40
0.6269418148
 40
0.7038348517
 40
0.7710107959
 40
0.8372937864
 40
0.9120791969
 40
1.0
 40
1.0
 40
1.0
 40
1.0
 10
103.3707988185
 20
161.9333313517
 30
0.0
 10
103.3725941967
 20
161.8912052479
 30
0.0
 10
103.3871784959
 20
161.8035358717
 30
0.0
 10
103.4337111302
 20
161.6756099347
 30
0.0
 10
103.5025867705
 20
161.5532942025
 30
0.0
 10
103.5885151444
 20
161.4460762341
 30
0.0
 10
103.6850318904
 20
161.3620438524
 30
0.0
 10
103.7853089316
 20
161.3075453972
 30
0.0
 10
103.8834224985
 20
161.2871144275
 30
0.0
 10
103.9729087349
 20
161.3070566433
 30
0.0
 10
104.0396995902
 20
161.3688117877
 30
0.0
 10
104.0756381084
 20
161.4602069032
 30
0.0
 10
104.0799915186
 20
161.5291213882
 30
0.0
 10
104.0784228992
 20
161.5659269049
 30
0.0
  0
SPLINE
  5
5CD
100
AcDbEntity
  8
0
100
AcDbSpline
 62
7
  6
BYLAYER
 70
0
 71
3
 72
13
 73
9
 74
0
 42
0.0000001
 43
0.0000001
 44
0.0000000001
 40
0.0
 40
0.0
 40
0.0
 40
0.0
 40
0.1541483072
 40
0.3222148709
 40
0.4980899504
 40
0.674438498
 40
0.8438531338
 40
1.0
 40
1.0
 40
1.0
 40
1.0
 10
103.3630087306
 20
157.6449346441
 30
0.0
 10
103.3959724833
 20
157.6635932649
 30
0.0
 10
103.4601438676
 20
157.7111717356
 30
0.0
 10
103.5435210585
 20
157.8015279225
 30
0.0
 10
103.6139679668
 20
157.9088834386
 30
0.0
 10
103.6668573862
 20
158.0262465357
 30
0.0
 10
103.6987818333
 20
158.1459398445
 30
0.0
 10
103.7049664762
 20
158.2263780113
 30
0.0
 10
103.7033645442
 20
158.2647137876
 30
0.0
  0
SPLINE
  5
5CE
100
AcDbEntity
  8
0
100
AcDbSpline
 62
7
  6
BYLAYER
 70
0
 71
3
 72
18
 73
14
 74
0
 42
0.0000001
 43
0.0000001
 44
0.0000000001
 40
0.0
 40
0.0
 40
0.0
 40
0.0
 40
0.0879208031
 40
0.1627062136
 40
0.2289892041
 40
0.2961651483
 40
0.3730581852
 40
0.4633286749
 40
0.5658532541
 40
0.6765331405
 40
0.789727508
 40
0.8993694096
 40
1.0
 40
1.0
 40
1.0
 40
1.0
 10
103.7243117419
 20
159.022946078
 30
0.0
 10
103.7258803614
 20
158.9861405613
 30
0.0
 10
103.7215269511
 20
158.9172260763
 30
0.0
 10
103.685588433
 20
158.8258309608
 30
0.0
 10
103.6187975776
 20
158.7640758164
 30
0.0
 10
103.5293113412
 20
158.7441336006
 30
0.0
 10
103.4311977743
 20
158.7645645703
 30
0.0
 10
103.3309207332
 20
158.8190630255
 30
0.0
 10
103.2344039871
 20
158.9030954072
 30
0.0
 10
103.1484756133
 20
159.0103133756
 30
0.0
 10
103.079599973
 20
159.1326291078
 30
0.0
 10
103.0330673386
 20
159.2605550448
 30
0.0
 10
103.0184830395
 20
159.348224421
 30
0.0
 10
103.0166876612
 20
159.3903505248
 30
0.0
  0
SPLINE
  5
5CF
100
AcDbEntity
  8
0
100
AcDbSpline
 62
7
  6
BYLAYER
 70
0
 71
3
 72
10
 73
6
 74
0
 42
0.0000001
 43
0.0000001
 44
0.0000000001
 40
0.0
 40
0.0
 40
0.0
 40
0.0
 40
0.3467673968
 40
0.6801374348
 40
1.0
 40
1.0
 40
1.0
 40
1.0
 10
102.9876001263
 20
157.8594677427
 30
0.0
 10
102.9880994196
 20
157.8480490924
 30
0.0
 10
102.9898927287
 20
157.8256768839
 30
0.0
 10
102.9951441915
 20
157.7931032373
 30
0.0
 10
103.0004050333
 20
157.7721886393
 30
0.0
 10
103.0034647751
 20
157.7620996368
 30
0.0
  0
SPLINE
  5
5D0
100
AcDbEntity
  8
0
100
AcDbSpline
 62
7
  6
BYLAYER
 70
0
 71
3
 72
12
 73
8
 74
0
 42
0.0000001
 43
0.0000001
 44
0.0000000001
 40
0.0
 40
0.0
 40
0.0
 40
0.0
 40
0.2049464857
 40
0.3891065783
 40
0.5716033577
 40
0.7717742157
 40
1.0
 40
1.0
 40
1.0
 40
1.0
 10
103.0034647751
 20
157.7620996368
 30
0.0
 10
103.012211375
 20
157.7330248464
 30
0.0
 10
103.0365385548
 20
157.6793717192
 30
0.0
 10
103.0999135073
 20
157.6194236832
 30
0.0
 10
103.18264395
 20
157.5934353134
 30
0.0
 10
103.2745515809
 20
157.6027689848
 30
0.0
 10
103.3335945254
 20
157.628262373
 30
0.0
 10
103.3630087306
 20
157.6449346441
 30
0.0
  0
SPLINE
  5
5D1
100
AcDbEntity
  8
0
100
AcDbSpline
 62
7
  6
BYLAYER
 70
0
 71
3
 72
13
 73
9
 74
0
 42
0.0000001
 43
0.0000001
 44
0.0000000001
 40
0.0
 40
0.0
 40
0.0
 40
0.0
 40
0.1506197765
 40
0.3175780682
 40
0.4942309475
 40
0.6715560377
 40
0.8424594723
 40
1.0
 40
1.0
 40
1.0
 40
1.0
 10
104.3685435579
 20
157.1228524322
 30
0.0
 10
104.3994048946
 20
157.1429279346
 30
0.0
 10
104.4593357929
 20
157.193301369
 30
0.0
 10
104.5367103082
 20
157.2867094322
 30
0.0
 10
104.6020602794
 20
157.3965663431
 30
0.0
 10
104.6510142565
 20
157.5156701774
 30
0.0
 10
104.6804137718
 20
157.6362294122
 30
0.0
 10
104.6859737526
 20
157.7169129227
 30
0.0
 10
104.6843340605
 20
157.7553860638
 30
0.0
  0
SPLINE
  5
5D2
100
AcDbEntity
  8
0
100
AcDbSpline
 62
7
  6
BYLAYER
 70
0
 71
3
 72
13
 73
9
 74
0
 42
0.0000001
 43
0.0000001
 44
0.0000000001
 40
0.0
 40
0.0
 40
0.0
 40
0.0
 40
0.1967506735
 40
0.3650248549
 40
0.5118280796
 40
0.6555177706
 40
0.8144877996
 40
1.0
 40
1.0
 40
1.0
 40
1.0
 10
104.0207861733
 20
157.3230287516
 30
0.0
 10
104.0222314314
 20
157.2891177406
 30
0.0
 10
104.0309717183
 20
157.226095076
 30
0.0
 10
104.0668986576
 20
157.1437773975
 30
0.0
 10
104.1256205703
 20
157.0867932299
 30
0.0
 10
104.2029818971
 20
157.0644618988
 30
0.0
 10
104.2880879084
 20
157.0780476412
 30
0.0
 10
104.3417170359
 20
157.1054016034
 30
0.0
 10
104.3685435579
 20
157.1228524322
 30
0.0
  0
SPLINE
  5
5D3
100
AcDbEntity
  8
0
100
AcDbSpline
 62
7
  6
BYLAYER
 70
0
 71
3
 72
13
 73
9
 74
0
 42
0.0000001
 43
0.0000001
 44
0.0000000001
 40
0.0
 40
0.0
 40
0.0
 40
0.0
 40
0.1876175856
 40
0.353451487
 40
0.5059533578
 40
0.6555509873
 40
0.8179736934
 40
1.0
 40
1.0
 40
1.0
 40
1.0
 10
104.731908854
 20
156.0653820975
 30
0.0
 10
104.7646885792
 20
156.0523836525
 30
0.0
 10
104.8294635731
 20
156.0343249443
 30
0.0
 10
104.9261997367
 20
156.0357407211
 30
0.0
 10
105.0099594634
 20
156.0698062091
 30
0.0
 10
105.0717108602
 20
156.13502948
 30
0.0
 10
105.1060664095
 20
156.2232556006
 30
0.0
 10
105.1105331004
 20
156.2887186176
 30
0.0
 10
105.1090763376
 20
156.3228995729
 30
0.0
  0
SPLINE
  5
5D4
100
AcDbEntity
  8
0
100
AcDbSpline
 62
7
  6
BYLAYER
 70
0
 71
3
 72
13
 73
9
 74
0
 42
0.0000001
 43
0.0000001
 44
0.0000000001
 40
0.0
 40
0.0
 40
0.0
 40
0.0
 40
0.1536124031
 40
0.3213977211
 40
0.4948404743
 40
0.6715044679
 40
0.8412581552
 40
1.0
 40
1.0
 40
1.0
 40
1.0
 10
104.3113738741
 20
156.637908834
 30
0.0
 10
104.3129962523
 20
156.5998419402
 30
0.0
 10
104.326810076
 20
156.5204985904
 30
0.0
 10
104.3722108955
 20
156.405744263
 30
0.0
 10
104.4400399413
 20
156.2959265493
 30
0.0
 10
104.5253889788
 20
156.1984566534
 30
0.0
 10
104.6230304636
 20
156.119011248
 30
0.0
 10
104.6953077397
 20
156.079895873
 30
0.0
 10
104.731908854
 20
156.0653820975
 30
0.0
  0
SPLINE
  5
5D5
100
AcDbEntity
  8
0
100
AcDbSpline
 62
7
  6
BYLAYER
 70
0
 71
3
 72
18
 73
14
 74
0
 42
0.0000001
 43
0.0000001
 44
0.0000000001
 40
0.0
 40
0.0
 40
0.0
 40
0.0
 40
0.1006305904
 40
0.210272492
 40
0.3234668595
 40
0.4341467459
 40
0.5366713251
 40
0.6269418148
 40
0.7038348517
 40
0.7710107959
 40
0.8372937864
 40
0.9120791969
 40
1.0
 40
1.0
 40
1.0
 40
1.0
 10
100.4789992487
 20
154.4087615744
 30
0.0
 10
100.4807946269
 20
154.3666354706
 30
0.0
 10
100.4953789261
 20
154.2789660944
 30
0.0
 10
100.5419115604
 20
154.1510401574
 30
0.0
 10
100.6107872007
 20
154.0287244253
 30
0.0
 10
100.6967155746
 20
153.9215064568
 30
0.0
 10
100.7932323206
 20
153.8374740751
 30
0.0
 10
100.8935093618
 20
153.7829756199
 30
0.0
 10
100.9916229287
 20
153.7625446502
 30
0.0
 10
101.0811091651
 20
153.782486866
 30
0.0
 10
101.1479000204
 20
153.8442420104
 30
0.0
 10
101.1838385386
 20
153.935637126
 30
0.0
 10
101.1881919488
 20
154.0045516109
 30
0.0
 10
101.1866233294
 20
154.0413571276
 30
0.0
  0
SPLINE
  5
5D6
100
AcDbEntity
  8
0
100
AcDbSpline
 62
7
  6
BYLAYER
 70
0
 71
3
 72
18
 73
14
 74
0
 42
0.0000001
 43
0.0000001
 44
0.0000000001
 40
0.0
 40
0.0
 40
0.0
 40
0.0
 40
0.1006305904
 40
0.210272492
 40
0.3234668595
 40
0.4341467459
 40
0.5366713251
 40
0.6269418148
 40
0.7038348517
 40
0.7710107959
 40
0.8372937864
 40
0.9120791969
 40
1.0
 40
1.0
 40
1.0
 40
1.0
 10
101.1866233294
 20
154.0413571276
 30
0.0
 10
101.1848279512
 20
154.0834832314
 30
0.0
 10
101.170243652
 20
154.1711526076
 30
0.0
 10
101.1237110177
 20
154.2990785446
 30
0.0
 10
101.0548353774
 20
154.4213942768
 30
0.0
 10
100.9689070035
 20
154.5286122452
 30
0.0
 10
100.8723902575
 20
154.6126446269
 30
0.0
 10
100.7721132163
 20
154.6671430821
 30
0.0
 10
100.6739996494
 20
154.6875740518
 30
0.0
 10
100.584513413
 20
154.667631836
 30
0.0
 10
100.5177225577
 20
154.6058766916
 30
0.0
 10
100.4817840395
 20
154.5144815761
 30
0.0
 10
100.4774306293
 20
154.4455670911
 30
0.0
 10
100.4789992487
 20
154.4087615744
 30
0.0
  0
SPLINE
  5
5D7
100
AcDbEntity
  8
0
100
AcDbSpline
 62
7
  6
BYLAYER
 70
0
 71
3
 72
13
 73
9
 74
0
 42
0.0000001
 43
0.0000001
 44
0.0000000001
 40
0.0
 40
0.0
 40
0.0
 40
0.0
 40
0.1859554035
 40
0.3520136475
 40
0.5063839515
 40
0.6575120411
 40
0.8204476694
 40
1.0
 40
1.0
 40
1.0
 40
1.0
 10
104.6963397624
 20
156.8999623462
 30
0.0
 10
104.6633921577
 20
156.913027362
 30
0.0
 10
104.5978236135
 20
156.9309636456
 30
0.0
 10
104.4996491822
 20
156.9284500623
 30
0.0
 10
104.4143780334
 20
156.8931811432
 30
0.0
 10
104.3507679236
 20
156.8271139638
 30
0.0
 10
104.3147813681
 20
156.738152151
 30
0.0
 10
104.3099166409
 20
156.6721008229
 30
0.0
 10
104.3113738741
 20
156.637908834
 30
0.0
  0
SPLINE
  5
5D8
100
AcDbEntity
  8
0
100
AcDbSpline
 62
7
  6
BYLAYER
 70
0
 71
3
 72
13
 73
9
 74
0
 42
0.0000001
 43
0.0000001
 44
0.0000000001
 40
0.0
 40
0.0
 40
0.0
 40
0.0
 40
0.1545337042
 40
0.3224556211
 40
0.496436351
 40
0.6727153387
 40
0.8418145566
 40
1.0
 40
1.0
 40
1.0
 40
1.0
 10
105.1090763376
 20
156.3228995729
 30
0.0
 10
105.1074460329
 20
156.3611524489
 30
0.0
 10
105.0940239542
 20
156.4406736269
 30
0.0
 10
105.0501744693
 20
156.5562535953
 30
0.0
 10
104.9843883262
 20
156.667216408
 30
0.0
 10
104.9008842938
 20
156.7659494308
 30
0.0
 10
104.8045924077
 20
156.8462647797
 30
0.0
 10
104.7327722748
 20
156.8855154281
 30
0.0
 10
104.6963397624
 20
156.8999623462
 30
0.0
  0
SPLINE
  5
5D9
100
AcDbEntity
  8
0
100
AcDbSpline
 62
7
  6
BYLAYER
 70
0
 71
3
 72
13
 73
9
 74
0
 42
0.0000001
 43
0.0000001
 44
0.0000000001
 40
0.0
 40
0.0
 40
0.0
 40
0.0
 40
0.1505068444
 40
0.3172566273
 40
0.493841667
 40
0.6712183486
 40
0.8424347911
 40
1.0
 40
1.0
 40
1.0
 40
1.0
 10
104.3329744664
 20
157.957432681
 30
0.0
 10
104.3021328319
 20
157.937369995
 30
0.0
 10
104.2423561202
 20
157.8868794909
 30
0.0
 10
104.1656036191
 20
157.7930429792
 30
0.0
 10
104.1011725409
 20
157.6826835466
 30
0.0
 10
104.0531709475
 20
157.5631063206
 30
0.0
 10
104.0245092646
 20
157.4422738531
 30
0.0
 10
104.0191460415
 20
157.3615122088
 30
0.0
 10
104.0207861733
 20
157.3230287516
 30
0.0
  0
SPLINE
  5
5DA
100
AcDbEntity
  8
0
100
AcDbSpline
 62
7
  6
BYLAYER
 70
0
 71
3
 72
13
 73
9
 74
0
 42
0.0000001
 43
0.0000001
 44
0.0000000001
 40
0.0
 40
0.0
 40
0.0
 40
0.0
 40
0.1958564447
 40
0.3640627771
 40
0.5118391344
 40
0.6564625511
 40
0.8155056354
 40
1.0
 40
1.0
 40
1.0
 40
1.0
 10
104.6843340605
 20
157.7553860638
 30
0.0
 10
104.6828856391
 20
157.7893712973
 30
0.0
 10
104.673949499
 20
157.8526627467
 30
0.0
 10
104.6372165288
 20
157.9353121974
 30
0.0
 10
104.5776222329
 20
157.9925672892
 30
0.0
 10
104.49954796
 20
158.0153865851
 30
0.0
 10
104.413773309
 20
158.0022571338
 30
0.0
 10
104.359834273
 20
157.9749051617
 30
0.0
 10
104.3329744664
 20
157.957432681
 30
0.0
  0
SPLINE
  5
5DB
100
AcDbEntity
  8
0
100
AcDbSpline
 62
7
  6
BYLAYER
 70
0
 71
3
 72
12
 73
8
 74
0
 42
0.0000001
 43
0.0000001
 44
0.0000000001
 40
0.0
 40
0.0
 40
0.0
 40
0.0
 40
0.182675639
 40
0.3823312704
 40
0.5908293947
 40
0.7995103511
 40
1.0
 40
1.0
 40
1.0
 40
1.0
 10
103.3274478855
 20
158.4795090879
 30
0.0
 10
103.2942312722
 20
158.4606868933
 30
0.0
 10
103.2295375347
 20
158.4125496616
 30
0.0
 10
103.1457627751
 20
158.3210664601
 30
0.0
 10
103.0752222098
 20
158.2124571786
 30
0.0
 10
103.0228089248
 20
158.0939338252
 30
0.0
 10
103.0012051851
 20
158.0106556142
 30
0.0
 10
102.994635532
 20
157.9692719816
 30
0.0
  0
SPLINE
  5
5DC
100
AcDbEntity
  8
0
100
AcDbSpline
 62
7
  6
BYLAYER
 70
0
 71
3
 72
10
 73
6
 74
0
 42
0.0000001
 43
0.0000001
 44
0.0000000001
 40
0.0
 40
0.0
 40
0.0
 40
0.0
 40
0.3438895097
 40
0.6775017971
 40
1.0
 40
1.0
 40
1.0
 40
1.0
 10
102.994635532
 20
157.9692719816
 30
0.0
 10
102.9926240999
 20
157.9568016246
 30
0.0
 10
102.9894017631
 20
157.9321057331
 30
0.0
 10
102.9870118449
 20
157.8954277422
 30
0.0
 10
102.987106881
 20
157.8713032822
 30
0.0
 10
102.9876001074
 20
157.8594677525
 30
0.0
  0
SPLINE
  5
5DD
100
AcDbEntity
  8
0
100
AcDbSpline
 62
7
  6
BYLAYER
 70
0
 71
3
 72
18
 73
14
 74
0
 42
0.0000001
 43
0.0000001
 44
0.0000000001
 40
0.0
 40
0.0
 40
0.0
 40
0.0
 40
0.0879208031
 40
0.1627062136
 40
0.2289892041
 40
0.2961651483
 40
0.3730581852
 40
0.4633286749
 40
0.5658532541
 40
0.6765331405
 40
0.789727508
 40
0.8993694096
 40
1.0
 40
1.0
 40
1.0
 40
1.0
 10
103.0166876612
 20
159.3903505248
 30
0.0
 10
103.0151190418
 20
159.4271560415
 30
0.0
 10
103.019472452
 20
159.4960705265
 30
0.0
 10
103.0554109702
 20
159.587465642
 30
0.0
 10
103.1222018255
 20
159.6492207864
 30
0.0
 10
103.2116880619
 20
159.6691630022
 30
0.0
 10
103.3098016289
 20
159.6487320325
 30
0.0
 10
103.41007867
 20
159.5942335773
 30
0.0
 10
103.506595416
 20
159.5102011956
 30
0.0
 10
103.5925237899
 20
159.4029832272
 30
0.0
 10
103.6613994302
 20
159.280667495
 30
0.0
 10
103.7079320646
 20
159.152741558
 30
0.0
 10
103.7225163637
 20
159.0650721818
 30
0.0
 10
103.7243117419
 20
159.022946078
 30
0.0
  0
SPLINE
  5
5DE
100
AcDbEntity
  8
0
100
AcDbSpline
 62
7
  6
BYLAYER
 70
0
 71
3
 72
13
 73
9
 74
0
 42
0.0000001
 43
0.0000001
 44
0.0000000001
 40
0.0
 40
0.0
 40
0.0
 40
0.0
 40
0.1885683407
 40
0.353876683
 40
0.5034944674
 40
0.6520249422
 40
0.8146383276
 40
1.0
 40
1.0
 40
1.0
 40
1.0
 10
103.7033648668
 20
158.2647136202
 30
0.0
 10
103.7018868754
 20
158.2988548622
 30
0.0
 10
103.6923108324
 20
158.3630653296
 30
0.0
 10
103.6527414429
 20
158.4471649931
 30
0.0
 10
103.5890582959
 20
158.5057960434
 30
0.0
 10
103.5066502947
 20
158.5308857298
 30
0.0
 10
103.4153482827
 20
158.5213671714
 30
0.0
 10
103.3566838476
 20
158.49605258
 30
0.0
 10
103.3274478855
 20
158.4795090879
 30
0.0
  0
SPLINE
  5
5DF
100
AcDbEntity
  8
0
100
AcDbSpline
 62
7
  6
BYLAYER
 70
0
 71
3
 72
18
 73
14
 74
0
 42
0.0000001
 43
0.0000001
 44
0.0000000001
 40
0.0
 40
0.0
 40
0.0
 40
0.0
 40
0.1006305904
 40
0.210272492
 40
0.3234668595
 40
0.4341467459
 40
0.5366713251
 40
0.6269418148
 40
0.7038348517
 40
0.7710107959
 40
0.8372937864
 40
0.9120791969
 40
1.0
 40
1.0
 40
1.0
 40
1.0
 10
106.2012951414
 20
160.4637135647
 30
0.0
 10
106.1994997632
 20
160.5058396685
 30
0.0
 10
106.184915464
 20
160.5935090447
 30
0.0
 10
106.1383828297
 20
160.7214349817
 30
0.0
 10
106.0695071894
 20
160.8437507138
 30
0.0
 10
105.9835788155
 20
160.9509686823
 30
0.0
 10
105.8870620695
 20
161.035001064
 30
0.0
 10
105.7867850284
 20
161.0894995192
 30
0.0
 10
105.6886714614
 20
161.1099304889
 30
0.0
 10
105.599185225
 20
161.0899882731
 30
0.0
 10
105.5323943697
 20
161.0282331287
 30
0.0
 10
105.4964558515
 20
160.9368380132
 30
0.0
 10
105.4921024413
 20
160.8679235282
 30
0.0
 10
105.4936710607
 20
160.8311180115
 30
0.0
  0
SPLINE
  5
5E0
100
AcDbEntity
  8
0
100
AcDbSpline
 62
7
  6
BYLAYER
 70
0
 71
3
 72
18
 73
14
 74
0
 42
0.0000001
 43
0.0000001
 44
0.0000000001
 40
0.0
 40
0.0
 40
0.0
 40
0.0
 40
0.1006305904
 40
0.210272492
 40
0.3234668595
 40
0.4341467459
 40
0.5366713251
 40
0.6269418148
 40
0.7038348517
 40
0.7710107959
 40
0.8372937864
 40
0.9120791969
 40
1.0
 40
1.0
 40
1.0
 40
1.0
 10
104.0784228992
 20
161.5659269049
 30
0.0
 10
104.076627521
 20
161.6080530087
 30
0.0
 10
104.0620432218
 20
161.6957223849
 30
0.0
 10
104.0155105875
 20
161.8236483219
 30
0.0
 10
103.9466349472
 20
161.9459640541
 30
0.0
 10
103.8607065733
 20
162.0531820225
 30
0.0
 10
103.7641898273
 20
162.1372144042
 30
0.0
 10
103.6639127861
 20
162.1917128594
 30
0.0
 10
103.5657992192
 20
162.2121438291
 30
0.0
 10
103.4763129828
 20
162.1922016133
 30
0.0
 10
103.4095221275
 20
162.1304464689
 30
0.0
 10
103.3735836093
 20
162.0390513534
 30
0.0
 10
103.369230199
 20
161.9701368684
 30
0.0
 10
103.3707988185
 20
161.9333313517
 30
0.0
  0
SPLINE
  5
5E1
100
AcDbEntity
  8
0
100
AcDbSpline
 62
7
  6
BYLAYER
 70
0
 71
3
 72
18
 73
14
 74
0
 42
0.0000001
 43
0.0000001
 44
0.0000000001
 40
0.0
 40
0.0
 40
0.0
 40
0.0
 40
0.0879208031
 40
0.1627062136
 40
0.2289892041
 40
0.2961651483
 40
0.3730581852
 40
0.4633286749
 40
0.5658532541
 40
0.6765331405
 40
0.789727508
 40
0.8993694096
 40
1.0
 40
1.0
 40
1.0
 40
1.0
 10
86.0813135514
 20
151.8766921996
 30
0.0
 10
86.079744932
 20
151.9134977163
 30
0.0
 10
86.0840983422
 20
151.9824122013
 30
0.0
 10
86.1200368604
 20
152.0738073168
 30
0.0
 10
86.1868277157
 20
152.1355624612
 30
0.0
 10
86.2763139521
 20
152.155504677
 30
0.0
 10
86.374427519
 20
152.1350737073
 30
0.0
 10
86.4747045602
 20
152.0805752521
 30
0.0
 10
86.5712213062
 20
151.9965428704
 30
0.0
 10
86.6571496801
 20
151.889324902
 30
0.0
 10
86.7260253204
 20
151.7670091698
 30
0.0
 10
86.7725579547
 20
151.6390832328
 30
0.0
 10
86.7871422539
 20
151.5514138566
 30
0.0
 10
86.7889376321
 20
151.5092877528
 30
0.0
  0
SPLINE
  5
5E2
100
AcDbEntity
  8
0
100
AcDbSpline
 62
7
  6
BYLAYER
 70
0
 71
3
 72
18
 73
14
 74
0
 42
0.0000001
 43
0.0000001
 44
0.0000000001
 40
0.0
 40
0.0
 40
0.0
 40
0.0
 40
0.0879208031
 40
0.1627062136
 40
0.2289892041
 40
0.2961651483
 40
0.3730581852
 40
0.4633286749
 40
0.5658532541
 40
0.6765331405
 40
0.789727508
 40
0.8993694096
 40
1.0
 40
1.0
 40
1.0
 40
1.0
 10
88.2041857936
 20
150.7744788594
 30
0.0
 10
88.2026171742
 20
150.811284376
 30
0.0
 10
88.2069705844
 20
150.880198861
 30
0.0
 10
88.2429091026
 20
150.9715939766
 30
0.0
 10
88.3096999579
 20
151.033349121
 30
0.0
 10
88.3991861943
 20
151.0532913368
 30
0.0
 10
88.4972997613
 20
151.0328603671
 30
0.0
 10
88.5975768024
 20
150.9783619119
 30
0.0
 10
88.6940935484
 20
150.8943295302
 30
0.0
 10
88.7800219223
 20
150.7871115617
 30
0.0
 10
88.8488975626
 20
150.6647958296
 30
0.0
 10
88.895430197
 20
150.5368698926
 30
0.0
 10
88.9100144961
 20
150.4492005164
 30
0.0
 10
88.9118098743
 20
150.4070744126
 30
0.0
  0
SPLINE
  5
5E3
100
AcDbEntity
  8
0
100
AcDbSpline
 62
7
  6
BYLAYER
 70
0
 71
3
 72
13
 73
9
 74
0
 42
0.0000001
 43
0.0000001
 44
0.0000000001
 40
0.0
 40
0.0
 40
0.0
 40
0.0
 40
0.1857024179
 40
0.3482918768
 40
0.4964418605
 40
0.6452452398
 40
0.8104517936
 40
1.0
 40
1.0
 40
1.0
 40
1.0
 10
90.9338766845
 20
152.4003701549
 30
0.0
 10
90.9035599375
 20
152.4144771854
 30
0.0
 10
90.8434396613
 20
152.4349980193
 30
0.0
 10
90.7522516033
 20
152.4373959721
 30
0.0
 10
90.6728422908
 20
152.4058406301
 30
0.0
 10
90.6151324217
 20
152.3423406396
 30
0.0
 10
90.583457808
 20
152.2555992229
 30
0.0
 10
90.5795285928
 20
152.1910709204
 30
0.0
 10
90.5809818941
 20
152.1569711864
 30
0.0
  0
SPLINE
  5
5E4
100
AcDbEntity
  8
0
100
AcDbSpline
 62
7
  6
BYLAYER
 70
0
 71
3
 72
18
 73
14
 74
0
 42
0.0000001
 43
0.0000001
 44
0.0000000001
 40
0.0
 40
0.0
 40
0.0
 40
0.0
 40
0.0870543716
 40
0.1621700383
 40
0.2301085679
 40
0.2995656127
 40
0.3783186086
 40
0.4694859092
 40
0.5718718218
 40
0.6815387076
 40
0.7931323254
 40
0.9009583605
 40
1.0
 40
1.0
 40
1.0
 40
1.0
 10
93.4655286842
 20
152.3155684728
 30
0.0
 10
93.4639540171
 20
152.3525158893
 30
0.0
 10
93.4532546511
 20
152.4215630325
 30
0.0
 10
93.407339269
 20
152.5105398797
 30
0.0
 10
93.332571672
 20
152.5672636692
 30
0.0
 10
93.2385142157
 20
152.5814725209
 30
0.0
 10
93.1381954765
 20
152.5553541227
 30
0.0
 10
93.0382200708
 20
152.4948559713
 30
0.0
 10
92.9447194918
 20
152.4050131011
 30
0.0
 10
92.8643135759
 20
152.2926343351
 30
0.0
 10
92.8030421791
 20
152.166212162
 30
0.0
 10
92.7655922608
 20
152.035530275
 30
0.0
 10
92.7580439114
 20
151.9471284305
 30
0.0
 10
92.759835408
 20
151.9050934053
 30
0.0
  0
SPLINE
  5
5E5
100
AcDbEntity
  8
0
100
AcDbSpline
 62
7
  6
BYLAYER
 70
0
 71
3
 72
13
 73
9
 74
0
 42
0.0000001
 43
0.0000001
 44
0.0000000001
 40
0.0
 40
0.0
 40
0.0
 40
0.0
 40
0.1562512981
 40
0.3255799823
 40
0.5014339622
 40
0.6777739205
 40
0.846063715
 40
1.0
 40
1.0
 40
1.0
 40
1.0
 10
91.3255948727
 20
151.8110817815
 30
0.0
 10
91.3239595561
 20
151.8494522566
 30
0.0
 10
91.3109281483
 20
151.9291065644
 30
0.0
 10
91.2688139348
 20
152.0455185711
 30
0.0
 10
91.2060252955
 20
152.1578955754
 30
0.0
 10
91.1266838364
 20
152.2589486645
 30
0.0
 10
91.0359952822
 20
152.3421687859
 30
0.0
 10
90.9681809617
 20
152.3844076415
 30
0.0
 10
90.9338766845
 20
152.4003701549
 30
0.0
  0
SPLINE
  5
5E6
100
AcDbEntity
  8
0
100
AcDbSpline
 62
7
  6
BYLAYER
 70
0
 71
3
 72
13
 73
9
 74
0
 42
0.0000001
 43
0.0000001
 44
0.0000000001
 40
0.0
 40
0.0
 40
0.0
 40
0.0
 40
0.1853384479
 40
0.3505030119
 40
0.5025440125
 40
0.653248351
 40
0.8165909904
 40
1.0
 40
1.0
 40
1.0
 40
1.0
 10
94.1004219614
 20
152.0055442032
 30
0.0
 10
94.1311903587
 20
152.0215067262
 30
0.0
 10
94.1931291211
 20
152.0454671243
 30
0.0
 10
94.2886061666
 20
152.0524176564
 30
0.0
 10
94.3744188435
 20
152.025335894
 30
0.0
 10
94.4411999712
 20
151.9655333348
 30
0.0
 10
94.4830952991
 20
151.880461109
 30
0.0
 10
94.4932081026
 20
151.8155008697
 30
0.0
 10
94.4946686881
 20
151.7812302216
 30
0.0
  0
SPLINE
  5
5E7
100
AcDbEntity
  8
0
100
AcDbSpline
 62
7
  6
BYLAYER
 70
0
 71
3
 72
13
 73
9
 74
0
 42
0.0000001
 43
0.0000001
 44
0.0000000001
 40
0.0
 40
0.0
 40
0.0
 40
0.0
 40
0.1554385292
 40
0.3235968015
 40
0.4985201157
 40
0.6745581007
 40
0.8436237162
 40
1.0
 40
1.0
 40
1.0
 40
1.0
 10
93.7455673285
 20
151.3932930006
 30
0.0
 10
93.7439341222
 20
151.4316139605
 30
0.0
 10
93.7504033695
 20
151.5119365966
 30
0.0
 10
93.7836523393
 20
151.6309890209
 30
0.0
 10
93.8387044713
 20
151.7473121306
 30
0.0
 10
93.9121478766
 20
151.8532756639
 30
0.0
 10
93.9993302163
 20
151.9419457668
 30
0.0
 10
94.0661699333
 20
151.9877743863
 30
0.0
 10
94.1004219614
 20
152.0055442032
 30
0.0
  0
SPLINE
  5
5E8
100
AcDbEntity
  8
0
100
AcDbSpline
 62
7
  6
BYLAYER
 70
0
 71
3
 72
13
 73
9
 74
0
 42
0.0000001
 43
0.0000001
 44
0.0000000001
 40
0.0
 40
0.0
 40
0.0
 40
0.0
 40
0.1848283675
 40
0.3423117284
 40
0.4843015965
 40
0.6309146248
 40
0.8003917817
 40
1.0
 40
1.0
 40
1.0
 40
1.0
 10
96.1920708875
 20
151.9533510385
 30
0.0
 10
96.164757044
 20
151.9687841971
 30
0.0
 10
96.110765068
 20
151.9922322838
 30
0.0
 10
96.0268555261
 20
151.9998665123
 30
0.0
 10
95.9532221893
 20
151.971755551
 30
0.0
 10
95.9011436682
 20
151.9104187517
 30
0.0
 10
95.8733817352
 20
151.8258889837
 30
0.0
 10
95.8702211047
 20
151.762699315
 30
0.0
 10
95.8716637792
 20
151.7288489249
 30
0.0
  0
SPLINE
  5
5E9
100
AcDbEntity
  8
0
100
AcDbSpline
 62
7
  6
BYLAYER
 70
0
 71
3
 72
18
 73
14
 74
0
 42
0.0000001
 43
0.0000001
 44
0.0000000001
 40
0.0
 40
0.0
 40
0.0
 40
0.0
 40
0.0879208031
 40
0.1627062136
 40
0.2289892041
 40
0.2961651483
 40
0.3730581852
 40
0.4633286749
 40
0.5658532541
 40
0.6765331405
 40
0.789727508
 40
0.8993694096
 40
1.0
 40
1.0
 40
1.0
 40
1.0
 10
99.737356412
 20
153.9773760084
 30
0.0
 10
99.7357877926
 20
154.0141815251
 30
0.0
 10
99.7401412029
 20
154.0830960101
 30
0.0
 10
99.776079721
 20
154.1744911256
 30
0.0
 10
99.8428705764
 20
154.23624627
 30
0.0
 10
99.9323568128
 20
154.2561884858
 30
0.0
 10
100.0304703797
 20
154.2357575161
 30
0.0
 10
100.1307474208
 20
154.1812590609
 30
0.0
 10
100.2272641668
 20
154.0972266792
 30
0.0
 10
100.3131925407
 20
153.9900087108
 30
0.0
 10
100.382068181
 20
153.8676929786
 30
0.0
 10
100.4286008154
 20
153.7397670416
 30
0.0
 10
100.4431851145
 20
153.6520976654
 30
0.0
 10
100.4449804928
 20
153.6099715616
 30
0.0
  0
SPLINE
  5
5EA
100
AcDbEntity
  8
0
100
AcDbSpline
 62
7
  6
BYLAYER
 70
0
 71
3
 72
13
 73
9
 74
0
 42
0.0000001
 43
0.0000001
 44
0.0000000001
 40
0.0
 40
0.0
 40
0.0
 40
0.0
 40
0.1583427673
 40
0.3300476153
 40
0.5078408979
 40
0.6844162991
 40
0.8507685996
 40
1.0
 40
1.0
 40
1.0
 40
1.0
 10
96.5505708339
 20
151.3447408711
 30
0.0
 10
96.5489272957
 20
151.3833042531
 30
0.0
 10
96.5367653461
 20
151.4633966542
 30
0.0
 10
96.4982498179
 20
151.5815031246
 30
0.0
 10
96.440993694
 20
151.6967464269
 30
0.0
 10
96.3686780728
 20
151.8016325155
 30
0.0
 10
96.2860988408
 20
151.8892976788
 30
0.0
 10
96.2237421976
 20
151.9354557777
 30
0.0
 10
96.1920708875
 20
151.9533510385
 30
0.0
  0
SPLINE
  5
5EB
100
AcDbEntity
  8
0
100
AcDbSpline
 62
7
  6
BYLAYER
 70
0
 71
3
 72
14
 73
10
 74
0
 42
0.0000001
 43
0.0000001
 44
0.0000000001
 40
0.0
 40
0.0
 40
0.0
 40
0.0
 40
0.1130714209
 40
0.2585278345
 40
0.407644555
 40
0.5585296209
 40
0.7091721326
 40
0.8576376604
 40
1.0
 40
1.0
 40
1.0
 40
1.0
 10
93.8564391586
 20
151.1619275018
 30
0.0
 10
93.9414182281
 20
151.1064669741
 30
0.0
 10
94.1480417386
 20
150.997740225
 30
0.0
 10
94.4971606121
 20
150.8842004068
 30
0.0
 10
94.8927614824
 20
150.8194686927
 30
0.0
 10
95.2978533939
 20
150.8080729658
 30
0.0
 10
95.7005486788
 20
150.8483283319
 30
0.0
 10
96.0869963938
 20
150.9395382391
 30
0.0
 10
96.3305595666
 20
151.0366325449
 30
0.0
 10
96.4444351792
 20
151.0943706196
 30
0.0
  0
SPLINE
  5
5EC
100
AcDbEntity
  8
0
100
AcDbSpline
 62
7
  6
BYLAYER
 70
0
 71
3
 72
16
 73
12
 74
0
 42
0.0000001
 43
0.0000001
 44
0.0000000001
 40
0.0
 40
0.0
 40
0.0
 40
0.0
 40
0.0730778192
 40
0.1707638444
 40
0.2865883383
 40
0.4148985237
 40
0.5489667836
 40
0.6813410817
 40
0.8048060116
 40
0.9126702976
 40
1.0
 40
1.0
 40
1.0
 40
1.0
 10
91.232587778
 20
151.5692464318
 30
0.0
 10
91.266327221
 20
151.5939351896
 30
0.0
 10
91.3503394979
 20
151.6446318567
 30
0.0
 10
91.5011474871
 20
151.7099774622
 30
0.0
 10
91.6891348292
 20
151.7654924359
 30
0.0
 10
91.9026015147
 20
151.8032955078
 30
0.0
 10
92.1283280427
 20
151.8188127117
 30
0.0
 10
92.3516582584
 20
151.8105200332
 30
0.0
 10
92.5579589469
 20
151.7801200259
 30
0.0
 10
92.7343739564
 20
151.7325461897
 30
0.0
 10
92.837942633
 20
151.689600337
 30
0.0
 10
92.8822821898
 20
151.6665788616
 30
0.0
  0
SPLINE
  5
5ED
100
AcDbEntity
  8
0
100
AcDbSpline
 62
7
  6
BYLAYER
 70
0
 71
3
 72
11
 73
7
 74
0
 42
0.0000001
 43
0.0000001
 44
0.0000000001
 40
0.0
 40
0.0
 40
0.0
 40
0.0
 40
0.5091025016
 40
0.8357064558
 40
0.9619797978
 40
1.0
 40
1.0
 40
1.0
 40
1.0
 10
86.6865219964
 20
151.2607864966
 30
0.0
 10
86.6471520833
 20
151.2378865084
 30
0.0
 10
86.5830008344
 20
151.1831223281
 30
0.0
 10
86.5259960531
 20
151.1557608109
 30
0.0
 10
86.4961784219
 20
151.0778381714
 30
0.0
 10
86.496413864
 20
151.096082026
 30
0.0
 10
86.4968903459
 20
151.099972414
 30
0.0
  0
SPLINE
  5
5EE
100
AcDbEntity
  8
0
100
AcDbSpline
 62
7
  6
BYLAYER
 70
0
 71
3
 72
18
 73
14
 74
0
 42
0.0000001
 43
0.0000001
 44
0.0000000001
 40
0.0
 40
0.0
 40
0.0
 40
0.0
 40
0.0453934875
 40
0.1168857988
 40
0.1962997802
 40
0.2862267476
 40
0.3841965021
 40
0.4864992402
 40
0.5907764225
 40
0.695686122
 40
0.7998645202
 40
0.9018164705
 40
1.0
 40
1.0
 40
1.0
 40
1.0
 10
85.4984159029
 20
151.0564809341
 30
0.0
 10
85.5010081976
 20
150.99645394
 30
0.0
 10
85.5222229457
 20
150.8424846049
 30
0.0
 10
85.6191006247
 20
150.5985711819
 30
0.0
 10
85.8161317075
 20
150.344347913
 30
0.0
 10
86.0988431215
 20
150.1279452308
 30
0.0
 10
86.4477967288
 20
149.9647909679
 30
0.0
 10
86.8372597907
 20
149.8596832415
 30
0.0
 10
87.2465429808
 20
149.8109970732
 30
0.0
 10
87.6610007282
 20
149.8160532373
 30
0.0
 10
88.0684779101
 20
149.8734182188
 30
0.0
 10
88.4560260344
 20
149.9827524175
 30
0.0
 10
88.6974374873
 20
150.0934521519
 30
0.0
 10
88.8093942386
 20
150.1585731564
 30
0.0
  0
SPLINE
  5
5EF
100
AcDbEntity
  8
0
100
AcDbSpline
 62
7
  6
BYLAYER
 70
0
 71
3
 72
19
 73
15
 74
0
 42
0.0000001
 43
0.0000001
 44
0.0000000001
 40
0.0
 40
0.0
 40
0.0
 40
0.0
 40
0.0011045253
 40
0.0024854754
 40
0.0285296686
 40
0.0819884663
 40
0.160453505
 40
0.2624533992
 40
0.3834396634
 40
0.516516755
 40
0.6535697852
 40
0.7853657109
 40
0.9032390142
 40
1.0
 40
1.0
 40
1.0
 40
1.0
 10
105.7857183469
 20
161.2404333503
 30
0.0
 10
105.7856194632
 20
161.2396259827
 30
0.0
 10
105.7853560508
 20
161.2378413222
 30
0.0
 10
105.7813410356
 20
161.2195912899
 30
0.0
 10
105.738428855
 20
161.3163919779
 30
0.0
 10
105.6627887705
 20
161.3344030795
 30
0.0
 10
105.5253151288
 20
161.421342166
 30
0.0
 10
105.3424387095
 20
161.4724074329
 30
0.0
 10
105.1175368889
 20
161.5158684905
 30
0.0
 10
104.8675509837
 20
161.5296755886
 30
0.0
 10
104.6104978408
 20
161.5151387437
 30
0.0
 10
104.3665088236
 20
161.4720154235
 30
0.0
 10
104.154375297
 20
161.4066927685
 30
0.0
 10
104.0294608217
 20
161.3485175603
 30
0.0
 10
103.9760072635
 20
161.3174256488
 30
0.0
  0
SPLINE
  5
5F0
100
AcDbEntity
  8
0
100
AcDbSpline
 62
7
  6
BYLAYER
 70
0
 71
3
 72
12
 73
8
 74
0
 42
0.0000001
 43
0.0000001
 44
0.0000000001
 40
0.0
 40
0.0
 40
0.0
 40
0.0
 40
0.2745739807
 40
0.5131264148
 40
0.7293229988
 40
0.9320367002
 40
1.0
 40
1.0
 40
1.0
 40
1.0
 10
106.0988795057
 20
160.2152123085
 30
0.0
 10
106.2043149471
 20
160.2765401139
 30
0.0
 10
106.3917351105
 20
160.4097732361
 30
0.0
 10
106.6087274883
 20
160.6544251154
 30
0.0
 10
106.742580051
 20
160.9179399467
 30
0.0
 10
106.7849883844
 20
161.1328880502
 30
0.0
 10
106.7854998059
 20
161.2536596618
 30
0.0
 10
106.78419279
 20
161.2839248302
 30
0.0
  0
SPLINE
  5
5F1
100
AcDbEntity
  8
0
100
AcDbSpline
 62
7
  6
BYLAYER
 70
0
 71
3
 72
11
 73
7
 74
0
 42
0.0000001
 43
0.0000001
 44
0.0000000001
 40
0.0
 40
0.0
 40
0.0
 40
0.0
 40
0.2989354302
 40
0.5618653823
 40
0.7975547694
 40
1.0
 40
1.0
 40
1.0
 40
1.0
 10
103.1081823237
 20
157.6219695049
 30
0.0
 10
103.0018582967
 20
157.6800882077
 30
0.0
 10
102.811827269
 20
157.8098549611
 30
0.0
 10
102.595588776
 20
158.0550591227
 30
0.0
 10
102.471059372
 20
158.3146782466
 30
0.0
 10
102.4400780234
 20
158.4917126216
 30
0.0
 10
102.4365225909
 20
158.5739625626
 30
0.0
  0
SPLINE
  5
5F2
100
AcDbEntity
  8
0
100
AcDbSpline
 62
7
  6
BYLAYER
 70
0
 71
3
 72
12
 73
8
 74
0
 42
0.0000001
 43
0.0000001
 44
0.0000000001
 40
0.0
 40
0.0
 40
0.0
 40
0.0
 40
0.0089100863
 40
0.0265926653
 40
0.1800787336
 40
0.5069666823
 40
1.0
 40
1.0
 40
1.0
 40
1.0
 10
103.4353735148
 20
158.6162956214
 30
0.0
 10
103.4354873109
 20
158.6153480208
 30
0.0
 10
103.4357562214
 20
158.6125450241
 30
0.0
 10
103.4351730895
 20
158.5959703671
 30
0.0
 10
103.4697857395
 20
158.6778581023
 30
0.0
 10
103.5233948749
 20
158.7008244805
 30
0.0
 10
103.5851588923
 20
158.753076175
 30
0.0
 10
103.6218961062
 20
158.7744448219
 30
0.0
  0
SPLINE
  5
5F3
100
AcDbEntity
  8
0
100
AcDbSpline
 62
7
  6
BYLAYER
 70
0
 71
3
 72
12
 73
8
 74
0
 42
0.0000001
 43
0.0000001
 44
0.0000000001
 40
0.0
 40
0.0
 40
0.0
 40
0.0
 40
0.0295599039
 40
0.0995722863
 40
0.2938264016
 40
0.6045411229
 40
1.0
 40
1.0
 40
1.0
 40
1.0
 10
104.4228081943
 20
156.9071486731
 30
0.0
 10
104.4231604047
 20
156.902976733
 30
0.0
 10
104.4269378722
 20
156.8886499888
 30
0.0
 10
104.3989558648
 20
156.9436324298
 30
0.0
 10
104.3572050957
 20
156.9664693533
 30
0.0
 10
104.2663514878
 20
157.0347999905
 30
0.0
 10
104.1933739547
 20
157.0652319392
 30
0.0
 10
104.151172127
 20
157.0814526198
 30
0.0
  0
SPLINE
  5
5F4
100
AcDbEntity
  8
0
100
AcDbSpline
 62
7
  6
BYLAYER
 70
0
 71
3
 72
11
 73
7
 74
0
 42
0.0000001
 43
0.0000001
 44
0.0000000001
 40
0.0
 40
0.0
 40
0.0
 40
0.0
 40
0.3276560912
 40
0.6264837623
 40
0.9033380937
 40
1.0
 40
1.0
 40
1.0
 40
1.0
 10
105.0287955374
 20
156.0925071796
 30
0.0
 10
105.1074736167
 20
156.1638000897
 30
0.0
 10
105.244240519
 20
156.3168417943
 30
0.0
 10
105.3790932137
 20
156.5803483238
 30
0.0
 10
105.4224292522
 20
156.7966579579
 30
0.0
 10
105.4231645903
 20
156.9181804085
 30
0.0
 10
105.4218113497
 20
156.949564918
 30
0.0
  0
SPLINE
  5
5F5
100
AcDbEntity
  8
0
100
AcDbSpline
 62
7
  6
BYLAYER
 70
0
 71
3
 72
12
 73
8
 74
0
 42
0.0000001
 43
0.0000001
 44
0.0000000001
 40
0.0
 40
0.0
 40
0.0
 40
0.0
 40
0.1203366872
 40
0.3150399107
 40
0.5311055514
 40
0.7755456537
 40
1.0
 40
1.0
 40
1.0
 40
1.0
 10
105.4218113497
 20
156.949564918
 30
0.0
 10
105.4193251494
 20
157.0072251587
 30
0.0
 10
105.3991765383
 20
157.1576118989
 30
0.0
 10
105.3064120096
 20
157.3975458812
 30
0.0
 10
105.1150653213
 20
157.6503641151
 30
0.0
 10
104.8551423559
 20
157.8544977861
 30
0.0
 10
104.653841774
 20
157.9559815739
 30
0.0
 10
104.5545811507
 20
157.9969926342
 30
0.0
  0
SPLINE
  5
5F6
100
AcDbEntity
  8
0
100
AcDbSpline
 62
7
  6
BYLAYER
 70
0
 71
3
 72
11
 73
7
 74
0
 42
0.0000001
 43
0.0000001
 44
0.0000000001
 40
0.0
 40
0.0
 40
0.0
 40
0.0
 40
0.4365511745
 40
0.8983557355
 40
0.9813376341
 40
1.0
 40
1.0
 40
1.0
 40
1.0
 10
104.3842526559
 20
156.855657122
 30
0.0
 10
104.3911881033
 20
156.8625620352
 30
0.0
 10
104.4056155952
 20
156.8811546539
 30
0.0
 10
104.4245718822
 20
156.9260570847
 30
0.0
 10
104.422580118
 20
156.9107225345
 30
0.0
 10
104.422761288
 20
156.9077042795
 30
0.0
 10
104.4228081943
 20
156.9071486731
 30
0.0
  0
SPLINE
  5
5F7
100
AcDbEntity
  8
0
100
AcDbSpline
 62
7
  6
BYLAYER
 70
0
 71
3
 72
11
 73
7
 74
0
 42
0.0000001
 43
0.0000001
 44
0.0000000001
 40
0.0
 40
0.0
 40
0.0
 40
0.0
 40
0.5094218506
 40
0.8364556623
 40
0.9449307578
 40
1.0
 40
1.0
 40
1.0
 40
1.0
 10
103.5836277193
 20
158.5017739636
 30
0.0
 10
103.5524792729
 20
158.5194284933
 30
0.0
 10
103.5009933983
 20
158.5588669013
 30
0.0
 10
103.4585399917
 20
158.5818763315
 30
0.0
 10
103.4313685072
 20
158.6356856174
 30
0.0
 10
103.4348057834
 20
158.6210229681
 30
0.0
 10
103.4353734972
 20
158.616295615
 30
0.0
  0
SPLINE
  5
5F8
100
AcDbEntity
  8
0
100
AcDbSpline
 62
7
  6
BYLAYER
 70
0
 71
3
 72
12
 73
8
 74
0
 42
0.0000001
 43
0.0000001
 44
0.0000000001
 40
0.0
 40
0.0
 40
0.0
 40
0.0
 40
0.0205056007
 40
0.2298827541
 40
0.456559762
 40
0.7126308019
 40
1.0
 40
1.0
 40
1.0
 40
1.0
 10
102.4365225914
 20
158.5739625569
 30
0.0
 10
102.4361294807
 20
158.5830566199
 30
0.0
 10
102.4331970595
 20
158.6850692593
 30
0.0
 10
102.4604620359
 20
158.8881290846
 30
0.0
 10
102.5887128822
 20
159.1708770231
 30
0.0
 10
102.8119209296
 20
159.4334482233
 30
0.0
 10
103.0091969659
 20
159.5749234283
 30
0.0
 10
103.1191032969
 20
159.638851781
 30
0.0
  0
SPLINE
  5
5F9
100
AcDbEntity
  8
0
100
AcDbSpline
 62
7
  6
BYLAYER
 70
0
 71
3
 72
18
 73
14
 74
0
 42
0.0000001
 43
0.0000001
 44
0.0000000001
 40
0.0
 40
0.0
 40
0.0
 40
0.0
 40
0.0453934875
 40
0.1168857988
 40
0.1962997802
 40
0.2862267476
 40
0.3841965021
 40
0.4864992402
 40
0.5907764225
 40
0.695686122
 40
0.7998645202
 40
0.9018164705
 40
1.0
 40
1.0
 40
1.0
 40
1.0
 10
106.78419279
 20
161.2839248302
 30
0.0
 10
106.7816004952
 20
161.3439518243
 30
0.0
 10
106.7603857472
 20
161.4979211594
 30
0.0
 10
106.6635080681
 20
161.7418345824
 30
0.0
 10
106.4664769853
 20
161.9960578513
 30
0.0
 10
106.1837655714
 20
162.2124605335
 30
0.0
 10
105.834811964
 20
162.3756147964
 30
0.0
 10
105.4453489022
 20
162.4807225228
 30
0.0
 10
105.036065712
 20
162.5294086911
 30
0.0
 10
104.6216079646
 20
162.524352527
 30
0.0
 10
104.2141307827
 20
162.4669875455
 30
0.0
 10
103.8265826584
 20
162.3576533468
 30
0.0
 10
103.5851712055
 20
162.2469536124
 30
0.0
 10
103.4732144542
 20
162.1818326079
 30
0.0
  0
SPLINE
  5
5FA
100
AcDbEntity
  8
0
100
AcDbSpline
 62
7
  6
BYLAYER
 70
0
 71
3
 72
11
 73
7
 74
0
 42
0.0000001
 43
0.0000001
 44
0.0000000001
 40
0.0
 40
0.0
 40
0.0
 40
0.0
 40
0.5091025016
 40
0.8357064558
 40
0.9619797978
 40
1.0
 40
1.0
 40
1.0
 40
1.0
 10
105.5960866964
 20
161.0796192676
 30
0.0
 10
105.6354566096
 20
161.1025192559
 30
0.0
 10
105.6996078585
 20
161.1572834362
 30
0.0
 10
105.7566126397
 20
161.1846449534
 30
0.0
 10
105.786430271
 20
161.2625675929
 30
0.0
 10
105.7861948288
 20
161.2443237383
 30
0.0
 10
105.7857183469
 20
161.2404333503
 30
0.0
  0
SPLINE
  5
5FB
100
AcDbEntity
  8
0
100
AcDbSpline
 62
7
  6
BYLAYER
 70
0
 71
3
 72
12
 73
8
 74
0
 42
0.0000001
 43
0.0000001
 44
0.0000000001
 40
0.0
 40
0.0
 40
0.0
 40
0.0
 40
0.2745739807
 40
0.5131264148
 40
0.7293229988
 40
0.9320367002
 40
1.0
 40
1.0
 40
1.0
 40
1.0
 10
86.1837291871
 20
152.1251934558
 30
0.0
 10
86.0782937458
 20
152.0638656504
 30
0.0
 10
85.8908735824
 20
151.9306325282
 30
0.0
 10
85.6738812045
 20
151.6859806489
 30
0.0
 10
85.5400286419
 20
151.4224658176
 30
0.0
 10
85.4976203084
 20
151.2075177141
 30
0.0
 10
85.4971088869
 20
151.0867461025
 30
0.0
 10
85.4984159029
 20
151.0564809341
 30
0.0
  0
SPLINE
  5
5FC
100
AcDbEntity
  8
0
100
AcDbSpline
 62
7
  6
BYLAYER
 70
0
 71
3
 72
19
 73
15
 74
0
 42
0.0000001
 43
0.0000001
 44
0.0000000001
 40
0.0
 40
0.0
 40
0.0
 40
0.0
 40
0.0011045253
 40
0.0024854754
 40
0.0285296686
 40
0.0819884663
 40
0.160453505
 40
0.2624533992
 40
0.3834396634
 40
0.516516755
 40
0.6535697852
 40
0.7853657109
 40
0.9032390142
 40
1.0
 40
1.0
 40
1.0
 40
1.0
 10
86.4968903459
 20
151.099972414
 30
0.0
 10
86.4969892296
 20
151.1007797816
 30
0.0
 10
86.497252642
 20
151.1025644421
 30
0.0
 10
86.5012676573
 20
151.1208144744
 30
0.0
 10
86.5441798379
 20
151.0240137864
 30
0.0
 10
86.6198199223
 20
151.0060026848
 30
0.0
 10
86.757293564
 20
150.9190635983
 30
0.0
 10
86.9401699833
 20
150.8679983314
 30
0.0
 10
87.1650718039
 20
150.8245372738
 30
0.0
 10
87.4150577091
 20
150.8107301757
 30
0.0
 10
87.6721108521
 20
150.8252670205
 30
0.0
 10
87.9160998692
 20
150.8683903408
 30
0.0
 10
88.1282333958
 20
150.9337129958
 30
0.0
 10
88.2531478712
 20
150.991888204
 30
0.0
 10
88.3066014293
 20
151.0229801155
 30
0.0
  0
SPLINE
  5
5FD
100
AcDbEntity
  8
0
100
AcDbSpline
 62
7
  6
BYLAYER
 70
0
 71
3
 72
14
 73
10
 74
0
 42
0.0000001
 43
0.0000001
 44
0.0000000001
 40
0.0
 40
0.0
 40
0.0
 40
0.0
 40
0.11942481
 40
0.2654821404
 40
0.4145096198
 40
0.5646070696
 40
0.7136219412
 40
0.8595552284
 40
1.0
 40
1.0
 40
1.0
 40
1.0
 10
90.6760734374
 20
152.4005134221
 30
0.0
 10
90.7671045042
 20
152.4637640432
 30
0.0
 10
90.9832687386
 20
152.5852750707
 30
0.0
 10
91.3464170189
 20
152.7162223702
 30
0.0
 10
91.7527159737
 20
152.7976395684
 30
0.0
 10
92.1687835073
 20
152.82420533
 30
0.0
 10
92.58198702
 20
152.7960445831
 30
0.0
 10
92.9784402258
 20
152.7118616585
 30
0.0
 10
93.2274479044
 20
152.6141211726
 30
0.0
 10
93.3430819023
 20
152.5540830165
 30
0.0
  0
SPLINE
  5
5FE
100
AcDbEntity
  8
0
100
AcDbSpline
 62
7
  6
BYLAYER
 70
0
 71
3
 72
15
 73
11
 74
0
 42
0.0000001
 43
0.0000001
 44
0.0000000001
 40
0.0
 40
0.0
 40
0.0
 40
0.0
 40
0.0751012939
 40
0.1809147373
 40
0.3101940468
 40
0.4558787588
 40
0.6086928477
 40
0.7585199958
 40
0.8956289824
 40
1.0
 40
1.0
 40
1.0
 40
1.0
 10
94.3875710522
 20
152.0097626313
 30
0.0
 10
94.4213598782
 20
151.9861194978
 30
0.0
 10
94.5088733985
 20
151.937870111
 30
0.0
 10
94.669206247
 20
151.878865165
 30
0.0
 10
94.8739664063
 20
151.8336181781
 30
0.0
 10
95.1083599493
 20
151.8113292768
 30
0.0
 10
95.3550360166
 20
151.8166223268
 30
0.0
 10
95.5948197561
 20
151.8496557772
 30
0.0
 10
95.8031282933
 20
151.9044184092
 30
0.0
 10
95.9266188758
 20
151.9540188946
 30
0.0
 10
95.9780924604
 20
151.9792376958
 30
0.0
  0
ELLIPSE
  5
5FF
100
AcDbEntity
  8
0
100
AcDbEllipse
 62
7
  6
BYLAYER
 10
7.2468701838
 20
247.4544746119
 30
0.0
 11
159.7423991634
 21
18.8292828909
 31
0.0
 40
0.4819921542
 41
-0.9833960818
 42
-0.7012107629
  0
ELLIPSE
  5
600
100
AcDbEntity
  8
0
100
AcDbEllipse
 62
7
  6
BYLAYER
 10
39.0715277067
 20
265.8225831469
 30
0.0
 11
159.7423991634
 21
18.8292828909
 31
0.0
 40
0.4819921542
 41
-0.9833960818
 42
-0.7012107629
  0
ELLIPSE
  5
601
100
AcDbEntity
  8
0
100
AcDbEllipse
 62
7
  6
BYLAYER
 10
149.3030155849
 20
232.38813682
 30
0.0
 11
25.209347368
 21
2.9714962062
 31
0.0
 40
0.4819921542
 41
-0.8423034224
 42
-0.6429661174
  0
ELLIPSE
  5
602
100
AcDbEntity
  8
0
100
AcDbEllipse
 62
7
  6
BYLAYER
 10
141.8772621629
 20
228.1022448285
 30
0.0
 11
25.209347368
 21
2.9714962062
 31
0.0
 40
0.4819921542
 41
-0.8423034224
 42
-0.6429661174
  0
ELLIPSE
  5
603
100
AcDbEntity
  8
0
100
AcDbEllipse
 62
7
  6
BYLAYER
 10
117.478358062
 20
214.020028285
 30
0.0
 11
25.209347368
 21
2.9714962062
 31
0.0
 40
0.4819921542
 41
-0.8423034224
 42
-0.6429661174
  0
ELLIPSE
  5
604
100
AcDbEntity
  8
0
100
AcDbEllipse
 62
7
  6
BYLAYER
 10
131.3333412906
 20
225.3989713991
 30
0.0
 11
29.9516998431
 21
3.530490542
 31
0.0
 40
0.4819921542
 41
-0.9928716951
 42
-0.6917351496
  0
ELLIPSE
  5
605
100
AcDbEntity
  8
0
100
AcDbEllipse
 62
7
  6
BYLAYER
 10
110.05260464
 20
209.7341362935
 30
0.0
 11
25.209347368
 21
2.9714962062
 31
0.0
 40
0.4819921542
 41
-0.8423034224
 42
-0.6429661174
  0
ELLIPSE
  5
606
100
AcDbEntity
  8
0
100
AcDbEllipse
 62
7
  6
BYLAYER
 10
99.5086837677
 20
207.0308628642
 30
0.0
 11
29.9516998431
 21
3.530490542
 31
0.0
 40
0.4819921542
 41
-0.9928716951
 42
-0.6917351496
  0
ENDSEC
  0
SECTION
  2
OBJECTS
  0
DICTIONARY
  5
C
100
AcDbDictionary
280
0
281
1
  3
ACAD_GROUP
350
D
  3
ACAD_MLINESTYLE
350
17
  3
ACAD_LAYOUT
350
1A
  3
ACAD_PLOTSETTINGS
350
19
  3
ACAD_PLOTSTYLENAME
350
E
  0
DICTIONARY
  5
D
102
{ACAD_REACTORS
330
C
102
}
100
AcDbDictionary
280
0
281
1
  0
ACDBDICTIONARYWDFLT
  5
E
102
{ACAD_REACTORS
330
C
102
}
100
AcDbDictionary
281
1
  3
Normal
350
F
100
AcDbDictionaryWithDefault
340
F
  0
DICTIONARY
  5
17
102
{ACAD_REACTORS
330
C
102
}
100
AcDbDictionary
280
0
281
1
  3
Standard
350
18
  0
DICTIONARY
  5
19
102
{ACAD_REACTORS
330
C
102
}
100
AcDbDictionary
281
1
  0
DICTIONARY
  5
1A
102
{ACAD_REACTORS
330
C
102
}
100
AcDbDictionary
281
1
  3
Model
350
607
  3
Layout1
350
608
  0
ACDBPLACEHOLDER
  5
F
102
{ACAD_REACTORS
330
E
102
}
  0
MLINESTYLE
  5
18
102
{ACAD_REACTORS
330
17
102
}
100
AcDbMlineStyle
  2
STANDARD
 70
0
  3

 62
256
 51
90.0
 52
90.0
 71
2
 49
0.5
 62
256
  6
BYLAYER
 49
-0.5
 62
256
  6
BYLAYER
  0
LAYOUT
  5
607
102
{ACAD_REACTORS
330
1A
102
}
100
AcDbPlotSettings
  1

  2
none_device
  4

  6

 40
0.0
 41
0.0
 42
0.0
 43
0.0
 44
210.0
 45
297.0
 46
0.0
 47
0.0
 48
0.0
 49
0.0
140
0.0
141
0.0
142
1.0
143
1.0
 70
1024
 72
1
 73
0
 74
0
  7

 75
0
147
1.0
148
0.0
149
0.0
100
AcDbLayout
  1
Model
 70
0
 71
0
 10
0.0
 20
0.0
 11
210.0
 21
297.0
 12
0.0
 22
0.0
 32
0.0
 14
0.0
 24
0.0
 34
0.0
 15
0.0
 25
0.0
 35
0.0
146
0.0
 13
0.0
 23
0.0
 33
0.0
 16
1.0
 26
0.0
 36
0.0
 17
0.0
 27
1.0
 37
0.0
 76
0
330
210
345
0
346
0
  0
LAYOUT
  5
608
102
{ACAD_REACTORS
330
1A
102
}
100
AcDbPlotSettings
  1

  2
none_device
  4

  6

 40
0.0
 41
0.0
 42
0.0
 43
0.0
 44
210.0
 45
297.0
 46
0.0
 47
0.0
 48
0.0
 49
0.0
140
0.0
141
0.0
142
1.0
143
1.0
 70
0
 72
1
 73
0
 74
0
  7

 75
0
147
1.0
148
0.0
149
0.0
100
AcDbLayout
  1
Layout1
 70
0
 71
1
 10
0.0
 20
0.0
 11
210.0
 21
297.0
 12
0.0
 22
0.0
 32
0.0
 14
0.0
 24
0.0
 34
0.0
 15
0.0
 25
0.0
 35
0.0
146
0.0
 13
0.0
 23
0.0
 33
0.0
 16
1.0
 26
0.0
 36
0.0
 17
0.0
 27
1.0
 37
0.0
 76
0
330
211
345
0
346
0
  0
ENDSEC
  0
EOF
