999
DXF file: C:\Users\sesa63760\Dev\_Creo\CAD\MCADID0000706_3D-CAD\drw0001_7.dxf
999
Pro/ENGINEER 2019471 by Parametric Technology Corporation
  0
SECTION
  2
HEADER
  9
$ACADVER
  1
AC1024
  9
$DWGCODEPAGE
  3
ANSI_1252
  9
$EXTMAX
 10
90.0012819663
 20
127.2875273523
 30
0.0
  9
$EXTMIN
 10
0.0
 20
0.0
 30
0.0
  9
$LIMMIN
 10
0.0
 20
0.0
  9
$LIMMAX
 10
90.0012819663
 20
127.2875273523
  9
$VIEWCTR
 10
45.0006409831
 20
63.6437636761
  9
$VIEWSIZE
 40
127.2875273523
  9
$CLAYER
  8
0
  9
$LTSCALE
 40
8.2972610422
  9
$CELTYPE
  6
BYLAYER
  9
$DIMSCALE
 40
1.0
  9
$DIMASZ
 40
1.0714438329
  9
$DIMEXO
 40
1.0
  9
$DIMDLI
 40
5.7326530837
  9
$DIMEXE
 40
1.0
  9
$DIMCEN
 40
1.3577336251
  9
$DIMLFAC
 40
1.0
  9
$DIMBLK
  1
_FILLED
  9
$DIMALT
 70
0
  9
$DIMALTF
 40
0.0393700787
  9
$DIMTXT
 40
1.5000213661
  9
$DIMTOL
 70
1
  9
$DIMLIM
 70
0
  9
$DIMTFAC
 40
1.0
  9
$DIMTP
 40
0.01
  9
$DIMTM
 40
0.01
  9
$DIMGAP
 40
0.625
  9
$DIMDSEP
 70
46
  9
$AUNITS
 70
0
  9
$PDMODE
 70
3
  9
$PDSIZE
 40
0.3125
  9
$HANDSEED
  5
335
  9
$TILEMODE
 70
1
  9
$MEASUREMENT
 70
1
  9
$INSUNITS
 70
4
  0
ENDSEC
  0
SECTION
  2
CLASSES
  0
CLASS
  1
ACDBDICTIONARYWDFLT
  2
AcDbDictionaryWithDefault
  3
AutoCAD 2000
 90
0
 91
1
280
0
281
0
  0
CLASS
  1
ACDBPLACEHOLDER
  2
AcDbPlaceHolder
  3
AutoCAD 2000
 90
0
 91
1
280
0
281
0
  0
CLASS
  1
LAYOUT
  2
AcDbLayout
  3
AutoCAD 2000
 90
0
 91
0
280
0
281
0
  0
ENDSEC
  0
SECTION
  2
TABLES
  0
TABLE
  2
VPORT
  5
8
100
AcDbSymbolTable
 70
2
  0
VPORT
  5
1F4
100
AcDbSymbolTableRecord
100
AcDbViewportTableRecord
  2
*ACTIVE
 70
0
 10
0.0
 20
0.0
 11
1.0
 21
1.0
 12
45.0006409831
 22
63.6437636761
 13
0.0
 23
0.0
 14
1.0
 24
1.0
 15
0.0
 25
0.0
 16
0.0
 26
0.0
 36
1.0
 17
0.0
 27
0.0
 37
0.0
 40
127.2875273523
 41
0.7070707071
 42
50.0
 43
0.0
 44
0.0
 50
0.0
 51
0.0
 71
0
 72
100
 73
1
 74
1
 75
0
 76
0
 77
0
 78
0
  0
ENDTAB
  0
TABLE
  2
LTYPE
  5
5
100
AcDbSymbolTable
 70
6
  0
LTYPE
  5
14
100
AcDbSymbolTableRecord
100
AcDbLinetypeTableRecord
  2
BYBLOCK
 70
0
  3

 72
65
 73
0
 40
0.0
  0
LTYPE
  5
15
100
AcDbSymbolTableRecord
100
AcDbLinetypeTableRecord
  2
BYLAYER
 70
0
  3

 72
65
 73
0
 40
0.0
  0
LTYPE
  5
16
100
AcDbSymbolTableRecord
100
AcDbLinetypeTableRecord
  2
CONTINUOUS
 70
64
  3
Solid line
 72
65
 73
0
 40
0.0
  0
LTYPE
  5
1F5
100
AcDbSymbolTableRecord
100
AcDbLinetypeTableRecord
  2
CENTER
 70
64
  3
____ _ ____ _ ____ _ ____ _ ____ _ ____ _ ____
 72
65
 73
4
 40
0.6
 49
0.375
 74
0
 49
-0.075
 74
0
 49
0.075
 74
0
 49
-0.075
 74
0
  0
LTYPE
  5
1F6
100
AcDbSymbolTableRecord
100
AcDbLinetypeTableRecord
  2
HIDDEN
 70
64
  3
- - - - - - - - - - - - - - - - - - - -
 72
65
 73
2
 40
0.2
 49
0.1
 74
0
 49
-0.1
 74
0
  0
LTYPE
  5
1F7
100
AcDbSymbolTableRecord
100
AcDbLinetypeTableRecord
  2
PHANTOM
 70
64
  3
_____ _ _ _____ _ _ _____ _ _ _____
 72
65
 73
6
 40
0.8
 49
0.45
 74
0
 49
-0.05
 74
0
 49
0.1
 74
0
 49
-0.05
 74
0
 49
0.1
 74
0
 49
-0.05
 74
0
  0
LTYPE
  5
1F8
100
AcDbSymbolTableRecord
100
AcDbLinetypeTableRecord
  2
DOT
 70
64
  3
. . . . . . . . . . . . . . . . . . . .
 72
65
 73
2
 40
0.2
 49
0.1
 74
0
 49
-0.1
 74
0
  0
LTYPE
  5
1F9
100
AcDbSymbolTableRecord
100
AcDbLinetypeTableRecord
  2
DASHED
 70
64
  3
- - - - - - - - - - - - - - - - - - - -
 72
65
 73
2
 40
0.2
 49
0.1
 74
0
 49
-0.1
 74
0
  0
ENDTAB
  0
TABLE
  2
LAYER
  5
2
100
AcDbSymbolTable
 70
36
  0
LAYER
  5
10
100
AcDbSymbolTableRecord
100
AcDbLayerTableRecord
  2
0
 70
0
 62
7
  6
CONTINUOUS
370
-3
390
F
  0
LAYER
  5
1FA
100
AcDbSymbolTableRecord
100
AcDbLayerTableRecord
  2
DEFAULT_1
 70
0
 62
7
  6
CENTER
370
-3
390
F
  0
LAYER
  5
1FB
100
AcDbSymbolTableRecord
100
AcDbLayerTableRecord
  2
DEFAULT_2
 70
0
 62
8
  6
HIDDEN
370
-3
390
F
  0
LAYER
  5
1FC
100
AcDbSymbolTableRecord
100
AcDbLayerTableRecord
  2
DEFAULT_3
 70
0
 62
7
  6
PHANTOM
370
-3
390
F
  0
LAYER
  5
1FD
100
AcDbSymbolTableRecord
100
AcDbLayerTableRecord
  2
00_COMPONENTS
 70
0
 62
7
  6
CONTINUOUS
370
-3
390
F
  0
LAYER
  5
1FE
100
AcDbSymbolTableRecord
100
AcDbLayerTableRecord
  2
01_1_DEFAULT_DATUMS
 70
0
 62
7
  6
CONTINUOUS
370
-3
390
F
  0
LAYER
  5
1FF
100
AcDbSymbolTableRecord
100
AcDbLayerTableRecord
  2
01_PLANES
 70
0
 62
7
  6
CONTINUOUS
370
-3
390
F
  0
LAYER
  5
200
100
AcDbSymbolTableRecord
100
AcDbLayerTableRecord
  2
02_COORD_SYS
 70
0
 62
7
  6
CONTINUOUS
370
-3
390
F
  0
LAYER
  5
201
100
AcDbSymbolTableRecord
100
AcDbLayerTableRecord
  2
03_AXES
 70
0
 62
7
  6
CONTINUOUS
370
-3
390
F
  0
LAYER
  5
202
100
AcDbSymbolTableRecord
100
AcDbLayerTableRecord
  2
04_POINTS
 70
0
 62
7
  6
CONTINUOUS
370
-3
390
F
  0
LAYER
  5
203
100
AcDbSymbolTableRecord
100
AcDbLayerTableRecord
  2
05_CURVES
 70
0
 62
7
  6
CONTINUOUS
370
-3
390
F
  0
LAYER
  5
204
100
AcDbSymbolTableRecord
100
AcDbLayerTableRecord
  2
06_SURFS
 70
0
 62
7
  6
CONTINUOUS
370
-3
390
F
  0
LAYER
  5
205
100
AcDbSymbolTableRecord
100
AcDbLayerTableRecord
  2
07_COSMETICS
 70
0
 62
7
  6
CONTINUOUS
370
-3
390
F
  0
LAYER
  5
206
100
AcDbSymbolTableRecord
100
AcDbLayerTableRecord
  2
10_NOTES
 70
0
 62
7
  6
CONTINUOUS
370
-3
390
F
  0
LAYER
  5
207
100
AcDbSymbolTableRecord
100
AcDbLayerTableRecord
  2
11_NOTES_PUB
 70
0
 62
7
  6
CONTINUOUS
370
-3
390
F
  0
LAYER
  5
208
100
AcDbSymbolTableRecord
100
AcDbLayerTableRecord
  2
13_REF_GTOL
 70
0
 62
7
  6
CONTINUOUS
370
-3
390
F
  0
LAYER
  5
209
100
AcDbSymbolTableRecord
100
AcDbLayerTableRecord
  2
16_MISC
 70
0
 62
7
  6
CONTINUOUS
370
-3
390
F
  0
LAYER
  5
20A
100
AcDbSymbolTableRecord
100
AcDbLayerTableRecord
  2
17_NO_PRINT
 70
0
 62
7
  6
CONTINUOUS
370
-3
390
F
  0
LAYER
  5
20B
100
AcDbSymbolTableRecord
100
AcDbLayerTableRecord
  2
18_DATUM_CAMS_JOINTS
 70
0
 62
7
  6
CONTINUOUS
370
-3
390
F
  0
LAYER
  5
20C
100
AcDbSymbolTableRecord
100
AcDbLayerTableRecord
  2
19_DATUM_FUNCTIONAL
 70
0
 62
7
  6
CONTINUOUS
370
-3
390
F
  0
LAYER
  5
20D
100
AcDbSymbolTableRecord
100
AcDbLayerTableRecord
  2
20_DATUM_KINEMATIC_SCHEME
 70
0
 62
7
  6
CONTINUOUS
370
-3
390
F
  0
ENDTAB
  0
TABLE
  2
STYLE
  5
3
100
AcDbSymbolTable
 70
1
  0
STYLE
  5
11
100
AcDbSymbolTableRecord
100
AcDbTextStyleTableRecord
  2
STANDARD
 70
0
 40
0.0
 41
0.8
 50
0.0
 71
0
 42
0.2
  3
txt
  4

  0
STYLE
  5
20E
100
AcDbSymbolTableRecord
100
AcDbTextStyleTableRecord
  2
TEXTSTYLE_1
 70
0
 40
0.0
 41
0.8
 50
0.0
 71
0
 42
0.2
  3
gdt
  4

  0
ENDTAB
  0
TABLE
  2
VIEW
  5
6
100
AcDbSymbolTable
 70
0
  0
ENDTAB
  0
TABLE
  2
UCS
  5
7
100
AcDbSymbolTable
 70
0
  0
ENDTAB
  0
TABLE
  2
APPID
  5
9
100
AcDbSymbolTable
 70
1
  0
APPID
  5
20F
100
AcDbSymbolTableRecord
100
AcDbRegAppTableRecord
  2
ACAD
 70
0
  0
ENDTAB
  0
TABLE
  2
BLOCK_RECORD
  5
1
100
AcDbSymbolTable
 70
0
  0
BLOCK_RECORD
  5
210
100
AcDbSymbolTableRecord
100
AcDbBlockTableRecord
  2
*Model_Space
  0
BLOCK_RECORD
  5
211
100
AcDbSymbolTableRecord
100
AcDbBlockTableRecord
  2
*Paper_Space
  0
BLOCK_RECORD
  5
212
100
AcDbSymbolTableRecord
100
AcDbBlockTableRecord
  2
_FILLED
  0
ENDTAB
  0
TABLE
  2
DIMSTYLE
  5
A
100
AcDbSymbolTable
 70
1
100
AcDbDimStyleTable
 71
0
  0
DIMSTYLE
105
213
100
AcDbSymbolTableRecord
100
AcDbDimStyleTableRecord
  2
STANDARD
 70
0
  3

  4

 40
1.0
 41
1.0714438329
 42
1.0
 43
0.38
 44
1.0
 45
0.0
 46
0.0
 47
0.01
 48
0.01
140
1.5000213661
141
0.09
142
0.0
143
25.4
144
1.0
145
0.0
146
1.0
147
0.625
 71
1
 72
0
 73
0
 74
0
 75
0
 76
0
 77
1
 78
8
 79
2
170
0
171
1
172
0
173
0
174
0
175
0
176
0
177
0
178
0
270
2
179
2
271
2
272
2
273
2
274
2
275
0
280
0
281
0
282
0
283
1
284
8
285
0
286
0
287
3
288
0
340
11
278
46
341
212
342
212
343
212
344
212
  0
ENDTAB
  0
ENDSEC
  0
SECTION
  2
BLOCKS
  0
BLOCK
  5
20
100
AcDbEntity
  8
0
100
AcDbBlockBegin
  2
*Model_Space
 70
0
 10
0.0
 20
0.0
 30
0.0
  3
*Model_Space
  1

  0
ENDBLK
  5
21
100
AcDbEntity
  8
0
100
AcDbBlockEnd
  0
BLOCK
  5
1C
100
AcDbEntity
  8
0
100
AcDbBlockBegin
  2
*Paper_Space
 70
0
 10
0.0
 20
0.0
 30
0.0
  3
*Paper_Space
  1

  0
ENDBLK
  5
1D
100
AcDbEntity
  8
0
100
AcDbBlockEnd
  0
BLOCK
  5
214
100
AcDbEntity
  8
0
100
AcDbBlockBegin
  2
_FILLED
 70
64
 10
0.0
 20
0.0
  3
_FILLED
  1

  0
SOLID
  5
215
100
AcDbEntity
  8
0
  6
BYBLOCK
 62
0
100
AcDbTrace
 10
0.0
 20
0.0
 11
-1.0
 21
0.25
 12
-1.0
 22
-0.25
 13
-1.0
 23
-0.25
  0
ENDBLK
  5
216
100
AcDbEntity
  8
0
  6
BYBLOCK
 62
0
100
AcDbBlockEnd
  0
ENDSEC
  0
SECTION
  2
ENTITIES
  0
LINE
  5
217
100
AcDbEntity
  8
0
100
AcDbLine
 62
7
  6
CONTINUOUS
 10
9.5564396702
 20
38.9914369338
 11
9.5564396702
 21
92.6538123392
  0
LINE
  5
218
100
AcDbEntity
  8
0
100
AcDbLine
 62
7
  6
CONTINUOUS
 10
10.2064396709
 20
38.9914369341
 11
10.2064396709
 21
79.6538123391
  0
LINE
  5
219
100
AcDbEntity
  8
0
100
AcDbLine
 62
7
  6
CONTINUOUS
 10
10.2064396691
 20
80.1538123392
 11
10.206439671
 21
92.6538123392
  0
LINE
  5
21A
100
AcDbEntity
  8
0
100
AcDbLine
 62
7
  6
CONTINUOUS
 10
10.2564396695
 20
80.1538123392
 11
10.2564396695
 21
79.6538123392
  0
LINE
  5
21B
100
AcDbEntity
  8
0
100
AcDbLine
 62
7
  6
CONTINUOUS
 10
10.3564396695
 20
80.1538123392
 11
10.3564396695
 21
79.6538123391
  0
LINE
  5
21C
100
AcDbEntity
  8
0
100
AcDbLine
 62
7
  6
CONTINUOUS
 10
10.7564396702
 20
92.6538123392
 11
10.7564396702
 21
87.1538123392
  0
LINE
  5
21D
100
AcDbEntity
  8
0
100
AcDbLine
 62
7
  6
CONTINUOUS
 10
10.9564396602
 20
89.7737688722
 11
10.9564396706
 21
90.5038123392
  0
LINE
  5
21E
100
AcDbEntity
  8
0
100
AcDbLine
 62
7
  6
CONTINUOUS
 10
11.8064396698
 20
90.5038123392
 11
11.8064396698
 21
92.6538123392
  0
LINE
  5
21F
100
AcDbEntity
  8
0
100
AcDbLine
 62
7
  6
CONTINUOUS
 10
11.8314396702
 20
91.9538123392
 11
11.8314396702
 21
89.7986659179
  0
LINE
  5
220
100
AcDbEntity
  8
0
100
AcDbLine
 62
7
  6
CONTINUOUS
 10
12.756439671
 20
87.1538123392
 11
12.7564397276
 21
89.1186224655
  0
LINE
  5
221
100
AcDbEntity
  8
0
100
AcDbLine
 62
7
  6
CONTINUOUS
 10
13.8314396706
 20
88.9306839347
 11
13.8314396702
 21
92.1538123392
  0
LINE
  5
222
100
AcDbEntity
  8
0
100
AcDbLine
 62
7
  6
CONTINUOUS
 10
16.4814398005
 20
92.1538123392
 11
16.4814396702
 21
88.9306839421
  0
LINE
  5
223
100
AcDbEntity
  8
0
100
AcDbLine
 62
7
  6
CONTINUOUS
 10
17.5564396725
 20
89.1186224655
 11
17.55643853
 21
87.1538123392
  0
LINE
  5
224
100
AcDbEntity
  8
0
100
AcDbLine
 62
7
  6
CONTINUOUS
 10
10.2064435206
 20
38.9914585548
 11
10.0924818072
 21
38.3515044325
  0
LINE
  5
225
100
AcDbEntity
  8
0
100
AcDbLine
 62
7
  6
CONTINUOUS
 10
18.4814396702
 20
89.7986659181
 11
18.4814396702
 21
91.9538123399
  0
LINE
  5
226
100
AcDbEntity
  8
0
100
AcDbLine
 62
7
  6
CONTINUOUS
 10
18.7064396702
 20
90.5038123392
 11
18.7064396702
 21
92.6538123392
  0
LINE
  5
227
100
AcDbEntity
  8
0
100
AcDbLine
 62
7
  6
CONTINUOUS
 10
19.3564396696
 20
90.4538123392
 11
19.3564396177
 21
89.7737688869
  0
LINE
  5
228
100
AcDbEntity
  8
0
100
AcDbLine
 62
7
  6
CONTINUOUS
 10
19.5564396702
 20
90.2538123392
 11
19.5564396702
 21
87.3538123384
  0
LINE
  5
229
100
AcDbEntity
  8
0
100
AcDbLine
 62
7
  6
CONTINUOUS
 10
19.7564396702
 20
92.6538123392
 11
19.7564396702
 21
87.1538123392
  0
LINE
  5
22A
100
AcDbEntity
  8
0
100
AcDbLine
 62
7
  6
CONTINUOUS
 10
19.8564396702
 20
58.8884144906
 11
19.8564396702
 21
58.9095491086
  0
LINE
  5
22B
100
AcDbEntity
  8
0
100
AcDbLine
 62
7
  6
CONTINUOUS
 10
19.8814396698
 20
70.4538123399
 11
19.8814396698
 21
75.7538123406
  0
LINE
  5
22C
100
AcDbEntity
  8
0
100
AcDbLine
 62
7
  6
CONTINUOUS
 10
19.9814396702
 20
70.5538123392
 11
19.9814396702
 21
75.6538123392
  0
LINE
  5
22D
100
AcDbEntity
  8
0
100
AcDbLine
 62
7
  6
CONTINUOUS
 10
80.7564396702
 20
38.9914369335
 11
80.1064396702
 21
38.9914369335
  0
LINE
  5
22E
100
AcDbEntity
  8
0
100
AcDbLine
 62
7
  6
CONTINUOUS
 10
10.2064396709
 20
38.991436933
 11
9.5564396702
 21
38.991436933
  0
LINE
  5
22F
100
AcDbEntity
  8
0
100
AcDbLine
 62
7
  6
CONTINUOUS
 10
23.6314396702
 20
75.6538123392
 11
23.6314396702
 21
70.5538123392
  0
LINE
  5
230
100
AcDbEntity
  8
0
100
AcDbLine
 62
7
  6
CONTINUOUS
 10
23.7314396695
 20
75.7538123388
 11
23.7314396695
 21
70.453812338
  0
LINE
  5
231
100
AcDbEntity
  8
0
100
AcDbLine
 62
7
  6
CONTINUOUS
 10
23.7564396702
 20
58.9095860631
 11
23.7564396702
 21
58.8884262689
  0
LINE
  5
232
100
AcDbEntity
  8
0
100
AcDbLine
 62
7
  6
CONTINUOUS
 10
24.9364396702
 20
58.8884144906
 11
24.9364396702
 21
58.9095491085
  0
LINE
  5
233
100
AcDbEntity
  8
0
100
AcDbLine
 62
7
  6
CONTINUOUS
 10
24.9614396699
 20
70.4538123399
 11
24.9614396699
 21
75.7538123406
  0
LINE
  5
234
100
AcDbEntity
  8
0
100
AcDbLine
 62
7
  6
CONTINUOUS
 10
25.0614396702
 20
70.5538123392
 11
25.0614396702
 21
75.6538123392
  0
LINE
  5
235
100
AcDbEntity
  8
0
100
AcDbLine
 62
7
  6
CONTINUOUS
 10
10.2064396709
 20
43.2538123392
 11
80.1064396696
 21
43.2538123392
  0
LINE
  5
236
100
AcDbEntity
  8
0
100
AcDbLine
 62
7
  6
CONTINUOUS
 10
9.5564396702
 20
43.9038123384
 11
80.7564396702
 21
43.9038123398
  0
LINE
  5
237
100
AcDbEntity
  8
0
100
AcDbLine
 62
7
  6
CONTINUOUS
 10
80.5660590895
 20
43.9041140672
 11
80.7564396702
 21
43.9038123389
  0
LINE
  5
238
100
AcDbEntity
  8
0
100
AcDbLine
 62
7
  6
CONTINUOUS
 10
28.7114396702
 20
75.6538123392
 11
28.7114396702
 21
70.5538123392
  0
LINE
  5
239
100
AcDbEntity
  8
0
100
AcDbLine
 62
7
  6
CONTINUOUS
 10
28.8114396695
 20
75.7538123388
 11
28.8114396695
 21
70.453812338
  0
LINE
  5
23A
100
AcDbEntity
  8
0
100
AcDbLine
 62
7
  6
CONTINUOUS
 10
28.8364396702
 20
58.9095860631
 11
28.8364396702
 21
58.8884262689
  0
LINE
  5
23B
100
AcDbEntity
  8
0
100
AcDbLine
 62
7
  6
CONTINUOUS
 10
35.0464396702
 20
58.8884144906
 11
35.0464396702
 21
58.9099315249
  0
LINE
  5
23C
100
AcDbEntity
  8
0
100
AcDbLine
 62
7
  6
CONTINUOUS
 10
35.1214396701
 20
70.4538123399
 11
35.1214396701
 21
75.7538123388
  0
LINE
  5
23D
100
AcDbEntity
  8
0
100
AcDbLine
 62
7
  6
CONTINUOUS
 10
35.2214396702
 20
70.5538123392
 11
35.2214396702
 21
75.6538123392
  0
LINE
  5
23E
100
AcDbEntity
  8
0
100
AcDbLine
 62
7
  6
CONTINUOUS
 10
38.8714396702
 20
75.6538123392
 11
38.8714396702
 21
70.5538123392
  0
LINE
  5
23F
100
AcDbEntity
  8
0
100
AcDbLine
 62
7
  6
CONTINUOUS
 10
38.9714396697
 20
75.7538123388
 11
38.9714396697
 21
70.4538123399
  0
LINE
  5
240
100
AcDbEntity
  8
0
100
AcDbLine
 62
7
  6
CONTINUOUS
 10
39.0464396702
 20
58.9099708964
 11
39.0464396702
 21
58.8884265695
  0
LINE
  5
241
100
AcDbEntity
  8
0
100
AcDbLine
 62
7
  6
CONTINUOUS
 10
40.1264396702
 20
58.8884144906
 11
40.1264396702
 21
58.9099315249
  0
LINE
  5
242
100
AcDbEntity
  8
0
100
AcDbLine
 62
7
  6
CONTINUOUS
 10
40.2014396702
 20
70.4538123399
 11
40.2014396702
 21
75.7538123388
  0
LINE
  5
243
100
AcDbEntity
  8
0
100
AcDbLine
 62
7
  6
CONTINUOUS
 10
40.3014396702
 20
70.5538123392
 11
40.3014396702
 21
75.6538123392
  0
LINE
  5
244
100
AcDbEntity
  8
0
100
AcDbLine
 62
7
  6
CONTINUOUS
 10
80.1064396702
 20
58.7696838748
 11
10.2064396709
 21
58.7696838748
  0
LINE
  5
245
100
AcDbEntity
  8
0
100
AcDbLine
 62
7
  6
CONTINUOUS
 10
10.2064396709
 20
59.1319060052
 11
80.1064396702
 21
59.1319060052
  0
LINE
  5
246
100
AcDbEntity
  8
0
100
AcDbLine
 62
7
  6
CONTINUOUS
 10
80.7564396702
 20
59.7815100428
 11
9.5564396702
 21
59.7815100428
  0
LINE
  5
247
100
AcDbEntity
  8
0
100
AcDbLine
 62
7
  6
CONTINUOUS
 10
43.9514396702
 20
75.6538123392
 11
43.9514396702
 21
70.5538123392
  0
LINE
  5
248
100
AcDbEntity
  8
0
100
AcDbLine
 62
7
  6
CONTINUOUS
 10
44.0514396698
 20
75.7538123388
 11
44.0514396698
 21
70.4538123399
  0
LINE
  5
249
100
AcDbEntity
  8
0
100
AcDbLine
 62
7
  6
CONTINUOUS
 10
44.1264396702
 20
58.9099708964
 11
44.1264396702
 21
58.8884265695
  0
LINE
  5
24A
100
AcDbEntity
  8
0
100
AcDbLine
 62
7
  6
CONTINUOUS
 10
45.2064396702
 20
58.8884144906
 11
45.2064396702
 21
58.9099315249
  0
LINE
  5
24B
100
AcDbEntity
  8
0
100
AcDbLine
 62
7
  6
CONTINUOUS
 10
45.2814396702
 20
70.4538123399
 11
45.2814396702
 21
75.7538123388
  0
LINE
  5
24C
100
AcDbEntity
  8
0
100
AcDbLine
 62
7
  6
CONTINUOUS
 10
45.3814396702
 20
70.5538123392
 11
45.3814396702
 21
75.6538123392
  0
LINE
  5
24D
100
AcDbEntity
  8
0
100
AcDbLine
 62
7
  6
CONTINUOUS
 10
49.0314396702
 20
75.6538123392
 11
49.0314396702
 21
70.5538123392
  0
LINE
  5
24E
100
AcDbEntity
  8
0
100
AcDbLine
 62
7
  6
CONTINUOUS
 10
49.1314396699
 20
75.7538123388
 11
49.1314396699
 21
70.4538123399
  0
LINE
  5
24F
100
AcDbEntity
  8
0
100
AcDbLine
 62
7
  6
CONTINUOUS
 10
49.2064396702
 20
58.9099708964
 11
49.2064396702
 21
58.8884265695
  0
LINE
  5
250
100
AcDbEntity
  8
0
100
AcDbLine
 62
7
  6
CONTINUOUS
 10
50.2864396702
 20
58.8884144906
 11
50.2864396702
 21
58.9099315248
  0
LINE
  5
251
100
AcDbEntity
  8
0
100
AcDbLine
 62
7
  6
CONTINUOUS
 10
50.3614396703
 20
70.4538123399
 11
50.3614396703
 21
75.7538123388
  0
LINE
  5
252
100
AcDbEntity
  8
0
100
AcDbLine
 62
7
  6
CONTINUOUS
 10
50.4614396702
 20
70.5538123392
 11
50.4614396702
 21
75.6538123392
  0
LINE
  5
253
100
AcDbEntity
  8
0
100
AcDbLine
 62
7
  6
CONTINUOUS
 10
74.5314396702
 20
70.4538123399
 11
70.6814396706
 21
70.4538123399
  0
LINE
  5
254
100
AcDbEntity
  8
0
100
AcDbLine
 62
7
  6
CONTINUOUS
 10
69.4514396701
 20
70.4538123399
 11
65.6014396705
 21
70.4538123399
  0
LINE
  5
255
100
AcDbEntity
  8
0
100
AcDbLine
 62
7
  6
CONTINUOUS
 10
64.3714396701
 20
70.4538123399
 11
60.5214396704
 21
70.4538123399
  0
LINE
  5
256
100
AcDbEntity
  8
0
100
AcDbLine
 62
7
  6
CONTINUOUS
 10
59.29143967
 20
70.4538123399
 11
55.4414396703
 21
70.4538123399
  0
LINE
  5
257
100
AcDbEntity
  8
0
100
AcDbLine
 62
7
  6
CONTINUOUS
 10
54.2114396699
 20
70.4538123399
 11
50.3614396703
 21
70.4538123399
  0
LINE
  5
258
100
AcDbEntity
  8
0
100
AcDbLine
 62
7
  6
CONTINUOUS
 10
49.1314396699
 20
70.4538123399
 11
45.2814396702
 21
70.4538123399
  0
LINE
  5
259
100
AcDbEntity
  8
0
100
AcDbLine
 62
7
  6
CONTINUOUS
 10
44.0514396698
 20
70.4538123399
 11
40.2014396702
 21
70.4538123399
  0
LINE
  5
25A
100
AcDbEntity
  8
0
100
AcDbLine
 62
7
  6
CONTINUOUS
 10
38.9714396697
 20
70.4538123399
 11
35.1214396701
 21
70.4538123399
  0
LINE
  5
25B
100
AcDbEntity
  8
0
100
AcDbLine
 62
7
  6
CONTINUOUS
 10
28.8114396695
 20
70.453812338
 11
24.9614396699
 21
70.4538123399
  0
LINE
  5
25C
100
AcDbEntity
  8
0
100
AcDbLine
 62
7
  6
CONTINUOUS
 10
23.7314396695
 20
70.453812338
 11
19.8814396698
 21
70.4538123399
  0
LINE
  5
25D
100
AcDbEntity
  8
0
100
AcDbLine
 62
7
  6
CONTINUOUS
 10
54.1114396702
 20
75.6538123392
 11
54.1114396702
 21
70.5538123392
  0
LINE
  5
25E
100
AcDbEntity
  8
0
100
AcDbLine
 62
7
  6
CONTINUOUS
 10
54.2114396699
 20
75.7538123388
 11
54.2114396699
 21
70.4538123399
  0
LINE
  5
25F
100
AcDbEntity
  8
0
100
AcDbLine
 62
7
  6
CONTINUOUS
 10
54.2864396702
 20
58.9099708964
 11
54.2864396702
 21
58.8884265695
  0
LINE
  5
260
100
AcDbEntity
  8
0
100
AcDbLine
 62
7
  6
CONTINUOUS
 10
74.4314396707
 20
70.5538123392
 11
70.7814396703
 21
70.5538123392
  0
LINE
  5
261
100
AcDbEntity
  8
0
100
AcDbLine
 62
7
  6
CONTINUOUS
 10
69.3514396706
 20
70.5538123392
 11
65.7014396703
 21
70.5538123392
  0
LINE
  5
262
100
AcDbEntity
  8
0
100
AcDbLine
 62
7
  6
CONTINUOUS
 10
64.2714396706
 20
70.5538123392
 11
60.6214396702
 21
70.5538123392
  0
LINE
  5
263
100
AcDbEntity
  8
0
100
AcDbLine
 62
7
  6
CONTINUOUS
 10
59.1914396705
 20
70.5538123392
 11
55.5414396701
 21
70.5538123392
  0
LINE
  5
264
100
AcDbEntity
  8
0
100
AcDbLine
 62
7
  6
CONTINUOUS
 10
54.1114396704
 20
70.5538123392
 11
50.4614396701
 21
70.5538123392
  0
LINE
  5
265
100
AcDbEntity
  8
0
100
AcDbLine
 62
7
  6
CONTINUOUS
 10
49.0314396704
 20
70.5538123392
 11
45.38143967
 21
70.5538123392
  0
LINE
  5
266
100
AcDbEntity
  8
0
100
AcDbLine
 62
7
  6
CONTINUOUS
 10
43.9514396703
 20
70.5538123392
 11
40.3014396699
 21
70.5538123392
  0
LINE
  5
267
100
AcDbEntity
  8
0
100
AcDbLine
 62
7
  6
CONTINUOUS
 10
38.8714396702
 20
70.5538123392
 11
35.2214396699
 21
70.5538123392
  0
LINE
  5
268
100
AcDbEntity
  8
0
100
AcDbLine
 62
7
  6
CONTINUOUS
 10
28.7114396701
 20
70.5538123392
 11
25.0614396697
 21
70.5538123392
  0
LINE
  5
269
100
AcDbEntity
  8
0
100
AcDbLine
 62
7
  6
CONTINUOUS
 10
23.63143967
 20
70.5538123392
 11
19.9814396696
 21
70.5538123392
  0
LINE
  5
26A
100
AcDbEntity
  8
0
100
AcDbLine
 62
7
  6
CONTINUOUS
 10
55.3664396702
 20
58.8884144906
 11
55.3664396702
 21
58.9099315248
  0
LINE
  5
26B
100
AcDbEntity
  8
0
100
AcDbLine
 62
7
  6
CONTINUOUS
 10
55.4414396703
 20
70.4538123399
 11
55.4414396703
 21
75.7538123388
  0
LINE
  5
26C
100
AcDbEntity
  8
0
100
AcDbLine
 62
7
  6
CONTINUOUS
 10
55.5414396702
 20
70.5538123392
 11
55.5414396702
 21
75.6538123392
  0
LINE
  5
26D
100
AcDbEntity
  8
0
100
AcDbLine
 62
7
  6
CONTINUOUS
 10
19.9814396702
 20
75.6538123392
 11
23.6314396703
 21
75.6538123392
  0
LINE
  5
26E
100
AcDbEntity
  8
0
100
AcDbLine
 62
7
  6
CONTINUOUS
 10
25.0614396702
 20
75.6538123392
 11
28.7114396704
 21
75.6538123392
  0
LINE
  5
26F
100
AcDbEntity
  8
0
100
AcDbLine
 62
7
  6
CONTINUOUS
 10
35.2214396702
 20
75.6538123392
 11
38.8714396706
 21
75.6538123392
  0
LINE
  5
270
100
AcDbEntity
  8
0
100
AcDbLine
 62
7
  6
CONTINUOUS
 10
40.3014396702
 20
75.6538123392
 11
43.9514396707
 21
75.6538123392
  0
LINE
  5
271
100
AcDbEntity
  8
0
100
AcDbLine
 62
7
  6
CONTINUOUS
 10
45.3814396702
 20
75.6538123392
 11
49.0314396707
 21
75.6538123392
  0
LINE
  5
272
100
AcDbEntity
  8
0
100
AcDbLine
 62
7
  6
CONTINUOUS
 10
50.4614396702
 20
75.6538123392
 11
54.1114396708
 21
75.6538123392
  0
LINE
  5
273
100
AcDbEntity
  8
0
100
AcDbLine
 62
7
  6
CONTINUOUS
 10
55.5414396702
 20
75.6538123392
 11
59.1914396709
 21
75.6538123392
  0
LINE
  5
274
100
AcDbEntity
  8
0
100
AcDbLine
 62
7
  6
CONTINUOUS
 10
60.6214396702
 20
75.6538123392
 11
64.2714396709
 21
75.6538123392
  0
LINE
  5
275
100
AcDbEntity
  8
0
100
AcDbLine
 62
7
  6
CONTINUOUS
 10
65.7014396702
 20
75.6538123392
 11
69.351439671
 21
75.6538123392
  0
LINE
  5
276
100
AcDbEntity
  8
0
100
AcDbLine
 62
7
  6
CONTINUOUS
 10
70.7814396702
 20
75.6538123392
 11
74.4314396711
 21
75.6538123392
  0
LINE
  5
277
100
AcDbEntity
  8
0
100
AcDbLine
 62
7
  6
CONTINUOUS
 10
19.8814396698
 20
75.7538123406
 11
23.7314396695
 21
75.7538123388
  0
LINE
  5
278
100
AcDbEntity
  8
0
100
AcDbLine
 62
7
  6
CONTINUOUS
 10
24.9614396699
 20
75.7538123406
 11
28.8114396695
 21
75.7538123388
  0
LINE
  5
279
100
AcDbEntity
  8
0
100
AcDbLine
 62
7
  6
CONTINUOUS
 10
35.1214396701
 20
75.7538123388
 11
38.9714396697
 21
75.7538123388
  0
LINE
  5
27A
100
AcDbEntity
  8
0
100
AcDbLine
 62
7
  6
CONTINUOUS
 10
40.2014396702
 20
75.7538123388
 11
44.0514396698
 21
75.7538123388
  0
LINE
  5
27B
100
AcDbEntity
  8
0
100
AcDbLine
 62
7
  6
CONTINUOUS
 10
45.2814396702
 20
75.7538123388
 11
49.1314396699
 21
75.7538123388
  0
LINE
  5
27C
100
AcDbEntity
  8
0
100
AcDbLine
 62
7
  6
CONTINUOUS
 10
50.3614396703
 20
75.7538123388
 11
54.2114396699
 21
75.7538123388
  0
LINE
  5
27D
100
AcDbEntity
  8
0
100
AcDbLine
 62
7
  6
CONTINUOUS
 10
55.4414396703
 20
75.7538123388
 11
59.29143967
 21
75.7538123388
  0
LINE
  5
27E
100
AcDbEntity
  8
0
100
AcDbLine
 62
7
  6
CONTINUOUS
 10
60.5214396704
 20
75.7538123388
 11
64.3714396701
 21
75.7538123388
  0
LINE
  5
27F
100
AcDbEntity
  8
0
100
AcDbLine
 62
7
  6
CONTINUOUS
 10
65.6014396705
 20
75.7538123388
 11
69.4514396701
 21
75.7538123388
  0
LINE
  5
280
100
AcDbEntity
  8
0
100
AcDbLine
 62
7
  6
CONTINUOUS
 10
70.6814396706
 20
75.7538123388
 11
74.5314396702
 21
75.7538123388
  0
LINE
  5
281
100
AcDbEntity
  8
0
100
AcDbLine
 62
7
  6
CONTINUOUS
 10
59.1914396702
 20
75.6538123392
 11
59.1914396702
 21
70.5538123392
  0
LINE
  5
282
100
AcDbEntity
  8
0
100
AcDbLine
 62
7
  6
CONTINUOUS
 10
59.29143967
 20
75.7538123388
 11
59.29143967
 21
70.4538123399
  0
LINE
  5
283
100
AcDbEntity
  8
0
100
AcDbLine
 62
7
  6
CONTINUOUS
 10
59.3664396702
 20
58.9099708964
 11
59.3664396702
 21
58.8884265695
  0
LINE
  5
284
100
AcDbEntity
  8
0
100
AcDbLine
 62
7
  6
CONTINUOUS
 10
60.4464396702
 20
58.8884144906
 11
60.4464396702
 21
58.9099315248
  0
LINE
  5
285
100
AcDbEntity
  8
0
100
AcDbLine
 62
7
  6
CONTINUOUS
 10
60.5214396704
 20
70.4538123399
 11
60.5214396704
 21
75.7538123388
  0
LINE
  5
286
100
AcDbEntity
  8
0
100
AcDbLine
 62
7
  6
CONTINUOUS
 10
60.6214396702
 20
70.5538123392
 11
60.6214396702
 21
75.6538123392
  0
LINE
  5
287
100
AcDbEntity
  8
0
100
AcDbLine
 62
7
  6
CONTINUOUS
 10
9.5564396702
 20
79.6538123392
 11
78.82543967
 21
79.6538123391
  0
LINE
  5
288
100
AcDbEntity
  8
0
100
AcDbLine
 62
7
  6
CONTINUOUS
 10
9.5564396709
 20
80.1538123392
 11
79.9564396702
 21
80.1538123392
  0
LINE
  5
289
100
AcDbEntity
  8
0
100
AcDbLine
 62
7
  6
CONTINUOUS
 10
80.0564396702
 20
79.6430695649
 11
78.82543967
 21
79.6538123391
  0
LINE
  5
28A
100
AcDbEntity
  8
0
100
AcDbLine
 62
7
  6
CONTINUOUS
 10
64.2714396702
 20
75.6538123392
 11
64.2714396702
 21
70.5538123392
  0
LINE
  5
28B
100
AcDbEntity
  8
0
100
AcDbLine
 62
7
  6
CONTINUOUS
 10
64.3714396701
 20
75.7538123388
 11
64.3714396701
 21
70.4538123399
  0
LINE
  5
28C
100
AcDbEntity
  8
0
100
AcDbLine
 62
7
  6
CONTINUOUS
 10
64.4464396702
 20
58.9099708964
 11
64.4464396702
 21
58.8884265695
  0
LINE
  5
28D
100
AcDbEntity
  8
0
100
AcDbLine
 62
7
  6
CONTINUOUS
 10
65.5264396702
 20
58.8884144906
 11
65.5264396702
 21
58.9099315248
  0
LINE
  5
28E
100
AcDbEntity
  8
0
100
AcDbLine
 62
7
  6
CONTINUOUS
 10
65.6014396705
 20
70.4538123399
 11
65.6014396705
 21
75.7538123388
  0
LINE
  5
28F
100
AcDbEntity
  8
0
100
AcDbLine
 62
7
  6
CONTINUOUS
 10
65.7014396702
 20
70.5538123392
 11
65.7014396702
 21
75.6538123392
  0
LINE
  5
290
100
AcDbEntity
  8
0
100
AcDbLine
 62
7
  6
CONTINUOUS
 10
80.0564396702
 20
83.9463998757
 11
79.9564396702
 21
83.9472725625
  0
LINE
  5
291
100
AcDbEntity
  8
0
100
AcDbLine
 62
7
  6
CONTINUOUS
 10
69.3514396702
 20
75.6538123392
 11
69.3514396702
 21
70.5538123392
  0
LINE
  5
292
100
AcDbEntity
  8
0
100
AcDbLine
 62
7
  6
CONTINUOUS
 10
69.4514396701
 20
75.7538123388
 11
69.4514396701
 21
70.4538123399
  0
LINE
  5
293
100
AcDbEntity
  8
0
100
AcDbLine
 62
7
  6
CONTINUOUS
 10
69.5264396702
 20
58.9099708964
 11
69.5264396702
 21
58.8884265695
  0
LINE
  5
294
100
AcDbEntity
  8
0
100
AcDbLine
 62
7
  6
CONTINUOUS
 10
80.0564396702
 20
85.8538123384
 11
80.7564396702
 21
85.8538123384
  0
LINE
  5
295
100
AcDbEntity
  8
0
100
AcDbLine
 62
7
  6
CONTINUOUS
 10
79.9564396702
 20
86.3538123384
 11
80.7564396702
 21
86.3538123384
  0
LINE
  5
296
100
AcDbEntity
  8
0
100
AcDbLine
 62
7
  6
CONTINUOUS
 10
10.7564396702
 20
87.1538123392
 11
19.7564396702
 21
87.1538123392
  0
LINE
  5
297
100
AcDbEntity
  8
0
100
AcDbLine
 62
7
  6
CONTINUOUS
 10
19.7564396702
 20
87.3538123384
 11
10.7564396702
 21
87.3538123392
  0
LINE
  5
298
100
AcDbEntity
  8
0
100
AcDbLine
 62
7
  6
CONTINUOUS
 10
70.6064396702
 20
58.8884144906
 11
70.6064396702
 21
58.9099315248
  0
LINE
  5
299
100
AcDbEntity
  8
0
100
AcDbLine
 62
7
  6
CONTINUOUS
 10
70.6814396706
 20
70.4538123399
 11
70.6814396706
 21
75.7538123388
  0
LINE
  5
29A
100
AcDbEntity
  8
0
100
AcDbLine
 62
7
  6
CONTINUOUS
 10
70.7814396702
 20
70.5538123392
 11
70.7814396702
 21
75.6538123392
  0
LINE
  5
29B
100
AcDbEntity
  8
0
100
AcDbLine
 62
7
  6
CONTINUOUS
 10
12.7564396732
 20
88.9306839347
 11
13.8314396706
 21
88.9306839347
  0
LINE
  5
29C
100
AcDbEntity
  8
0
100
AcDbLine
 62
7
  6
CONTINUOUS
 10
16.4814396702
 20
88.9306839421
 11
17.5564396702
 21
88.9306839421
  0
LINE
  5
29D
100
AcDbEntity
  8
0
100
AcDbLine
 62
7
  6
CONTINUOUS
 10
17.5564396728
 20
89.1186224653
 11
17.1949281763
 21
89.1186224653
  0
LINE
  5
29E
100
AcDbEntity
  8
0
100
AcDbLine
 62
7
  6
CONTINUOUS
 10
13.1179511607
 20
89.1186224654
 11
12.7564395409
 21
89.1186224654
  0
LINE
  5
29F
100
AcDbEntity
  8
0
100
AcDbLine
 62
7
  6
CONTINUOUS
 10
10.9564396695
 20
90.3935049599
 11
11.8314396702
 21
90.3935049599
  0
LINE
  5
2A0
100
AcDbEntity
  8
0
100
AcDbLine
 62
7
  6
CONTINUOUS
 10
18.4814396702
 20
90.3935049599
 11
19.3564396699
 21
90.3935049599
  0
LINE
  5
2A1
100
AcDbEntity
  8
0
100
AcDbLine
 62
7
  6
CONTINUOUS
 10
19.3564396695
 20
90.4538123392
 11
18.4814396695
 21
90.4538123392
  0
LINE
  5
2A2
100
AcDbEntity
  8
0
100
AcDbLine
 62
7
  6
CONTINUOUS
 10
11.8314396702
 20
90.4538123392
 11
10.956439671
 21
90.4538123392
  0
LINE
  5
2A3
100
AcDbEntity
  8
0
100
AcDbLine
 62
7
  6
CONTINUOUS
 10
19.7564396702
 20
90.5038123392
 11
18.706439671
 21
90.5038123392
  0
LINE
  5
2A4
100
AcDbEntity
  8
0
100
AcDbLine
 62
7
  6
CONTINUOUS
 10
11.8064396706
 20
90.5038123392
 11
10.7564396702
 21
90.5038123392
  0
LINE
  5
2A5
100
AcDbEntity
  8
0
100
AcDbLine
 62
7
  6
CONTINUOUS
 10
74.4314396702
 20
75.6538123392
 11
74.4314396702
 21
70.5538123392
  0
LINE
  5
2A6
100
AcDbEntity
  8
0
100
AcDbLine
 62
7
  6
CONTINUOUS
 10
74.5314396702
 20
75.7538123388
 11
74.5314396702
 21
70.4538123399
  0
LINE
  5
2A7
100
AcDbEntity
  8
0
100
AcDbLine
 62
7
  6
CONTINUOUS
 10
74.6064396702
 20
58.9099708965
 11
74.6064396702
 21
58.8884265695
  0
LINE
  5
2A8
100
AcDbEntity
  8
0
100
AcDbLine
 62
7
  6
CONTINUOUS
 10
11.8064396698
 20
91.9538123399
 11
18.7064396702
 21
91.9538123399
  0
LINE
  5
2A9
100
AcDbEntity
  8
0
100
AcDbLine
 62
7
  6
CONTINUOUS
 10
11.8064396698
 20
92.1538123392
 11
18.7064396702
 21
92.1538123392
  0
LINE
  5
2AA
100
AcDbEntity
  8
0
100
AcDbLine
 62
7
  6
CONTINUOUS
 10
9.5564396706
 20
92.6538123392
 11
80.7564396698
 21
92.6538123392
  0
LINE
  5
2AB
100
AcDbEntity
  8
0
100
AcDbLine
 62
7
  6
CONTINUOUS
 10
80.1064396702
 20
38.9914369332
 11
80.2203975333
 21
38.3515044325
  0
LINE
  5
2AC
100
AcDbEntity
  8
0
100
AcDbLine
 62
7
  6
CONTINUOUS
 10
79.1695299719
 20
79.6538123363
 11
79.1738934058
 21
80.1538123392
  0
LINE
  5
2AD
100
AcDbEntity
  8
0
100
AcDbLine
 62
7
  6
CONTINUOUS
 10
79.1564396702
 20
79.6538123363
 11
79.1564396702
 21
80.1538123392
  0
LINE
  5
2AE
100
AcDbEntity
  8
0
100
AcDbLine
 62
7
  6
CONTINUOUS
 10
79.9564396702
 20
86.3538123384
 11
79.9564396702
 21
80.1538123392
  0
LINE
  5
2AF
100
AcDbEntity
  8
0
100
AcDbLine
 62
7
  6
CONTINUOUS
 10
80.0564396702
 20
79.6430695649
 11
80.0564396702
 21
86.3538123384
  0
LINE
  5
2B0
100
AcDbEntity
  8
0
100
AcDbLine
 62
7
  6
CONTINUOUS
 10
80.1064396695
 20
92.6538123392
 11
80.1064396695
 21
86.3538123384
  0
LINE
  5
2B1
100
AcDbEntity
  8
0
100
AcDbLine
 62
7
  6
CONTINUOUS
 10
80.1064396695
 20
85.8538123384
 11
80.1064396702
 21
38.9914369342
  0
LINE
  5
2B2
100
AcDbEntity
  8
0
100
AcDbLine
 62
7
  6
CONTINUOUS
 10
80.7564396702
 20
38.9914369338
 11
80.7564396702
 21
92.6538123392
  0
ARC
  5
2B3
100
AcDbEntity
  8
0
100
AcDbCircle
 62
7
  6
CONTINUOUS
 10
45.1564396702
 20
235.2538123392
 40
200.0
100
AcDbArc
 50
259.9027315989
 51
280.0972684011
  0
ARC
  5
2B4
100
AcDbEntity
  8
0
100
AcDbCircle
 62
7
  6
CONTINUOUS
 10
45.1564396702
 20
235.2538123392
 40
199.3499780382
100
AcDbArc
 50
259.902731599
 51
280.0972684012
  0
ARC
  5
2B5
100
AcDbEntity
  8
0
100
AcDbCircle
 62
7
  6
CONTINUOUS
 10
80.1064396702
 20
43.9038123392
 40
0.65
100
AcDbArc
 50
269.9999999471
 51
360.0
  0
ARC
  5
2B6
100
AcDbEntity
  8
0
100
AcDbCircle
 62
7
  6
CONTINUOUS
 10
10.2064396702
 20
38.9914369332
 40
0.65
100
AcDbArc
 50
180.0
 51
259.902731595
  0
ARC
  5
2B7
100
AcDbEntity
  8
0
100
AcDbCircle
 62
7
  6
CONTINUOUS
 10
80.1064396702
 20
38.9914369332
 40
0.65
100
AcDbArc
 50
280.097268405
 51
360.0
  0
ARC
  5
2B8
100
AcDbEntity
  8
0
100
AcDbCircle
 62
7
  6
CONTINUOUS
 10
10.2064396702
 20
43.9038123392
 40
0.65
100
AcDbArc
 50
180.0
 51
270.0
  0
ARC
  5
2B9
100
AcDbEntity
  8
0
100
AcDbCircle
 62
7
  6
CONTINUOUS
 10
10.206227995
 20
59.7817218292
 40
0.6498021093
100
AcDbArc
 50
180.0186744971
 51
270.01866396
  0
ARC
  5
2BA
100
AcDbEntity
  8
0
100
AcDbCircle
 62
7
  6
CONTINUOUS
 10
80.1066513454
 20
59.7817218293
 40
0.6498021093
100
AcDbArc
 50
269.9813361017
 51
359.9813255712
  0
ARC
  5
2BB
100
AcDbEntity
  8
0
100
AcDbCircle
 62
7
  6
CONTINUOUS
 10
12.0314396702
 20
91.9538123392
 40
0.2
100
AcDbArc
 50
90.0
 51
180.0
  0
ARC
  5
2BC
100
AcDbEntity
  8
0
100
AcDbCircle
 62
7
  6
CONTINUOUS
 10
18.2814396702
 20
91.9538123392
 40
0.2
100
AcDbArc
 50
0.0000002149
 51
90.0
  0
ARC
  5
2BD
100
AcDbEntity
  8
0
100
AcDbCircle
 62
7
  6
CONTINUOUS
 10
10.9564396702
 20
87.3538123392
 40
0.2
100
AcDbArc
 50
210.0000000716
 51
240.0000001432
  0
ARC
  5
2BE
100
AcDbEntity
  8
0
100
AcDbCircle
 62
7
  6
CONTINUOUS
 10
10.9564396702
 20
90.2538123392
 40
0.2
100
AcDbArc
 50
89.9999997851
 51
180.0
  0
ARC
  5
2BF
100
AcDbEntity
  8
0
100
AcDbCircle
 62
7
  6
CONTINUOUS
 10
19.3564396702
 20
87.3538123392
 40
0.2
100
AcDbArc
 50
270.0
 51
359.9999997866
  0
ARC
  5
2C0
100
AcDbEntity
  8
0
100
AcDbCircle
 62
7
  6
CONTINUOUS
 10
19.3564396702
 20
90.2538123392
 40
0.2
100
AcDbArc
 50
0.0
 51
90.0000002149
  0
SPLINE
  5
2C1
100
AcDbEntity
  8
0
100
AcDbSpline
 62
7
  6
CONTINUOUS
 70
0
 71
3
 72
10
 73
6
 74
0
 42
0.0000001
 43
0.0000001
 44
0.0000000001
 40
0.0
 40
0.0
 40
0.0
 40
0.0
 40
0.5081011267
 40
0.7572263797
 40
1.0
 40
1.0
 40
1.0
 40
1.0
 10
16.4814396702
 20
88.9306839418
 30
0.0
 10
16.6007204549
 20
88.9684038378
 30
0.0
 10
16.7781480632
 20
89.0259425405
 30
0.0
 10
17.0165630411
 20
89.0878095888
 30
0.0
 10
17.1357216333
 20
89.1103935104
 30
0.0
 10
17.1949273051
 20
89.1186224662
 30
0.0
  0
SPLINE
  5
2C2
100
AcDbEntity
  8
0
100
AcDbSpline
 62
7
  6
CONTINUOUS
 70
0
 71
3
 72
11
 73
7
 74
0
 42
0.0000001
 43
0.0000001
 44
0.0000000001
 40
0.0
 40
0.0
 40
0.0
 40
0.0
 40
0.2571263504
 40
0.5101430427
 40
0.7572274763
 40
1.0
 40
1.0
 40
1.0
 40
1.0
 10
10.9564396648
 20
89.773768872
 30
0.0
 10
10.9304902518
 20
89.7737688725
 30
0.0
 10
10.8784873114
 20
89.7641713562
 30
0.0
 10
10.8121198297
 20
89.7227574629
 30
0.0
 10
10.7671073055
 20
89.6603548473
 30
0.0
 10
10.7564396623
 20
89.610331185
 30
0.0
 10
10.7564396587
 20
89.5858303726
 30
0.0
  0
SPLINE
  5
2C3
100
AcDbEntity
  8
0
100
AcDbSpline
 62
7
  6
CONTINUOUS
 70
0
 71
3
 72
11
 73
7
 74
0
 42
0.0000001
 43
0.0000001
 44
0.0000000001
 40
0.0
 40
0.0
 40
0.0
 40
0.0
 40
0.2428087039
 40
0.4898502971
 40
0.7428317811
 40
1.0
 40
1.0
 40
1.0
 40
1.0
 10
10.7564396702
 20
90.2055664357
 30
0.0
 10
10.7564396702
 20
90.230074167
 30
0.0
 10
10.7670835517
 20
90.2801047441
 30
0.0
 10
10.8120741166
 20
90.3425389055
 30
0.0
 10
10.8784720973
 20
90.3839282977
 30
0.0
 10
10.9304825657
 20
90.3935049592
 30
0.0
 10
10.9564396648
 20
90.3935049599
 30
0.0
  0
SPLINE
  5
2C4
100
AcDbEntity
  8
0
100
AcDbSpline
 62
7
  6
CONTINUOUS
 70
0
 71
3
 72
20
 73
16
 74
0
 42
0.0000001
 43
0.0000001
 44
0.0000000001
 40
0.0
 40
0.0
 40
0.0
 40
0.0
 40
0.030997478
 40
0.0637893955
 40
0.0998576708
 40
0.1402895613
 40
0.1857909708
 40
0.2366828506
 40
0.2930749264
 40
0.354958583
 40
0.4221808737
 40
0.4943885957
 40
0.6517993305
 40
0.8223963835
 40
1.0
 40
1.0
 40
1.0
 40
1.0
 10
10.9564766546
 20
89.7737688689
 30
0.0
 10
10.9564764062
 20
89.7527573613
 30
0.0
 10
10.9623769617
 20
89.7093338709
 30
0.0
 10
10.9881600916
 20
89.6461211053
 30
0.0
 10
11.030235185
 20
89.5845894366
 30
0.0
 10
11.0881444758
 20
89.5251029596
 30
0.0
 10
11.1615083092
 20
89.4679881435
 30
0.0
 10
11.2497913613
 20
89.4135309512
 30
0.0
 10
11.352460383
 20
89.3621789293
 30
0.0
 10
11.4688982098
 20
89.3144556256
 30
0.0
 10
11.5982987245
 20
89.2708765789
 30
0.0
 10
11.7923514362
 20
89.217362138
 30
0.0
 10
12.0590011938
 20
89.1651890892
 30
0.0
 10
12.3999223211
 20
89.1271787402
 30
0.0
 10
12.6360516908
 20
89.1186322938
 30
0.0
 10
12.7564395409
 20
89.1186322983
 30
0.0
  0
SPLINE
  5
2C5
100
AcDbEntity
  8
0
100
AcDbSpline
 62
7
  6
CONTINUOUS
 70
0
 71
3
 72
10
 73
6
 74
0
 42
0.0000001
 43
0.0000001
 44
0.0000000001
 40
0.0
 40
0.0
 40
0.0
 40
0.0
 40
0.2427736173
 40
0.4918988667
 40
1.0
 40
1.0
 40
1.0
 40
1.0
 10
13.1179520353
 20
89.1186224662
 30
0.0
 10
13.1771577064
 20
89.1103935105
 30
0.0
 10
13.2963162968
 20
89.0878095876
 30
0.0
 10
13.5347312757
 20
89.0259425427
 30
0.0
 10
13.7121588843
 20
88.9684038382
 30
0.0
 10
13.8314396706
 20
88.9306839416
 30
0.0
  0
SPLINE
  5
2C6
100
AcDbEntity
  8
0
100
AcDbSpline
 62
7
  6
CONTINUOUS
 70
0
 71
3
 72
18
 73
14
 74
0
 42
0.0000001
 43
0.0000001
 44
0.0000000001
 40
0.0
 40
0.0
 40
0.0
 40
0.0
 40
0.0349014339
 40
0.0710589314
 40
0.1095432335
 40
0.1512372095
 40
0.1968148817
 40
0.2467504183
 40
0.3606683407
 40
0.4940757035
 40
0.6464084867
 40
0.8159687787
 40
1.0
 40
1.0
 40
1.0
 40
1.0
 10
11.8314396702
 20
89.7986659175
 30
0.0
 10
11.8314396702
 20
89.7807018333
 30
0.0
 10
11.8352315737
 20
89.7440278753
 30
0.0
 10
11.8520393579
 20
89.6898743902
 30
0.0
 10
11.8798056588
 20
89.63650397
 30
0.0
 10
11.9182924389
 20
89.5841943851
 30
0.0
 10
11.9672935969
 20
89.5331052651
 30
0.0
 10
12.050109328
 20
89.4638297703
 30
0.0
 10
12.1807981115
 20
89.3828785221
 30
0.0
 10
12.3687024811
 20
89.298223866
 30
0.0
 10
12.5913453268
 20
89.22400278
 30
0.0
 10
12.8445619137
 20
89.162251218
 30
0.0
 10
13.0241305043
 20
89.1316625342
 30
0.0
 10
13.1179511607
 20
89.1186224654
 30
0.0
  0
SPLINE
  5
2C7
100
AcDbEntity
  8
0
100
AcDbSpline
 62
7
  6
CONTINUOUS
 70
0
 71
3
 72
20
 73
16
 74
0
 42
0.0000001
 43
0.0000001
 44
0.0000000001
 40
0.0
 40
0.0
 40
0.0
 40
0.0
 40
0.0284478281
 40
0.0589552429
 40
0.09316942
 40
0.1322325825
 40
0.1768028843
 40
0.2271731378
 40
0.2834490009
 40
0.3455834691
 40
0.4133208053
 40
0.4863114081
 40
0.6459096969
 40
0.8192905081
 40
1.0
 40
1.0
 40
1.0
 40
1.0
 10
19.5564396117
 20
89.5858526912
 30
0.0
 10
19.556439382
 20
89.5647981661
 30
0.0
 10
19.5497727839
 20
89.5209473278
 30
0.0
 10
19.5208783511
 20
89.4575834729
 30
0.0
 10
19.4739783713
 20
89.3961146884
 30
0.0
 10
19.4095903697
 20
89.3367895188
 30
0.0
 10
19.3281639824
 20
89.2797748958
 30
0.0
 10
19.2301708852
 20
89.2253830164
 30
0.0
 10
19.1161360846
 20
89.1740964249
 30
0.0
 10
18.9867693709
 20
89.1264496541
 30
0.0
 10
18.8430128542
 20
89.082873723
 30
0.0
 10
18.6271983341
 20
89.029350204
 30
0.0
 10
18.3309069882
 20
88.9772041477
 30
0.0
 10
17.9523432778
 20
88.9392377733
 30
0.0
 10
17.6901845919
 20
88.9307021415
 30
0.0
 10
17.5564396702
 20
88.93070214
 30
0.0
  0
SPLINE
  5
2C8
100
AcDbEntity
  8
0
100
AcDbSpline
 62
7
  6
CONTINUOUS
 70
0
 71
3
 72
11
 73
7
 74
0
 42
0.0000001
 43
0.0000001
 44
0.0000000001
 40
0.0
 40
0.0
 40
0.0
 40
0.0
 40
0.2427725304
 40
0.4898569618
 40
0.7428736497
 40
1.0
 40
1.0
 40
1.0
 40
1.0
 10
19.5564396131
 20
89.5858304033
 30
0.0
 10
19.5564396203
 20
89.6103312171
 30
0.0
 10
19.5457719981
 20
89.6603548864
 30
0.0
 10
19.5007594954
 20
89.7227575214
 30
0.0
 10
19.4343920239
 20
89.7641714358
 30
0.0
 10
19.382389084
 20
89.7737689643
 30
0.0
 10
19.3564396702
 20
89.7737689693
 30
0.0
  0
SPLINE
  5
2C9
100
AcDbEntity
  8
0
100
AcDbSpline
 62
7
  6
CONTINUOUS
 70
0
 71
3
 72
19
 73
15
 74
0
 42
0.0000001
 43
0.0000001
 44
0.0000000001
 40
0.0
 40
0.0
 40
0.0
 40
0.0
 40
0.1776075653
 40
0.3481965737
 40
0.5056108821
 40
0.6450037816
 40
0.7069259225
 40
0.7633265842
 40
0.8141990823
 40
0.859691347
 40
0.9001364121
 40
0.9362083429
 40
0.9690001919
 40
1.0
 40
1.0
 40
1.0
 40
1.0
 10
17.5564396728
 20
89.1186380621
 30
0.0
 10
17.6768227473
 20
89.1186380636
 30
0.0
 10
17.9129255787
 20
89.1271864137
 30
0.0
 10
18.2538640047
 20
89.1651853553
 30
0.0
 10
18.5651274253
 20
89.2261558638
 30
0.0
 10
18.7986489321
 20
89.2959458175
 30
0.0
 10
18.9604359943
 20
89.3621590532
 30
0.0
 10
19.0631211892
 20
89.4135108111
 30
0.0
 10
19.1513698648
 20
89.4679881177
 30
0.0
 10
19.2246956311
 20
89.5251213161
 30
0.0
 10
19.2826310639
 20
89.5845809944
 30
0.0
 10
19.3247153632
 20
89.6461171501
 30
0.0
 10
19.3504890358
 20
89.7093343249
 30
0.0
 10
19.3563813796
 20
89.7527570922
 30
0.0
 10
19.3563809692
 20
89.7737688785
 30
0.0
  0
SPLINE
  5
2CA
100
AcDbEntity
  8
0
100
AcDbSpline
 62
7
  6
CONTINUOUS
 70
0
 71
3
 72
17
 73
13
 74
0
 42
0.0000001
 43
0.0000001
 44
0.0000000001
 40
0.0
 40
0.0
 40
0.0
 40
0.0
 40
0.0349002757
 40
0.0710411729
 40
0.1094947206
 40
0.1511568739
 40
0.2465364292
 40
0.3605906786
 40
0.4941463942
 40
0.646523409
 40
0.8160271809
 40
1.0
 40
1.0
 40
1.0
 40
1.0
 10
18.4814396702
 20
89.7986659175
 30
0.0
 10
18.4814396702
 20
89.7807035762
 30
0.0
 10
18.477685571
 20
89.7440416449
 30
0.0
 10
18.4609928616
 20
89.6898845738
 30
0.0
 10
18.4333571275
 20
89.6364943456
 30
0.0
 10
18.3797330254
 20
89.5634389177
 30
0.0
 10
18.2828799144
 20
89.4760432068
 30
0.0
 10
18.1322121428
 20
89.3829645338
 30
0.0
 10
17.9440144687
 20
89.2983744932
 30
0.0
 10
17.7213406429
 20
89.2241790675
 30
0.0
 10
17.4681938633
 20
89.1623398829
 30
0.0
 10
17.2887130712
 20
89.1316575636
 30
0.0
 10
17.1949281763
 20
89.1186224653
 30
0.0
  0
SPLINE
  5
2CB
100
AcDbEntity
  8
0
100
AcDbSpline
 62
7
  6
CONTINUOUS
 70
0
 71
3
 72
11
 73
7
 74
0
 42
0.0000001
 43
0.0000001
 44
0.0000000001
 40
0.0
 40
0.0
 40
0.0
 40
0.0
 40
0.2571682184
 40
0.5101497027
 40
0.757191297
 40
1.0
 40
1.0
 40
1.0
 40
1.0
 10
19.3564396702
 20
90.3935049296
 30
0.0
 10
19.3823967666
 20
90.3935049296
 30
0.0
 10
19.4344072297
 20
90.3839282714
 30
0.0
 10
19.5008052069
 20
90.3425388895
 30
0.0
 10
19.5457957753
 20
90.2801047411
 30
0.0
 10
19.556439665
 20
90.2300741715
 30
0.0
 10
19.5564396702
 20
90.2055664429
 30
0.0
  0
SPLINE
  5
2CC
100
AcDbEntity
  8
0
100
AcDbSpline
 62
7
  6
CONTINUOUS
 70
0
 71
3
 72
20
 73
16
 74
0
 42
0.0000001
 43
0.0000001
 44
0.0000000001
 40
0.0
 40
0.0
 40
0.0
 40
0.0
 40
0.1807156303
 40
0.3541143875
 40
0.5137179326
 40
0.586699585
 40
0.6544350585
 40
0.7165332312
 40
0.772803326
 40
0.8231968078
 40
0.8677795221
 40
0.9068310046
 40
0.9410432401
 40
0.9715526437
 40
1.0
 40
1.0
 40
1.0
 40
1.0
 10
12.7564396713
 20
88.9307029363
 30
0.0
 10
12.6226907846
 20
88.9307029273
 30
0.0
 10
12.3605151953
 20
88.9392386307
 30
0.0
 10
11.9819323436
 20
88.9772074418
 30
0.0
 10
11.6856282576
 20
89.0293421335
 30
0.0
 10
11.4698251324
 20
89.0828880672
 30
0.0
 10
11.3260970629
 20
89.1264372758
 30
0.0
 10
11.1967775269
 20
89.1741178434
 30
0.0
 10
11.082762083
 20
89.2254090139
 30
0.0
 10
10.9847339291
 20
89.2797788388
 30
0.0
 10
10.9032684072
 20
89.3367725038
 30
0.0
 10
10.8389071705
 20
89.3961264342
 30
0.0
 10
10.7920191389
 20
89.4575902739
 30
0.0
 10
10.763115422
 20
89.5209481943
 30
0.0
 10
10.7564399142
 20
89.5647994565
 30
0.0
 10
10.7564396602
 20
89.5858535415
 30
0.0
  0
SPLINE
  5
2CD
100
AcDbEntity
  8
0
100
AcDbSpline
 62
7
  6
CONTINUOUS
 70
0
 71
3
 72
11
 73
7
 74
0
 42
0.0000001
 43
0.0000001
 44
0.0000000001
 40
0.0
 40
0.0
 40
0.0
 40
0.0
 40
0.0843553163
 40
0.2741194009
 40
0.5790504402
 40
1.0
 40
1.0
 40
1.0
 40
1.0
 10
74.6064062354
 20
58.8884144917
 30
0.0
 10
74.6064062354
 20
58.8860439393
 30
0.0
 10
74.5978608213
 20
58.8813814996
 30
0.0
 10
74.5835160321
 20
58.8777066132
 30
0.0
 10
74.5574382679
 20
58.8727199575
 30
0.0
 10
74.5374513481
 20
58.8701722193
 30
0.0
 10
74.5257050909
 20
58.8687711467
 30
0.0
  0
SPLINE
  5
2CE
100
AcDbEntity
  8
0
100
AcDbSpline
 62
7
  6
CONTINUOUS
 70
0
 71
3
 72
19
 73
15
 74
0
 42
0.0000001
 43
0.0000001
 44
0.0000000001
 40
0.0
 40
0.0
 40
0.0
 40
0.0
 40
0.0299850069
 40
0.0720050752
 40
0.1250271059
 40
0.187683133
 40
0.3352984973
 40
0.4997794008
 40
0.6642905096
 40
0.8119984435
 40
0.8747209393
 40
0.9278212877
 40
0.9699255335
 40
1.0
 40
1.0
 40
1.0
 40
1.0
 10
74.5257050909
 20
58.8687711467
 30
0.0
 10
74.4875920452
 20
58.8642250907
 30
0.0
 10
74.3956919458
 20
58.8566455434
 30
0.0
 10
74.2359178126
 20
58.8474116878
 30
0.0
 10
74.0342113314
 20
58.8391004035
 30
0.0
 10
73.6973255751
 20
58.8289394905
 30
0.0
 10
73.2176622109
 20
58.8207569174
 30
0.0
 10
72.607565117
 20
58.8174302044
 30
0.0
 10
71.997349383
 20
58.8207333091
 30
0.0
 10
71.517443475
 20
58.8288971727
 30
0.0
 10
71.1802533214
 20
58.8390447103
 30
0.0
 10
70.9782533104
 20
58.8473489444
 30
0.0
 10
70.8181557227
 20
58.8565785304
 30
0.0
 10
70.7260327682
 20
58.8641552516
 30
0.0
 10
70.6878038
 20
58.868696278
 30
0.0
  0
SPLINE
  5
2CF
100
AcDbEntity
  8
0
100
AcDbSpline
 62
7
  6
CONTINUOUS
 70
0
 71
3
 72
11
 73
7
 74
0
 42
0.0000001
 43
0.0000001
 44
0.0000000001
 40
0.0
 40
0.0
 40
0.0
 40
0.0
 40
0.4210421462
 40
0.7260231098
 40
0.9157769939
 40
1.0
 40
1.0
 40
1.0
 40
1.0
 10
70.6878038
 20
58.868696278
 30
0.0
 10
70.6759662472
 20
58.8701024012
 30
0.0
 10
70.6558262723
 20
58.8726596227
 30
0.0
 10
70.6295399206
 20
58.8776642136
 30
0.0
 10
70.6150970861
 20
58.8813537711
 30
0.0
 10
70.6064731051
 20
58.8860299243
 30
0.0
 10
70.6064731051
 20
58.8884144917
 30
0.0
  0
SPLINE
  5
2D0
100
AcDbEntity
  8
0
100
AcDbSpline
 62
7
  6
CONTINUOUS
 70
0
 71
3
 72
11
 73
7
 74
0
 42
0.0000001
 43
0.0000001
 44
0.0000000001
 40
0.0
 40
0.0
 40
0.0
 40
0.0
 40
0.0843553163
 40
0.2741194009
 40
0.5790504402
 40
1.0
 40
1.0
 40
1.0
 40
1.0
 10
69.5264062353
 20
58.8884144917
 30
0.0
 10
69.5264062353
 20
58.8860439393
 30
0.0
 10
69.5178608213
 20
58.8813814996
 30
0.0
 10
69.5035160321
 20
58.8777066132
 30
0.0
 10
69.4774382679
 20
58.8727199575
 30
0.0
 10
69.4574513481
 20
58.8701722193
 30
0.0
 10
69.4457050909
 20
58.8687711467
 30
0.0
  0
SPLINE
  5
2D1
100
AcDbEntity
  8
0
100
AcDbSpline
 62
7
  6
CONTINUOUS
 70
0
 71
3
 72
19
 73
15
 74
0
 42
0.0000001
 43
0.0000001
 44
0.0000000001
 40
0.0
 40
0.0
 40
0.0
 40
0.0
 40
0.0299850069
 40
0.0720050752
 40
0.1250271059
 40
0.187683133
 40
0.3352984973
 40
0.4997794008
 40
0.6642905096
 40
0.8119984435
 40
0.8747209393
 40
0.9278212877
 40
0.9699255335
 40
1.0
 40
1.0
 40
1.0
 40
1.0
 10
69.4457050909
 20
58.8687711467
 30
0.0
 10
69.4075920452
 20
58.8642250907
 30
0.0
 10
69.3156919458
 20
58.8566455434
 30
0.0
 10
69.1559178126
 20
58.8474116878
 30
0.0
 10
68.9542113314
 20
58.8391004035
 30
0.0
 10
68.6173255751
 20
58.8289394905
 30
0.0
 10
68.1376622109
 20
58.8207569174
 30
0.0
 10
67.527565117
 20
58.8174302044
 30
0.0
 10
66.917349383
 20
58.8207333091
 30
0.0
 10
66.437443475
 20
58.8288971727
 30
0.0
 10
66.1002533214
 20
58.8390447103
 30
0.0
 10
65.8982533104
 20
58.8473489444
 30
0.0
 10
65.7381557227
 20
58.8565785304
 30
0.0
 10
65.6460327682
 20
58.8641552516
 30
0.0
 10
65.6078038
 20
58.868696278
 30
0.0
  0
SPLINE
  5
2D2
100
AcDbEntity
  8
0
100
AcDbSpline
 62
7
  6
CONTINUOUS
 70
0
 71
3
 72
11
 73
7
 74
0
 42
0.0000001
 43
0.0000001
 44
0.0000000001
 40
0.0
 40
0.0
 40
0.0
 40
0.0
 40
0.4210421462
 40
0.7260231098
 40
0.9157769939
 40
1.0
 40
1.0
 40
1.0
 40
1.0
 10
65.6078038
 20
58.868696278
 30
0.0
 10
65.5959662472
 20
58.8701024012
 30
0.0
 10
65.5758262723
 20
58.8726596227
 30
0.0
 10
65.5495399206
 20
58.8776642136
 30
0.0
 10
65.5350970861
 20
58.8813537711
 30
0.0
 10
65.5264731051
 20
58.8860299243
 30
0.0
 10
65.5264731051
 20
58.8884144917
 30
0.0
  0
SPLINE
  5
2D3
100
AcDbEntity
  8
0
100
AcDbSpline
 62
7
  6
CONTINUOUS
 70
0
 71
3
 72
11
 73
7
 74
0
 42
0.0000001
 43
0.0000001
 44
0.0000000001
 40
0.0
 40
0.0
 40
0.0
 40
0.0
 40
0.0843553163
 40
0.2741194008
 40
0.57905044
 40
1.0
 40
1.0
 40
1.0
 40
1.0
 10
64.4464062354
 20
58.8884144917
 30
0.0
 10
64.4464062354
 20
58.8860439394
 30
0.0
 10
64.4378608213
 20
58.8813814996
 30
0.0
 10
64.4235160321
 20
58.8777066132
 30
0.0
 10
64.3974382679
 20
58.8727199575
 30
0.0
 10
64.3774513481
 20
58.8701722193
 30
0.0
 10
64.3657050909
 20
58.8687711467
 30
0.0
  0
SPLINE
  5
2D4
100
AcDbEntity
  8
0
100
AcDbSpline
 62
7
  6
CONTINUOUS
 70
0
 71
3
 72
19
 73
15
 74
0
 42
0.0000001
 43
0.0000001
 44
0.0000000001
 40
0.0
 40
0.0
 40
0.0
 40
0.0
 40
0.0299850069
 40
0.0720050752
 40
0.1250271059
 40
0.187683133
 40
0.3352984973
 40
0.4997794008
 40
0.6642905096
 40
0.8119984435
 40
0.8747209393
 40
0.9278212877
 40
0.9699255335
 40
1.0
 40
1.0
 40
1.0
 40
1.0
 10
64.3657050909
 20
58.8687711467
 30
0.0
 10
64.3275920452
 20
58.8642250907
 30
0.0
 10
64.2356919458
 20
58.8566455434
 30
0.0
 10
64.0759178126
 20
58.8474116878
 30
0.0
 10
63.8742113314
 20
58.8391004035
 30
0.0
 10
63.5373255751
 20
58.8289394905
 30
0.0
 10
63.0576622109
 20
58.8207569174
 30
0.0
 10
62.447565117
 20
58.8174302044
 30
0.0
 10
61.837349383
 20
58.8207333091
 30
0.0
 10
61.357443475
 20
58.8288971727
 30
0.0
 10
61.0202533214
 20
58.8390447103
 30
0.0
 10
60.8182533104
 20
58.8473489444
 30
0.0
 10
60.6581557227
 20
58.8565785304
 30
0.0
 10
60.5660327682
 20
58.8641552516
 30
0.0
 10
60.5278038
 20
58.868696278
 30
0.0
  0
SPLINE
  5
2D5
100
AcDbEntity
  8
0
100
AcDbSpline
 62
7
  6
CONTINUOUS
 70
0
 71
3
 72
11
 73
7
 74
0
 42
0.0000001
 43
0.0000001
 44
0.0000000001
 40
0.0
 40
0.0
 40
0.0
 40
0.0
 40
0.4210421463
 40
0.7260231099
 40
0.9157769939
 40
1.0
 40
1.0
 40
1.0
 40
1.0
 10
60.5278038
 20
58.868696278
 30
0.0
 10
60.5159662472
 20
58.8701024012
 30
0.0
 10
60.4958262723
 20
58.8726596227
 30
0.0
 10
60.4695399206
 20
58.8776642136
 30
0.0
 10
60.4550970861
 20
58.8813537711
 30
0.0
 10
60.4464731051
 20
58.8860299243
 30
0.0
 10
60.4464731051
 20
58.8884144917
 30
0.0
  0
SPLINE
  5
2D6
100
AcDbEntity
  8
0
100
AcDbSpline
 62
7
  6
CONTINUOUS
 70
0
 71
3
 72
11
 73
7
 74
0
 42
0.0000001
 43
0.0000001
 44
0.0000000001
 40
0.0
 40
0.0
 40
0.0
 40
0.0
 40
0.0843553163
 40
0.2741194009
 40
0.5790504402
 40
1.0
 40
1.0
 40
1.0
 40
1.0
 10
59.3664062354
 20
58.8884144917
 30
0.0
 10
59.3664062354
 20
58.8860439393
 30
0.0
 10
59.3578608213
 20
58.8813814996
 30
0.0
 10
59.3435160321
 20
58.8777066132
 30
0.0
 10
59.3174382679
 20
58.8727199575
 30
0.0
 10
59.2974513481
 20
58.8701722193
 30
0.0
 10
59.2857050909
 20
58.8687711467
 30
0.0
  0
SPLINE
  5
2D7
100
AcDbEntity
  8
0
100
AcDbSpline
 62
7
  6
CONTINUOUS
 70
0
 71
3
 72
19
 73
15
 74
0
 42
0.0000001
 43
0.0000001
 44
0.0000000001
 40
0.0
 40
0.0
 40
0.0
 40
0.0
 40
0.0299850069
 40
0.0720050752
 40
0.1250271059
 40
0.187683133
 40
0.3352984973
 40
0.4997794008
 40
0.6642905096
 40
0.8119984435
 40
0.8747209393
 40
0.9278212877
 40
0.9699255335
 40
1.0
 40
1.0
 40
1.0
 40
1.0
 10
59.2857050909
 20
58.8687711467
 30
0.0
 10
59.2475920452
 20
58.8642250907
 30
0.0
 10
59.1556919458
 20
58.8566455434
 30
0.0
 10
58.9959178126
 20
58.8474116878
 30
0.0
 10
58.7942113314
 20
58.8391004035
 30
0.0
 10
58.4573255751
 20
58.8289394905
 30
0.0
 10
57.9776622109
 20
58.8207569174
 30
0.0
 10
57.367565117
 20
58.8174302044
 30
0.0
 10
56.757349383
 20
58.8207333091
 30
0.0
 10
56.277443475
 20
58.8288971727
 30
0.0
 10
55.9402533214
 20
58.8390447103
 30
0.0
 10
55.7382533104
 20
58.8473489444
 30
0.0
 10
55.5781557227
 20
58.8565785304
 30
0.0
 10
55.4860327682
 20
58.8641552516
 30
0.0
 10
55.4478038
 20
58.868696278
 30
0.0
  0
SPLINE
  5
2D8
100
AcDbEntity
  8
0
100
AcDbSpline
 62
7
  6
CONTINUOUS
 70
0
 71
3
 72
11
 73
7
 74
0
 42
0.0000001
 43
0.0000001
 44
0.0000000001
 40
0.0
 40
0.0
 40
0.0
 40
0.0
 40
0.4210421461
 40
0.7260231098
 40
0.9157769939
 40
1.0
 40
1.0
 40
1.0
 40
1.0
 10
55.4478038
 20
58.868696278
 30
0.0
 10
55.4359662472
 20
58.8701024012
 30
0.0
 10
55.4158262723
 20
58.8726596227
 30
0.0
 10
55.3895399206
 20
58.8776642136
 30
0.0
 10
55.3750970861
 20
58.8813537711
 30
0.0
 10
55.3664731051
 20
58.8860299243
 30
0.0
 10
55.3664731051
 20
58.8884144917
 30
0.0
  0
SPLINE
  5
2D9
100
AcDbEntity
  8
0
100
AcDbSpline
 62
7
  6
CONTINUOUS
 70
0
 71
3
 72
11
 73
7
 74
0
 42
0.0000001
 43
0.0000001
 44
0.0000000001
 40
0.0
 40
0.0
 40
0.0
 40
0.0
 40
0.0843553163
 40
0.2741194009
 40
0.5790504402
 40
1.0
 40
1.0
 40
1.0
 40
1.0
 10
54.2864062354
 20
58.8884144917
 30
0.0
 10
54.2864062354
 20
58.8860439393
 30
0.0
 10
54.2778608213
 20
58.8813814996
 30
0.0
 10
54.2635160321
 20
58.8777066132
 30
0.0
 10
54.2374382679
 20
58.8727199575
 30
0.0
 10
54.2174513481
 20
58.8701722193
 30
0.0
 10
54.2057050909
 20
58.8687711467
 30
0.0
  0
SPLINE
  5
2DA
100
AcDbEntity
  8
0
100
AcDbSpline
 62
7
  6
CONTINUOUS
 70
0
 71
3
 72
19
 73
15
 74
0
 42
0.0000001
 43
0.0000001
 44
0.0000000001
 40
0.0
 40
0.0
 40
0.0
 40
0.0
 40
0.0299850069
 40
0.0720050752
 40
0.1250271059
 40
0.187683133
 40
0.3352984973
 40
0.4997794008
 40
0.6642905096
 40
0.8119984435
 40
0.8747209393
 40
0.9278212877
 40
0.9699255335
 40
1.0
 40
1.0
 40
1.0
 40
1.0
 10
54.2057050909
 20
58.8687711467
 30
0.0
 10
54.1675920452
 20
58.8642250907
 30
0.0
 10
54.0756919458
 20
58.8566455434
 30
0.0
 10
53.9159178126
 20
58.8474116878
 30
0.0
 10
53.7142113314
 20
58.8391004035
 30
0.0
 10
53.3773255751
 20
58.8289394905
 30
0.0
 10
52.8976622109
 20
58.8207569174
 30
0.0
 10
52.287565117
 20
58.8174302044
 30
0.0
 10
51.677349383
 20
58.8207333091
 30
0.0
 10
51.197443475
 20
58.8288971727
 30
0.0
 10
50.8602533214
 20
58.8390447103
 30
0.0
 10
50.6582533104
 20
58.8473489444
 30
0.0
 10
50.4981557227
 20
58.8565785304
 30
0.0
 10
50.4060327682
 20
58.8641552516
 30
0.0
 10
50.3678038
 20
58.868696278
 30
0.0
  0
SPLINE
  5
2DB
100
AcDbEntity
  8
0
100
AcDbSpline
 62
7
  6
CONTINUOUS
 70
0
 71
3
 72
11
 73
7
 74
0
 42
0.0000001
 43
0.0000001
 44
0.0000000001
 40
0.0
 40
0.0
 40
0.0
 40
0.0
 40
0.4210421462
 40
0.7260231098
 40
0.9157769939
 40
1.0
 40
1.0
 40
1.0
 40
1.0
 10
50.3678038
 20
58.868696278
 30
0.0
 10
50.3559662472
 20
58.8701024012
 30
0.0
 10
50.3358262723
 20
58.8726596227
 30
0.0
 10
50.3095399206
 20
58.8776642136
 30
0.0
 10
50.2950970861
 20
58.8813537711
 30
0.0
 10
50.2864731051
 20
58.8860299243
 30
0.0
 10
50.2864731051
 20
58.8884144917
 30
0.0
  0
SPLINE
  5
2DC
100
AcDbEntity
  8
0
100
AcDbSpline
 62
7
  6
CONTINUOUS
 70
0
 71
3
 72
11
 73
7
 74
0
 42
0.0000001
 43
0.0000001
 44
0.0000000001
 40
0.0
 40
0.0
 40
0.0
 40
0.0
 40
0.0843553163
 40
0.274119401
 40
0.5790504403
 40
1.0
 40
1.0
 40
1.0
 40
1.0
 10
49.2064062354
 20
58.8884144917
 30
0.0
 10
49.2064062354
 20
58.8860439393
 30
0.0
 10
49.1978608213
 20
58.8813814996
 30
0.0
 10
49.1835160321
 20
58.8777066132
 30
0.0
 10
49.1574382679
 20
58.8727199575
 30
0.0
 10
49.1374513481
 20
58.8701722193
 30
0.0
 10
49.1257050909
 20
58.8687711467
 30
0.0
  0
SPLINE
  5
2DD
100
AcDbEntity
  8
0
100
AcDbSpline
 62
7
  6
CONTINUOUS
 70
0
 71
3
 72
19
 73
15
 74
0
 42
0.0000001
 43
0.0000001
 44
0.0000000001
 40
0.0
 40
0.0
 40
0.0
 40
0.0
 40
0.0299850069
 40
0.0720050752
 40
0.1250271059
 40
0.187683133
 40
0.3352984973
 40
0.4997794008
 40
0.6642905096
 40
0.8119984435
 40
0.8747209393
 40
0.9278212877
 40
0.9699255335
 40
1.0
 40
1.0
 40
1.0
 40
1.0
 10
49.1257050909
 20
58.8687711467
 30
0.0
 10
49.0875920452
 20
58.8642250907
 30
0.0
 10
48.9956919458
 20
58.8566455434
 30
0.0
 10
48.8359178126
 20
58.8474116878
 30
0.0
 10
48.6342113314
 20
58.8391004035
 30
0.0
 10
48.2973255751
 20
58.8289394905
 30
0.0
 10
47.8176622109
 20
58.8207569174
 30
0.0
 10
47.207565117
 20
58.8174302044
 30
0.0
 10
46.597349383
 20
58.8207333091
 30
0.0
 10
46.117443475
 20
58.8288971727
 30
0.0
 10
45.7802533214
 20
58.8390447103
 30
0.0
 10
45.5782533104
 20
58.8473489444
 30
0.0
 10
45.4181557227
 20
58.8565785304
 30
0.0
 10
45.3260327682
 20
58.8641552516
 30
0.0
 10
45.2878038
 20
58.868696278
 30
0.0
  0
SPLINE
  5
2DE
100
AcDbEntity
  8
0
100
AcDbSpline
 62
7
  6
CONTINUOUS
 70
0
 71
3
 72
11
 73
7
 74
0
 42
0.0000001
 43
0.0000001
 44
0.0000000001
 40
0.0
 40
0.0
 40
0.0
 40
0.0
 40
0.4210421461
 40
0.7260231098
 40
0.9157769939
 40
1.0
 40
1.0
 40
1.0
 40
1.0
 10
45.2878038
 20
58.868696278
 30
0.0
 10
45.2759662472
 20
58.8701024012
 30
0.0
 10
45.2558262723
 20
58.8726596227
 30
0.0
 10
45.2295399206
 20
58.8776642136
 30
0.0
 10
45.2150970861
 20
58.8813537711
 30
0.0
 10
45.2064731051
 20
58.8860299243
 30
0.0
 10
45.2064731051
 20
58.8884144917
 30
0.0
  0
SPLINE
  5
2DF
100
AcDbEntity
  8
0
100
AcDbSpline
 62
7
  6
CONTINUOUS
 70
0
 71
3
 72
11
 73
7
 74
0
 42
0.0000001
 43
0.0000001
 44
0.0000000001
 40
0.0
 40
0.0
 40
0.0
 40
0.0
 40
0.0843553163
 40
0.2741194009
 40
0.5790504402
 40
1.0
 40
1.0
 40
1.0
 40
1.0
 10
44.1264062353
 20
58.8884144917
 30
0.0
 10
44.1264062353
 20
58.8860439393
 30
0.0
 10
44.1178608213
 20
58.8813814996
 30
0.0
 10
44.1035160321
 20
58.8777066132
 30
0.0
 10
44.0774382679
 20
58.8727199575
 30
0.0
 10
44.0574513481
 20
58.8701722193
 30
0.0
 10
44.0457050909
 20
58.8687711467
 30
0.0
  0
SPLINE
  5
2E0
100
AcDbEntity
  8
0
100
AcDbSpline
 62
7
  6
CONTINUOUS
 70
0
 71
3
 72
19
 73
15
 74
0
 42
0.0000001
 43
0.0000001
 44
0.0000000001
 40
0.0
 40
0.0
 40
0.0
 40
0.0
 40
0.0299850069
 40
0.0720050752
 40
0.1250271059
 40
0.187683133
 40
0.3352984973
 40
0.4997794008
 40
0.6642905096
 40
0.8119984435
 40
0.8747209393
 40
0.9278212877
 40
0.9699255335
 40
1.0
 40
1.0
 40
1.0
 40
1.0
 10
44.0457050909
 20
58.8687711467
 30
0.0
 10
44.0075920452
 20
58.8642250907
 30
0.0
 10
43.9156919458
 20
58.8566455434
 30
0.0
 10
43.7559178126
 20
58.8474116878
 30
0.0
 10
43.5542113314
 20
58.8391004035
 30
0.0
 10
43.2173255751
 20
58.8289394905
 30
0.0
 10
42.7376622109
 20
58.8207569174
 30
0.0
 10
42.127565117
 20
58.8174302044
 30
0.0
 10
41.517349383
 20
58.8207333091
 30
0.0
 10
41.037443475
 20
58.8288971727
 30
0.0
 10
40.7002533214
 20
58.8390447103
 30
0.0
 10
40.4982533104
 20
58.8473489444
 30
0.0
 10
40.3381557227
 20
58.8565785304
 30
0.0
 10
40.2460327682
 20
58.8641552516
 30
0.0
 10
40.2078038
 20
58.868696278
 30
0.0
  0
SPLINE
  5
2E1
100
AcDbEntity
  8
0
100
AcDbSpline
 62
7
  6
CONTINUOUS
 70
0
 71
3
 72
11
 73
7
 74
0
 42
0.0000001
 43
0.0000001
 44
0.0000000001
 40
0.0
 40
0.0
 40
0.0
 40
0.0
 40
0.4210421462
 40
0.7260231098
 40
0.9157769939
 40
1.0
 40
1.0
 40
1.0
 40
1.0
 10
40.2078038
 20
58.868696278
 30
0.0
 10
40.1959662472
 20
58.8701024012
 30
0.0
 10
40.1758262723
 20
58.8726596227
 30
0.0
 10
40.1495399206
 20
58.8776642136
 30
0.0
 10
40.1350970861
 20
58.8813537711
 30
0.0
 10
40.1264731051
 20
58.8860299243
 30
0.0
 10
40.1264731051
 20
58.8884144917
 30
0.0
  0
SPLINE
  5
2E2
100
AcDbEntity
  8
0
100
AcDbSpline
 62
7
  6
CONTINUOUS
 70
0
 71
3
 72
11
 73
7
 74
0
 42
0.0000001
 43
0.0000001
 44
0.0000000001
 40
0.0
 40
0.0
 40
0.0
 40
0.0
 40
0.0843553163
 40
0.2741194009
 40
0.5790504402
 40
1.0
 40
1.0
 40
1.0
 40
1.0
 10
23.7564070712
 20
58.8884144917
 30
0.0
 10
23.7564070712
 20
58.8861032031
 30
0.0
 10
23.7480752925
 20
58.8815573244
 30
0.0
 10
23.734089123
 20
58.8779743101
 30
0.0
 10
23.708663303
 20
58.8731123209
 30
0.0
 10
23.6891760561
 20
58.8706282761
 30
0.0
 10
23.6777234554
 20
58.8692622303
 30
0.0
  0
SPLINE
  5
2E3
100
AcDbEntity
  8
0
100
AcDbSpline
 62
7
  6
CONTINUOUS
 70
0
 71
3
 72
19
 73
15
 74
0
 42
0.0000001
 43
0.0000001
 44
0.0000000001
 40
0.0
 40
0.0
 40
0.0
 40
0.0
 40
0.0299850069
 40
0.0720050752
 40
0.1250271059
 40
0.187683133
 40
0.3352984973
 40
0.4997794008
 40
0.6642905096
 40
0.8119984435
 40
0.8747209393
 40
0.9278212877
 40
0.9699255335
 40
1.0
 40
1.0
 40
1.0
 40
1.0
 10
23.6777234554
 20
58.8692622303
 30
0.0
 10
23.6405632359
 20
58.8648298257
 30
0.0
 10
23.5509606388
 20
58.8574397671
 30
0.0
 10
23.395180859
 20
58.8484367579
 30
0.0
 10
23.1985170398
 20
58.8403332557
 30
0.0
 10
22.8700534274
 20
58.8304263656
 30
0.0
 10
22.4023816474
 20
58.8224483567
 30
0.0
 10
21.8075369808
 20
58.8192048116
 30
0.0
 10
21.2125766402
 20
58.8224253386
 30
0.0
 10
20.7446683799
 20
58.8303851057
 30
0.0
 10
20.4159079801
 20
58.8402789548
 30
0.0
 10
20.2189579694
 20
58.8483755831
 30
0.0
 10
20.0628628214
 20
58.8573744295
 30
0.0
 10
19.9730429408
 20
58.8647617326
 30
0.0
 10
19.9357696968
 20
58.8691892333
 30
0.0
  0
SPLINE
  5
2E4
100
AcDbEntity
  8
0
100
AcDbSpline
 62
7
  6
CONTINUOUS
 70
0
 71
3
 72
11
 73
7
 74
0
 42
0.0000001
 43
0.0000001
 44
0.0000000001
 40
0.0
 40
0.0
 40
0.0
 40
0.0
 40
0.4210421462
 40
0.7260231098
 40
0.9157769939
 40
1.0
 40
1.0
 40
1.0
 40
1.0
 10
19.9357696968
 20
58.8691892333
 30
0.0
 10
19.9242280828
 20
58.8705602035
 30
0.0
 10
19.9045916073
 20
58.8730534944
 30
0.0
 10
19.8789624143
 20
58.8779329705
 30
0.0
 10
19.8648806507
 20
58.8815302891
 30
0.0
 10
19.8564722692
 20
58.8860895384
 30
0.0
 10
19.8564722692
 20
58.8884144917
 30
0.0
  0
SPLINE
  5
2E5
100
AcDbEntity
  8
0
100
AcDbSpline
 62
7
  6
CONTINUOUS
 70
0
 71
3
 72
11
 73
7
 74
0
 42
0.0000001
 43
0.0000001
 44
0.0000000001
 40
0.0
 40
0.0
 40
0.0
 40
0.0
 40
0.0843553163
 40
0.2741194009
 40
0.5790504402
 40
1.0
 40
1.0
 40
1.0
 40
1.0
 10
28.8364070713
 20
58.8884144917
 30
0.0
 10
28.8364070713
 20
58.8861032031
 30
0.0
 10
28.8280752926
 20
58.8815573244
 30
0.0
 10
28.8140891231
 20
58.8779743101
 30
0.0
 10
28.788663303
 20
58.8731123209
 30
0.0
 10
28.7691760561
 20
58.8706282761
 30
0.0
 10
28.7577234554
 20
58.8692622303
 30
0.0
  0
SPLINE
  5
2E6
100
AcDbEntity
  8
0
100
AcDbSpline
 62
7
  6
CONTINUOUS
 70
0
 71
3
 72
19
 73
15
 74
0
 42
0.0000001
 43
0.0000001
 44
0.0000000001
 40
0.0
 40
0.0
 40
0.0
 40
0.0
 40
0.0299850069
 40
0.0720050752
 40
0.1250271059
 40
0.187683133
 40
0.3352984973
 40
0.4997794008
 40
0.6642905096
 40
0.8119984435
 40
0.8747209393
 40
0.9278212877
 40
0.9699255335
 40
1.0
 40
1.0
 40
1.0
 40
1.0
 10
28.7577234554
 20
58.8692622303
 30
0.0
 10
28.7205632359
 20
58.8648298257
 30
0.0
 10
28.6309606388
 20
58.8574397671
 30
0.0
 10
28.475180859
 20
58.8484367579
 30
0.0
 10
28.2785170398
 20
58.8403332557
 30
0.0
 10
27.9500534274
 20
58.8304263656
 30
0.0
 10
27.4823816474
 20
58.8224483567
 30
0.0
 10
26.8875369808
 20
58.8192048116
 30
0.0
 10
26.2925766402
 20
58.8224253386
 30
0.0
 10
25.8246683799
 20
58.8303851057
 30
0.0
 10
25.4959079801
 20
58.8402789548
 30
0.0
 10
25.2989579694
 20
58.8483755831
 30
0.0
 10
25.1428628214
 20
58.8573744295
 30
0.0
 10
25.0530429408
 20
58.8647617326
 30
0.0
 10
25.0157696968
 20
58.8691892333
 30
0.0
  0
SPLINE
  5
2E7
100
AcDbEntity
  8
0
100
AcDbSpline
 62
7
  6
CONTINUOUS
 70
0
 71
3
 72
11
 73
7
 74
0
 42
0.0000001
 43
0.0000001
 44
0.0000000001
 40
0.0
 40
0.0
 40
0.0
 40
0.0
 40
0.4210421462
 40
0.7260231098
 40
0.9157769939
 40
1.0
 40
1.0
 40
1.0
 40
1.0
 10
25.0157696968
 20
58.8691892333
 30
0.0
 10
25.0042280828
 20
58.8705602035
 30
0.0
 10
24.9845916073
 20
58.8730534944
 30
0.0
 10
24.9589624143
 20
58.8779329705
 30
0.0
 10
24.9448806507
 20
58.8815302891
 30
0.0
 10
24.9364722692
 20
58.8860895385
 30
0.0
 10
24.9364722692
 20
58.8884144917
 30
0.0
  0
SPLINE
  5
2E8
100
AcDbEntity
  8
0
100
AcDbSpline
 62
7
  6
CONTINUOUS
 70
0
 71
3
 72
11
 73
7
 74
0
 42
0.0000001
 43
0.0000001
 44
0.0000000001
 40
0.0
 40
0.0
 40
0.0
 40
0.0
 40
0.0843553163
 40
0.2741194009
 40
0.5790504402
 40
1.0
 40
1.0
 40
1.0
 40
1.0
 10
39.0464062354
 20
58.8884144917
 30
0.0
 10
39.0464062354
 20
58.8860439393
 30
0.0
 10
39.0378608213
 20
58.8813814996
 30
0.0
 10
39.0235160321
 20
58.8777066132
 30
0.0
 10
38.9974382679
 20
58.8727199575
 30
0.0
 10
38.9774513481
 20
58.8701722193
 30
0.0
 10
38.9657050909
 20
58.8687711467
 30
0.0
  0
SPLINE
  5
2E9
100
AcDbEntity
  8
0
100
AcDbSpline
 62
7
  6
CONTINUOUS
 70
0
 71
3
 72
19
 73
15
 74
0
 42
0.0000001
 43
0.0000001
 44
0.0000000001
 40
0.0
 40
0.0
 40
0.0
 40
0.0
 40
0.0299850069
 40
0.0720050752
 40
0.1250271059
 40
0.187683133
 40
0.3352984973
 40
0.4997794008
 40
0.6642905096
 40
0.8119984435
 40
0.8747209393
 40
0.9278212877
 40
0.9699255335
 40
1.0
 40
1.0
 40
1.0
 40
1.0
 10
38.9657050909
 20
58.8687711467
 30
0.0
 10
38.9275920452
 20
58.8642250907
 30
0.0
 10
38.8356919458
 20
58.8566455434
 30
0.0
 10
38.6759178126
 20
58.8474116878
 30
0.0
 10
38.4742113314
 20
58.8391004035
 30
0.0
 10
38.1373255751
 20
58.8289394905
 30
0.0
 10
37.6576622109
 20
58.8207569174
 30
0.0
 10
37.047565117
 20
58.8174302044
 30
0.0
 10
36.437349383
 20
58.8207333091
 30
0.0
 10
35.957443475
 20
58.8288971727
 30
0.0
 10
35.6202533214
 20
58.8390447103
 30
0.0
 10
35.4182533104
 20
58.8473489444
 30
0.0
 10
35.2581557227
 20
58.8565785304
 30
0.0
 10
35.1660327682
 20
58.8641552516
 30
0.0
 10
35.1278038
 20
58.868696278
 30
0.0
  0
SPLINE
  5
2EA
100
AcDbEntity
  8
0
100
AcDbSpline
 62
7
  6
CONTINUOUS
 70
0
 71
3
 72
11
 73
7
 74
0
 42
0.0000001
 43
0.0000001
 44
0.0000000001
 40
0.0
 40
0.0
 40
0.0
 40
0.0
 40
0.4210421462
 40
0.7260231098
 40
0.9157769939
 40
1.0
 40
1.0
 40
1.0
 40
1.0
 10
35.1278038
 20
58.868696278
 30
0.0
 10
35.1159662472
 20
58.8701024012
 30
0.0
 10
35.0958262723
 20
58.8726596227
 30
0.0
 10
35.0695399206
 20
58.8776642136
 30
0.0
 10
35.0550970861
 20
58.8813537711
 30
0.0
 10
35.0464731051
 20
58.8860299243
 30
0.0
 10
35.0464731051
 20
58.8884144917
 30
0.0
  0
SPLINE
  5
2EB
100
AcDbEntity
  8
0
100
AcDbSpline
 62
7
  6
CONTINUOUS
 70
0
 71
3
 72
11
 73
7
 74
0
 42
0.0000001
 43
0.0000001
 44
0.0000000001
 40
0.0
 40
0.0
 40
0.0
 40
0.0
 40
0.0829202337
 40
0.2724270564
 40
0.5778327585
 40
1.0
 40
1.0
 40
1.0
 40
1.0
 10
70.5065331829
 20
58.8884157807
 30
0.0
 10
70.5065331829
 20
58.8910709117
 30
0.0
 10
70.5164248489
 20
58.8961342021
 30
0.0
 10
70.5326536079
 20
58.9001721392
 30
0.0
 10
70.5625230801
 20
58.9056231647
 30
0.0
 10
70.5853428776
 20
58.9084094021
 30
0.0
 10
70.5987738969
 20
58.9099397475
 30
0.0
  0
SPLINE
  5
2EC
100
AcDbEntity
  8
0
100
AcDbSpline
 62
7
  6
CONTINUOUS
 70
0
 71
3
 72
17
 73
13
 74
0
 42
0.0000001
 43
0.0000001
 44
0.0000000001
 40
0.0
 40
0.0
 40
0.0
 40
0.0
 40
0.0307188332
 40
0.0732379834
 40
0.1892053537
 40
0.3363402542
 40
0.4998957488
 40
0.663464719
 40
0.8106436121
 40
0.926681157
 40
0.9692396797
 40
1.0
 40
1.0
 40
1.0
 40
1.0
 10
70.5987738969
 20
58.9099397475
 30
0.0
 10
70.639645591
 20
58.9145967141
 30
0.0
 10
70.7374415117
 20
58.9224507693
 30
0.0
 10
70.9904082708
 20
58.9366787051
 30
0.0
 10
71.3995192839
 20
58.9497062908
 30
0.0
 10
71.9707810958
 20
58.9595491238
 30
0.0
 10
72.6058780339
 20
58.9628907615
 30
0.0
 10
73.2410339147
 20
58.9595606404
 30
0.0
 10
73.8124669024
 20
58.9497277405
 30
0.0
 10
74.2217836796
 20
58.9367062523
 30
0.0
 10
74.4749533128
 20
58.9224825538
 30
0.0
 10
74.572857815
 20
58.9146298063
 30
0.0
 10
74.6137856457
 20
58.9099747869
 30
0.0
  0
SPLINE
  5
2ED
100
AcDbEntity
  8
0
100
AcDbSpline
 62
7
  6
CONTINUOUS
 70
0
 71
3
 72
11
 73
7
 74
0
 42
0.0000001
 43
0.0000001
 44
0.0000000001
 40
0.0
 40
0.0
 40
0.0
 40
0.0
 40
0.4222073301
 40
0.7276332559
 40
0.9171349578
 40
1.0
 40
1.0
 40
1.0
 40
1.0
 10
74.6137856457
 20
58.9099747869
 30
0.0
 10
74.6272631471
 20
58.9084418927
 30
0.0
 10
74.6501607305
 20
58.9056507688
 30
0.0
 10
74.6801363645
 20
58.9001909149
 30
0.0
 10
74.6964145769
 20
58.8961451997
 30
0.0
 10
74.7063461579
 20
58.891075434
 30
0.0
 10
74.7063461579
 20
58.8884132013
 30
0.0
  0
SPLINE
  5
2EE
100
AcDbEntity
  8
0
100
AcDbSpline
 62
7
  6
CONTINUOUS
 70
0
 71
3
 72
11
 73
7
 74
0
 42
0.0000001
 43
0.0000001
 44
0.0000000001
 40
0.0
 40
0.0
 40
0.0
 40
0.0
 40
0.0829202337
 40
0.2724270563
 40
0.5778327584
 40
1.0
 40
1.0
 40
1.0
 40
1.0
 10
65.426533183
 20
58.8884157807
 30
0.0
 10
65.426533183
 20
58.8910709116
 30
0.0
 10
65.4364248491
 20
58.896134202
 30
0.0
 10
65.452653608
 20
58.9001721392
 30
0.0
 10
65.4825230802
 20
58.9056231647
 30
0.0
 10
65.5053428778
 20
58.9084094021
 30
0.0
 10
65.5187738971
 20
58.9099397475
 30
0.0
  0
SPLINE
  5
2EF
100
AcDbEntity
  8
0
100
AcDbSpline
 62
7
  6
CONTINUOUS
 70
0
 71
3
 72
17
 73
13
 74
0
 42
0.0000001
 43
0.0000001
 44
0.0000000001
 40
0.0
 40
0.0
 40
0.0
 40
0.0
 40
0.0307188332
 40
0.0732379834
 40
0.1892053537
 40
0.3363402542
 40
0.4998957488
 40
0.6634647191
 40
0.8106436121
 40
0.926681157
 40
0.9692396798
 40
1.0
 40
1.0
 40
1.0
 40
1.0
 10
65.5187738971
 20
58.9099397475
 30
0.0
 10
65.5596455911
 20
58.9145967141
 30
0.0
 10
65.6574415118
 20
58.9224507693
 30
0.0
 10
65.9104082709
 20
58.9366787051
 30
0.0
 10
66.3195192839
 20
58.9497062908
 30
0.0
 10
66.8907810959
 20
58.9595491238
 30
0.0
 10
67.525878034
 20
58.9628907615
 30
0.0
 10
68.1610339148
 20
58.9595606403
 30
0.0
 10
68.7324669025
 20
58.9497277405
 30
0.0
 10
69.1417836796
 20
58.9367062523
 30
0.0
 10
69.3949533127
 20
58.9224825538
 30
0.0
 10
69.4928578148
 20
58.9146298063
 30
0.0
 10
69.5337856454
 20
58.9099747868
 30
0.0
  0
SPLINE
  5
2F0
100
AcDbEntity
  8
0
100
AcDbSpline
 62
7
  6
CONTINUOUS
 70
0
 71
3
 72
11
 73
7
 74
0
 42
0.0000001
 43
0.0000001
 44
0.0000000001
 40
0.0
 40
0.0
 40
0.0
 40
0.0
 40
0.4222073302
 40
0.7276332559
 40
0.9171349577
 40
1.0
 40
1.0
 40
1.0
 40
1.0
 10
69.5337856454
 20
58.9099747868
 30
0.0
 10
69.5472631469
 20
58.9084418927
 30
0.0
 10
69.5701607303
 20
58.9056507687
 30
0.0
 10
69.6001363643
 20
58.9001909148
 30
0.0
 10
69.6164145767
 20
58.8961451997
 30
0.0
 10
69.6263461576
 20
58.891075434
 30
0.0
 10
69.6263461576
 20
58.8884132013
 30
0.0
  0
SPLINE
  5
2F1
100
AcDbEntity
  8
0
100
AcDbSpline
 62
7
  6
CONTINUOUS
 70
0
 71
3
 72
11
 73
7
 74
0
 42
0.0000001
 43
0.0000001
 44
0.0000000001
 40
0.0
 40
0.0
 40
0.0
 40
0.0
 40
0.0829202337
 40
0.2724270563
 40
0.5778327584
 40
1.0
 40
1.0
 40
1.0
 40
1.0
 10
60.3465331828
 20
58.8884157807
 30
0.0
 10
60.3465331828
 20
58.8910709116
 30
0.0
 10
60.3564248489
 20
58.8961342021
 30
0.0
 10
60.3726536079
 20
58.9001721392
 30
0.0
 10
60.4025230801
 20
58.9056231647
 30
0.0
 10
60.4253428777
 20
58.9084094021
 30
0.0
 10
60.438773897
 20
58.9099397475
 30
0.0
  0
SPLINE
  5
2F2
100
AcDbEntity
  8
0
100
AcDbSpline
 62
7
  6
CONTINUOUS
 70
0
 71
3
 72
17
 73
13
 74
0
 42
0.0000001
 43
0.0000001
 44
0.0000000001
 40
0.0
 40
0.0
 40
0.0
 40
0.0
 40
0.0307188332
 40
0.0732379834
 40
0.1892053537
 40
0.3363402542
 40
0.4998957488
 40
0.6634647191
 40
0.8106436121
 40
0.926681157
 40
0.9692396797
 40
1.0
 40
1.0
 40
1.0
 40
1.0
 10
60.438773897
 20
58.9099397475
 30
0.0
 10
60.479645591
 20
58.9145967141
 30
0.0
 10
60.5774415118
 20
58.9224507693
 30
0.0
 10
60.8304082709
 20
58.9366787051
 30
0.0
 10
61.2395192839
 20
58.9497062908
 30
0.0
 10
61.8107810959
 20
58.9595491238
 30
0.0
 10
62.445878034
 20
58.9628907615
 30
0.0
 10
63.0810339148
 20
58.9595606403
 30
0.0
 10
63.6524669025
 20
58.9497277405
 30
0.0
 10
64.0617836796
 20
58.9367062523
 30
0.0
 10
64.3149533128
 20
58.9224825538
 30
0.0
 10
64.4128578149
 20
58.9146298063
 30
0.0
 10
64.4537856455
 20
58.9099747868
 30
0.0
  0
SPLINE
  5
2F3
100
AcDbEntity
  8
0
100
AcDbSpline
 62
7
  6
CONTINUOUS
 70
0
 71
3
 72
11
 73
7
 74
0
 42
0.0000001
 43
0.0000001
 44
0.0000000001
 40
0.0
 40
0.0
 40
0.0
 40
0.0
 40
0.4222073301
 40
0.7276332559
 40
0.9171349578
 40
1.0
 40
1.0
 40
1.0
 40
1.0
 10
64.4537856455
 20
58.9099747868
 30
0.0
 10
64.4672631469
 20
58.9084418927
 30
0.0
 10
64.4901607303
 20
58.9056507688
 30
0.0
 10
64.5201363643
 20
58.9001909149
 30
0.0
 10
64.5364145767
 20
58.8961451997
 30
0.0
 10
64.5463461577
 20
58.891075434
 30
0.0
 10
64.5463461577
 20
58.8884132013
 30
0.0
  0
SPLINE
  5
2F4
100
AcDbEntity
  8
0
100
AcDbSpline
 62
7
  6
CONTINUOUS
 70
0
 71
3
 72
11
 73
7
 74
0
 42
0.0000001
 43
0.0000001
 44
0.0000000001
 40
0.0
 40
0.0
 40
0.0
 40
0.0
 40
0.0829202337
 40
0.2724270564
 40
0.5778327585
 40
1.0
 40
1.0
 40
1.0
 40
1.0
 10
55.2665331828
 20
58.8884157807
 30
0.0
 10
55.2665331828
 20
58.8910709116
 30
0.0
 10
55.2764248489
 20
58.8961342021
 30
0.0
 10
55.2926536078
 20
58.9001721392
 30
0.0
 10
55.3225230801
 20
58.9056231647
 30
0.0
 10
55.3453428776
 20
58.9084094021
 30
0.0
 10
55.358773897
 20
58.9099397475
 30
0.0
  0
SPLINE
  5
2F5
100
AcDbEntity
  8
0
100
AcDbSpline
 62
7
  6
CONTINUOUS
 70
0
 71
3
 72
17
 73
13
 74
0
 42
0.0000001
 43
0.0000001
 44
0.0000000001
 40
0.0
 40
0.0
 40
0.0
 40
0.0
 40
0.0307188332
 40
0.0732379834
 40
0.1892053537
 40
0.3363402542
 40
0.4998957489
 40
0.6634647191
 40
0.8106436121
 40
0.926681157
 40
0.9692396797
 40
1.0
 40
1.0
 40
1.0
 40
1.0
 10
55.358773897
 20
58.9099397475
 30
0.0
 10
55.399645591
 20
58.9145967141
 30
0.0
 10
55.4974415118
 20
58.9224507693
 30
0.0
 10
55.7504082709
 20
58.9366787051
 30
0.0
 10
56.159519284
 20
58.9497062908
 30
0.0
 10
56.7307810959
 20
58.9595491238
 30
0.0
 10
57.365878034
 20
58.9628907615
 30
0.0
 10
58.0010339148
 20
58.9595606403
 30
0.0
 10
58.5724669025
 20
58.9497277405
 30
0.0
 10
58.9817836796
 20
58.9367062523
 30
0.0
 10
59.2349533127
 20
58.9224825538
 30
0.0
 10
59.3328578148
 20
58.9146298063
 30
0.0
 10
59.3737856455
 20
58.9099747868
 30
0.0
  0
SPLINE
  5
2F6
100
AcDbEntity
  8
0
100
AcDbSpline
 62
7
  6
CONTINUOUS
 70
0
 71
3
 72
11
 73
7
 74
0
 42
0.0000001
 43
0.0000001
 44
0.0000000001
 40
0.0
 40
0.0
 40
0.0
 40
0.0
 40
0.42220733
 40
0.7276332558
 40
0.9171349577
 40
1.0
 40
1.0
 40
1.0
 40
1.0
 10
59.3737856455
 20
58.9099747868
 30
0.0
 10
59.3872631469
 20
58.9084418927
 30
0.0
 10
59.4101607302
 20
58.9056507688
 30
0.0
 10
59.4401363642
 20
58.9001909149
 30
0.0
 10
59.4564145766
 20
58.8961451997
 30
0.0
 10
59.4663461575
 20
58.891075434
 30
0.0
 10
59.4663461575
 20
58.8884132013
 30
0.0
  0
SPLINE
  5
2F7
100
AcDbEntity
  8
0
100
AcDbSpline
 62
7
  6
CONTINUOUS
 70
0
 71
3
 72
11
 73
7
 74
0
 42
0.0000001
 43
0.0000001
 44
0.0000000001
 40
0.0
 40
0.0
 40
0.0
 40
0.0
 40
0.0829202337
 40
0.2724270563
 40
0.5778327584
 40
1.0
 40
1.0
 40
1.0
 40
1.0
 10
50.1865331827
 20
58.8884157806
 30
0.0
 10
50.1865331827
 20
58.8910709116
 30
0.0
 10
50.1964248487
 20
58.8961342021
 30
0.0
 10
50.2126536077
 20
58.9001721392
 30
0.0
 10
50.24252308
 20
58.9056231647
 30
0.0
 10
50.2653428776
 20
58.9084094021
 30
0.0
 10
50.2787738969
 20
58.9099397475
 30
0.0
  0
SPLINE
  5
2F8
100
AcDbEntity
  8
0
100
AcDbSpline
 62
7
  6
CONTINUOUS
 70
0
 71
3
 72
17
 73
13
 74
0
 42
0.0000001
 43
0.0000001
 44
0.0000000001
 40
0.0
 40
0.0
 40
0.0
 40
0.0
 40
0.0307188332
 40
0.0732379834
 40
0.1892053537
 40
0.3363402543
 40
0.4998957489
 40
0.6634647191
 40
0.8106436121
 40
0.926681157
 40
0.9692396798
 40
1.0
 40
1.0
 40
1.0
 40
1.0
 10
50.2787738969
 20
58.9099397475
 30
0.0
 10
50.319645591
 20
58.9145967141
 30
0.0
 10
50.4174415118
 20
58.9224507693
 30
0.0
 10
50.6704082709
 20
58.9366787051
 30
0.0
 10
51.079519284
 20
58.9497062908
 30
0.0
 10
51.650781096
 20
58.9595491238
 30
0.0
 10
52.2858780341
 20
58.9628907615
 30
0.0
 10
52.9210339148
 20
58.9595606403
 30
0.0
 10
53.4924669025
 20
58.9497277405
 30
0.0
 10
53.9017836796
 20
58.9367062523
 30
0.0
 10
54.1549533127
 20
58.9224825538
 30
0.0
 10
54.2528578148
 20
58.9146298063
 30
0.0
 10
54.2937856454
 20
58.9099747868
 30
0.0
  0
SPLINE
  5
2F9
100
AcDbEntity
  8
0
100
AcDbSpline
 62
7
  6
CONTINUOUS
 70
0
 71
3
 72
11
 73
7
 74
0
 42
0.0000001
 43
0.0000001
 44
0.0000000001
 40
0.0
 40
0.0
 40
0.0
 40
0.0
 40
0.42220733
 40
0.7276332558
 40
0.9171349577
 40
1.0
 40
1.0
 40
1.0
 40
1.0
 10
54.2937856454
 20
58.9099747868
 30
0.0
 10
54.3072631468
 20
58.9084418927
 30
0.0
 10
54.3301607302
 20
58.9056507688
 30
0.0
 10
54.3601363641
 20
58.9001909149
 30
0.0
 10
54.3764145765
 20
58.8961451997
 30
0.0
 10
54.3863461575
 20
58.891075434
 30
0.0
 10
54.3863461575
 20
58.8884132013
 30
0.0
  0
SPLINE
  5
2FA
100
AcDbEntity
  8
0
100
AcDbSpline
 62
7
  6
CONTINUOUS
 70
0
 71
3
 72
11
 73
7
 74
0
 42
0.0000001
 43
0.0000001
 44
0.0000000001
 40
0.0
 40
0.0
 40
0.0
 40
0.0
 40
0.0829202336
 40
0.2724270564
 40
0.5778327585
 40
1.0
 40
1.0
 40
1.0
 40
1.0
 10
45.1065331823
 20
58.8884157807
 30
0.0
 10
45.1065331823
 20
58.8910709117
 30
0.0
 10
45.1164248484
 20
58.8961342021
 30
0.0
 10
45.1326536074
 20
58.9001721392
 30
0.0
 10
45.1625230798
 20
58.9056231647
 30
0.0
 10
45.1853428774
 20
58.9084094022
 30
0.0
 10
45.1987738967
 20
58.9099397475
 30
0.0
  0
SPLINE
  5
2FB
100
AcDbEntity
  8
0
100
AcDbSpline
 62
7
  6
CONTINUOUS
 70
0
 71
3
 72
17
 73
13
 74
0
 42
0.0000001
 43
0.0000001
 44
0.0000000001
 40
0.0
 40
0.0
 40
0.0
 40
0.0
 40
0.0307188332
 40
0.0732379834
 40
0.1892053538
 40
0.3363402543
 40
0.4998957489
 40
0.6634647191
 40
0.8106436121
 40
0.926681157
 40
0.9692396797
 40
1.0
 40
1.0
 40
1.0
 40
1.0
 10
45.1987738967
 20
58.9099397475
 30
0.0
 10
45.2396455908
 20
58.9145967141
 30
0.0
 10
45.3374415117
 20
58.9224507693
 30
0.0
 10
45.5904082709
 20
58.9366787052
 30
0.0
 10
45.9995192841
 20
58.9497062908
 30
0.0
 10
46.5707810961
 20
58.9595491238
 30
0.0
 10
47.2058780342
 20
58.9628907615
 30
0.0
 10
47.8410339149
 20
58.9595606403
 30
0.0
 10
48.4124669025
 20
58.9497277405
 30
0.0
 10
48.8217836796
 20
58.9367062523
 30
0.0
 10
49.0749533127
 20
58.9224825538
 30
0.0
 10
49.1728578148
 20
58.9146298063
 30
0.0
 10
49.2137856455
 20
58.9099747868
 30
0.0
  0
SPLINE
  5
2FC
100
AcDbEntity
  8
0
100
AcDbSpline
 62
7
  6
CONTINUOUS
 70
0
 71
3
 72
11
 73
7
 74
0
 42
0.0000001
 43
0.0000001
 44
0.0000000001
 40
0.0
 40
0.0
 40
0.0
 40
0.0
 40
0.42220733
 40
0.7276332558
 40
0.9171349577
 40
1.0
 40
1.0
 40
1.0
 40
1.0
 10
49.2137856455
 20
58.9099747868
 30
0.0
 10
49.2272631469
 20
58.9084418927
 30
0.0
 10
49.2501607303
 20
58.9056507688
 30
0.0
 10
49.2801363642
 20
58.9001909149
 30
0.0
 10
49.2964145766
 20
58.8961451997
 30
0.0
 10
49.3063461576
 20
58.891075434
 30
0.0
 10
49.3063461576
 20
58.8884132013
 30
0.0
  0
SPLINE
  5
2FD
100
AcDbEntity
  8
0
100
AcDbSpline
 62
7
  6
CONTINUOUS
 70
0
 71
3
 72
11
 73
7
 74
0
 42
0.0000001
 43
0.0000001
 44
0.0000000001
 40
0.0
 40
0.0
 40
0.0
 40
0.0
 40
0.0829202336
 40
0.2724270564
 40
0.5778327585
 40
1.0
 40
1.0
 40
1.0
 40
1.0
 10
40.0265331825
 20
58.8884157807
 30
0.0
 10
40.0265331825
 20
58.8910709117
 30
0.0
 10
40.0364248485
 20
58.8961342021
 30
0.0
 10
40.0526536075
 20
58.9001721392
 30
0.0
 10
40.0825230798
 20
58.9056231647
 30
0.0
 10
40.1053428774
 20
58.9084094022
 30
0.0
 10
40.1187738968
 20
58.9099397475
 30
0.0
  0
SPLINE
  5
2FE
100
AcDbEntity
  8
0
100
AcDbSpline
 62
7
  6
CONTINUOUS
 70
0
 71
3
 72
17
 73
13
 74
0
 42
0.0000001
 43
0.0000001
 44
0.0000000001
 40
0.0
 40
0.0
 40
0.0
 40
0.0
 40
0.0307188332
 40
0.0732379834
 40
0.1892053538
 40
0.3363402543
 40
0.499895749
 40
0.6634647192
 40
0.8106436122
 40
0.9266811571
 40
0.9692396798
 40
1.0
 40
1.0
 40
1.0
 40
1.0
 10
40.1187738968
 20
58.9099397475
 30
0.0
 10
40.1596455909
 20
58.9145967141
 30
0.0
 10
40.2574415117
 20
58.9224507693
 30
0.0
 10
40.510408271
 20
58.9366787052
 30
0.0
 10
40.9195192841
 20
58.9497062908
 30
0.0
 10
41.4907810962
 20
58.9595491238
 30
0.0
 10
42.1258780343
 20
58.9628907615
 30
0.0
 10
42.761033915
 20
58.9595606403
 30
0.0
 10
43.3324669026
 20
58.9497277405
 30
0.0
 10
43.7417836796
 20
58.9367062523
 30
0.0
 10
43.9949533127
 20
58.9224825538
 30
0.0
 10
44.0928578147
 20
58.9146298063
 30
0.0
 10
44.1337856454
 20
58.9099747868
 30
0.0
  0
SPLINE
  5
2FF
100
AcDbEntity
  8
0
100
AcDbSpline
 62
7
  6
CONTINUOUS
 70
0
 71
3
 72
11
 73
7
 74
0
 42
0.0000001
 43
0.0000001
 44
0.0000000001
 40
0.0
 40
0.0
 40
0.0
 40
0.0
 40
0.42220733
 40
0.7276332558
 40
0.9171349577
 40
1.0
 40
1.0
 40
1.0
 40
1.0
 10
44.1337856454
 20
58.9099747868
 30
0.0
 10
44.1472631468
 20
58.9084418927
 30
0.0
 10
44.1701607301
 20
58.9056507688
 30
0.0
 10
44.200136364
 20
58.9001909149
 30
0.0
 10
44.2164145764
 20
58.8961451997
 30
0.0
 10
44.2263461573
 20
58.891075434
 30
0.0
 10
44.2263461573
 20
58.8884132014
 30
0.0
  0
SPLINE
  5
300
100
AcDbEntity
  8
0
100
AcDbSpline
 62
7
  6
CONTINUOUS
 70
0
 71
3
 72
11
 73
7
 74
0
 42
0.0000001
 43
0.0000001
 44
0.0000000001
 40
0.0
 40
0.0
 40
0.0
 40
0.0
 40
0.0827002208
 40
0.2721955758
 40
0.5776864492
 40
1.0
 40
1.0
 40
1.0
 40
1.0
 10
19.7565229762
 20
58.8884164752
 30
0.0
 10
19.7565229762
 20
58.8910361313
 30
0.0
 10
19.7663369667
 20
58.8960027668
 30
0.0
 10
19.7823724665
 20
58.8999742955
 30
0.0
 10
19.8119467744
 20
58.905328283
 30
0.0
 10
19.8345272297
 20
58.9080661301
 30
0.0
 10
19.8478199228
 20
58.9095694268
 30
0.0
  0
SPLINE
  5
301
100
AcDbEntity
  8
0
100
AcDbSpline
 62
7
  6
CONTINUOUS
 70
0
 71
3
 72
17
 73
13
 74
0
 42
0.0000001
 43
0.0000001
 44
0.0000000001
 40
0.0
 40
0.0
 40
0.0
 40
0.0
 40
0.0308385497
 40
0.0734364616
 40
0.1894448574
 40
0.3364963464
 40
0.4998997598
 40
0.6633160733
 40
0.8104098607
 40
0.9264858704
 40
0.9691215558
 40
1.0
 40
1.0
 40
1.0
 40
1.0
 10
19.8478199228
 20
58.9095694268
 30
0.0
 10
19.8878522499
 20
58.914096761
 30
0.0
 10
19.9835192219
 20
58.921745892
 30
0.0
 10
20.2306211106
 20
58.9355936537
 30
0.0
 10
20.6297842375
 20
58.9482815308
 30
0.0
 10
21.1868356445
 20
58.9578612178
 30
0.0
 10
21.8059088403
 20
58.9611142661
 30
0.0
 10
22.4250373254
 20
58.9578720286
 30
0.0
 10
22.9822494037
 20
58.9483016338
 30
0.0
 10
23.3816056185
 20
58.9356195204
 30
0.0
 10
23.628897878
 20
58.9217756577
 30
0.0
 10
23.7246665947
 20
58.9141277231
 30
0.0
 10
23.7647515767
 20
58.909602204
 30
0.0
  0
SPLINE
  5
302
100
AcDbEntity
  8
0
100
AcDbSpline
 62
7
  6
CONTINUOUS
 70
0
 71
3
 72
11
 73
7
 74
0
 42
0.0000001
 43
0.0000001
 44
0.0000000001
 40
0.0
 40
0.0
 40
0.0
 40
0.0
 40
0.4223540308
 40
0.7278635175
 40
0.9173525151
 40
1.0
 40
1.0
 40
1.0
 40
1.0
 10
23.7647515767
 20
58.909602204
 30
0.0
 10
23.7780891065
 20
58.908096422
 30
0.0
 10
23.8007445401
 20
58.905353805
 30
0.0
 10
23.830421031
 20
58.8999911863
 30
0.0
 10
23.8465041802
 20
58.8960120297
 30
0.0
 10
23.8563563629
 20
58.8910390146
 30
0.0
 10
23.8563563629
 20
58.8884125069
 30
0.0
  0
SPLINE
  5
303
100
AcDbEntity
  8
0
100
AcDbSpline
 62
7
  6
CONTINUOUS
 70
0
 71
3
 72
11
 73
7
 74
0
 42
0.0000001
 43
0.0000001
 44
0.0000000001
 40
0.0
 40
0.0
 40
0.0
 40
0.0
 40
0.0827002208
 40
0.2721955757
 40
0.577686449
 40
1.0
 40
1.0
 40
1.0
 40
1.0
 10
24.8365229766
 20
58.8884164751
 30
0.0
 10
24.8365229766
 20
58.8910361313
 30
0.0
 10
24.8463369669
 20
58.8960027668
 30
0.0
 10
24.8623724668
 20
58.8999742954
 30
0.0
 10
24.8919467746
 20
58.9053282829
 30
0.0
 10
24.9145272298
 20
58.90806613
 30
0.0
 10
24.9278199229
 20
58.9095694267
 30
0.0
  0
SPLINE
  5
304
100
AcDbEntity
  8
0
100
AcDbSpline
 62
7
  6
CONTINUOUS
 70
0
 71
3
 72
17
 73
13
 74
0
 42
0.0000001
 43
0.0000001
 44
0.0000000001
 40
0.0
 40
0.0
 40
0.0
 40
0.0
 40
0.0308385497
 40
0.0734364615
 40
0.1894448574
 40
0.3364963463
 40
0.4998997597
 40
0.6633160733
 40
0.8104098607
 40
0.9264858704
 40
0.9691215558
 40
1.0
 40
1.0
 40
1.0
 40
1.0
 10
24.9278199229
 20
58.9095694267
 30
0.0
 10
24.9678522499
 20
58.914096761
 30
0.0
 10
25.0635192219
 20
58.9217458919
 30
0.0
 10
25.3106211105
 20
58.9355936537
 30
0.0
 10
25.7097842374
 20
58.9482815308
 30
0.0
 10
26.2668356443
 20
58.9578612178
 30
0.0
 10
26.8859088402
 20
58.9611142661
 30
0.0
 10
27.5050373254
 20
58.9578720286
 30
0.0
 10
28.0622494037
 20
58.9483016338
 30
0.0
 10
28.4616056186
 20
58.9356195204
 30
0.0
 10
28.7088978781
 20
58.9217756577
 30
0.0
 10
28.8046665947
 20
58.9141277231
 30
0.0
 10
28.8447515767
 20
58.909602204
 30
0.0
  0
SPLINE
  5
305
100
AcDbEntity
  8
0
100
AcDbSpline
 62
7
  6
CONTINUOUS
 70
0
 71
3
 72
11
 73
7
 74
0
 42
0.0000001
 43
0.0000001
 44
0.0000000001
 40
0.0
 40
0.0
 40
0.0
 40
0.0
 40
0.422354031
 40
0.7278635176
 40
0.9173525151
 40
1.0
 40
1.0
 40
1.0
 40
1.0
 10
28.8447515767
 20
58.909602204
 30
0.0
 10
28.8580891065
 20
58.908096422
 30
0.0
 10
28.8807445401
 20
58.905353805
 30
0.0
 10
28.9104210309
 20
58.8999911863
 30
0.0
 10
28.9265041801
 20
58.8960120296
 30
0.0
 10
28.9363563628
 20
58.8910390145
 30
0.0
 10
28.9363563628
 20
58.8884125069
 30
0.0
  0
SPLINE
  5
306
100
AcDbEntity
  8
0
100
AcDbSpline
 62
7
  6
CONTINUOUS
 70
0
 71
3
 72
11
 73
7
 74
0
 42
0.0000001
 43
0.0000001
 44
0.0000000001
 40
0.0
 40
0.0
 40
0.0
 40
0.0
 40
0.0829202336
 40
0.2724270563
 40
0.5778327584
 40
1.0
 40
1.0
 40
1.0
 40
1.0
 10
34.9465331823
 20
58.8884157806
 30
0.0
 10
34.9465331823
 20
58.8910709116
 30
0.0
 10
34.9564248484
 20
58.896134202
 30
0.0
 10
34.9726536074
 20
58.9001721392
 30
0.0
 10
35.0025230797
 20
58.9056231647
 30
0.0
 10
35.0253428774
 20
58.9084094022
 30
0.0
 10
35.0387738968
 20
58.9099397475
 30
0.0
  0
SPLINE
  5
307
100
AcDbEntity
  8
0
100
AcDbSpline
 62
7
  6
CONTINUOUS
 70
0
 71
3
 72
17
 73
13
 74
0
 42
0.0000001
 43
0.0000001
 44
0.0000000001
 40
0.0
 40
0.0
 40
0.0
 40
0.0
 40
0.0307188332
 40
0.0732379834
 40
0.1892053538
 40
0.3363402543
 40
0.499895749
 40
0.6634647192
 40
0.8106436122
 40
0.9266811571
 40
0.9692396798
 40
1.0
 40
1.0
 40
1.0
 40
1.0
 10
35.0387738968
 20
58.9099397475
 30
0.0
 10
35.0796455909
 20
58.9145967141
 30
0.0
 10
35.1774415117
 20
58.9224507693
 30
0.0
 10
35.4304082709
 20
58.9366787052
 30
0.0
 10
35.8395192841
 20
58.9497062908
 30
0.0
 10
36.4107810961
 20
58.9595491238
 30
0.0
 10
37.0458780342
 20
58.9628907615
 30
0.0
 10
37.681033915
 20
58.9595606403
 30
0.0
 10
38.2524669026
 20
58.9497277405
 30
0.0
 10
38.6617836796
 20
58.9367062523
 30
0.0
 10
38.9149533127
 20
58.9224825538
 30
0.0
 10
39.0128578147
 20
58.9146298063
 30
0.0
 10
39.0537856454
 20
58.9099747868
 30
0.0
  0
SPLINE
  5
308
100
AcDbEntity
  8
0
100
AcDbSpline
 62
7
  6
CONTINUOUS
 70
0
 71
3
 72
11
 73
7
 74
0
 42
0.0000001
 43
0.0000001
 44
0.0000000001
 40
0.0
 40
0.0
 40
0.0
 40
0.0
 40
0.4222073301
 40
0.7276332559
 40
0.9171349577
 40
1.0
 40
1.0
 40
1.0
 40
1.0
 10
39.0537856454
 20
58.9099747868
 30
0.0
 10
39.0672631468
 20
58.9084418927
 30
0.0
 10
39.0901607302
 20
58.9056507687
 30
0.0
 10
39.1201363641
 20
58.9001909148
 30
0.0
 10
39.1364145765
 20
58.8961451997
 30
0.0
 10
39.1463461575
 20
58.891075434
 30
0.0
 10
39.1463461575
 20
58.8884132013
 30
0.0
  0
SPLINE
  5
309
100
AcDbEntity
  8
0
100
AcDbSpline
 62
7
  6
CONTINUOUS
 70
0
 71
3
 72
11
 73
7
 74
0
 42
0.0000001
 43
0.0000001
 44
0.0000000001
 40
0.0
 40
0.0
 40
0.0
 40
0.0
 40
0.0843553172
 40
0.2741194086
 40
0.5790504506
 40
1.0
 40
1.0
 40
1.0
 40
1.0
 10
60.4464731051
 20
58.8884144917
 30
0.0
 10
60.4464731051
 20
58.890785044
 30
0.0
 10
60.45501852
 20
58.8954474832
 30
0.0
 10
60.4693633091
 20
58.8991223694
 30
0.0
 10
60.4954410733
 20
58.9041090247
 30
0.0
 10
60.5154279927
 20
58.9066567629
 30
0.0
 10
60.5271742495
 20
58.9080578353
 30
0.0
  0
SPLINE
  5
30A
100
AcDbEntity
  8
0
100
AcDbSpline
 62
7
  6
CONTINUOUS
 70
0
 71
3
 72
11
 73
7
 74
0
 42
0.0000001
 43
0.0000001
 44
0.0000000001
 40
0.0
 40
0.0
 40
0.0
 40
0.0
 40
0.4210421358
 40
0.7260231021
 40
0.915776993
 40
1.0
 40
1.0
 40
1.0
 40
1.0
 10
64.3650755404
 20
58.9081327041
 30
0.0
 10
64.3769130929
 20
58.9067265809
 30
0.0
 10
64.3970530673
 20
58.9041693595
 30
0.0
 10
64.4233394192
 20
58.899164769
 30
0.0
 10
64.4377822535
 20
58.8954752117
 30
0.0
 10
64.4464062354
 20
58.8907990591
 30
0.0
 10
64.4464062354
 20
58.8884144917
 30
0.0
  0
SPLINE
  5
30B
100
AcDbEntity
  8
0
100
AcDbSpline
 62
7
  6
CONTINUOUS
 70
0
 71
3
 72
11
 73
7
 74
0
 42
0.0000001
 43
0.0000001
 44
0.0000000001
 40
0.0
 40
0.0
 40
0.0
 40
0.0
 40
0.0843553172
 40
0.2741194085
 40
0.5790504505
 40
1.0
 40
1.0
 40
1.0
 40
1.0
 10
45.2064731051
 20
58.8884144917
 30
0.0
 10
45.2064731051
 20
58.890785044
 30
0.0
 10
45.21501852
 20
58.8954474832
 30
0.0
 10
45.229363309
 20
58.8991223694
 30
0.0
 10
45.2554410733
 20
58.9041090247
 30
0.0
 10
45.2754279927
 20
58.9066567629
 30
0.0
 10
45.2871742495
 20
58.9080578353
 30
0.0
  0
SPLINE
  5
30C
100
AcDbEntity
  8
0
100
AcDbSpline
 62
7
  6
CONTINUOUS
 70
0
 71
3
 72
11
 73
7
 74
0
 42
0.0000001
 43
0.0000001
 44
0.0000000001
 40
0.0
 40
0.0
 40
0.0
 40
0.0
 40
0.421042136
 40
0.7260231022
 40
0.915776993
 40
1.0
 40
1.0
 40
1.0
 40
1.0
 10
49.1250755404
 20
58.9081327041
 30
0.0
 10
49.1369130929
 20
58.9067265809
 30
0.0
 10
49.1570530674
 20
58.9041693595
 30
0.0
 10
49.1833394192
 20
58.899164769
 30
0.0
 10
49.1977822535
 20
58.8954752117
 30
0.0
 10
49.2064062354
 20
58.8907990591
 30
0.0
 10
49.2064062354
 20
58.8884144917
 30
0.0
  0
SPLINE
  5
30D
100
AcDbEntity
  8
0
100
AcDbSpline
 62
7
  6
CONTINUOUS
 70
0
 71
3
 72
11
 73
7
 74
0
 42
0.0000001
 43
0.0000001
 44
0.0000000001
 40
0.0
 40
0.0
 40
0.0
 40
0.0
 40
0.0843553172
 40
0.2741194085
 40
0.5790504505
 40
1.0
 40
1.0
 40
1.0
 40
1.0
 10
35.0464731051
 20
58.8884144917
 30
0.0
 10
35.0464731051
 20
58.890785044
 30
0.0
 10
35.05501852
 20
58.8954474832
 30
0.0
 10
35.069363309
 20
58.8991223694
 30
0.0
 10
35.0954410733
 20
58.9041090247
 30
0.0
 10
35.1154279927
 20
58.9066567629
 30
0.0
 10
35.1271742495
 20
58.9080578353
 30
0.0
  0
SPLINE
  5
30E
100
AcDbEntity
  8
0
100
AcDbSpline
 62
7
  6
CONTINUOUS
 70
0
 71
3
 72
11
 73
7
 74
0
 42
0.0000001
 43
0.0000001
 44
0.0000000001
 40
0.0
 40
0.0
 40
0.0
 40
0.0
 40
0.421042136
 40
0.7260231022
 40
0.915776993
 40
1.0
 40
1.0
 40
1.0
 40
1.0
 10
38.9650755404
 20
58.9081327041
 30
0.0
 10
38.9769130929
 20
58.9067265809
 30
0.0
 10
38.9970530673
 20
58.9041693595
 30
0.0
 10
39.0233394192
 20
58.899164769
 30
0.0
 10
39.0377822535
 20
58.8954752117
 30
0.0
 10
39.0464062354
 20
58.8907990591
 30
0.0
 10
39.0464062354
 20
58.8884144917
 30
0.0
  0
SPLINE
  5
30F
100
AcDbEntity
  8
0
100
AcDbSpline
 62
7
  6
CONTINUOUS
 70
0
 71
3
 72
11
 73
7
 74
0
 42
0.0000001
 43
0.0000001
 44
0.0000000001
 40
0.0
 40
0.0
 40
0.0
 40
0.0
 40
0.0843553171
 40
0.2741194085
 40
0.5790504504
 40
1.0
 40
1.0
 40
1.0
 40
1.0
 10
40.1264731051
 20
58.8884144917
 30
0.0
 10
40.1264731051
 20
58.890785044
 30
0.0
 10
40.13501852
 20
58.8954474832
 30
0.0
 10
40.1493633091
 20
58.8991223694
 30
0.0
 10
40.1754410733
 20
58.9041090247
 30
0.0
 10
40.1954279927
 20
58.9066567629
 30
0.0
 10
40.2071742495
 20
58.9080578353
 30
0.0
  0
SPLINE
  5
310
100
AcDbEntity
  8
0
100
AcDbSpline
 62
7
  6
CONTINUOUS
 70
0
 71
3
 72
11
 73
7
 74
0
 42
0.0000001
 43
0.0000001
 44
0.0000000001
 40
0.0
 40
0.0
 40
0.0
 40
0.0
 40
0.4210421361
 40
0.7260231023
 40
0.915776993
 40
1.0
 40
1.0
 40
1.0
 40
1.0
 10
44.0450755404
 20
58.9081327041
 30
0.0
 10
44.0569130929
 20
58.9067265809
 30
0.0
 10
44.0770530673
 20
58.9041693595
 30
0.0
 10
44.1033394191
 20
58.899164769
 30
0.0
 10
44.1177822535
 20
58.8954752117
 30
0.0
 10
44.1264062353
 20
58.8907990591
 30
0.0
 10
44.1264062353
 20
58.8884144917
 30
0.0
  0
SPLINE
  5
311
100
AcDbEntity
  8
0
100
AcDbSpline
 62
7
  6
CONTINUOUS
 70
0
 71
3
 72
11
 73
7
 74
0
 42
0.0000001
 43
0.0000001
 44
0.0000000001
 40
0.0
 40
0.0
 40
0.0
 40
0.0
 40
0.0829233259
 40
0.27243035
 40
0.5778348729
 40
1.0
 40
1.0
 40
1.0
 40
1.0
 10
74.7063461579
 20
58.8884132013
 30
0.0
 10
74.7063461579
 20
58.8857584649
 30
0.0
 10
74.696456728
 20
58.8806955223
 30
0.0
 10
74.6802307177
 20
58.8766580082
 30
0.0
 10
74.6503671567
 20
58.8712074546
 30
0.0
 10
74.6275516829
 20
58.8684214737
 30
0.0
 10
74.6141232452
 20
58.866891263
 30
0.0
  0
SPLINE
  5
312
100
AcDbEntity
  8
0
100
AcDbSpline
 62
7
  6
CONTINUOUS
 70
0
 71
3
 72
11
 73
7
 74
0
 42
0.0000001
 43
0.0000001
 44
0.0000000001
 40
0.0
 40
0.0
 40
0.0
 40
0.0
 40
0.422209339
 40
0.7276363852
 40
0.9171378966
 40
1.0
 40
1.0
 40
1.0
 40
1.0
 10
70.5991107166
 20
58.8668522593
 30
0.0
 10
70.5856307467
 20
58.8683852818
 30
0.0
 10
70.5627290292
 20
58.8711766509
 30
0.0
 10
70.5327477424
 20
58.8766369545
 30
0.0
 10
70.5164669028
 20
58.8806830745
 30
0.0
 10
70.5065331829
 20
58.8857531709
 30
0.0
 10
70.5065331829
 20
58.8884157807
 30
0.0
  0
SPLINE
  5
313
100
AcDbEntity
  8
0
100
AcDbSpline
 62
7
  6
CONTINUOUS
 70
0
 71
3
 72
11
 73
7
 74
0
 42
0.0000001
 43
0.0000001
 44
0.0000000001
 40
0.0
 40
0.0
 40
0.0
 40
0.0
 40
0.0829233259
 40
0.2724303501
 40
0.577834873
 40
1.0
 40
1.0
 40
1.0
 40
1.0
 10
69.6263461576
 20
58.8884132013
 30
0.0
 10
69.6263461576
 20
58.8857584648
 30
0.0
 10
69.6164567277
 20
58.8806955223
 30
0.0
 10
69.6002307175
 20
58.8766580082
 30
0.0
 10
69.5703671566
 20
58.8712074545
 30
0.0
 10
69.5475516829
 20
58.8684214737
 30
0.0
 10
69.5341232452
 20
58.866891263
 30
0.0
  0
SPLINE
  5
314
100
AcDbEntity
  8
0
100
AcDbSpline
 62
7
  6
CONTINUOUS
 70
0
 71
3
 72
11
 73
7
 74
0
 42
0.0000001
 43
0.0000001
 44
0.0000000001
 40
0.0
 40
0.0
 40
0.0
 40
0.0
 40
0.422209339
 40
0.7276363852
 40
0.9171378966
 40
1.0
 40
1.0
 40
1.0
 40
1.0
 10
65.5191107166
 20
58.8668522593
 30
0.0
 10
65.5056307468
 20
58.8683852818
 30
0.0
 10
65.4827290292
 20
58.8711766509
 30
0.0
 10
65.4527477425
 20
58.8766369544
 30
0.0
 10
65.4364669029
 20
58.8806830745
 30
0.0
 10
65.426533183
 20
58.8857531708
 30
0.0
 10
65.426533183
 20
58.8884157807
 30
0.0
  0
SPLINE
  5
315
100
AcDbEntity
  8
0
100
AcDbSpline
 62
7
  6
CONTINUOUS
 70
0
 71
3
 72
11
 73
7
 74
0
 42
0.0000001
 43
0.0000001
 44
0.0000000001
 40
0.0
 40
0.0
 40
0.0
 40
0.0
 40
0.0843553172
 40
0.2741194085
 40
0.5790504505
 40
1.0
 40
1.0
 40
1.0
 40
1.0
 10
55.3664731051
 20
58.8884144917
 30
0.0
 10
55.3664731051
 20
58.890785044
 30
0.0
 10
55.37501852
 20
58.8954474832
 30
0.0
 10
55.389363309
 20
58.8991223694
 30
0.0
 10
55.4154410733
 20
58.9041090247
 30
0.0
 10
55.4354279927
 20
58.9066567629
 30
0.0
 10
55.4471742495
 20
58.9080578353
 30
0.0
  0
SPLINE
  5
316
100
AcDbEntity
  8
0
100
AcDbSpline
 62
7
  6
CONTINUOUS
 70
0
 71
3
 72
11
 73
7
 74
0
 42
0.0000001
 43
0.0000001
 44
0.0000000001
 40
0.0
 40
0.0
 40
0.0
 40
0.0
 40
0.421042136
 40
0.7260231022
 40
0.915776993
 40
1.0
 40
1.0
 40
1.0
 40
1.0
 10
59.2850755404
 20
58.9081327041
 30
0.0
 10
59.2969130929
 20
58.9067265809
 30
0.0
 10
59.3170530674
 20
58.9041693595
 30
0.0
 10
59.3433394192
 20
58.899164769
 30
0.0
 10
59.3577822535
 20
58.8954752117
 30
0.0
 10
59.3664062354
 20
58.8907990591
 30
0.0
 10
59.3664062354
 20
58.8884144917
 30
0.0
  0
SPLINE
  5
317
100
AcDbEntity
  8
0
100
AcDbSpline
 62
7
  6
CONTINUOUS
 70
0
 71
3
 72
11
 73
7
 74
0
 42
0.0000001
 43
0.0000001
 44
0.0000000001
 40
0.0
 40
0.0
 40
0.0
 40
0.0
 40
0.0843553171
 40
0.2741194085
 40
0.5790504504
 40
1.0
 40
1.0
 40
1.0
 40
1.0
 10
65.5264731051
 20
58.8884144917
 30
0.0
 10
65.5264731051
 20
58.890785044
 30
0.0
 10
65.53501852
 20
58.8954474832
 30
0.0
 10
65.5493633091
 20
58.8991223694
 30
0.0
 10
65.5754410733
 20
58.9041090247
 30
0.0
 10
65.5954279927
 20
58.9066567629
 30
0.0
 10
65.6071742495
 20
58.9080578353
 30
0.0
  0
SPLINE
  5
318
100
AcDbEntity
  8
0
100
AcDbSpline
 62
7
  6
CONTINUOUS
 70
0
 71
3
 72
11
 73
7
 74
0
 42
0.0000001
 43
0.0000001
 44
0.0000000001
 40
0.0
 40
0.0
 40
0.0
 40
0.0
 40
0.4210421361
 40
0.7260231023
 40
0.915776993
 40
1.0
 40
1.0
 40
1.0
 40
1.0
 10
69.4450755404
 20
58.9081327041
 30
0.0
 10
69.4569130929
 20
58.9067265809
 30
0.0
 10
69.4770530673
 20
58.9041693595
 30
0.0
 10
69.5033394192
 20
58.899164769
 30
0.0
 10
69.5177822535
 20
58.8954752117
 30
0.0
 10
69.5264062353
 20
58.8907990591
 30
0.0
 10
69.5264062353
 20
58.8884144917
 30
0.0
  0
SPLINE
  5
319
100
AcDbEntity
  8
0
100
AcDbSpline
 62
7
  6
CONTINUOUS
 70
0
 71
3
 72
11
 73
7
 74
0
 42
0.0000001
 43
0.0000001
 44
0.0000000001
 40
0.0
 40
0.0
 40
0.0
 40
0.0
 40
0.0843553172
 40
0.2741194086
 40
0.5790504505
 40
1.0
 40
1.0
 40
1.0
 40
1.0
 10
19.8564722692
 20
58.8884144917
 30
0.0
 10
19.8564722692
 20
58.8907257802
 30
0.0
 10
19.8648040487
 20
58.8952716584
 30
0.0
 10
19.8787902181
 20
58.8988546725
 30
0.0
 10
19.9042160382
 20
58.9037166613
 30
0.0
 10
19.9237032847
 20
58.9062007061
 30
0.0
 10
19.935155885
 20
58.9075667517
 30
0.0
  0
SPLINE
  5
31A
100
AcDbEntity
  8
0
100
AcDbSpline
 62
7
  6
CONTINUOUS
 70
0
 71
3
 72
11
 73
7
 74
0
 42
0.0000001
 43
0.0000001
 44
0.0000000001
 40
0.0
 40
0.0
 40
0.0
 40
0.0
 40
0.4210421359
 40
0.7260231022
 40
0.915776993
 40
1.0
 40
1.0
 40
1.0
 40
1.0
 10
23.6771096436
 20
58.9076397487
 30
0.0
 10
23.6886512573
 20
58.9062687786
 30
0.0
 10
23.7082877324
 20
58.9037754878
 30
0.0
 10
23.7339169255
 20
58.8988960121
 30
0.0
 10
23.7479986889
 20
58.8952986937
 30
0.0
 10
23.7564070712
 20
58.8907394449
 30
0.0
 10
23.7564070712
 20
58.8884144917
 30
0.0
  0
SPLINE
  5
31B
100
AcDbEntity
  8
0
100
AcDbSpline
 62
7
  6
CONTINUOUS
 70
0
 71
3
 72
11
 73
7
 74
0
 42
0.0000001
 43
0.0000001
 44
0.0000000001
 40
0.0
 40
0.0
 40
0.0
 40
0.0
 40
0.0829233259
 40
0.2724303501
 40
0.5778348731
 40
1.0
 40
1.0
 40
1.0
 40
1.0
 10
64.5463461577
 20
58.8884132013
 30
0.0
 10
64.5463461577
 20
58.8857584649
 30
0.0
 10
64.5364567278
 20
58.8806955223
 30
0.0
 10
64.5202307175
 20
58.8766580082
 30
0.0
 10
64.4903671565
 20
58.8712074546
 30
0.0
 10
64.4675516828
 20
58.8684214738
 30
0.0
 10
64.4541232451
 20
58.866891263
 30
0.0
  0
SPLINE
  5
31C
100
AcDbEntity
  8
0
100
AcDbSpline
 62
7
  6
CONTINUOUS
 70
0
 71
3
 72
11
 73
7
 74
0
 42
0.0000001
 43
0.0000001
 44
0.0000000001
 40
0.0
 40
0.0
 40
0.0
 40
0.0
 40
0.4222093389
 40
0.7276363851
 40
0.9171378966
 40
1.0
 40
1.0
 40
1.0
 40
1.0
 10
60.4391107166
 20
58.8668522593
 30
0.0
 10
60.4256307467
 20
58.8683852818
 30
0.0
 10
60.4027290291
 20
58.8711766508
 30
0.0
 10
60.3727477423
 20
58.8766369544
 30
0.0
 10
60.3564669027
 20
58.8806830745
 30
0.0
 10
60.3465331828
 20
58.8857531708
 30
0.0
 10
60.3465331828
 20
58.8884157807
 30
0.0
  0
SPLINE
  5
31D
100
AcDbEntity
  8
0
100
AcDbSpline
 62
7
  6
CONTINUOUS
 70
0
 71
3
 72
11
 73
7
 74
0
 42
0.0000001
 43
0.0000001
 44
0.0000000001
 40
0.0
 40
0.0
 40
0.0
 40
0.0
 40
0.0829233259
 40
0.2724303501
 40
0.5778348731
 40
1.0
 40
1.0
 40
1.0
 40
1.0
 10
59.4663461575
 20
58.8884132013
 30
0.0
 10
59.4663461575
 20
58.8857584649
 30
0.0
 10
59.4564567276
 20
58.8806955223
 30
0.0
 10
59.4402307174
 20
58.8766580082
 30
0.0
 10
59.4103671564
 20
58.8712074546
 30
0.0
 10
59.3875516827
 20
58.8684214738
 30
0.0
 10
59.374123245
 20
58.866891263
 30
0.0
  0
SPLINE
  5
31E
100
AcDbEntity
  8
0
100
AcDbSpline
 62
7
  6
CONTINUOUS
 70
0
 71
3
 72
11
 73
7
 74
0
 42
0.0000001
 43
0.0000001
 44
0.0000000001
 40
0.0
 40
0.0
 40
0.0
 40
0.0
 40
0.4222093389
 40
0.7276363851
 40
0.9171378966
 40
1.0
 40
1.0
 40
1.0
 40
1.0
 10
55.3591107166
 20
58.8668522593
 30
0.0
 10
55.3456307467
 20
58.8683852818
 30
0.0
 10
55.3227290291
 20
58.8711766509
 30
0.0
 10
55.2927477423
 20
58.8766369545
 30
0.0
 10
55.2764669027
 20
58.8806830745
 30
0.0
 10
55.2665331828
 20
58.8857531709
 30
0.0
 10
55.2665331828
 20
58.8884157807
 30
0.0
  0
SPLINE
  5
31F
100
AcDbEntity
  8
0
100
AcDbSpline
 62
7
  6
CONTINUOUS
 70
0
 71
3
 72
11
 73
7
 74
0
 42
0.0000001
 43
0.0000001
 44
0.0000000001
 40
0.0
 40
0.0
 40
0.0
 40
0.0
 40
0.0829233259
 40
0.2724303501
 40
0.577834873
 40
1.0
 40
1.0
 40
1.0
 40
1.0
 10
54.3863461575
 20
58.8884132013
 30
0.0
 10
54.3863461575
 20
58.8857584649
 30
0.0
 10
54.3764567276
 20
58.8806955223
 30
0.0
 10
54.3602307174
 20
58.8766580082
 30
0.0
 10
54.3303671564
 20
58.8712074546
 30
0.0
 10
54.3075516827
 20
58.8684214738
 30
0.0
 10
54.294123245
 20
58.866891263
 30
0.0
  0
SPLINE
  5
320
100
AcDbEntity
  8
0
100
AcDbSpline
 62
7
  6
CONTINUOUS
 70
0
 71
3
 72
11
 73
7
 74
0
 42
0.0000001
 43
0.0000001
 44
0.0000000001
 40
0.0
 40
0.0
 40
0.0
 40
0.0
 40
0.422209339
 40
0.7276363852
 40
0.9171378966
 40
1.0
 40
1.0
 40
1.0
 40
1.0
 10
50.2791107165
 20
58.8668522593
 30
0.0
 10
50.2656307465
 20
58.8683852818
 30
0.0
 10
50.242729029
 20
58.8711766508
 30
0.0
 10
50.2127477422
 20
58.8766369544
 30
0.0
 10
50.1964669026
 20
58.8806830745
 30
0.0
 10
50.1865331827
 20
58.8857531708
 30
0.0
 10
50.1865331827
 20
58.8884157806
 30
0.0
  0
SPLINE
  5
321
100
AcDbEntity
  8
0
100
AcDbSpline
 62
7
  6
CONTINUOUS
 70
0
 71
3
 72
11
 73
7
 74
0
 42
0.0000001
 43
0.0000001
 44
0.0000000001
 40
0.0
 40
0.0
 40
0.0
 40
0.0
 40
0.0843553172
 40
0.2741194085
 40
0.5790504505
 40
1.0
 40
1.0
 40
1.0
 40
1.0
 10
70.6064731051
 20
58.8884144917
 30
0.0
 10
70.6064731051
 20
58.890785044
 30
0.0
 10
70.61501852
 20
58.8954474832
 30
0.0
 10
70.629363309
 20
58.8991223694
 30
0.0
 10
70.6554410733
 20
58.9041090247
 30
0.0
 10
70.6754279927
 20
58.9066567629
 30
0.0
 10
70.6871742495
 20
58.9080578353
 30
0.0
  0
SPLINE
  5
322
100
AcDbEntity
  8
0
100
AcDbSpline
 62
7
  6
CONTINUOUS
 70
0
 71
3
 72
11
 73
7
 74
0
 42
0.0000001
 43
0.0000001
 44
0.0000000001
 40
0.0
 40
0.0
 40
0.0
 40
0.0
 40
0.421042136
 40
0.7260231022
 40
0.915776993
 40
1.0
 40
1.0
 40
1.0
 40
1.0
 10
74.5250755404
 20
58.9081327041
 30
0.0
 10
74.5369130929
 20
58.9067265809
 30
0.0
 10
74.5570530673
 20
58.9041693595
 30
0.0
 10
74.5833394192
 20
58.899164769
 30
0.0
 10
74.5977822535
 20
58.8954752117
 30
0.0
 10
74.6064062354
 20
58.8907990591
 30
0.0
 10
74.6064062354
 20
58.8884144917
 30
0.0
  0
SPLINE
  5
323
100
AcDbEntity
  8
0
100
AcDbSpline
 62
7
  6
CONTINUOUS
 70
0
 71
3
 72
11
 73
7
 74
0
 42
0.0000001
 43
0.0000001
 44
0.0000000001
 40
0.0
 40
0.0
 40
0.0
 40
0.0
 40
0.0829233259
 40
0.2724303501
 40
0.577834873
 40
1.0
 40
1.0
 40
1.0
 40
1.0
 10
49.3063461576
 20
58.8884132013
 30
0.0
 10
49.3063461576
 20
58.8857584649
 30
0.0
 10
49.2964567277
 20
58.8806955223
 30
0.0
 10
49.2802307175
 20
58.8766580082
 30
0.0
 10
49.2503671565
 20
58.8712074546
 30
0.0
 10
49.2275516827
 20
58.8684214738
 30
0.0
 10
49.214123245
 20
58.866891263
 30
0.0
  0
SPLINE
  5
324
100
AcDbEntity
  8
0
100
AcDbSpline
 62
7
  6
CONTINUOUS
 70
0
 71
3
 72
11
 73
7
 74
0
 42
0.0000001
 43
0.0000001
 44
0.0000000001
 40
0.0
 40
0.0
 40
0.0
 40
0.0
 40
0.422209339
 40
0.7276363852
 40
0.9171378966
 40
1.0
 40
1.0
 40
1.0
 40
1.0
 10
45.1991107164
 20
58.8668522593
 30
0.0
 10
45.1856307464
 20
58.8683852818
 30
0.0
 10
45.1627290288
 20
58.8711766508
 30
0.0
 10
45.1327477419
 20
58.8766369544
 30
0.0
 10
45.1164669023
 20
58.8806830745
 30
0.0
 10
45.1065331823
 20
58.8857531709
 30
0.0
 10
45.1065331823
 20
58.8884157807
 30
0.0
  0
SPLINE
  5
325
100
AcDbEntity
  8
0
100
AcDbSpline
 62
7
  6
CONTINUOUS
 70
0
 71
3
 72
11
 73
7
 74
0
 42
0.0000001
 43
0.0000001
 44
0.0000000001
 40
0.0
 40
0.0
 40
0.0
 40
0.0
 40
0.082923326
 40
0.2724303501
 40
0.577834873
 40
1.0
 40
1.0
 40
1.0
 40
1.0
 10
44.2263461573
 20
58.8884132014
 30
0.0
 10
44.2263461573
 20
58.8857584649
 30
0.0
 10
44.2164567274
 20
58.8806955223
 30
0.0
 10
44.2002307172
 20
58.8766580082
 30
0.0
 10
44.1703671563
 20
58.8712074546
 30
0.0
 10
44.1475516826
 20
58.8684214738
 30
0.0
 10
44.1341232449
 20
58.866891263
 30
0.0
  0
SPLINE
  5
326
100
AcDbEntity
  8
0
100
AcDbSpline
 62
7
  6
CONTINUOUS
 70
0
 71
3
 72
11
 73
7
 74
0
 42
0.0000001
 43
0.0000001
 44
0.0000000001
 40
0.0
 40
0.0
 40
0.0
 40
0.0
 40
0.422209339
 40
0.7276363853
 40
0.9171378966
 40
1.0
 40
1.0
 40
1.0
 40
1.0
 10
40.1191107165
 20
58.8668522593
 30
0.0
 10
40.1056307465
 20
58.8683852818
 30
0.0
 10
40.0827290289
 20
58.8711766508
 30
0.0
 10
40.052747742
 20
58.8766369545
 30
0.0
 10
40.0364669024
 20
58.8806830745
 30
0.0
 10
40.0265331825
 20
58.8857531709
 30
0.0
 10
40.0265331825
 20
58.8884157807
 30
0.0
  0
SPLINE
  5
327
100
AcDbEntity
  8
0
100
AcDbSpline
 62
7
  6
CONTINUOUS
 70
0
 71
3
 72
11
 73
7
 74
0
 42
0.0000001
 43
0.0000001
 44
0.0000000001
 40
0.0
 40
0.0
 40
0.0
 40
0.0
 40
0.0843553172
 40
0.2741194085
 40
0.5790504505
 40
1.0
 40
1.0
 40
1.0
 40
1.0
 10
50.2864731051
 20
58.8884144917
 30
0.0
 10
50.2864731051
 20
58.890785044
 30
0.0
 10
50.29501852
 20
58.8954474832
 30
0.0
 10
50.3093633091
 20
58.8991223694
 30
0.0
 10
50.3354410733
 20
58.9041090247
 30
0.0
 10
50.3554279927
 20
58.9066567629
 30
0.0
 10
50.3671742495
 20
58.9080578353
 30
0.0
  0
SPLINE
  5
328
100
AcDbEntity
  8
0
100
AcDbSpline
 62
7
  6
CONTINUOUS
 70
0
 71
3
 72
11
 73
7
 74
0
 42
0.0000001
 43
0.0000001
 44
0.0000000001
 40
0.0
 40
0.0
 40
0.0
 40
0.0
 40
0.421042136
 40
0.7260231022
 40
0.915776993
 40
1.0
 40
1.0
 40
1.0
 40
1.0
 10
54.2050755404
 20
58.9081327041
 30
0.0
 10
54.2169130929
 20
58.9067265809
 30
0.0
 10
54.2370530673
 20
58.9041693595
 30
0.0
 10
54.2633394192
 20
58.899164769
 30
0.0
 10
54.2777822535
 20
58.8954752117
 30
0.0
 10
54.2864062354
 20
58.8907990591
 30
0.0
 10
54.2864062354
 20
58.8884144917
 30
0.0
  0
SPLINE
  5
329
100
AcDbEntity
  8
0
100
AcDbSpline
 62
7
  6
CONTINUOUS
 70
0
 71
3
 72
11
 73
7
 74
0
 42
0.0000001
 43
0.0000001
 44
0.0000000001
 40
0.0
 40
0.0
 40
0.0
 40
0.0
 40
0.0827032615
 40
0.2721988091
 40
0.5776885206
 40
1.0
 40
1.0
 40
1.0
 40
1.0
 10
23.8563563629
 20
58.8884125069
 30
0.0
 10
23.8563563629
 20
58.8857932382
 30
0.0
 10
23.8465445735
 20
58.880826937
 30
0.0
 10
23.830511771
 20
58.8768558257
 30
0.0
 10
23.8009432754
 20
58.8715022959
 30
0.0
 10
23.778367069
 20
58.8687646996
 30
0.0
 10
23.7650769129
 20
58.8672615341
 30
0.0
  0
SPLINE
  5
32A
100
AcDbEntity
  8
0
100
AcDbSpline
 62
7
  6
CONTINUOUS
 70
0
 71
3
 72
11
 73
7
 74
0
 42
0.0000001
 43
0.0000001
 44
0.0000000001
 40
0.0
 40
0.0
 40
0.0
 40
0.0
 40
0.4223560006
 40
0.7278665911
 40
0.9173554055
 40
1.0
 40
1.0
 40
1.0
 40
1.0
 10
19.8481444914
 20
58.8672248894
 30
0.0
 10
19.8348045357
 20
58.8687307966
 30
0.0
 10
19.8121450399
 20
58.8714736532
 30
0.0
 10
19.7824629912
 20
58.8768367082
 30
0.0
 10
19.7663772639
 20
58.8808162643
 30
0.0
 10
19.7565229762
 20
58.8857895972
 30
0.0
 10
19.7565229762
 20
58.8884164752
 30
0.0
  0
SPLINE
  5
32B
100
AcDbEntity
  8
0
100
AcDbSpline
 62
7
  6
CONTINUOUS
 70
0
 71
3
 72
11
 73
7
 74
0
 42
0.0000001
 43
0.0000001
 44
0.0000000001
 40
0.0
 40
0.0
 40
0.0
 40
0.0
 40
0.0827032615
 40
0.2721988092
 40
0.5776885207
 40
1.0
 40
1.0
 40
1.0
 40
1.0
 10
28.9363563628
 20
58.8884125069
 30
0.0
 10
28.9363563628
 20
58.8857932382
 30
0.0
 10
28.9265445734
 20
58.8808269369
 30
0.0
 10
28.910511771
 20
58.8768558257
 30
0.0
 10
28.8809432754
 20
58.8715022959
 30
0.0
 10
28.858367069
 20
58.8687646996
 30
0.0
 10
28.845076913
 20
58.8672615341
 30
0.0
  0
SPLINE
  5
32C
100
AcDbEntity
  8
0
100
AcDbSpline
 62
7
  6
CONTINUOUS
 70
0
 71
3
 72
11
 73
7
 74
0
 42
0.0000001
 43
0.0000001
 44
0.0000000001
 40
0.0
 40
0.0
 40
0.0
 40
0.0
 40
0.4223560006
 40
0.727866591
 40
0.9173554055
 40
1.0
 40
1.0
 40
1.0
 40
1.0
 10
24.9281444915
 20
58.8672248894
 30
0.0
 10
24.9148045358
 20
58.8687307966
 30
0.0
 10
24.8921450401
 20
58.8714736532
 30
0.0
 10
24.8624629914
 20
58.8768367082
 30
0.0
 10
24.8463772642
 20
58.8808162643
 30
0.0
 10
24.8365229766
 20
58.8857895972
 30
0.0
 10
24.8365229766
 20
58.8884164751
 30
0.0
  0
SPLINE
  5
32D
100
AcDbEntity
  8
0
100
AcDbSpline
 62
7
  6
CONTINUOUS
 70
0
 71
3
 72
11
 73
7
 74
0
 42
0.0000001
 43
0.0000001
 44
0.0000000001
 40
0.0
 40
0.0
 40
0.0
 40
0.0
 40
0.082923326
 40
0.2724303502
 40
0.5778348732
 40
1.0
 40
1.0
 40
1.0
 40
1.0
 10
39.1463461575
 20
58.8884132013
 30
0.0
 10
39.1463461575
 20
58.8857584648
 30
0.0
 10
39.1364567276
 20
58.8806955223
 30
0.0
 10
39.1202307174
 20
58.8766580082
 30
0.0
 10
39.0903671564
 20
58.8712074546
 30
0.0
 10
39.0675516827
 20
58.8684214738
 30
0.0
 10
39.054123245
 20
58.866891263
 30
0.0
  0
SPLINE
  5
32E
100
AcDbEntity
  8
0
100
AcDbSpline
 62
7
  6
CONTINUOUS
 70
0
 71
3
 72
11
 73
7
 74
0
 42
0.0000001
 43
0.0000001
 44
0.0000000001
 40
0.0
 40
0.0
 40
0.0
 40
0.0
 40
0.4222093388
 40
0.7276363851
 40
0.9171378966
 40
1.0
 40
1.0
 40
1.0
 40
1.0
 10
35.0391107163
 20
58.8668522593
 30
0.0
 10
35.0256307463
 20
58.8683852818
 30
0.0
 10
35.0027290287
 20
58.8711766508
 30
0.0
 10
34.9727477418
 20
58.8766369544
 30
0.0
 10
34.9564669022
 20
58.8806830744
 30
0.0
 10
34.9465331823
 20
58.8857531708
 30
0.0
 10
34.9465331823
 20
58.8884157806
 30
0.0
  0
SPLINE
  5
32F
100
AcDbEntity
  8
0
100
AcDbSpline
 62
7
  6
CONTINUOUS
 70
0
 71
3
 72
13
 73
9
 74
0
 42
0.0000001
 43
0.0000001
 44
0.0000000001
 40
0.0
 40
0.0
 40
0.0
 40
0.0
 40
0.1521288816
 40
0.2973394951
 40
0.4321459019
 40
0.5572596535
 40
0.7857694719
 40
1.0
 40
1.0
 40
1.0
 40
1.0
 10
10.2064396702
 20
58.769683874
 30
0.0
 10
10.1557347133
 20
58.7696838739
 30
0.0
 10
10.0563525214
 20
58.7819721603
 30
0.0
 10
9.9193704519
 20
58.8294811139
 30
0.0
 10
9.8028297937
 20
58.8997097695
 30
0.0
 10
9.6827883169
 20
59.0110455223
 30
0.0
 10
9.5830445157
 20
59.1772322019
 30
0.0
 10
9.5564396702
 20
59.3259779794
 30
0.0
 10
9.5564396702
 20
59.3973815787
 30
0.0
  0
SPLINE
  5
330
100
AcDbEntity
  8
0
100
AcDbSpline
 62
7
  6
CONTINUOUS
 70
0
 71
3
 72
11
 73
7
 74
0
 42
0.0000001
 43
0.0000001
 44
0.0000000001
 40
0.0
 40
0.0
 40
0.0
 40
0.0
 40
0.0843553172
 40
0.2741194086
 40
0.5790504506
 40
1.0
 40
1.0
 40
1.0
 40
1.0
 10
24.9364722692
 20
58.8884144917
 30
0.0
 10
24.9364722692
 20
58.8907257802
 30
0.0
 10
24.9448040487
 20
58.8952716584
 30
0.0
 10
24.9587902181
 20
58.8988546725
 30
0.0
 10
24.9842160382
 20
58.9037166613
 30
0.0
 10
25.0037032847
 20
58.9062007061
 30
0.0
 10
25.015155885
 20
58.9075667517
 30
0.0
  0
SPLINE
  5
331
100
AcDbEntity
  8
0
100
AcDbSpline
 62
7
  6
CONTINUOUS
 70
0
 71
3
 72
11
 73
7
 74
0
 42
0.0000001
 43
0.0000001
 44
0.0000000001
 40
0.0
 40
0.0
 40
0.0
 40
0.0
 40
0.4210421358
 40
0.7260231021
 40
0.915776993
 40
1.0
 40
1.0
 40
1.0
 40
1.0
 10
28.7571096436
 20
58.9076397487
 30
0.0
 10
28.7686512573
 20
58.9062687786
 30
0.0
 10
28.7882877324
 20
58.9037754878
 30
0.0
 10
28.8139169255
 20
58.8988960121
 30
0.0
 10
28.8279986889
 20
58.8952986937
 30
0.0
 10
28.8364070713
 20
58.8907394449
 30
0.0
 10
28.8364070713
 20
58.8884144917
 30
0.0
  0
SPLINE
  5
332
100
AcDbEntity
  8
0
100
AcDbSpline
 62
7
  6
CONTINUOUS
 70
0
 71
3
 72
13
 73
9
 74
0
 42
0.0000001
 43
0.0000001
 44
0.0000000001
 40
0.0
 40
0.0
 40
0.0
 40
0.0
 40
0.2139919793
 40
0.4426748365
 40
0.5678488506
 40
0.702656765
 40
0.8478666852
 40
1.0
 40
1.0
 40
1.0
 40
1.0
 10
80.7564396702
 20
59.3973815784
 30
0.0
 10
80.7564396703
 20
59.3260559733
 30
0.0
 10
80.7296148711
 20
59.1773681384
 30
0.0
 10
80.6300200563
 20
59.0111687044
 30
0.0
 10
80.5101425251
 20
58.89952334
 30
0.0
 10
80.3935751252
 20
58.8292577437
 30
0.0
 10
80.2565338573
 20
58.7818870683
 30
0.0
 10
80.1571471816
 20
58.7696838748
 30
0.0
 10
80.1064396702
 20
58.7696838748
 30
0.0
  0
ENDSEC
  0
SECTION
  2
OBJECTS
  0
DICTIONARY
  5
C
100
AcDbDictionary
280
0
281
1
  3
ACAD_GROUP
350
D
  3
ACAD_MLINESTYLE
350
17
  3
ACAD_LAYOUT
350
1A
  3
ACAD_PLOTSETTINGS
350
19
  3
ACAD_PLOTSTYLENAME
350
E
  0
DICTIONARY
  5
D
102
{ACAD_REACTORS
330
C
102
}
100
AcDbDictionary
280
0
281
1
  0
ACDBDICTIONARYWDFLT
  5
E
102
{ACAD_REACTORS
330
C
102
}
100
AcDbDictionary
281
1
  3
Normal
350
F
100
AcDbDictionaryWithDefault
340
F
  0
DICTIONARY
  5
17
102
{ACAD_REACTORS
330
C
102
}
100
AcDbDictionary
280
0
281
1
  3
Standard
350
18
  0
DICTIONARY
  5
19
102
{ACAD_REACTORS
330
C
102
}
100
AcDbDictionary
281
1
  0
DICTIONARY
  5
1A
102
{ACAD_REACTORS
330
C
102
}
100
AcDbDictionary
281
1
  3
Model
350
333
  3
Layout1
350
334
  0
ACDBPLACEHOLDER
  5
F
102
{ACAD_REACTORS
330
E
102
}
  0
MLINESTYLE
  5
18
102
{ACAD_REACTORS
330
17
102
}
100
AcDbMlineStyle
  2
STANDARD
 70
0
  3

 62
256
 51
90.0
 52
90.0
 71
2
 49
0.5
 62
256
  6
BYLAYER
 49
-0.5
 62
256
  6
BYLAYER
  0
LAYOUT
  5
333
102
{ACAD_REACTORS
330
1A
102
}
100
AcDbPlotSettings
  1

  2
none_device
  4

  6

 40
0.0
 41
0.0
 42
0.0
 43
0.0
 44
210.0
 45
297.0
 46
0.0
 47
0.0
 48
0.0
 49
0.0
140
0.0
141
0.0
142
1.0
143
1.0
 70
1024
 72
1
 73
0
 74
0
  7

 75
0
147
1.0
148
0.0
149
0.0
100
AcDbLayout
  1
Model
 70
0
 71
0
 10
0.0
 20
0.0
 11
210.0
 21
297.0
 12
0.0
 22
0.0
 32
0.0
 14
0.0
 24
0.0
 34
0.0
 15
0.0
 25
0.0
 35
0.0
146
0.0
 13
0.0
 23
0.0
 33
0.0
 16
1.0
 26
0.0
 36
0.0
 17
0.0
 27
1.0
 37
0.0
 76
0
330
210
345
0
346
0
  0
LAYOUT
  5
334
102
{ACAD_REACTORS
330
1A
102
}
100
AcDbPlotSettings
  1

  2
none_device
  4

  6

 40
0.0
 41
0.0
 42
0.0
 43
0.0
 44
210.0
 45
297.0
 46
0.0
 47
0.0
 48
0.0
 49
0.0
140
0.0
141
0.0
142
1.0
143
1.0
 70
0
 72
1
 73
0
 74
0
  7

 75
0
147
1.0
148
0.0
149
0.0
100
AcDbLayout
  1
Layout1
 70
0
 71
1
 10
0.0
 20
0.0
 11
210.0
 21
297.0
 12
0.0
 22
0.0
 32
0.0
 14
0.0
 24
0.0
 34
0.0
 15
0.0
 25
0.0
 35
0.0
146
0.0
 13
0.0
 23
0.0
 33
0.0
 16
1.0
 26
0.0
 36
0.0
 17
0.0
 27
1.0
 37
0.0
 76
0
330
211
345
0
346
0
  0
ENDSEC
  0
EOF
