999
DXF file: C:\Users\sesa63760\Dev\_Creo\CAD\MCADUE0001295_3D-CAD\drw0001_4.dxf
999
Pro/ENGINEER 2019471 by Parametric Technology Corporation
  0
SECTION
  2
HEADER
  9
$ACADVER
  1
AC1024
  9
$DWGCODEPAGE
  3
ANSI_1252
  9
$EXTMAX
 10
497.9972135145
 20
704.3103448277
 30
0.0
  9
$EXTMIN
 10
0.0
 20
0.0
 30
0.0
  9
$LIMMIN
 10
0.0
 20
0.0
  9
$LIMMAX
 10
497.9972135145
 20
704.3103448277
  9
$VIEWCTR
 10
248.9986067573
 20
352.1551724138
  9
$VIEWSIZE
 40
704.3103448277
  9
$CLAYER
  8
0
  9
$LTSCALE
 40
45.9106002554
  9
$CELTYPE
  6
BYLAYER
  9
$DIMSCALE
 40
1.0
  9
$DIMASZ
 40
5.9285382561
  9
$DIMEXO
 40
1.0
  9
$DIMDLI
 40
31.7200510856
  9
$DIMEXE
 40
1.0
  9
$DIMCEN
 40
7.5126436782
  9
$DIMLFAC
 40
1.0
  9
$DIMBLK
  1
_FILLED
  9
$DIMALT
 70
0
  9
$DIMALTF
 40
0.0393700787
  9
$DIMTXT
 40
8.2999535586
  9
$DIMTOL
 70
1
  9
$DIMLIM
 70
0
  9
$DIMTFAC
 40
1.0
  9
$DIMTP
 40
0.01
  9
$DIMTM
 40
0.01
  9
$DIMGAP
 40
0.625
  9
$DIMDSEP
 70
46
  9
$AUNITS
 70
0
  9
$PDMODE
 70
3
  9
$PDSIZE
 40
0.3125
  9
$HANDSEED
  5
415
  9
$TILEMODE
 70
1
  9
$MEASUREMENT
 70
1
  9
$INSUNITS
 70
4
  0
ENDSEC
  0
SECTION
  2
CLASSES
  0
CLASS
  1
ACDBDICTIONARYWDFLT
  2
AcDbDictionaryWithDefault
  3
AutoCAD 2000
 90
0
 91
1
280
0
281
0
  0
CLASS
  1
ACDBPLACEHOLDER
  2
AcDbPlaceHolder
  3
AutoCAD 2000
 90
0
 91
1
280
0
281
0
  0
CLASS
  1
LAYOUT
  2
AcDbLayout
  3
AutoCAD 2000
 90
0
 91
0
280
0
281
0
  0
ENDSEC
  0
SECTION
  2
TABLES
  0
TABLE
  2
VPORT
  5
8
100
AcDbSymbolTable
 70
2
  0
VPORT
  5
1F4
100
AcDbSymbolTableRecord
100
AcDbViewportTableRecord
  2
*ACTIVE
 70
0
 10
0.0
 20
0.0
 11
1.0
 21
1.0
 12
248.9986067573
 22
352.1551724138
 13
0.0
 23
0.0
 14
1.0
 24
1.0
 15
0.0
 25
0.0
 16
0.0
 26
0.0
 36
1.0
 17
0.0
 27
0.0
 37
0.0
 40
704.3103448277
 41
0.7070707071
 42
50.0
 43
0.0
 44
0.0
 50
0.0
 51
0.0
 71
0
 72
100
 73
1
 74
1
 75
0
 76
0
 77
0
 78
0
  0
ENDTAB
  0
TABLE
  2
LTYPE
  5
5
100
AcDbSymbolTable
 70
6
  0
LTYPE
  5
14
100
AcDbSymbolTableRecord
100
AcDbLinetypeTableRecord
  2
BYBLOCK
 70
0
  3

 72
65
 73
0
 40
0.0
  0
LTYPE
  5
15
100
AcDbSymbolTableRecord
100
AcDbLinetypeTableRecord
  2
BYLAYER
 70
0
  3

 72
65
 73
0
 40
0.0
  0
LTYPE
  5
16
100
AcDbSymbolTableRecord
100
AcDbLinetypeTableRecord
  2
CONTINUOUS
 70
64
  3
Solid line
 72
65
 73
0
 40
0.0
  0
LTYPE
  5
1F5
100
AcDbSymbolTableRecord
100
AcDbLinetypeTableRecord
  2
CENTER
 70
64
  3
____ _ ____ _ ____ _ ____ _ ____ _ ____ _ ____
 72
65
 73
4
 40
0.6
 49
0.375
 74
0
 49
-0.075
 74
0
 49
0.075
 74
0
 49
-0.075
 74
0
  0
LTYPE
  5
1F6
100
AcDbSymbolTableRecord
100
AcDbLinetypeTableRecord
  2
HIDDEN
 70
64
  3
- - - - - - - - - - - - - - - - - - - -
 72
65
 73
2
 40
0.2
 49
0.1
 74
0
 49
-0.1
 74
0
  0
LTYPE
  5
1F7
100
AcDbSymbolTableRecord
100
AcDbLinetypeTableRecord
  2
PHANTOM
 70
64
  3
_____ _ _ _____ _ _ _____ _ _ _____
 72
65
 73
6
 40
0.8
 49
0.45
 74
0
 49
-0.05
 74
0
 49
0.1
 74
0
 49
-0.05
 74
0
 49
0.1
 74
0
 49
-0.05
 74
0
  0
LTYPE
  5
1F8
100
AcDbSymbolTableRecord
100
AcDbLinetypeTableRecord
  2
DOT
 70
64
  3
. . . . . . . . . . . . . . . . . . . .
 72
65
 73
2
 40
0.2
 49
0.1
 74
0
 49
-0.1
 74
0
  0
LTYPE
  5
1F9
100
AcDbSymbolTableRecord
100
AcDbLinetypeTableRecord
  2
DASHED
 70
64
  3
- - - - - - - - - - - - - - - - - - - -
 72
65
 73
2
 40
0.2
 49
0.1
 74
0
 49
-0.1
 74
0
  0
ENDTAB
  0
TABLE
  2
LAYER
  5
2
100
AcDbSymbolTable
 70
36
  0
LAYER
  5
10
100
AcDbSymbolTableRecord
100
AcDbLayerTableRecord
  2
0
 70
0
 62
7
  6
CONTINUOUS
370
-3
390
F
  0
LAYER
  5
1FA
100
AcDbSymbolTableRecord
100
AcDbLayerTableRecord
  2
DEFAULT_1
 70
0
 62
7
  6
CENTER
370
-3
390
F
  0
LAYER
  5
1FB
100
AcDbSymbolTableRecord
100
AcDbLayerTableRecord
  2
DEFAULT_2
 70
0
 62
8
  6
HIDDEN
370
-3
390
F
  0
LAYER
  5
1FC
100
AcDbSymbolTableRecord
100
AcDbLayerTableRecord
  2
DEFAULT_3
 70
0
 62
7
  6
PHANTOM
370
-3
390
F
  0
LAYER
  5
1FD
100
AcDbSymbolTableRecord
100
AcDbLayerTableRecord
  2
00_COMPONENTS
 70
0
 62
7
  6
CONTINUOUS
370
-3
390
F
  0
LAYER
  5
1FE
100
AcDbSymbolTableRecord
100
AcDbLayerTableRecord
  2
01_1_DEFAULT_DATUMS
 70
0
 62
7
  6
CONTINUOUS
370
-3
390
F
  0
LAYER
  5
1FF
100
AcDbSymbolTableRecord
100
AcDbLayerTableRecord
  2
01_PLANES
 70
0
 62
7
  6
CONTINUOUS
370
-3
390
F
  0
LAYER
  5
200
100
AcDbSymbolTableRecord
100
AcDbLayerTableRecord
  2
02_COORD_SYS
 70
0
 62
7
  6
CONTINUOUS
370
-3
390
F
  0
LAYER
  5
201
100
AcDbSymbolTableRecord
100
AcDbLayerTableRecord
  2
03_AXES
 70
0
 62
7
  6
CONTINUOUS
370
-3
390
F
  0
LAYER
  5
202
100
AcDbSymbolTableRecord
100
AcDbLayerTableRecord
  2
04_POINTS
 70
0
 62
7
  6
CONTINUOUS
370
-3
390
F
  0
LAYER
  5
203
100
AcDbSymbolTableRecord
100
AcDbLayerTableRecord
  2
05_CURVES
 70
0
 62
7
  6
CONTINUOUS
370
-3
390
F
  0
LAYER
  5
204
100
AcDbSymbolTableRecord
100
AcDbLayerTableRecord
  2
06_SURFS
 70
0
 62
7
  6
CONTINUOUS
370
-3
390
F
  0
LAYER
  5
205
100
AcDbSymbolTableRecord
100
AcDbLayerTableRecord
  2
07_COSMETICS
 70
0
 62
7
  6
CONTINUOUS
370
-3
390
F
  0
LAYER
  5
206
100
AcDbSymbolTableRecord
100
AcDbLayerTableRecord
  2
10_NOTES
 70
0
 62
7
  6
CONTINUOUS
370
-3
390
F
  0
LAYER
  5
207
100
AcDbSymbolTableRecord
100
AcDbLayerTableRecord
  2
11_NOTES_PUB
 70
0
 62
7
  6
CONTINUOUS
370
-3
390
F
  0
LAYER
  5
208
100
AcDbSymbolTableRecord
100
AcDbLayerTableRecord
  2
13_REF_GTOL
 70
0
 62
7
  6
CONTINUOUS
370
-3
390
F
  0
LAYER
  5
209
100
AcDbSymbolTableRecord
100
AcDbLayerTableRecord
  2
16_MISC
 70
0
 62
7
  6
CONTINUOUS
370
-3
390
F
  0
LAYER
  5
20A
100
AcDbSymbolTableRecord
100
AcDbLayerTableRecord
  2
17_NO_PRINT
 70
0
 62
7
  6
CONTINUOUS
370
-3
390
F
  0
LAYER
  5
20B
100
AcDbSymbolTableRecord
100
AcDbLayerTableRecord
  2
18_DATUM_CAMS_JOINTS
 70
0
 62
7
  6
CONTINUOUS
370
-3
390
F
  0
LAYER
  5
20C
100
AcDbSymbolTableRecord
100
AcDbLayerTableRecord
  2
19_DATUM_FUNCTIONAL
 70
0
 62
7
  6
CONTINUOUS
370
-3
390
F
  0
LAYER
  5
20D
100
AcDbSymbolTableRecord
100
AcDbLayerTableRecord
  2
20_DATUM_KINEMATIC_SCHEME
 70
0
 62
7
  6
CONTINUOUS
370
-3
390
F
  0
ENDTAB
  0
TABLE
  2
STYLE
  5
3
100
AcDbSymbolTable
 70
1
  0
STYLE
  5
11
100
AcDbSymbolTableRecord
100
AcDbTextStyleTableRecord
  2
STANDARD
 70
0
 40
0.0
 41
0.8
 50
0.0
 71
0
 42
0.2
  3
txt
  4

  0
STYLE
  5
20E
100
AcDbSymbolTableRecord
100
AcDbTextStyleTableRecord
  2
TEXTSTYLE_1
 70
0
 40
0.0
 41
0.8
 50
0.0
 71
0
 42
0.2
  3
gdt
  4

  0
ENDTAB
  0
TABLE
  2
VIEW
  5
6
100
AcDbSymbolTable
 70
0
  0
ENDTAB
  0
TABLE
  2
UCS
  5
7
100
AcDbSymbolTable
 70
0
  0
ENDTAB
  0
TABLE
  2
APPID
  5
9
100
AcDbSymbolTable
 70
1
  0
APPID
  5
20F
100
AcDbSymbolTableRecord
100
AcDbRegAppTableRecord
  2
ACAD
 70
0
  0
ENDTAB
  0
TABLE
  2
BLOCK_RECORD
  5
1
100
AcDbSymbolTable
 70
0
  0
BLOCK_RECORD
  5
210
100
AcDbSymbolTableRecord
100
AcDbBlockTableRecord
  2
*Model_Space
  0
BLOCK_RECORD
  5
211
100
AcDbSymbolTableRecord
100
AcDbBlockTableRecord
  2
*Paper_Space
  0
BLOCK_RECORD
  5
212
100
AcDbSymbolTableRecord
100
AcDbBlockTableRecord
  2
_FILLED
  0
ENDTAB
  0
TABLE
  2
DIMSTYLE
  5
A
100
AcDbSymbolTable
 70
1
100
AcDbDimStyleTable
 71
0
  0
DIMSTYLE
105
213
100
AcDbSymbolTableRecord
100
AcDbDimStyleTableRecord
  2
STANDARD
 70
0
  3

  4

 40
1.0
 41
5.9285382561
 42
1.0
 43
0.38
 44
1.0
 45
0.0
 46
0.0
 47
0.01
 48
0.01
140
8.2999535586
141
0.09
142
0.0
143
25.4
144
1.0
145
0.0
146
1.0
147
0.625
 71
1
 72
0
 73
0
 74
0
 75
0
 76
0
 77
1
 78
8
 79
2
170
0
171
1
172
0
173
0
174
0
175
0
176
0
177
0
178
0
270
2
179
2
271
2
272
2
273
2
274
2
275
0
280
0
281
0
282
0
283
1
284
8
285
0
286
0
287
3
288
0
340
11
278
46
341
212
342
212
343
212
344
212
  0
ENDTAB
  0
ENDSEC
  0
SECTION
  2
BLOCKS
  0
BLOCK
  5
20
100
AcDbEntity
  8
0
100
AcDbBlockBegin
  2
*Model_Space
 70
0
 10
0.0
 20
0.0
 30
0.0
  3
*Model_Space
  1

  0
ENDBLK
  5
21
100
AcDbEntity
  8
0
100
AcDbBlockEnd
  0
BLOCK
  5
1C
100
AcDbEntity
  8
0
100
AcDbBlockBegin
  2
*Paper_Space
 70
0
 10
0.0
 20
0.0
 30
0.0
  3
*Paper_Space
  1

  0
ENDBLK
  5
1D
100
AcDbEntity
  8
0
100
AcDbBlockEnd
  0
BLOCK
  5
214
100
AcDbEntity
  8
0
100
AcDbBlockBegin
  2
_FILLED
 70
64
 10
0.0
 20
0.0
  3
_FILLED
  1

  0
SOLID
  5
215
100
AcDbEntity
  8
0
  6
BYBLOCK
 62
0
100
AcDbTrace
 10
0.0
 20
0.0
 11
-1.0
 21
0.25
 12
-1.0
 22
-0.25
 13
-1.0
 23
-0.25
  0
ENDBLK
  5
216
100
AcDbEntity
  8
0
  6
BYBLOCK
 62
0
100
AcDbBlockEnd
  0
ENDSEC
  0
SECTION
  2
ENTITIES
  0
LINE
  5
217
100
AcDbEntity
  8
0
100
AcDbLine
 62
7
  6
CONTINUOUS
 10
55.4641239986
 20
549.9999999926
 11
55.4641239986
 21
150.0000000075
  0
LINE
  5
218
100
AcDbEntity
  8
0
100
AcDbLine
 62
7
  6
CONTINUOUS
 10
57.6641239986
 20
152.2
 11
57.6641239986
 21
152.492919674
  0
LINE
  5
219
100
AcDbEntity
  8
0
100
AcDbLine
 62
7
  6
CONTINUOUS
 10
57.6641239986
 20
547.5071332424
 11
57.6641239986
 21
547.8
  0
LINE
  5
21A
100
AcDbEntity
  8
0
100
AcDbLine
 62
7
  6
CONTINUOUS
 10
57.9386677134
 20
547.0
 11
57.9386677134
 21
153.0
  0
LINE
  5
21B
100
AcDbEntity
  8
0
100
AcDbLine
 62
7
  6
CONTINUOUS
 10
58.9386677134
 20
548.0
 11
58.9386677134
 21
547.0
  0
LINE
  5
21C
100
AcDbEntity
  8
0
100
AcDbLine
 62
7
  6
CONTINUOUS
 10
58.9386677134
 20
153.0
 11
58.9386677134
 21
152.0
  0
LINE
  5
21D
100
AcDbEntity
  8
0
100
AcDbLine
 62
7
  6
CONTINUOUS
 10
59.3032231172
 20
153.0
 11
59.3032231171
 21
547.0
  0
LINE
  5
21E
100
AcDbEntity
  8
0
100
AcDbLine
 62
7
  6
CONTINUOUS
 10
59.8767995534
 20
152.0
 11
59.8767995534
 21
153.0
  0
LINE
  5
21F
100
AcDbEntity
  8
0
100
AcDbLine
 62
7
  6
CONTINUOUS
 10
59.8767995534
 20
547.0
 11
59.8767995535
 21
548.0000000001
  0
LINE
  5
220
100
AcDbEntity
  8
0
100
AcDbLine
 62
7
  6
CONTINUOUS
 10
65.1120408874
 20
547.9999999985
 11
65.1120408875
 21
546.9999999977
  0
LINE
  5
221
100
AcDbEntity
  8
0
100
AcDbLine
 62
7
  6
CONTINUOUS
 10
65.1120408874
 20
153.0
 11
65.1120408875
 21
152.0000000016
  0
LINE
  5
222
100
AcDbEntity
  8
0
100
AcDbLine
 62
7
  6
CONTINUOUS
 10
67.1121792415
 20
546.2755646936
 11
67.1121792415
 21
153.7244353065
  0
LINE
  5
223
100
AcDbEntity
  8
0
100
AcDbLine
 62
7
  6
CONTINUOUS
 10
67.7335144827
 20
153.9381318413
 11
67.7335144828
 21
153.3645554038
  0
LINE
  5
224
100
AcDbEntity
  8
0
100
AcDbLine
 62
7
  6
CONTINUOUS
 10
67.7335144828
 20
546.061868159
 11
67.7335144828
 21
546.6354445964
  0
LINE
  5
225
100
AcDbEntity
  8
0
100
AcDbLine
 62
7
  6
CONTINUOUS
 10
68.9476238378
 20
155.2
 11
68.9476238378
 21
544.8
  0
LINE
  5
226
100
AcDbEntity
  8
0
100
AcDbLine
 62
7
  6
CONTINUOUS
 10
55.4641239987
 20
150.0
 11
455.4641239986
 21
150.0
  0
LINE
  5
227
100
AcDbEntity
  8
0
100
AcDbLine
 62
7
  6
CONTINUOUS
 10
58.9386677134
 20
152.0
 11
452.9386677134
 21
152.0
  0
LINE
  5
228
100
AcDbEntity
  8
0
100
AcDbLine
 62
7
  6
CONTINUOUS
 10
57.9386677134
 20
153.0
 11
65.1120408874
 21
153.0
  0
LINE
  5
229
100
AcDbEntity
  8
0
100
AcDbLine
 62
7
  6
CONTINUOUS
 10
446.7652945394
 20
153.0
 11
453.9386677134
 21
153.0
  0
LINE
  5
22A
100
AcDbEntity
  8
0
100
AcDbLine
 62
7
  6
CONTINUOUS
 10
67.685755678
 20
153.7244353065
 11
67.1121792416
 21
153.7244353065
  0
LINE
  5
22B
100
AcDbEntity
  8
0
100
AcDbLine
 62
7
  6
CONTINUOUS
 10
444.1915797491
 20
153.7244353065
 11
444.7651561853
 21
153.7244353065
  0
LINE
  5
22C
100
AcDbEntity
  8
0
100
AcDbLine
 62
7
  6
CONTINUOUS
 10
442.929711589
 20
155.2
 11
68.9476238378
 21
155.2
  0
LINE
  5
22D
100
AcDbEntity
  8
0
100
AcDbLine
 62
7
  6
CONTINUOUS
 10
67.6857556779
 20
153.7244353065
 11
63.9421705281
 21
153.0
  0
LINE
  5
22E
100
AcDbEntity
  8
0
100
AcDbLine
 62
7
  6
CONTINUOUS
 10
63.3685940917
 20
153.0
 11
67.1121792415
 21
153.7244353065
  0
LINE
  5
22F
100
AcDbEntity
  8
0
100
AcDbLine
 62
7
  6
CONTINUOUS
 10
447.9351648988
 20
153.0
 11
444.191579749
 21
153.7244353065
  0
LINE
  5
230
100
AcDbEntity
  8
0
100
AcDbLine
 62
7
  6
CONTINUOUS
 10
444.7651561854
 20
153.7244353065
 11
448.5087413351
 21
153.0
  0
LINE
  5
231
100
AcDbEntity
  8
0
100
AcDbLine
 62
7
  6
CONTINUOUS
 10
392.0571967208
 20
330.4522528299
 11
389.3707573994
 21
329.9695747367
  0
LINE
  5
232
100
AcDbEntity
  8
0
100
AcDbLine
 62
7
  6
CONTINUOUS
 10
415.8201387061
 20
359.9477471702
 11
418.5065780275
 21
360.4304252634
  0
LINE
  5
233
100
AcDbEntity
  8
0
100
AcDbLine
 62
7
  6
CONTINUOUS
 10
396.3777872876
 20
328.4145106829
 11
396.4858742093
 21
328.4145596498
  0
LINE
  5
234
100
AcDbEntity
  8
0
100
AcDbLine
 62
7
  6
CONTINUOUS
 10
406.4995577757
 20
326.9859449815
 11
406.3777849128
 21
326.9859449815
  0
LINE
  5
235
100
AcDbEntity
  8
0
100
AcDbLine
 62
7
  6
CONTINUOUS
 10
401.4995505141
 20
326.9859611627
 11
401.3777722509
 21
326.9859611627
  0
LINE
  5
236
100
AcDbEntity
  8
0
100
AcDbLine
 62
7
  6
CONTINUOUS
 10
411.4995558251
 20
328.414536044
 11
411.3777849128
 21
328.414536044
  0
LINE
  5
237
100
AcDbEntity
  8
0
100
AcDbLine
 62
7
  6
CONTINUOUS
 10
395.9624877131
 20
349.2409760484
 11
395.8113742798
 21
349.2383387554
  0
LINE
  5
238
100
AcDbEntity
  8
0
100
AcDbLine
 62
7
  6
CONTINUOUS
 10
395.9343940076
 20
349.5405313626
 11
395.810951218
 21
349.5383770114
  0
LINE
  5
239
100
AcDbEntity
  8
0
100
AcDbLine
 62
7
  6
CONTINUOUS
 10
412.0659621549
 20
350.7609464548
 11
411.9201721211
 21
350.7584016803
  0
LINE
  5
23A
100
AcDbEntity
  8
0
100
AcDbLine
 62
7
  6
CONTINUOUS
 10
400.3119357508
 20
348.9953374949
 11
407.5653996783
 21
348.995337495
  0
LINE
  5
23B
100
AcDbEntity
  8
0
100
AcDbLine
 62
7
  6
CONTINUOUS
 10
407.5653997055
 20
349.295291779
 11
400.3119355351
 21
349.295291779
  0
LINE
  5
23C
100
AcDbEntity
  8
0
100
AcDbLine
 62
7
  6
CONTINUOUS
 10
400.0722436663
 20
349.3251177058
 11
407.8050917606
 21
349.3251177058
  0
LINE
  5
23D
100
AcDbEntity
  8
0
100
AcDbLine
 62
7
  6
CONTINUOUS
 10
407.6331814046
 20
349.5250854052
 11
400.2441540713
 21
349.5250853689
  0
LINE
  5
23E
100
AcDbEntity
  8
0
100
AcDbLine
 62
7
  6
CONTINUOUS
 10
400.2441539663
 20
350.4749140237
 11
407.6331814408
 21
350.4749139854
  0
LINE
  5
23F
100
AcDbEntity
  8
0
100
AcDbLine
 62
7
  6
CONTINUOUS
 10
407.8050917606
 20
350.6748822943
 11
400.0722436663
 21
350.6748822943
  0
LINE
  5
240
100
AcDbEntity
  8
0
100
AcDbLine
 62
7
  6
CONTINUOUS
 10
400.3119357214
 20
350.7047082211
 11
407.5653998918
 21
350.7047082211
  0
LINE
  5
241
100
AcDbEntity
  8
0
100
AcDbLine
 62
7
  6
CONTINUOUS
 10
407.5653996758
 20
351.0046625063
 11
400.3119357489
 21
351.0046625062
  0
LINE
  5
242
100
AcDbEntity
  8
0
100
AcDbLine
 62
7
  6
CONTINUOUS
 10
411.9201687716
 20
349.2415983782
 11
412.0681081168
 21
349.2390160874
  0
LINE
  5
243
100
AcDbEntity
  8
0
100
AcDbLine
 62
7
  6
CONTINUOUS
 10
411.4995481393
 20
361.9854893172
 11
411.3914584516
 21
361.9854403495
  0
LINE
  5
244
100
AcDbEntity
  8
0
100
AcDbLine
 62
7
  6
CONTINUOUS
 10
396.3777796018
 20
361.985463956
 11
396.4995505141
 21
361.985463956
  0
LINE
  5
245
100
AcDbEntity
  8
0
100
AcDbLine
 62
7
  6
CONTINUOUS
 10
401.3777775108
 20
363.4140550186
 11
401.4995505141
 21
363.4140550186
  0
LINE
  5
246
100
AcDbEntity
  8
0
100
AcDbLine
 62
7
  6
CONTINUOUS
 10
406.3777849128
 20
363.4140550186
 11
406.4995381377
 21
363.4140550186
  0
LINE
  5
247
100
AcDbEntity
  8
0
100
AcDbLine
 62
7
  6
CONTINUOUS
 10
395.8096493848
 20
350.4616457702
 11
395.9343940097
 21
350.4594686744
  0
LINE
  5
248
100
AcDbEntity
  8
0
100
AcDbLine
 62
7
  6
CONTINUOUS
 10
395.8092263022
 20
350.7616987321
 11
395.9624877131
 21
350.7590239517
  0
LINE
  5
249
100
AcDbEntity
  8
0
100
AcDbLine
 62
7
  6
CONTINUOUS
 10
418.5065783361
 20
329.9695764542
 11
415.8201389688
 21
330.4522544994
  0
LINE
  5
24A
100
AcDbEntity
  8
0
100
AcDbLine
 62
7
  6
CONTINUOUS
 10
389.3707570908
 20
360.4304235459
 11
392.0571964581
 21
359.9477455007
  0
LINE
  5
24B
100
AcDbEntity
  8
0
100
AcDbLine
 62
7
  6
CONTINUOUS
 10
396.0004505072
 20
350.4369696157
 11
396.1455082256
 21
350.5215448064
  0
LINE
  5
24C
100
AcDbEntity
  8
0
100
AcDbLine
 62
7
  6
CONTINUOUS
 10
409.9931391773
 20
355.7532890292
 11
409.9230941993
 21
355.7186731686
  0
LINE
  5
24D
100
AcDbEntity
  8
0
100
AcDbLine
 62
7
  6
CONTINUOUS
 10
397.8841962639
 20
344.246710956
 11
397.9542412418
 21
344.2813268165
  0
LINE
  5
24E
100
AcDbEntity
  8
0
100
AcDbLine
 62
7
  6
CONTINUOUS
 10
409.9230966516
 20
344.2813292001
 11
409.9931415024
 21
344.2467134024
  0
LINE
  5
24F
100
AcDbEntity
  8
0
100
AcDbLine
 62
7
  6
CONTINUOUS
 10
397.9542387753
 20
355.7186708
 11
397.8841939245
 21
355.7532865977
  0
LINE
  5
250
100
AcDbEntity
  8
0
100
AcDbLine
 62
7
  6
CONTINUOUS
 10
409.5619782925
 20
356.3347589504
 11
409.4292258367
 21
356.1852109581
  0
LINE
  5
251
100
AcDbEntity
  8
0
100
AcDbLine
 62
7
  6
CONTINUOUS
 10
398.3153571344
 20
343.6652410497
 11
398.4481095902
 21
343.8147890421
  0
LINE
  5
252
100
AcDbEntity
  8
0
100
AcDbLine
 62
7
  6
CONTINUOUS
 10
398.4481096784
 20
356.1852110363
 11
398.3153572248
 21
356.3347590305
  0
LINE
  5
253
100
AcDbEntity
  8
0
100
AcDbLine
 62
7
  6
CONTINUOUS
 10
409.4292257484
 20
343.8147889638
 11
409.5619782021
 21
343.6652409695
  0
LINE
  5
254
100
AcDbEntity
  8
0
100
AcDbLine
 62
7
  6
CONTINUOUS
 10
392.3973802587
 20
323.2496644431
 11
392.3177312212
 21
323.0981802083
  0
LINE
  5
255
100
AcDbEntity
  8
0
100
AcDbLine
 62
7
  6
CONTINUOUS
 10
415.4799551683
 20
367.1503355569
 11
415.5596042057
 21
367.3018197918
  0
LINE
  5
256
100
AcDbEntity
  8
0
100
AcDbLine
 62
7
  6
CONTINUOUS
 10
415.4799621127
 20
323.2496680945
 11
415.5596111981
 21
323.0981838848
  0
LINE
  5
257
100
AcDbEntity
  8
0
100
AcDbLine
 62
7
  6
CONTINUOUS
 10
392.3973719311
 20
367.1503311784
 11
392.3177228361
 21
367.301815383
  0
LINE
  5
258
100
AcDbEntity
  8
0
100
AcDbLine
 62
7
  6
CONTINUOUS
 10
408.1348426598
 20
350.0576987944
 11
408.1347664114
 21
350.0610211791
  0
LINE
  5
259
100
AcDbEntity
  8
0
100
AcDbLine
 62
7
  6
CONTINUOUS
 10
396.3777796018
 20
361.985463956
 11
396.3777796018
 21
353.5609715
  0
LINE
  5
25A
100
AcDbEntity
  8
0
100
AcDbLine
 62
7
  6
CONTINUOUS
 10
396.3777872876
 20
346.4390120771
 11
396.3777872876
 21
328.4145106829
  0
LINE
  5
25B
100
AcDbEntity
  8
0
100
AcDbLine
 62
7
  6
CONTINUOUS
 10
396.4994402614
 20
346.1914460069
 11
396.4995908136
 21
328.4214274297
  0
LINE
  5
25C
100
AcDbEntity
  8
0
100
AcDbLine
 62
7
  6
CONTINUOUS
 10
396.4995490209
 20
361.9854618475
 11
396.4995490209
 21
353.8088134285
  0
LINE
  5
25D
100
AcDbEntity
  8
0
100
AcDbLine
 62
7
  6
CONTINUOUS
 10
400.3119356113
 20
348.9953374704
 11
400.3119356113
 21
349.295291779
  0
LINE
  5
25E
100
AcDbEntity
  8
0
100
AcDbLine
 62
7
  6
CONTINUOUS
 10
400.3119357552
 20
350.7047082211
 11
400.3119357552
 21
351.0046625296
  0
LINE
  5
25F
100
AcDbEntity
  8
0
100
AcDbLine
 62
7
  6
CONTINUOUS
 10
401.3777775108
 20
363.4140550186
 11
401.3777775108
 21
360.4181594152
  0
LINE
  5
260
100
AcDbEntity
  8
0
100
AcDbLine
 62
7
  6
CONTINUOUS
 10
401.3777722509
 20
339.5818430859
 11
401.3777722509
 21
326.9859611627
  0
LINE
  5
261
100
AcDbEntity
  8
0
100
AcDbLine
 62
7
  6
CONTINUOUS
 10
401.4995509871
 20
363.4140544373
 11
401.4995509871
 21
360.4730558809
  0
LINE
  5
262
100
AcDbEntity
  8
0
100
AcDbLine
 62
7
  6
CONTINUOUS
 10
401.4995508158
 20
339.5269441769
 11
401.4995508158
 21
326.9859640159
  0
LINE
  5
263
100
AcDbEntity
  8
0
100
AcDbLine
 62
7
  6
CONTINUOUS
 10
406.3777849734
 20
326.985947574
 11
406.3777849734
 21
339.5269443357
  0
LINE
  5
264
100
AcDbEntity
  8
0
100
AcDbLine
 62
7
  6
CONTINUOUS
 10
406.3777798471
 20
360.4730577716
 11
406.3777798471
 21
363.414047107
  0
LINE
  5
265
100
AcDbEntity
  8
0
100
AcDbLine
 62
7
  6
CONTINUOUS
 10
406.4995381377
 20
360.4181687445
 11
406.4995381377
 21
363.4140550186
  0
LINE
  5
266
100
AcDbEntity
  8
0
100
AcDbLine
 62
7
  6
CONTINUOUS
 10
406.4995577757
 20
326.9859449815
 11
406.4995577757
 21
339.5818405258
  0
LINE
  5
267
100
AcDbEntity
  8
0
100
AcDbLine
 62
7
  6
CONTINUOUS
 10
407.5653998156
 20
351.0046625296
 11
407.5653998156
 21
350.7047082211
  0
LINE
  5
268
100
AcDbEntity
  8
0
100
AcDbLine
 62
7
  6
CONTINUOUS
 10
407.5653996717
 20
349.295291779
 11
407.5653996717
 21
348.9953374704
  0
LINE
  5
269
100
AcDbEntity
  8
0
100
AcDbLine
 62
7
  6
CONTINUOUS
 10
411.377786406
 20
328.4145381526
 11
411.377786406
 21
346.1911865716
  0
LINE
  5
26A
100
AcDbEntity
  8
0
100
AcDbLine
 62
7
  6
CONTINUOUS
 10
411.3781502179
 20
353.808105253
 11
411.3781502179
 21
361.9699987966
  0
LINE
  5
26B
100
AcDbEntity
  8
0
100
AcDbLine
 62
7
  6
CONTINUOUS
 10
411.4995481393
 20
353.560987923
 11
411.4995481393
 21
361.9854893172
  0
LINE
  5
26C
100
AcDbEntity
  8
0
100
AcDbLine
 62
7
  6
CONTINUOUS
 10
411.4995558251
 20
328.414536044
 11
411.4995558251
 21
346.4390285001
  0
LINE
  5
26D
100
AcDbEntity
  8
0
100
AcDbLine
 62
7
  6
CONTINUOUS
 10
448.5087413352
 20
547.0000000001
 11
444.7651561854
 21
546.2755646935
  0
LINE
  5
26E
100
AcDbEntity
  8
0
100
AcDbLine
 62
7
  6
CONTINUOUS
 10
444.191579749
 20
546.2755646936
 11
447.9351648988
 21
547.0000000001
  0
LINE
  5
26F
100
AcDbEntity
  8
0
100
AcDbLine
 62
7
  6
CONTINUOUS
 10
67.1121792415
 20
546.2755646936
 11
63.3685940918
 21
547.0000000001
  0
LINE
  5
270
100
AcDbEntity
  8
0
100
AcDbLine
 62
7
  6
CONTINUOUS
 10
63.9421705281
 20
547.0000000001
 11
67.6857556779
 21
546.2755646935
  0
LINE
  5
271
100
AcDbEntity
  8
0
100
AcDbLine
 62
7
  6
CONTINUOUS
 10
442.929711589
 20
544.8
 11
442.929711589
 21
155.2
  0
LINE
  5
272
100
AcDbEntity
  8
0
100
AcDbLine
 62
7
  6
CONTINUOUS
 10
444.1438209441
 20
153.9381318411
 11
444.1438209441
 21
153.3645554037
  0
LINE
  5
273
100
AcDbEntity
  8
0
100
AcDbLine
 62
7
  6
CONTINUOUS
 10
444.1438209442
 20
546.0618681588
 11
444.1438209441
 21
546.6354445963
  0
LINE
  5
274
100
AcDbEntity
  8
0
100
AcDbLine
 62
7
  6
CONTINUOUS
 10
444.7651561854
 20
153.7244353065
 11
444.7651561854
 21
546.2755646935
  0
LINE
  5
275
100
AcDbEntity
  8
0
100
AcDbLine
 62
7
  6
CONTINUOUS
 10
446.7652945394
 20
152.0000000015
 11
446.7652945394
 21
153.0000000024
  0
LINE
  5
276
100
AcDbEntity
  8
0
100
AcDbLine
 62
7
  6
CONTINUOUS
 10
446.7652945394
 20
547.0
 11
446.7652945394
 21
547.9999999985
  0
LINE
  5
277
100
AcDbEntity
  8
0
100
AcDbLine
 62
7
  6
CONTINUOUS
 10
452.0005358735
 20
548.0
 11
452.0005358735
 21
547.0000000001
  0
LINE
  5
278
100
AcDbEntity
  8
0
100
AcDbLine
 62
7
  6
CONTINUOUS
 10
452.0005358735
 20
153.0
 11
452.0005358734
 21
152.0
  0
LINE
  5
279
100
AcDbEntity
  8
0
100
AcDbLine
 62
7
  6
CONTINUOUS
 10
452.5741123097
 20
547.0
 11
452.5741123098
 21
153.0
  0
LINE
  5
27A
100
AcDbEntity
  8
0
100
AcDbLine
 62
7
  6
CONTINUOUS
 10
452.9386677134
 20
152.0
 11
452.9386677134
 21
153.0
  0
LINE
  5
27B
100
AcDbEntity
  8
0
100
AcDbLine
 62
7
  6
CONTINUOUS
 10
452.9386677134
 20
547.0
 11
452.9386677134
 21
548.0
  0
LINE
  5
27C
100
AcDbEntity
  8
0
100
AcDbLine
 62
7
  6
CONTINUOUS
 10
453.2641239987
 20
547.8
 11
453.2641239987
 21
547.5070803261
  0
LINE
  5
27D
100
AcDbEntity
  8
0
100
AcDbLine
 62
7
  6
CONTINUOUS
 10
453.2641239986
 20
152.4928667576
 11
453.2641239986
 21
152.2
  0
LINE
  5
27E
100
AcDbEntity
  8
0
100
AcDbLine
 62
7
  6
CONTINUOUS
 10
453.9386677134
 20
153.0
 11
453.9386677134
 21
547.0
  0
LINE
  5
27F
100
AcDbEntity
  8
0
100
AcDbLine
 62
7
  6
CONTINUOUS
 10
455.4641239986
 20
150.0000000075
 11
455.4641239986
 21
549.9999999926
  0
LINE
  5
280
100
AcDbEntity
  8
0
100
AcDbLine
 62
7
  6
CONTINUOUS
 10
68.9476238378
 20
544.8
 11
442.929711589
 21
544.8
  0
LINE
  5
281
100
AcDbEntity
  8
0
100
AcDbLine
 62
7
  6
CONTINUOUS
 10
67.6857556778
 20
546.2755646936
 11
67.1121792416
 21
546.2755646936
  0
LINE
  5
282
100
AcDbEntity
  8
0
100
AcDbLine
 62
7
  6
CONTINUOUS
 10
444.1915797489
 20
546.2755646936
 11
444.7651561853
 21
546.2755646936
  0
LINE
  5
283
100
AcDbEntity
  8
0
100
AcDbLine
 62
7
  6
CONTINUOUS
 10
57.9386677134
 20
547.0
 11
65.1120408875
 21
547.0
  0
LINE
  5
284
100
AcDbEntity
  8
0
100
AcDbLine
 62
7
  6
CONTINUOUS
 10
446.7652945394
 20
547.0
 11
453.9386677134
 21
547.0
  0
LINE
  5
285
100
AcDbEntity
  8
0
100
AcDbLine
 62
7
  6
CONTINUOUS
 10
58.9386677134
 20
548.0
 11
452.9386677134
 21
548.0
  0
LINE
  5
286
100
AcDbEntity
  8
0
100
AcDbLine
 62
7
  6
CONTINUOUS
 10
455.4641239986
 20
550.0
 11
55.4641239986
 21
550.0
  0
ARC
  5
287
100
AcDbEntity
  8
0
100
AcDbCircle
 62
7
  6
CONTINUOUS
 10
-3.596634602
 20
192.5981958413
 40
73.6788275285
100
AcDbArc
 50
327.2059269869
 51
327.4810685755
  0
ARC
  5
288
100
AcDbEntity
  8
0
100
AcDbCircle
 62
7
  6
CONTINUOUS
 10
78.8139447025
 20
106.3812977809
 40
50.9693921942
100
AcDbArc
 50
113.8198386526
 51
114.1630475365
  0
ARC
  5
289
100
AcDbEntity
  8
0
100
AcDbCircle
 62
7
  6
CONTINUOUS
 10
23.0371262949
 20
175.445127112
 40
41.9994190756
100
AcDbArc
 50
326.8485908156
 51
327.1975328522
  0
ARC
  5
28A
100
AcDbEntity
  8
0
100
AcDbCircle
 62
7
  6
CONTINUOUS
 10
31.1798990197
 20
178.3398519956
 40
37.2468749437
100
AcDbArc
 50
316.5347835092
 51
317.1020028792
  0
ARC
  5
28B
100
AcDbEntity
  8
0
100
AcDbCircle
 62
7
  6
CONTINUOUS
 10
70.7677939252
 20
133.6061181853
 40
23.0280747408
100
AcDbArc
 50
122.9172124965
 51
123.5561404569
  0
ARC
  5
28C
100
AcDbEntity
  8
0
100
AcDbCircle
 62
7
  6
CONTINUOUS
 10
57.1492604336
 20
161.3144089303
 40
13.2378184832
100
AcDbArc
 50
324.2105043797
 51
325.0882798547
  0
ARC
  5
28D
100
AcDbEntity
  8
0
100
AcDbCircle
 62
7
  6
CONTINUOUS
 10
59.0893129738
 20
159.912686594
 40
10.8443645186
100
AcDbArc
 50
322.855445606
 51
324.2235886306
  0
ARC
  5
28E
100
AcDbEntity
  8
0
100
AcDbCircle
 62
7
  6
CONTINUOUS
 10
64.0966769594
 20
159.1621026845
 40
6.3584780333
100
AcDbArc
 50
295.7566007621
 51
299.1910074771
  0
ARC
  5
28F
100
AcDbEntity
  8
0
100
AcDbCircle
 62
7
  6
CONTINUOUS
 10
55.1687685117
 20
153.8000123067
 40
2.8514325534
100
AcDbArc
 50
293.9510535792
 51
297.1396153047
  0
ARC
  5
290
100
AcDbEntity
  8
0
100
AcDbCircle
 62
7
  6
CONTINUOUS
 10
-3.5934481742
 20
507.4038305596
 40
73.6750513199
100
AcDbArc
 50
32.5189407103
 51
32.7941113998
  0
ARC
  5
291
100
AcDbEntity
  8
0
100
AcDbCircle
 62
7
  6
CONTINUOUS
 10
78.8136127752
 20
593.6179721163
 40
50.96859026
100
AcDbArc
 50
245.8369752946
 51
246.1801472053
  0
ARC
  5
292
100
AcDbEntity
  8
0
100
AcDbCircle
 62
7
  6
CONTINUOUS
 10
23.0368919726
 20
524.554715602
 40
41.9997011629
100
AcDbArc
 50
32.8025111087
 51
33.1513919937
  0
ARC
  5
293
100
AcDbEntity
  8
0
100
AcDbCircle
 62
7
  6
CONTINUOUS
 10
31.7974548841
 20
522.2379353203
 40
36.4011771475
100
AcDbArc
 50
42.8934113965
 51
43.5068197117
  0
ARC
  5
294
100
AcDbEntity
  8
0
100
AcDbCircle
 62
7
  6
CONTINUOUS
 10
70.7673523774
 20
566.3932096015
 40
23.0272704193
100
AcDbArc
 50
236.4438243226
 51
237.0826723979
  0
ARC
  5
295
100
AcDbEntity
  8
0
100
AcDbCircle
 62
7
  6
CONTINUOUS
 10
77.1770910823
 20
557.3648139902
 40
14.9770100962
100
AcDbArc
 50
229.4091689748
 51
230.0920558045
  0
ARC
  5
296
100
AcDbEntity
  8
0
100
AcDbCircle
 62
7
  6
CONTINUOUS
 10
75.1601199107
 20
555.0259615404
 40
11.8885993285
100
AcDbArc
 50
227.3945428467
 51
229.4566770736
  0
ARC
  5
297
100
AcDbEntity
  8
0
100
AcDbCircle
 62
7
  6
CONTINUOUS
 10
64.0966769596
 20
540.8378973174
 40
6.3584780315
100
AcDbArc
 50
60.8089925166
 51
64.2433992321
  0
ARC
  5
298
100
AcDbEntity
  8
0
100
AcDbCircle
 62
7
  6
CONTINUOUS
 10
55.1688646091
 20
546.2001789752
 40
2.8512187305
100
AcDbArc
 50
62.8604030992
 51
66.0509946196
  0
ARC
  5
299
100
AcDbEntity
  8
0
100
AcDbCircle
 62
7
  6
CONTINUOUS
 10
333.7386677134
 20
345.2
 40
86.2
100
AcDbArc
 50
346.8037711107
 51
13.1962289678
  0
ARC
  5
29A
100
AcDbEntity
  8
0
100
AcDbCircle
 62
7
  6
CONTINUOUS
 10
333.7386677134
 20
345.2
 40
86.1252835857
100
AcDbArc
 50
349.8142205679
 51
10.1857804359
  0
ARC
  5
29B
100
AcDbEntity
  8
0
100
AcDbCircle
 62
7
  6
CONTINUOUS
 10
400.3084507286
 20
321.6046154781
 40
27.6906765202
100
AcDbArc
 50
89.9927894609
 51
90.5426055642
  0
ARC
  5
29C
100
AcDbEntity
  8
0
100
AcDbCircle
 62
7
  6
CONTINUOUS
 10
388.2578782028
 20
338.6060480224
 40
13.535176196
100
AcDbArc
 50
54.0997246581
 51
54.7712346231
  0
ARC
  5
29D
100
AcDbEntity
  8
0
100
AcDbCircle
 62
7
  6
CONTINUOUS
 10
398.4110638797
 20
341.4288321645
 40
12.2718818922
100
AcDbArc
 50
39.8599909784
 51
40.0492142176
  0
ARC
  5
29E
100
AcDbEntity
  8
0
100
AcDbCircle
 62
7
  6
CONTINUOUS
 10
398.8329396249
 20
341.7858024451
 40
11.7192486341
100
AcDbArc
 50
40.040394824
 51
41.3296895649
  0
ARC
  5
29F
100
AcDbEntity
  8
0
100
AcDbCircle
 62
7
  6
CONTINUOUS
 10
391.2571739814
 20
338.5792442759
 40
8.1662723814
100
AcDbArc
 50
275.622095134
 51
276.3708692219
  0
ARC
  5
2A0
100
AcDbEntity
  8
0
100
AcDbCircle
 62
7
  6
CONTINUOUS
 10
402.9787132853
 20
349.528087852
 40
7.2879773031
100
AcDbArc
 50
205.0784718904
 51
207.2476576291
  0
ARC
  5
2A1
100
AcDbEntity
  8
0
100
AcDbCircle
 62
7
  6
CONTINUOUS
 10
403.1473205552
 20
343.3445827318
 40
4.1580657575
100
AcDbArc
 50
244.8132481573
 51
246.6539954404
  0
ARC
  5
2A2
100
AcDbEntity
  8
0
100
AcDbCircle
 62
7
  6
CONTINUOUS
 10
400.8404619423
 20
330.6807672922
 40
3.7531251557
100
AcDbArc
 50
279.1492929902
 51
280.1141758643
  0
ARC
  5
2A3
100
AcDbEntity
  8
0
100
AcDbCircle
 62
7
  6
CONTINUOUS
 10
402.0374521825
 20
330.5227118937
 40
3.5977407488
100
AcDbArc
 50
259.4350757239
 51
260.3963746382
  0
ARC
  5
2A4
100
AcDbEntity
  8
0
100
AcDbCircle
 62
7
  6
CONTINUOUS
 10
399.6506067817
 20
328.6461117797
 40
3.1932021369
100
AcDbArc
 50
199.3122927131
 51
211.7344452257
  0
ARC
  5
2A5
100
AcDbEntity
  8
0
100
AcDbCircle
 62
7
  6
CONTINUOUS
 10
391.3690998794
 20
330.0084132805
 40
2.3710011347
100
AcDbArc
 50
310.6724672947
 51
312.5195550237
  0
ARC
  5
2A6
100
AcDbEntity
  8
0
100
AcDbCircle
 62
7
  6
CONTINUOUS
 10
403.9386593258
 20
327.5098933533
 40
0.8697392526
100
AcDbArc
 50
267.638237965
 51
272.388621253
  0
ARC
  5
2A7
100
AcDbEntity
  8
0
100
AcDbCircle
 62
7
  6
CONTINUOUS
 10
403.9328851442
 20
327.4940617432
 40
0.8695688093
100
AcDbArc
 50
22.7430344565
 51
40.3313469139
  0
ARC
  5
2A8
100
AcDbEntity
  8
0
100
AcDbCircle
 62
7
  6
CONTINUOUS
 10
403.9329028061
 20
327.5059013361
 40
0.8695329786
100
AcDbArc
 50
319.6037917007
 51
337.2099809647
  0
ARC
  5
2A9
100
AcDbEntity
  8
0
100
AcDbCircle
 62
7
  6
CONTINUOUS
 10
403.9370295449
 20
327.5083075172
 40
0.8685439143
100
AcDbArc
 50
287.6773677532
 51
306.3311026769
  0
ARC
  5
2AA
100
AcDbEntity
  8
0
100
AcDbCircle
 62
7
  6
CONTINUOUS
 10
403.9370825028
 20
327.4918428901
 40
0.8683905219
100
AcDbArc
 50
53.6058732482
 51
72.1995439584
  0
ARC
  5
2AB
100
AcDbEntity
  8
0
100
AcDbCircle
 62
7
  6
CONTINUOUS
 10
403.9383527937
 20
327.4931042215
 40
0.8668016342
100
AcDbArc
 50
72.2540029841
 51
81.5467603012
  0
ARC
  5
2AC
100
AcDbEntity
  8
0
100
AcDbCircle
 62
7
  6
CONTINUOUS
 10
403.9383503769
 20
327.5068400062
 40
0.8667449985
100
AcDbArc
 50
278.5154364601
 51
287.6236350163
  0
ARC
  5
2AD
100
AcDbEntity
  8
0
100
AcDbCircle
 62
7
  6
CONTINUOUS
 10
403.9384624396
 20
327.4943391193
 40
0.8655015535
100
AcDbArc
 50
92.3861666974
 51
98.4927797327
  0
ARC
  5
2AE
100
AcDbEntity
  8
0
100
AcDbCircle
 62
7
  6
CONTINUOUS
 10
403.9384481413
 20
327.5056585634
 40
0.8654993579
100
AcDbArc
 50
261.5697191384
 51
267.6406538775
  0
ARC
  5
2AF
100
AcDbEntity
  8
0
100
AcDbCircle
 62
7
  6
CONTINUOUS
 10
403.9362757308
 20
327.5001803724
 40
0.8596111608
100
AcDbArc
 50
220.3914219775
 51
233.503798684
  0
ARC
  5
2B0
100
AcDbEntity
  8
0
100
AcDbCircle
 62
7
  6
CONTINUOUS
 10
403.936190826
 20
327.4998890713
 40
0.859504101
100
AcDbArc
 50
126.433825108
 51
139.541703856
  0
ARC
  5
2B1
100
AcDbEntity
  8
0
100
AcDbCircle
 62
7
  6
CONTINUOUS
 10
398.281813464
 20
344.3431457506
 40
0.669841539
100
AcDbArc
 50
296.0648708312
 51
317.9015033441
  0
ARC
  5
2B2
100
AcDbEntity
  8
0
100
AcDbCircle
 62
7
  6
CONTINUOUS
 10
398.281813464
 20
344.3431457506
 40
0.6
100
AcDbArc
 50
298.9548435441
 51
320.1286703227
  0
ARC
  5
2B3
100
AcDbEntity
  8
0
100
AcDbCircle
 62
7
  6
CONTINUOUS
 10
398.281813464
 20
344.3431457506
 40
0.6
100
AcDbArc
 50
147.7625855045
 51
180.0
  0
ARC
  5
2B4
100
AcDbEntity
  8
0
100
AcDbCircle
 62
7
  6
CONTINUOUS
 10
396.1005314497
 20
349.5684103435
 40
0.1002249926
100
AcDbArc
 50
110.4322413642
 51
182.819885732
  0
ARC
  5
2B5
100
AcDbEntity
  8
0
100
AcDbCircle
 62
7
  6
CONTINUOUS
 10
440.3291108203
 20
124.6846546318
 40
30.9071189708
100
AcDbArc
 50
65.0525576465
 51
65.9346493148
  0
ARC
  5
2B6
100
AcDbEntity
  8
0
100
AcDbCircle
 62
7
  6
CONTINUOUS
 10
470.3854168624
 20
163.9032485134
 40
21.0309597555
100
AcDbArc
 50
213.8100138275
 51
214.5047689281
  0
ARC
  5
2B7
100
AcDbEntity
  8
0
100
AcDbCircle
 62
7
  6
CONTINUOUS
 10
445.7689342982
 20
136.3652335011
 40
18.0219511642
100
AcDbArc
 50
63.5245466278
 51
65.0701961518
  0
ARC
  5
2B8
100
AcDbEntity
  8
0
100
AcDbCircle
 62
7
  6
CONTINUOUS
 10
434.7002444034
 20
142.6351860787
 40
14.9770100058
100
AcDbArc
 50
49.4091689743
 51
50.0920558077
  0
ARC
  5
2B9
100
AcDbEntity
  8
0
100
AcDbCircle
 62
7
  6
CONTINUOUS
 10
462.6273550556
 20
161.9539363132
 40
13.5475470125
100
AcDbArc
 50
224.3220227138
 51
225.9896922175
  0
ARC
  5
2BA
100
AcDbEntity
  8
0
100
AcDbCircle
 62
7
  6
CONTINUOUS
 10
436.7172155243
 20
144.9740384697
 40
11.8885993156
100
AcDbArc
 50
47.394542843
 51
49.4566770721
  0
ARC
  5
2BB
100
AcDbEntity
  8
0
100
AcDbCircle
 62
7
  6
CONTINUOUS
 10
448.8455155198
 20
146.3158216611
 40
7.6321881652
100
AcDbArc
 50
52.0730289021
 51
53.8189923489
  0
ARC
  5
2BC
100
AcDbEntity
  8
0
100
AcDbCircle
 62
7
  6
CONTINUOUS
 10
447.7806584679
 20
159.1621026832
 40
6.3584780323
100
AcDbArc
 50
240.8089925141
 51
244.2433992298
  0
ARC
  5
2BD
100
AcDbEntity
  8
0
100
AcDbCircle
 62
7
  6
CONTINUOUS
 10
455.7593833883
 20
153.7998210251
 40
2.8512187308
100
AcDbArc
 50
242.8604030987
 51
246.0509946184
  0
ARC
  5
2BE
100
AcDbEntity
  8
0
100
AcDbCircle
 62
7
  6
CONTINUOUS
 10
407.5785845114
 20
323.6806632036
 40
25.6146319687
100
AcDbArc
 50
89.4351132361
 51
90.0294922748
  0
ARC
  5
2BF
100
AcDbEntity
  8
0
100
AcDbCircle
 62
7
  6
CONTINUOUS
 10
412.0380823462
 20
332.619723059
 40
4.256712272
100
AcDbArc
 50
261.0761983349
 51
261.9640919496
  0
ARC
  5
2C0
100
AcDbEntity
  8
0
100
AcDbCircle
 62
7
  6
CONTINUOUS
 10
407.0393496292
 20
330.7003218177
 40
3.7728271216
100
AcDbArc
 50
259.90099406
 51
260.8610544406
  0
ARC
  5
2C1
100
AcDbEntity
  8
0
100
AcDbCircle
 62
7
  6
CONTINUOUS
 10
410.8407783009
 20
332.0668944849
 40
3.7112756206
100
AcDbArc
 50
279.3388963449
 51
280.2228668141
  0
ARC
  5
2C2
100
AcDbEntity
  8
0
100
AcDbCircle
 62
7
  6
CONTINUOUS
 10
405.8401300764
 20
330.5235015154
 40
3.5984858161
100
AcDbArc
 50
279.5978919338
 51
280.5585462014
  0
ARC
  5
2C3
100
AcDbEntity
  8
0
100
AcDbCircle
 62
7
  6
CONTINUOUS
 10
416.4985049297
 20
330.0006700328
 40
2.3587171261
100
AcDbArc
 50
227.5275399003
 51
229.3839918536
  0
ARC
  5
2C4
100
AcDbEntity
  8
0
100
AcDbCircle
 62
7
  6
CONTINUOUS
 10
403.9386761011
 20
327.4901066468
 40
0.8697392525
100
AcDbArc
 50
87.6382379649
 51
92.3886212531
  0
ARC
  5
2C5
100
AcDbEntity
  8
0
100
AcDbCircle
 62
7
  6
CONTINUOUS
 10
403.9444502827
 20
327.5059382569
 40
0.8695688093
100
AcDbArc
 50
202.7430344566
 51
220.3313469136
  0
ARC
  5
2C6
100
AcDbEntity
  8
0
100
AcDbCircle
 62
7
  6
CONTINUOUS
 10
403.9444326208
 20
327.494098664
 40
0.8695329786
100
AcDbArc
 50
139.6037917009
 51
157.2099809647
  0
ARC
  5
2C7
100
AcDbEntity
  8
0
100
AcDbCircle
 62
7
  6
CONTINUOUS
 10
403.940305882
 20
327.4916924829
 40
0.8685439143
100
AcDbArc
 50
107.6773677532
 51
126.331102677
  0
ARC
  5
2C8
100
AcDbEntity
  8
0
100
AcDbCircle
 62
7
  6
CONTINUOUS
 10
403.9402529241
 20
327.50815711
 40
0.8683905219
100
AcDbArc
 50
233.605873248
 51
252.1995439585
  0
ARC
  5
2C9
100
AcDbEntity
  8
0
100
AcDbCircle
 62
7
  6
CONTINUOUS
 10
403.9389826332
 20
327.5068957786
 40
0.8668016342
100
AcDbArc
 50
252.2540029841
 51
261.5467603011
  0
ARC
  5
2CA
100
AcDbEntity
  8
0
100
AcDbCircle
 62
7
  6
CONTINUOUS
 10
403.93898505
 20
327.4931599939
 40
0.8667449985
100
AcDbArc
 50
98.5154364602
 51
107.6236350163
  0
ARC
  5
2CB
100
AcDbEntity
  8
0
100
AcDbCircle
 62
7
  6
CONTINUOUS
 10
403.9388729873
 20
327.5056608808
 40
0.8655015534
100
AcDbArc
 50
272.3861666974
 51
278.4927797327
  0
ARC
  5
2CC
100
AcDbEntity
  8
0
100
AcDbCircle
 62
7
  6
CONTINUOUS
 10
403.9388872856
 20
327.4943414367
 40
0.8654993579
100
AcDbArc
 50
81.5697191385
 51
87.6406538775
  0
ARC
  5
2CD
100
AcDbEntity
  8
0
100
AcDbCircle
 62
7
  6
CONTINUOUS
 10
403.9410596961
 20
327.4998196277
 40
0.8596111608
100
AcDbArc
 50
40.3914219778
 51
53.5037986843
  0
ARC
  5
2CE
100
AcDbEntity
  8
0
100
AcDbCircle
 62
7
  6
CONTINUOUS
 10
403.9411446009
 20
327.5001109288
 40
0.859504101
100
AcDbArc
 50
306.4338251079
 51
319.5417038558
  0
ARC
  5
2CF
100
AcDbEntity
  8
0
100
AcDbCircle
 62
7
  6
CONTINUOUS
 10
403.9386677134
 20
345.2
 40
25.0
100
AcDbArc
 50
60.04217442
 51
119.957824462
  0
ARC
  5
2D0
100
AcDbEntity
  8
0
100
AcDbCircle
 62
7
  6
CONTINUOUS
 10
403.9386677134
 20
345.2
 40
25.0
100
AcDbArc
 50
240.0421755268
 51
299.9578252661
  0
ARC
  5
2D1
100
AcDbEntity
  8
0
100
AcDbCircle
 62
7
  6
CONTINUOUS
 10
403.9386677134
 20
345.2
 40
24.970714909
100
AcDbArc
 50
242.2650283306
 51
297.7349947858
  0
ARC
  5
2D2
100
AcDbEntity
  8
0
100
AcDbCircle
 62
7
  6
CONTINUOUS
 10
403.9386677134
 20
345.2
 40
24.970714909
100
AcDbArc
 50
62.265028332
 51
117.7349983784
  0
ARC
  5
2D3
100
AcDbEntity
  8
0
100
AcDbCircle
 62
7
  6
CONTINUOUS
 10
403.9386677134
 20
345.2
 40
24.7995674796
100
AcDbArc
 50
242.2650274981
 51
297.7349923928
  0
ARC
  5
2D4
100
AcDbEntity
  8
0
100
AcDbCircle
 62
7
  6
CONTINUOUS
 10
403.9386677134
 20
345.2
 40
24.7995674796
100
AcDbArc
 50
62.2650274978
 51
117.7349956404
  0
ARC
  5
2D5
100
AcDbEntity
  8
0
100
AcDbCircle
 62
7
  6
CONTINUOUS
 10
409.466273267
 20
341.4288304804
 40
12.2718842924
100
AcDbArc
 50
139.95078493
 51
140.1400081369
  0
ARC
  5
2D6
100
AcDbEntity
  8
0
100
AcDbCircle
 62
7
  6
CONTINUOUS
 10
408.9860173261
 20
341.8359893611
 40
11.6422680017
100
AcDbArc
 50
138.666047794
 51
139.9638679307
  0
ARC
  5
2D7
100
AcDbEntity
  8
0
100
AcDbCircle
 62
7
  6
CONTINUOUS
 10
403.9547122756
 20
349.9652820557
 40
8.3876213892
100
AcDbArc
 50
136.363890452
 51
152.7264980583
  0
ARC
  5
2D8
100
AcDbEntity
  8
0
100
AcDbCircle
 62
7
  6
CONTINUOUS
 10
416.6203873024
 20
338.5774880734
 40
8.1645488627
100
AcDbArc
 50
263.6243090004
 51
264.3751826233
  0
ARC
  5
2D9
100
AcDbEntity
  8
0
100
AcDbCircle
 62
7
  6
CONTINUOUS
 10
404.9101658991
 20
349.522681191
 40
7.2752301348
100
AcDbArc
 50
332.7468132688
 51
334.9217027112
  0
ARC
  5
2DA
100
AcDbEntity
  8
0
100
AcDbCircle
 62
7
  6
CONTINUOUS
 10
403.9386677106
 20
345.1800732397
 40
6.1569158917
100
AcDbArc
 50
246.6615820411
 51
293.3384216894
  0
ARC
  5
2DB
100
AcDbEntity
  8
0
100
AcDbCircle
 62
7
  6
CONTINUOUS
 10
403.9386677134
 20
345.1
 40
6.0034300864
100
AcDbArc
 50
188.8694224876
 51
351.1305662768
  0
ARC
  5
2DC
100
AcDbEntity
  8
0
100
AcDbCircle
 62
7
  6
CONTINUOUS
 10
403.9386677134
 20
345.1
 40
5.8034605474
100
AcDbArc
 50
194.3133473955
 51
345.6866527902
  0
ARC
  5
2DD
100
AcDbEntity
  8
0
100
AcDbCircle
 62
7
  6
CONTINUOUS
 10
404.7300521823
 20
343.3445132439
 40
4.1579870164
100
AcDbArc
 50
293.3459129055
 51
295.1866117359
  0
ARC
  5
2DE
100
AcDbEntity
  8
0
100
AcDbCircle
 62
7
  6
CONTINUOUS
 10
409.5955219629
 20
344.3431457506
 40
0.669841539
100
AcDbArc
 50
36.4664954971
 51
53.0483196144
  0
ARC
  5
2DF
100
AcDbEntity
  8
0
100
AcDbCircle
 62
7
  6
CONTINUOUS
 10
409.5955219629
 20
344.3431457506
 40
0.669841539
100
AcDbArc
 50
222.1481180786
 51
243.8612155855
  0
ARC
  5
2E0
100
AcDbEntity
  8
0
100
AcDbCircle
 62
7
  6
CONTINUOUS
 10
409.5955219629
 20
344.3431457506
 40
0.6
100
AcDbArc
 50
0.0
 51
32.4777741331
  0
ARC
  5
2E1
100
AcDbEntity
  8
0
100
AcDbCircle
 62
7
  6
CONTINUOUS
 10
409.5955219629
 20
344.3431457506
 40
0.6
100
AcDbArc
 50
219.8979451886
 51
240.909607148
  0
ARC
  5
2E2
100
AcDbEntity
  8
0
100
AcDbCircle
 62
7
  6
CONTINUOUS
 10
474.1386677134
 20
345.2
 40
86.2
100
AcDbArc
 50
166.8037711107
 51
193.1962289678
  0
ARC
  5
2E3
100
AcDbEntity
  8
0
100
AcDbCircle
 62
7
  6
CONTINUOUS
 10
474.1386677134
 20
345.2
 40
86.1252835857
100
AcDbArc
 50
169.8142205679
 51
190.1857804359
  0
ARC
  5
2E4
100
AcDbEntity
  8
0
100
AcDbCircle
 62
7
  6
CONTINUOUS
 10
386.8737218606
 20
363.3279826373
 40
15.9134529475
100
AcDbArc
 50
305.2828903158
 51
305.8539915227
  0
ARC
  5
2E5
100
AcDbEntity
  8
0
100
AcDbCircle
 62
7
  6
CONTINUOUS
 10
398.4110643272
 20
358.5711674195
 40
12.271881282
100
AcDbArc
 50
319.9507859253
 51
320.1400091735
  0
ARC
  5
2E6
100
AcDbEntity
  8
0
100
AcDbCircle
 62
7
  6
CONTINUOUS
 10
398.8909208697
 20
358.1643524842
 40
11.6427920362
100
AcDbArc
 50
318.6660756593
 51
319.9638374053
  0
ARC
  5
2E7
100
AcDbEntity
  8
0
100
AcDbCircle
 62
7
  6
CONTINUOUS
 10
391.2569481259
 20
351.8225120038
 40
8.1645487908
100
AcDbArc
 50
83.6243089503
 51
84.3751825798
  0
ARC
  5
2E8
100
AcDbEntity
  8
0
100
AcDbCircle
 62
7
  6
CONTINUOUS
 10
395.8392530854
 20
357.7802769709
 40
4.2567122419
100
AcDbArc
 50
81.0761983355
 51
81.9640919567
  0
ARC
  5
2E9
100
AcDbEntity
  8
0
100
AcDbCircle
 62
7
  6
CONTINUOUS
 10
400.8417875551
 20
359.7103059189
 40
3.76170271
100
AcDbArc
 50
79.9296325324
 51
80.8922377572
  0
ARC
  5
2EA
100
AcDbEntity
  8
0
100
AcDbCircle
 62
7
  6
CONTINUOUS
 10
397.0365571225
 20
358.3331055315
 40
3.711275604
100
AcDbArc
 50
99.3388963324
 51
100.2228668061
  0
ARC
  5
2EB
100
AcDbEntity
  8
0
100
AcDbCircle
 62
7
  6
CONTINUOUS
 10
391.3788304925
 20
360.399329962
 40
2.3587171332
100
AcDbArc
 50
47.5275399029
 51
49.3839918507
  0
CIRCLE
  5
2EC
100
AcDbEntity
  8
0
100
AcDbCircle
 62
7
  6
CONTINUOUS
 10
397.9386677134
 20
350.0
 40
1.093136683
  0
CIRCLE
  5
2ED
100
AcDbEntity
  8
0
100
AcDbCircle
 62
7
  6
CONTINUOUS
 10
397.9386677134
 20
350.0
 40
0.8932595882
  0
CIRCLE
  5
2EE
100
AcDbEntity
  8
0
100
AcDbCircle
 62
7
  6
CONTINUOUS
 10
397.9386677134
 20
350.0
 40
0.8335286649
  0
CIRCLE
  5
2EF
100
AcDbEntity
  8
0
100
AcDbCircle
 62
7
  6
CONTINUOUS
 10
397.9386677134
 20
350.0
 40
0.7335887608
  0
ARC
  5
2F0
100
AcDbEntity
  8
0
100
AcDbCircle
 62
7
  6
CONTINUOUS
 10
398.281813464
 20
355.6568542495
 40
0.669841539
100
AcDbArc
 50
216.4664954971
 51
233.0483196144
  0
ARC
  5
2F1
100
AcDbEntity
  8
0
100
AcDbCircle
 62
7
  6
CONTINUOUS
 10
398.281813464
 20
355.6568542495
 40
0.669841539
100
AcDbArc
 50
42.1481180786
 51
63.8612155855
  0
ARC
  5
2F2
100
AcDbEntity
  8
0
100
AcDbCircle
 62
7
  6
CONTINUOUS
 10
398.281813464
 20
355.6568542495
 40
0.6
100
AcDbArc
 50
39.8979451886
 51
60.909607148
  0
ARC
  5
2F3
100
AcDbEntity
  8
0
100
AcDbCircle
 62
7
  6
CONTINUOUS
 10
398.281813464
 20
355.6568542495
 40
0.6
100
AcDbArc
 50
180.0
 51
212.4777741331
  0
ARC
  5
2F4
100
AcDbEntity
  8
0
100
AcDbCircle
 62
7
  6
CONTINUOUS
 10
395.9386677134
 20
350.0
 40
0.5
100
AcDbArc
 50
300.7630838589
 51
59.2376768241
  0
ARC
  5
2F5
100
AcDbEntity
  8
0
100
AcDbCircle
 62
7
  6
CONTINUOUS
 10
396.1005315612
 20
350.4315936068
 40
0.1002253402
100
AcDbArc
 50
176.925223507
 51
249.5740187448
  0
ARC
  5
2F6
100
AcDbEntity
  8
0
100
AcDbCircle
 62
7
  6
CONTINUOUS
 10
400.2987509093
 20
376.3193358899
 40
25.6146310622
100
AcDbArc
 50
269.4351132303
 51
270.0294922896
  0
ARC
  5
2F7
100
AcDbEntity
  8
0
100
AcDbCircle
 62
7
  6
CONTINUOUS
 10
403.9002967588
 20
350.0000000531
 40
8.3922720109
100
AcDbArc
 50
334.8924669597
 51
25.1076567052
  0
ARC
  5
2F8
100
AcDbEntity
  8
0
100
AcDbCircle
 62
7
  6
CONTINUOUS
 10
403.9223732149
 20
350.0348959249
 40
8.3879250976
100
AcDbArc
 50
316.3641887083
 51
332.7261998028
  0
ARC
  5
2F9
100
AcDbEntity
  8
0
100
AcDbCircle
 62
7
  6
CONTINUOUS
 10
402.9671695212
 20
350.4773188123
 40
7.2752301275
100
AcDbArc
 50
152.7468132678
 51
154.9217027124
  0
ARC
  5
2FA
100
AcDbEntity
  8
0
100
AcDbCircle
 62
7
  6
CONTINUOUS
 10
403.9386677134
 20
350.0
 40
8.470583972
100
AcDbArc
 50
228.4048143252
 51
311.5951858268
  0
ARC
  5
2FB
100
AcDbEntity
  8
0
100
AcDbCircle
 62
7
  6
CONTINUOUS
 10
403.9386677134
 20
350.0
 40
8.470583972
100
AcDbArc
 50
48.4048142945
 51
131.5951858268
  0
ARC
  5
2FC
100
AcDbEntity
  8
0
100
AcDbCircle
 62
7
  6
CONTINUOUS
 10
403.977162638
 20
349.9999999469
 40
8.3923060691
100
AcDbArc
 50
154.8928260882
 51
205.1072975768
  0
ARC
  5
2FD
100
AcDbEntity
  8
0
100
AcDbCircle
 62
7
  6
CONTINUOUS
 10
403.9386677134
 20
350.0
 40
8.270614433
100
AcDbArc
 50
48.4048134898
 51
131.5951855957
  0
ARC
  5
2FE
100
AcDbEntity
  8
0
100
AcDbCircle
 62
7
  6
CONTINUOUS
 10
403.9386677134
 20
350.0
 40
8.270614433
100
AcDbArc
 50
228.4048134945
 51
311.5951855701
  0
CIRCLE
  5
2FF
100
AcDbEntity
  8
0
100
AcDbCircle
 62
7
  6
CONTINUOUS
 10
403.9386677134
 20
350.0
 40
8.2530984415
  0
CIRCLE
  5
300
100
AcDbEntity
  8
0
100
AcDbCircle
 62
7
  6
CONTINUOUS
 10
403.9386677134
 20
350.0
 40
8.0384011428
  0
ARC
  5
301
100
AcDbEntity
  8
0
100
AcDbCircle
 62
7
  6
CONTINUOUS
 10
403.9386677134
 20
350.0
 40
7.95
100
AcDbArc
 50
183.1475062826
 51
176.850571707
  0
ARC
  5
302
100
AcDbEntity
  8
0
100
AcDbCircle
 62
7
  6
CONTINUOUS
 10
403.9386677134
 20
350.0
 40
7.8103594806
100
AcDbArc
 50
183.823541659
 51
176.176392168
  0
ARC
  5
303
100
AcDbEntity
  8
0
100
AcDbCircle
 62
7
  6
CONTINUOUS
 10
403.9386677134
 20
350.0
 40
4.1965338204
100
AcDbArc
 50
0.8331571397
 51
0.7877862852
  0
CIRCLE
  5
304
100
AcDbEntity
  8
0
100
AcDbCircle
 62
7
  6
CONTINUOUS
 10
403.9386677134
 20
350.0
 40
3.9965699136
  0
ARC
  5
305
100
AcDbEntity
  8
0
100
AcDbCircle
 62
7
  6
CONTINUOUS
 10
403.9386677134
 20
350.0
 40
3.9632834371
100
AcDbArc
 50
193.748963423
 51
346.2510365971
  0
ARC
  5
306
100
AcDbEntity
  8
0
100
AcDbCircle
 62
7
  6
CONTINUOUS
 10
403.9386677134
 20
350.0
 40
3.9632834371
100
AcDbArc
 50
13.7489634331
 51
166.2510365939
  0
ARC
  5
307
100
AcDbEntity
  8
0
100
AcDbCircle
 62
7
  6
CONTINUOUS
 10
403.9386677134
 20
350.0
 40
3.9248822942
100
AcDbArc
 50
350.0988024549
 51
9.9011975451
  0
ARC
  5
308
100
AcDbEntity
  8
0
100
AcDbCircle
 62
7
  6
CONTINUOUS
 10
403.9386677134
 20
350.0
 40
3.9248822942
100
AcDbArc
 50
170.0988024549
 51
189.9011975451
  0
ARC
  5
309
100
AcDbEntity
  8
0
100
AcDbCircle
 62
7
  6
CONTINUOUS
 10
403.9386677134
 20
350.0
 40
3.763313898
100
AcDbArc
 50
195.4835788883
 51
344.5164211217
  0
ARC
  5
30A
100
AcDbEntity
  8
0
100
AcDbCircle
 62
7
  6
CONTINUOUS
 10
403.9386677134
 20
350.0
 40
3.763313898
100
AcDbArc
 50
15.4835789051
 51
164.5164211043
  0
ARC
  5
30B
100
AcDbEntity
  8
0
100
AcDbCircle
 62
7
  6
CONTINUOUS
 10
403.9386677134
 20
350.0
 40
3.7249127552
100
AcDbArc
 50
172.6750409495
 51
187.3249685245
  0
ARC
  5
30C
100
AcDbEntity
  8
0
100
AcDbCircle
 62
7
  6
CONTINUOUS
 10
403.9386677134
 20
350.0
 40
3.7249127552
100
AcDbArc
 50
352.6750321264
 51
7.3249585051
  0
ARC
  5
30D
100
AcDbEntity
  8
0
100
AcDbCircle
 62
7
  6
CONTINUOUS
 10
404.9094142344
 20
350.4769603583
 40
7.2760628711
100
AcDbArc
 50
25.0784878065
 51
27.246698833
  0
ARC
  5
30E
100
AcDbEntity
  8
0
100
AcDbCircle
 62
7
  6
CONTINUOUS
 10
403.9386676082
 20
354.8199274282
 40
6.1569152132
100
AcDbArc
 50
66.6616265443
 51
113.3384178698
  0
ARC
  5
30F
100
AcDbEntity
  8
0
100
AcDbCircle
 62
7
  6
CONTINUOUS
 10
403.9386677134
 20
354.9
 40
6.0034300864
100
AcDbArc
 50
8.8694224876
 51
171.1305662768
  0
ARC
  5
310
100
AcDbEntity
  8
0
100
AcDbCircle
 62
7
  6
CONTINUOUS
 10
403.9386677134
 20
354.9
 40
5.8034605474
100
AcDbArc
 50
14.3133473509
 51
165.6866527902
  0
ARC
  5
311
100
AcDbEntity
  8
0
100
AcDbCircle
 62
7
  6
CONTINUOUS
 10
409.0440684117
 20
358.2139164214
 40
11.7188171259
100
AcDbArc
 50
220.0403722641
 51
221.3297145043
  0
ARC
  5
312
100
AcDbEntity
  8
0
100
AcDbCircle
 62
7
  6
CONTINUOUS
 10
403.1472718666
 20
356.6555218431
 40
4.1579504296
100
AcDbArc
 50
113.3459597426
 51
115.1866777105
  0
ARC
  5
313
100
AcDbEntity
  8
0
100
AcDbCircle
 62
7
  6
CONTINUOUS
 10
404.7300960711
 20
356.6556924459
 40
4.1577822364
100
AcDbArc
 50
64.8130285599
 51
66.6535278251
  0
ARC
  5
314
100
AcDbEntity
  8
0
100
AcDbCircle
 62
7
  6
CONTINUOUS
 10
407.0355980744
 20
359.7100497385
 40
3.7619677338
100
AcDbArc
 50
99.1070040566
 51
100.0701703291
  0
ARC
  5
315
100
AcDbEntity
  8
0
100
AcDbCircle
 62
7
  6
CONTINUOUS
 10
405.8404229405
 20
359.8780374355
 40
3.5969106833
100
AcDbArc
 50
79.4411336681
 51
80.401887632
  0
ARC
  5
316
100
AcDbEntity
  8
0
100
AcDbCircle
 62
7
  6
CONTINUOUS
 10
402.0343200094
 20
359.8813346186
 40
3.5932042147
100
AcDbArc
 50
99.5652541568
 51
100.5273461213
  0
ARC
  5
317
100
AcDbEntity
  8
0
100
AcDbCircle
 62
7
  6
CONTINUOUS
 10
408.2266077412
 20
361.7538276502
 40
3.1933363242
100
AcDbArc
 50
19.3106281285
 51
31.7319423744
  0
ARC
  5
318
100
AcDbEntity
  8
0
100
AcDbCircle
 62
7
  6
CONTINUOUS
 10
416.6201614473
 20
351.8207557067
 40
8.1662723991
100
AcDbArc
 50
95.6220951348
 51
96.370869221
  0
ARC
  5
319
100
AcDbEntity
  8
0
100
AcDbCircle
 62
7
  6
CONTINUOUS
 10
409.5955219629
 20
355.6568542495
 40
0.669841539
100
AcDbArc
 50
116.0648708313
 51
137.9015033441
  0
ARC
  5
31A
100
AcDbEntity
  8
0
100
AcDbCircle
 62
7
  6
CONTINUOUS
 10
409.5955219629
 20
355.6568542495
 40
0.6
100
AcDbArc
 50
327.7625855045
 51
360.0
  0
ARC
  5
31B
100
AcDbEntity
  8
0
100
AcDbCircle
 62
7
  6
CONTINUOUS
 10
409.5955219629
 20
355.6568542495
 40
0.6
100
AcDbArc
 50
118.9548435442
 51
140.1286703227
  0
ARC
  5
31C
100
AcDbEntity
  8
0
100
AcDbCircle
 62
7
  6
CONTINUOUS
 10
409.4662710842
 20
358.5711673974
 40
12.2718812559
100
AcDbArc
 50
219.8599907941
 51
220.0492140425
  0
ARC
  5
31D
100
AcDbEntity
  8
0
100
AcDbCircle
 62
7
  6
CONTINUOUS
 10
416.5082355447
 20
360.3915867226
 40
2.3710011306
100
AcDbArc
 50
130.6724672931
 51
132.5195550253
  0
ARC
  5
31E
100
AcDbEntity
  8
0
100
AcDbCircle
 62
7
  6
CONTINUOUS
 10
407.5688846899
 20
378.3953944655
 40
27.6906864636
100
AcDbArc
 50
269.992789481
 51
270.5426053843
  0
ARC
  5
31F
100
AcDbEntity
  8
0
100
AcDbCircle
 62
7
  6
CONTINUOUS
 10
440.3294942178
 20
575.3145035934
 40
30.9061939374
100
AcDbArc
 50
294.0653651433
 51
294.9475911868
  0
ARC
  5
320
100
AcDbEntity
  8
0
100
AcDbCircle
 62
7
  6
CONTINUOUS
 10
470.3859637446
 20
536.0963693085
 40
21.0316269108
100
AcDbArc
 50
145.4953434963
 51
146.1901741446
  0
ARC
  5
321
100
AcDbEntity
  8
0
100
AcDbCircle
 62
7
  6
CONTINUOUS
 10
445.769671207
 20
563.6332452337
 40
18.0202609196
100
AcDbArc
 50
294.9299495834
 51
296.4757555703
  0
ARC
  5
322
100
AcDbEntity
  8
0
100
AcDbCircle
 62
7
  6
CONTINUOUS
 10
462.5267599045
 20
538.1462988816
 40
13.405545487
100
AcDbArc
 50
133.9118093061
 51
135.6841330874
  0
ARC
  5
323
100
AcDbEntity
  8
0
100
AcDbCircle
 62
7
  6
CONTINUOUS
 10
454.7280750067
 20
538.6855910601
 40
13.2378184997
100
AcDbArc
 50
144.2105043797
 51
145.0882798538
  0
ARC
  5
324
100
AcDbEntity
  8
0
100
AcDbCircle
 62
7
  6
CONTINUOUS
 10
452.7880224712
 20
540.087313393
 40
10.844364541
100
AcDbArc
 50
142.8554456084
 51
144.2235886303
  0
ARC
  5
325
100
AcDbEntity
  8
0
100
AcDbCircle
 62
7
  6
CONTINUOUS
 10
448.8451206045
 20
553.6847058429
 40
7.6328470742
100
AcDbArc
 50
306.1804439055
 51
307.9264562694
  0
ARC
  5
326
100
AcDbEntity
  8
0
100
AcDbCircle
 62
7
  6
CONTINUOUS
 10
447.7806584671
 20
540.8378973159
 40
6.3584780328
100
AcDbArc
 50
115.7566007605
 51
119.1910074753
  0
ARC
  5
327
100
AcDbEntity
  8
0
100
AcDbCircle
 62
7
  6
CONTINUOUS
 10
455.7594794838
 20
546.1999876969
 40
2.8514325496
100
AcDbArc
 50
113.9510535116
 51
117.1396153059
  0
ARC
  5
328
100
AcDbEntity
  8
0
100
AcDbCircle
 62
7
  6
CONTINUOUS
 10
453.1172234236
 20
549.5506949014
 40
1.5204592479
100
AcDbArc
 50
315.2473659112
 51
318.9319645405
  0
SPLINE
  5
329
100
AcDbEntity
  8
0
100
AcDbSpline
 62
7
  6
CONTINUOUS
 70
0
 71
3
 72
11
 73
7
 74
0
 42
0.0000001
 43
0.0000001
 44
0.0000000001
 40
0.0
 40
0.0
 40
0.0
 40
0.0
 40
0.2500812826
 40
0.5000884628
 40
0.7500198971
 40
1.0
 40
1.0
 40
1.0
 40
1.0
 10
396.2988403607
 20
350.0
 30
0.0
 10
396.2988403607
 20
350.0362381134
 30
0.0
 10
396.287725003
 20
350.1091660454
 30
0.0
 10
396.2393257795
 20
350.2082994152
 30
0.0
 10
396.1635584391
 20
350.2883843461
 30
0.0
 10
396.0993816103
 20
350.3247175584
 30
0.0
 10
396.0654805148
 20
350.3374789922
 30
0.0
  0
SPLINE
  5
32A
100
AcDbEntity
  8
0
100
AcDbSpline
 62
7
  6
CONTINUOUS
 70
0
 71
3
 72
11
 73
7
 74
0
 42
0.0000001
 43
0.0000001
 44
0.0000000001
 40
0.0
 40
0.0
 40
0.0
 40
0.0
 40
0.2499809605
 40
0.4999158272
 40
0.7499243739
 40
1.0
 40
1.0
 40
1.0
 40
1.0
 10
396.0654709632
 20
349.6625191483
 30
0.0
 10
396.099373235
 20
349.6752799899
 30
0.0
 10
396.1635541537
 20
349.7116105717
 30
0.0
 10
396.2393241748
 20
349.7916979784
 30
0.0
 10
396.2877245618
 20
349.8908331022
 30
0.0
 10
396.2988403572
 20
349.963761938
 30
0.0
 10
396.2988403572
 20
350.0
 30
0.0
  0
SPLINE
  5
32B
100
AcDbEntity
  8
0
100
AcDbSpline
 62
7
  6
CONTINUOUS
 70
0
 71
3
 72
9
 73
5
 74
0
 42
0.0000001
 43
0.0000001
 44
0.0000000001
 40
0.0
 40
0.0
 40
0.0
 40
0.0
 40
0.4997245686
 40
1.0
 40
1.0
 40
1.0
 40
1.0
 10
396.1456317192
 20
350.5208381327
 30
0.0
 10
396.1446756279
 20
350.5030012673
 30
0.0
 10
396.1529604626
 20
350.4661434942
 30
0.0
 10
396.1790970643
 20
350.4388892421
 30
0.0
 10
396.1944917765
 20
350.4297911907
 30
0.0
  0
SPLINE
  5
32C
100
AcDbEntity
  8
0
100
AcDbSpline
 62
7
  6
CONTINUOUS
 70
0
 71
3
 72
9
 73
5
 74
0
 42
0.0000001
 43
0.0000001
 44
0.0000000001
 40
0.0
 40
0.0
 40
0.0
 40
0.0
 40
0.5002639377
 40
1.0
 40
1.0
 40
1.0
 40
1.0
 10
396.1944983373
 20
349.5702107699
 30
0.0
 10
396.179103937
 20
349.5611146611
 30
0.0
 10
396.1529867236
 20
349.5338611011
 30
0.0
 10
396.1446468207
 20
349.4970057662
 30
0.0
 10
396.1456312924
 20
349.4791708796
 30
0.0
  0
LINE
  5
32D
100
AcDbEntity
  8
0
100
AcDbLine
 62
7
  6
CONTINUOUS
 10
396.1455170891
 20
349.4782922623
 11
396.0004278173
 21
349.5634796323
  0
SPLINE
  5
32E
100
AcDbEntity
  8
0
100
AcDbSpline
 62
7
  6
CONTINUOUS
 70
0
 71
3
 72
18
 73
14
 74
0
 42
0.0000001
 43
0.0000001
 44
0.0000000001
 40
0.0
 40
0.0
 40
0.0
 40
0.0
 40
0.0057581349
 40
0.0206324426
 40
0.0448448893
 40
0.0782383449
 40
0.1205499048
 40
0.1712714911
 40
0.2956624671
 40
0.4466063025
 40
0.6183217569
 40
0.8047881835
 40
1.0
 40
1.0
 40
1.0
 40
1.0
 10
407.7883872181
 20
349.0580537477
 30
0.0
 10
407.7882757731
 20
349.0584850862
 30
0.0
 10
407.7860597515
 20
349.0583999481
 30
0.0
 10
407.7831427323
 20
349.0582086703
 30
0.0
 10
407.7773124958
 20
349.0572120276
 30
0.0
 10
407.769857931
 20
349.055738285
 30
0.0
 10
407.760258539
 20
349.053610479
 30
0.0
 10
407.7439152342
 20
349.0497226066
 30
0.0
 10
407.719480128
 20
349.0433843196
 30
0.0
 10
407.6861854306
 20
349.0340298782
 30
0.0
 10
407.6484479384
 20
349.0227244524
 30
0.0
 10
407.6076424802
 20
349.0097548637
 30
0.0
 10
407.5796603878
 20
349.0003119193
 30
0.0
 10
407.565399024
 20
348.9953393538
 30
0.0
  0
SPLINE
  5
32F
100
AcDbEntity
  8
0
100
AcDbSpline
 62
7
  6
CONTINUOUS
 70
0
 71
3
 72
18
 73
14
 74
0
 42
0.0000001
 43
0.0000001
 44
0.0000000001
 40
0.0
 40
0.0
 40
0.0
 40
0.0
 40
0.1810687439
 40
0.3583831213
 40
0.5266110614
 40
0.6797601791
 40
0.8109283675
 40
0.8657856557
 40
0.9122591844
 40
0.9495249436
 40
0.976794364
 40
0.9935945803
 40
1.0
 40
1.0
 40
1.0
 40
1.0
 10
400.3119357567
 20
348.9953374653
 30
0.0
 10
400.2987075119
 20
348.9999448986
 30
0.0
 10
400.2724358227
 20
349.008809262
 30
0.0
 10
400.2336257796
 20
349.021199832
 30
0.0
 10
400.1967035106
 20
349.0323974709
 30
0.0
 10
400.1630312295
 20
349.0419650908
 30
0.0
 10
400.1376312927
 20
349.0486208344
 30
0.0
 10
400.1201686243
 20
349.0528212503
 30
0.0
 10
400.1096507801
 20
349.0551897945
 30
0.0
 10
400.1013856859
 20
349.0568534232
 30
0.0
 10
400.0948370594
 20
349.0580720502
 30
0.0
 10
400.0915989896
 20
349.0583074603
 30
0.0
 10
400.0890722384
 20
349.0585324639
 30
0.0
 10
400.0889467336
 20
349.0580530906
 30
0.0
  0
SPLINE
  5
330
100
AcDbEntity
  8
0
100
AcDbSpline
 62
7
  6
CONTINUOUS
 70
0
 71
3
 72
18
 73
14
 74
0
 42
0.0000001
 43
0.0000001
 44
0.0000000001
 40
0.0
 40
0.0
 40
0.0
 40
0.0
 40
0.0057581349
 40
0.0206324426
 40
0.0448448893
 40
0.0782383449
 40
0.1205499048
 40
0.1712714912
 40
0.2956624672
 40
0.4466063027
 40
0.6183217571
 40
0.8047881837
 40
1.0
 40
1.0
 40
1.0
 40
1.0
 10
400.0889482088
 20
350.9419462524
 30
0.0
 10
400.0890596538
 20
350.9415149139
 30
0.0
 10
400.0912756754
 20
350.941600052
 30
0.0
 10
400.0941926946
 20
350.9417913298
 30
0.0
 10
400.1000229311
 20
350.9427879725
 30
0.0
 10
400.107477496
 20
350.9442617151
 30
0.0
 10
400.117076888
 20
350.9463895211
 30
0.0
 10
400.1334201928
 20
350.9502773935
 30
0.0
 10
400.1578552991
 20
350.9566156806
 30
0.0
 10
400.1911499967
 20
350.965970122
 30
0.0
 10
400.2288874889
 20
350.9772755478
 30
0.0
 10
400.2696929472
 20
350.9902451366
 30
0.0
 10
400.2976750397
 20
350.999688081
 30
0.0
 10
400.3119364036
 20
351.0046606465
 30
0.0
  0
SPLINE
  5
331
100
AcDbEntity
  8
0
100
AcDbSpline
 62
7
  6
CONTINUOUS
 70
0
 71
3
 72
18
 73
14
 74
0
 42
0.0000001
 43
0.0000001
 44
0.0000000001
 40
0.0
 40
0.0
 40
0.0
 40
0.0
 40
0.1810687437
 40
0.3583831209
 40
0.5266110611
 40
0.6797601793
 40
0.8109283683
 40
0.8657856566
 40
0.9122591852
 40
0.9495249442
 40
0.9767943642
 40
0.9935945803
 40
1.0
 40
1.0
 40
1.0
 40
1.0
 10
407.5653996698
 20
351.0046625363
 30
0.0
 10
407.5786279146
 20
351.000055103
 30
0.0
 10
407.6048996039
 20
350.9911907395
 30
0.0
 10
407.6437096468
 20
350.9788001689
 30
0.0
 10
407.6806319159
 20
350.9676025298
 30
0.0
 10
407.7143041971
 20
350.9580349096
 30
0.0
 10
407.7397041339
 20
350.9513791655
 30
0.0
 10
407.7571668025
 20
350.9471787496
 30
0.0
 10
407.7676846467
 20
350.9448102055
 30
0.0
 10
407.7759497409
 20
350.9431465769
 30
0.0
 10
407.7824983674
 20
350.9419279502
 30
0.0
 10
407.7857364372
 20
350.9416925403
 30
0.0
 10
407.7882631883
 20
350.9414675368
 30
0.0
 10
407.7883886931
 20
350.9419469101
 30
0.0
  0
SPLINE
  5
332
100
AcDbEntity
  8
0
100
AcDbSpline
 62
7
  6
CONTINUOUS
 70
0
 71
3
 72
17
 73
13
 74
0
 42
0.0000001
 43
0.0000001
 44
0.0000000001
 40
0.0
 40
0.0
 40
0.0
 40
0.0
 40
0.1962554109
 40
0.3806746772
 40
0.5490964107
 40
0.6972155879
 40
0.820615382
 40
0.9149419246
 40
0.9498545709
 40
0.9759315312
 40
0.9927335434
 40
1.0
 40
1.0
 40
1.0
 40
1.0
 10
400.0889467344
 20
349.0580530875
 30
0.0
 10
400.0854319729
 20
349.073359591
 30
0.0
 10
400.0788165103
 20
349.103096114
 30
0.0
 10
400.0698585584
 20
349.1461155635
 30
0.0
 10
400.0622285704
 20
349.1854695825
 30
0.0
 10
400.0560023147
 20
349.2201289125
 30
0.0
 10
400.0512887574
 20
349.2490022956
 30
0.0
 10
400.0483043361
 20
349.2690470099
 30
0.0
 10
400.0468541166
 20
349.2813256466
 30
0.0
 10
400.0460950427
 20
349.2876215798
 30
0.0
 10
400.0461040306
 20
349.2914294616
 30
0.0
 10
400.0458446851
 20
349.2936035446
 30
0.0
 10
400.0462169123
 20
349.2940502732
 30
0.0
  0
SPLINE
  5
333
100
AcDbEntity
  8
0
100
AcDbSpline
 62
7
  6
CONTINUOUS
 70
0
 71
3
 72
17
 73
13
 74
0
 42
0.0000001
 43
0.0000001
 44
0.0000000001
 40
0.0
 40
0.0
 40
0.0
 40
0.0
 40
0.0072664793
 40
0.0240685075
 40
0.0501454799
 40
0.0850580762
 40
0.1793843525
 40
0.3027840278
 40
0.4509031932
 40
0.6193248157
 40
0.8037444426
 40
1.0
 40
1.0
 40
1.0
 40
1.0
 10
407.8311185138
 20
349.2940502688
 30
0.0
 10
407.8314907423
 20
349.293603539
 30
0.0
 10
407.8312313947
 20
349.2914294519
 30
0.0
 10
407.8312403832
 20
349.2876215668
 30
0.0
 10
407.8304813089
 20
349.2813256353
 30
0.0
 10
407.8290310923
 20
349.2690470231
 30
0.0
 10
407.8260466771
 20
349.2490023437
 30
0.0
 10
407.821333126
 20
349.2201289924
 30
0.0
 10
407.8151068711
 20
349.1854696828
 30
0.0
 10
407.807476893
 20
349.1461156434
 30
0.0
 10
407.7985189198
 20
349.1030961671
 30
0.0
 10
407.7919034504
 20
349.0733596048
 30
0.0
 10
407.7883886928
 20
349.0580530889
 30
0.0
  0
SPLINE
  5
334
100
AcDbEntity
  8
0
100
AcDbSpline
 62
7
  6
CONTINUOUS
 70
0
 71
3
 72
13
 73
9
 74
0
 42
0.0000001
 43
0.0000001
 44
0.0000000001
 40
0.0
 40
0.0
 40
0.0
 40
0.0
 40
0.4083971865
 40
0.7195567982
 40
0.8345099796
 40
0.920337886
 40
0.97574071
 40
1.0
 40
1.0
 40
1.0
 40
1.0
 10
407.8228221435
 20
350.7705724038
 30
0.0
 10
407.8242876886
 20
350.7618120489
 30
0.0
 10
407.8267510433
 20
350.7463717738
 30
0.0
 10
407.8293701176
 20
350.7283685989
 30
0.0
 10
407.8306305909
 20
350.7173622654
 30
0.0
 10
407.8312752995
 20
350.711727354
 30
0.0
 10
407.8312604024
 20
350.7083050771
 30
0.0
 10
407.8314562557
 20
350.706355072
 30
0.0
 10
407.8311185141
 20
350.7059497325
 30
0.0
  0
SPLINE
  5
335
100
AcDbEntity
  8
0
100
AcDbSpline
 62
7
  6
CONTINUOUS
 70
0
 71
3
 72
9
 73
5
 74
0
 42
0.0000001
 43
0.0000001
 44
0.0000000001
 40
0.0
 40
0.0
 40
0.0
 40
0.0
 40
0.2846970847
 40
1.0
 40
1.0
 40
1.0
 40
1.0
 10
407.7883886923
 20
350.9419469132
 30
0.0
 10
407.7921014707
 20
350.925778062
 30
0.0
 10
407.8047217754
 20
350.8688905436
 30
0.0
 10
407.8159446861
 20
350.8116826799
 30
0.0
 10
407.8228221435
 20
350.7705724038
 30
0.0
  0
SPLINE
  5
336
100
AcDbEntity
  8
0
100
AcDbSpline
 62
7
  6
CONTINUOUS
 70
0
 71
3
 72
9
 73
5
 74
0
 42
0.0000001
 43
0.0000001
 44
0.0000000001
 40
0.0
 40
0.0
 40
0.0
 40
0.0
 40
0.208399596
 40
1.0
 40
1.0
 40
1.0
 40
1.0
 10
400.054513283
 20
350.7705723997
 30
0.0
 10
400.0565169861
 20
350.7825496137
 30
0.0
 10
400.0666522273
 20
350.8399341468
 30
0.0
 10
400.0786234053
 20
350.8969895582
 30
0.0
 10
400.0889467341
 20
350.9419469114
 30
0.0
  0
SPLINE
  5
337
100
AcDbEntity
  8
0
100
AcDbSpline
 62
7
  6
CONTINUOUS
 70
0
 71
3
 72
13
 73
9
 74
0
 42
0.0000001
 43
0.0000001
 44
0.0000000001
 40
0.0
 40
0.0
 40
0.0
 40
0.0
 40
0.0242592001
 40
0.0796618852
 40
0.1654898632
 40
0.2804433508
 40
0.5916031307
 40
1.0
 40
1.0
 40
1.0
 40
1.0
 10
400.0462169129
 20
350.7059497326
 30
0.0
 10
400.045879173
 20
350.7063550709
 30
0.0
 10
400.0460750206
 20
350.7083050688
 30
0.0
 10
400.0460601252
 20
350.7117273436
 30
0.0
 10
400.0467048344
 20
350.7173622593
 30
0.0
 10
400.0479653119
 20
350.7283686038
 30
0.0
 10
400.0505843854
 20
350.7463717809
 30
0.0
 10
400.0530477389
 20
350.7618120521
 30
0.0
 10
400.054513283
 20
350.7705723997
 30
0.0
  0
SPLINE
  5
338
100
AcDbEntity
  8
0
100
AcDbSpline
 62
7
  6
CONTINUOUS
 70
0
 71
3
 72
11
 73
7
 74
0
 42
0.0000001
 43
0.0000001
 44
0.0000000001
 40
0.0
 40
0.0
 40
0.0
 40
0.0
 40
0.2501444181
 40
0.4999897725
 40
0.7498436694
 40
1.0
 40
1.0
 40
1.0
 40
1.0
 10
404.8011639707
 20
327.5
 30
0.0
 10
404.8011639707
 20
327.3879178968
 30
0.0
 10
404.7560907116
 20
327.161418494
 30
0.0
 10
404.5638083586
 20
326.8756205875
 30
0.0
 10
404.2772334092
 20
326.6845869374
 30
0.0
 10
404.0507551543
 20
326.6399436636
 30
0.0
 10
403.9386677134
 20
326.6399436636
 30
0.0
  0
SPLINE
  5
339
100
AcDbEntity
  8
0
100
AcDbSpline
 62
7
  6
CONTINUOUS
 70
0
 71
3
 72
11
 73
7
 74
0
 42
0.0000001
 43
0.0000001
 44
0.0000000001
 40
0.0
 40
0.0
 40
0.0
 40
0.0
 40
0.2501674284
 40
0.5000241629
 40
0.7498667843
 40
1.0
 40
1.0
 40
1.0
 40
1.0
 10
403.9386677134
 20
326.6399436636
 30
0.0
 10
403.8265752951
 20
326.6399436636
 30
0.0
 10
403.6000903895
 20
326.6845899772
 30
0.0
 10
403.3135149685
 20
326.8756326263
 30
0.0
 10
403.1212414337
 20
327.1614300884
 30
0.0
 10
403.0761714562
 20
327.3879229114
 30
0.0
 10
403.0761714562
 20
327.5
 30
0.0
  0
SPLINE
  5
33A
100
AcDbEntity
  8
0
100
AcDbSpline
 62
7
  6
CONTINUOUS
 70
0
 71
3
 72
11
 73
7
 74
0
 42
0.0000001
 43
0.0000001
 44
0.0000000001
 40
0.0
 40
0.0
 40
0.0
 40
0.0
 40
0.2501444181
 40
0.4999897725
 40
0.7498436694
 40
1.0
 40
1.0
 40
1.0
 40
1.0
 10
403.0761714562
 20
327.5
 30
0.0
 10
403.0761714562
 20
327.6120821033
 30
0.0
 10
403.1212447153
 20
327.8385815061
 30
0.0
 10
403.3135270683
 20
328.1243794126
 30
0.0
 10
403.6001020177
 20
328.3154130626
 30
0.0
 10
403.8265802726
 20
328.3600563365
 30
0.0
 10
403.9386677134
 20
328.3600563365
 30
0.0
  0
SPLINE
  5
33B
100
AcDbEntity
  8
0
100
AcDbSpline
 62
7
  6
CONTINUOUS
 70
0
 71
3
 72
11
 73
7
 74
0
 42
0.0000001
 43
0.0000001
 44
0.0000000001
 40
0.0
 40
0.0
 40
0.0
 40
0.0
 40
0.2501674284
 40
0.5000241629
 40
0.7498667843
 40
1.0
 40
1.0
 40
1.0
 40
1.0
 10
403.9386677134
 20
328.3600563365
 30
0.0
 10
404.0507601318
 20
328.3600563365
 30
0.0
 10
404.2772450374
 20
328.3154100229
 30
0.0
 10
404.5638204584
 20
328.1243673738
 30
0.0
 10
404.7560939932
 20
327.8385699117
 30
0.0
 10
404.8011639707
 20
327.6120770887
 30
0.0
 10
404.8011639707
 20
327.5
 30
0.0
  0
SPLINE
  5
33C
100
AcDbEntity
  8
0
100
AcDbSpline
 62
7
  6
CONTINUOUS
 70
0
 71
3
 72
9
 73
5
 74
0
 42
0.0000001
 43
0.0000001
 44
0.0000000001
 40
0.0
 40
0.0
 40
0.0
 40
0.0
 40
0.5000354934
 40
1.0
 40
1.0
 40
1.0
 40
1.0
 10
416.42272768
 20
366.859830268
 30
0.0
 10
416.579611392
 20
366.7694074662
 30
0.0
 10
416.8716710924
 20
366.5476933464
 30
0.0
 10
417.0956689232
 20
366.2568958153
 30
0.0
 10
417.1858859263
 20
366.0999233159
 30
0.0
  0
SPLINE
  5
33D
100
AcDbEntity
  8
0
100
AcDbSpline
 62
7
  6
CONTINUOUS
 70
0
 71
3
 72
9
 73
5
 74
0
 42
0.0000001
 43
0.0000001
 44
0.0000000001
 40
0.0
 40
0.0
 40
0.0
 40
0.0
 40
0.4999645108
 40
1.0
 40
1.0
 40
1.0
 40
1.0
 10
390.6914602434
 20
366.0999420153
 30
0.0
 10
390.7816772013
 20
366.2569105251
 30
0.0
 10
391.0056729608
 20
366.5477004797
 30
0.0
 10
391.2977274603
 20
366.7694094789
 30
0.0
 10
391.45460817
 20
366.8598305108
 30
0.0
  0
SPLINE
  5
33E
100
AcDbEntity
  8
0
100
AcDbSpline
 62
7
  6
CONTINUOUS
 70
0
 71
3
 72
9
 73
5
 74
0
 42
0.0000001
 43
0.0000001
 44
0.0000000001
 40
0.0
 40
0.0
 40
0.0
 40
0.0
 40
0.7496903566
 40
1.0
 40
1.0
 40
1.0
 40
1.0
 10
390.2148709353
 20
364.8783213189
 30
0.0
 10
390.2898319031
 20
365.198013541
 30
0.0
 10
390.4333088845
 20
365.6167489238
 30
0.0
 10
390.6368288849
 20
366.0048879026
 30
0.0
 10
390.6914602434
 20
366.0999420153
 30
0.0
  0
SPLINE
  5
33F
100
AcDbEntity
  8
0
100
AcDbSpline
 62
7
  6
CONTINUOUS
 70
0
 71
3
 72
9
 73
5
 74
0
 42
0.0000001
 43
0.0000001
 44
0.0000000001
 40
0.0
 40
0.0
 40
0.0
 40
0.0
 40
0.2503096327
 40
1.0
 40
1.0
 40
1.0
 40
1.0
 10
390.6914494652
 20
324.3000767266
 30
0.0
 10
390.6368194945
 20
324.3951295496
 30
0.0
 10
390.4333045574
 20
324.7832630241
 30
0.0
 10
390.2898307046
 20
325.201991605
 30
0.0
 10
390.2148709687
 20
325.5216785677
 30
0.0
  0
SPLINE
  5
340
100
AcDbEntity
  8
0
100
AcDbSpline
 62
7
  6
CONTINUOUS
 70
0
 71
3
 72
9
 73
5
 74
0
 42
0.0000001
 43
0.0000001
 44
0.0000000001
 40
0.0
 40
0.0
 40
0.0
 40
0.0
 40
0.5000354931
 40
1.0
 40
1.0
 40
1.0
 40
1.0
 10
391.4546081657
 20
323.5401694916
 30
0.0
 10
391.2977243605
 20
323.6305923078
 30
0.0
 10
391.0056644983
 20
323.8523065116
 30
0.0
 10
390.7816665193
 20
324.1431041549
 30
0.0
 10
390.6914494652
 20
324.3000767266
 30
0.0
  0
SPLINE
  5
341
100
AcDbEntity
  8
0
100
AcDbSpline
 62
7
  6
CONTINUOUS
 70
0
 71
3
 72
9
 73
5
 74
0
 42
0.0000001
 43
0.0000001
 44
0.0000000001
 40
0.0
 40
0.0
 40
0.0
 40
0.0
 40
0.4999645113
 40
1.0
 40
1.0
 40
1.0
 40
1.0
 10
417.1858752052
 20
324.3000580041
 30
0.0
 10
417.0956582647
 20
324.1430895466
 30
0.0
 10
416.871662566
 20
323.8522996925
 30
0.0
 10
416.5796082042
 20
323.6305907025
 30
0.0
 10
416.4227275605
 20
323.5401696652
 30
0.0
  0
SPLINE
  5
342
100
AcDbEntity
  8
0
100
AcDbSpline
 62
7
  6
CONTINUOUS
 70
0
 71
3
 72
9
 73
5
 74
0
 42
0.0000001
 43
0.0000001
 44
0.0000000001
 40
0.0
 40
0.0
 40
0.0
 40
0.0
 40
0.7496903566
 40
1.0
 40
1.0
 40
1.0
 40
1.0
 10
417.6624644916
 20
325.5216786813
 30
0.0
 10
417.5875035254
 20
325.2019864657
 30
0.0
 10
417.444026544
 20
324.7832510933
 30
0.0
 10
417.2405065578
 20
324.3951121176
 30
0.0
 10
417.1858752052
 20
324.3000580041
 30
0.0
  0
SPLINE
  5
343
100
AcDbEntity
  8
0
100
AcDbSpline
 62
7
  6
CONTINUOUS
 70
0
 71
3
 72
9
 73
5
 74
0
 42
0.0000001
 43
0.0000001
 44
0.0000000001
 40
0.0
 40
0.0
 40
0.0
 40
0.0
 40
0.2503096327
 40
1.0
 40
1.0
 40
1.0
 40
1.0
 10
417.1858859263
 20
366.0999233159
 30
0.0
 10
417.2405159047
 20
366.0048704922
 30
0.0
 10
417.4440308629
 20
365.616737008
 30
0.0
 10
417.5875047193
 20
365.1980084081
 30
0.0
 10
417.6624644582
 20
364.8783214324
 30
0.0
  0
SPLINE
  5
344
100
AcDbEntity
  8
0
100
AcDbSpline
 62
7
  6
CONTINUOUS
 70
0
 71
3
 72
16
 73
12
 74
0
 42
0.0000001
 43
0.0000001
 44
0.0000000001
 40
0.0
 40
0.0
 40
0.0
 40
0.0
 40
0.0203952692
 40
0.0656919755
 40
0.1219846627
 40
0.1829730436
 40
0.3129013787
 40
0.4474958517
 40
0.5843083158
 40
0.7223433476
 40
1.0
 40
1.0
 40
1.0
 40
1.0
 10
398.007024919
 20
344.1743723416
 30
0.0
 10
398.0082731726
 20
344.1705225839
 30
0.0
 10
398.0169898221
 20
344.1603034401
 30
0.0
 10
398.0274920043
 20
344.1385644708
 30
0.0
 10
398.0441969972
 20
344.1108982434
 30
0.0
 10
398.0688875018
 20
344.0685352433
 30
0.0
 10
398.1012003898
 20
344.0125939959
 30
0.0
 10
398.1415544015
 20
343.9439398412
 30
0.0
 10
398.1836203221
 20
343.8744283274
 30
0.0
 10
398.2410970758
 20
343.7810676105
 30
0.0
 10
398.2853947042
 20
343.7114773494
 30
0.0
 10
398.3153572323
 20
343.6652409412
 30
0.0
  0
SPLINE
  5
345
100
AcDbEntity
  8
0
100
AcDbSpline
 62
7
  6
CONTINUOUS
 70
0
 71
3
 72
16
 73
12
 74
0
 42
0.0000001
 43
0.0000001
 44
0.0000000001
 40
0.0
 40
0.0
 40
0.0
 40
0.0
 40
0.2776513885
 40
0.4156836295
 40
0.5524949242
 40
0.6870824712
 40
0.81696929
 40
0.8780612958
 40
0.9343681714
 40
0.9794052207
 40
1.0
 40
1.0
 40
1.0
 40
1.0
 10
409.5619782018
 20
343.6652409694
 30
0.0
 10
409.5919389976
 20
343.7114768566
 30
0.0
 10
409.6362393444
 20
343.7810629424
 30
0.0
 10
409.6937113034
 20
343.874423605
 30
0.0
 10
409.7357780875
 20
343.9439317358
 30
0.0
 10
409.7761184092
 20
344.0125811905
 30
0.0
 10
409.8084743132
 20
344.0685116675
 30
0.0
 10
409.8331598823
 20
344.1108908994
 30
0.0
 10
409.8497119679
 20
344.1386234607
 30
0.0
 10
409.8604057593
 20
344.1602142812
 30
0.0
 10
409.8691111417
 20
344.1704631949
 30
0.0
 10
409.8703101395
 20
344.1743699813
 30
0.0
  0
SPLINE
  5
346
100
AcDbEntity
  8
0
100
AcDbSpline
 62
7
  6
CONTINUOUS
 70
0
 71
3
 72
16
 73
12
 74
0
 42
0.0000001
 43
0.0000001
 44
0.0000000001
 40
0.0
 40
0.0
 40
0.0
 40
0.0
 40
0.007280566
 40
0.0362987315
 40
0.0764174786
 40
0.1251577018
 40
0.246686652
 40
0.3850219735
 40
0.5327210936
 40
0.6860067
 40
1.0
 40
1.0
 40
1.0
 40
1.0
 10
409.9231806178
 20
344.2814168152
 30
0.0
 10
409.92372948
 20
344.2829722109
 30
0.0
 10
409.911355005
 20
344.271006355
 30
0.0
 10
409.9053481757
 20
344.2655140822
 30
0.0
 10
409.8831411953
 20
344.2436662453
 30
0.0
 10
409.8506878015
 20
344.2117289491
 30
0.0
 10
409.8000618178
 20
344.1616100687
 30
0.0
 10
409.7343047822
 20
344.0975098217
 30
0.0
 10
409.6623401541
 20
344.0285394404
 30
0.0
 10
409.560799715
 20
343.9332210788
 30
0.0
 10
409.4824521128
 20
343.861980705
 30
0.0
 10
409.4292257209
 20
343.8147889393
 30
0.0
  0
SPLINE
  5
347
100
AcDbEntity
  8
0
100
AcDbSpline
 62
7
  6
CONTINUOUS
 70
0
 71
3
 72
9
 73
5
 74
0
 42
0.0000001
 43
0.0000001
 44
0.0000000001
 40
0.0
 40
0.0
 40
0.0
 40
0.0
 40
0.2370620748
 40
1.0
 40
1.0
 40
1.0
 40
1.0
 10
409.8703099953
 20
344.1743713081
 30
0.0
 10
409.8717837724
 20
344.1837574611
 30
0.0
 10
409.8810239827
 20
344.222802817
 30
0.0
 10
409.902008217
 20
344.2591872105
 30
0.0
 10
409.9231006794
 20
344.2813253586
 30
0.0
  0
SPLINE
  5
348
100
AcDbEntity
  8
0
100
AcDbSpline
 62
7
  6
CONTINUOUS
 70
0
 71
3
 72
8
 73
4
 74
0
 42
0.0000001
 43
0.0000001
 44
0.0000000001
 40
0.0
 40
0.0
 40
0.0
 40
0.0
 40
1.0
 40
1.0
 40
1.0
 40
1.0
 10
409.9403024221
 20
344.1401803804
 30
0.0
 10
409.9465327024
 20
344.1793266952
 30
0.0
 10
409.9657506924
 20
344.2180604116
 30
0.0
 10
409.9931415024
 20
344.2467134024
 30
0.0
  0
SPLINE
  5
349
100
AcDbEntity
  8
0
100
AcDbSpline
 62
7
  6
CONTINUOUS
 70
0
 71
3
 72
17
 73
13
 74
0
 42
0.0000001
 43
0.0000001
 44
0.0000000001
 40
0.0
 40
0.0
 40
0.0
 40
0.0
 40
0.0628783972
 40
0.1253701476
 40
0.1875295514
 40
0.2496441541
 40
0.3120353963
 40
0.3748217187
 40
0.5004615462
 40
0.6259836887
 40
0.7510419345
 40
1.0
 40
1.0
 40
1.0
 40
1.0
 10
406.4401153661
 20
326.9753909137
 30
0.0
 10
406.466073297
 20
326.8207900078
 30
0.0
 10
406.5491050042
 20
326.5166471835
 30
0.0
 10
406.7702419496
 20
326.100088259
 30
0.0
 10
407.0844032323
 20
325.7496796466
 30
0.0
 10
407.4772401185
 20
325.4906197866
 30
0.0
 10
407.9237804748
 20
325.338380597
 30
0.0
 10
408.5512484644
 20
325.2798377895
 30
0.0
 10
409.3347523345
 20
325.4561989184
 30
0.0
 10
410.1445661637
 20
325.9565547855
 30
0.0
 10
410.9948404453
 20
326.8793082249
 30
0.0
 10
411.3628733375
 20
327.7893067927
 30
0.0
 10
411.4430224973
 20
328.4047988019
 30
0.0
  0
SPLINE
  5
34A
100
AcDbEntity
  8
0
100
AcDbSpline
 62
7
  6
CONTINUOUS
 70
0
 71
3
 72
20
 73
16
 74
0
 42
0.0000001
 43
0.0000001
 44
0.0000000001
 40
0.0
 40
0.0
 40
0.0
 40
0.0
 40
0.1253093699
 40
0.250061566
 40
0.3124984329
 40
0.3749936661
 40
0.5002445488
 40
0.5631941605
 40
0.6260620907
 40
0.6887013119
 40
0.7509616927
 40
0.8129452252
 40
0.8749508273
 40
0.9372715532
 40
1.0
 40
1.0
 40
1.0
 40
1.0
 10
411.377786406
 20
328.4145381526
 30
0.0
 10
411.3339982266
 20
328.1120319083
 30
0.0
 10
411.1759328326
 20
327.5158112176
 30
0.0
 10
410.8035469306
 20
326.8420182249
 30
0.0
 10
410.4203314073
 20
326.3670676436
 30
0.0
 10
409.9821955167
 20
325.94056796
 30
0.0
 10
409.4542657548
 20
325.6105963085
 30
0.0
 10
408.870158736
 20
325.4180710839
 30
0.0
 10
408.411247536
 20
325.35805693
 30
0.0
 10
407.950875059
 20
325.3947951319
 30
0.0
 10
407.5134478298
 20
325.5394115051
 30
0.0
 10
407.1286003736
 20
325.7904600603
 30
0.0
 10
406.8204350468
 20
326.1308990151
 30
0.0
 10
406.6038338021
 20
326.5379443713
 30
0.0
 10
406.5283960388
 20
326.8356779517
 30
0.0
 10
406.4995577758
 20
326.9859451804
 30
0.0
  0
SPLINE
  5
34B
100
AcDbEntity
  8
0
100
AcDbSpline
 62
7
  6
CONTINUOUS
 70
0
 71
3
 72
15
 73
11
 74
0
 42
0.0000001
 43
0.0000001
 44
0.0000000001
 40
0.0
 40
0.0
 40
0.0
 40
0.0
 40
0.1253103459
 40
0.2497637975
 40
0.3744390141
 40
0.5000125373
 40
0.6255798343
 40
0.7502424326
 40
0.8746930829
 40
1.0
 40
1.0
 40
1.0
 40
1.0
 10
406.4401153661
 20
326.9753909137
 30
0.0
 10
406.3941445967
 20
326.6765353006
 30
0.0
 10
406.1992263055
 20
326.0920679613
 30
0.0
 10
405.6357908927
 20
325.3638349492
 30
0.0
 10
404.8506047692
 20
324.8756358382
 30
0.0
 10
403.9386112929
 20
324.7036377665
 30
0.0
 10
403.0266283702
 20
324.8756848482
 30
0.0
 10
402.2416303072
 20
325.3640162594
 30
0.0
 10
401.677995027
 20
326.092029866
 30
0.0
 10
401.4831857445
 20
326.67654594
 30
0.0
 10
401.4372362469
 20
326.9753964536
 30
0.0
  0
SPLINE
  5
34C
100
AcDbEntity
  8
0
100
AcDbSpline
 62
7
  6
CONTINUOUS
 70
0
 71
3
 72
10
 73
6
 74
0
 42
0.0000001
 43
0.0000001
 44
0.0000000001
 40
0.0
 40
0.0
 40
0.0
 40
0.0
 40
0.1774133142
 40
0.4125497924
 40
1.0
 40
1.0
 40
1.0
 40
1.0
 10
415.4799573272
 20
323.2496655783
 30
0.0
 10
415.4528105726
 20
323.5433798955
 30
0.0
 10
415.3956114228
 20
324.2269069712
 30
0.0
 10
415.247380352
 20
325.8828510162
 30
0.0
 10
415.095043956
 20
327.2424674163
 30
0.0
 10
414.9630122742
 20
328.2101928187
 30
0.0
  0
SPLINE
  5
34D
100
AcDbEntity
  8
0
100
AcDbSpline
 62
7
  6
CONTINUOUS
 70
0
 71
3
 72
10
 73
6
 74
0
 42
0.0000001
 43
0.0000001
 44
0.0000000001
 40
0.0
 40
0.0
 40
0.0
 40
0.0
 40
0.5874498229
 40
0.8225861322
 40
1.0
 40
1.0
 40
1.0
 40
1.0
 10
392.9143619992
 20
328.2101331854
 30
0.0
 10
392.7823308224
 20
327.2424185272
 30
0.0
 10
392.6299453683
 20
325.8828229518
 30
0.0
 10
392.4817186331
 20
324.2268954809
 30
0.0
 10
392.4245324066
 20
323.543373764
 30
0.0
 10
392.39738572
 20
323.2496615716
 30
0.0
  0
SPLINE
  5
34E
100
AcDbEntity
  8
0
100
AcDbSpline
 62
7
  6
CONTINUOUS
 70
0
 71
3
 72
17
 73
13
 74
0
 42
0.0000001
 43
0.0000001
 44
0.0000000001
 40
0.0
 40
0.0
 40
0.0
 40
0.0
 40
0.1256919735
 40
0.2515004922
 40
0.3773447034
 40
0.5026284364
 40
0.6267700484
 40
0.6886673684
 40
0.7505046469
 40
0.8125066592
 40
0.8748330943
 40
1.0
 40
1.0
 40
1.0
 40
1.0
 10
392.9143619992
 20
328.2101331854
 30
0.0
 10
393.0448875507
 20
328.0698923039
 30
0.0
 10
393.3152997054
 20
327.797014114
 30
0.0
 10
393.7766508038
 20
327.4493316964
 30
0.0
 10
394.2924796055
 20
327.1881880679
 30
0.0
 10
394.8531877974
 20
327.0471420902
 30
0.0
 10
395.338848465
 20
327.0822878995
 30
0.0
 10
395.6910482693
 20
327.2267773692
 30
0.0
 10
395.9248425545
 20
327.3906956508
 30
0.0
 10
396.1174926736
 20
327.6017312863
 30
0.0
 10
396.3172748843
 20
327.9278543067
 30
0.0
 10
396.3965387883
 20
328.2076701623
 30
0.0
 10
396.4323268017
 20
328.3950671305
 30
0.0
  0
SPLINE
  5
34F
100
AcDbEntity
  8
0
100
AcDbSpline
 62
7
  6
CONTINUOUS
 70
0
 71
3
 72
16
 73
12
 74
0
 42
0.0000001
 43
0.0000001
 44
0.0000000001
 40
0.0
 40
0.0
 40
0.0
 40
0.0
 40
0.1253394056
 40
0.2492352053
 40
0.3111270842
 40
0.3730929128
 40
0.4972622773
 40
0.6226530721
 40
0.7484914493
 40
0.8743179343
 40
1.0
 40
1.0
 40
1.0
 40
1.0
 10
396.3777872876
 20
328.4145157976
 30
0.0
 10
396.3430064677
 20
328.23167578
 30
0.0
 10
396.247704975
 20
327.8693584068
 30
0.0
 10
395.9693069153
 20
327.4822304508
 30
0.0
 10
395.6658659197
 20
327.2690326375
 30
0.0
 10
395.3213080669
 20
327.1303518077
 30
0.0
 10
394.8471448135
 20
327.1034431304
 30
0.0
 10
394.3027001507
 20
327.2489341757
 30
0.0
 10
393.8051689996
 20
327.5129444065
 30
0.0
 10
393.3577104371
 20
327.854015266
 30
0.0
 10
393.097497136
 20
328.1231793125
 30
0.0
 10
392.9715216543
 20
328.26087469
 30
0.0
  0
SPLINE
  5
350
100
AcDbEntity
  8
0
100
AcDbSpline
 62
7
  6
CONTINUOUS
 70
0
 71
3
 72
11
 73
7
 74
0
 42
0.0000001
 43
0.0000001
 44
0.0000000001
 40
0.0
 40
0.0
 40
0.0
 40
0.0
 40
0.2550314913
 40
0.5046207564
 40
0.7560892102
 40
1.0
 40
1.0
 40
1.0
 40
1.0
 10
396.4323338608
 20
328.3950858062
 30
0.0
 10
396.428577083
 20
328.3984324297
 30
0.0
 10
396.4211938929
 20
328.4053637825
 30
0.0
 10
396.4067680403
 20
328.4102806411
 30
0.0
 10
396.3922716825
 20
328.4124160963
 30
0.0
 10
396.3826246625
 20
328.4141795157
 30
0.0
 10
396.3778242322
 20
328.4145107065
 30
0.0
  0
SPLINE
  5
351
100
AcDbEntity
  8
0
100
AcDbSpline
 62
7
  6
CONTINUOUS
 70
0
 71
3
 72
8
 73
4
 74
0
 42
0.0000001
 43
0.0000001
 44
0.0000000001
 40
0.0
 40
0.0
 40
0.0
 40
0.0
 40
1.0
 40
1.0
 40
1.0
 40
1.0
 10
392.1528319726
 20
329.8585220398
 30
0.0
 10
392.1139542703
 20
330.0551764469
 30
0.0
 10
392.083690117
 20
330.2535484186
 30
0.0
 10
392.0571889651
 20
330.452249502
 30
0.0
  0
SPLINE
  5
352
100
AcDbEntity
  8
0
100
AcDbSpline
 62
7
  6
CONTINUOUS
 70
0
 71
3
 72
15
 73
11
 74
0
 42
0.0000001
 43
0.0000001
 44
0.0000000001
 40
0.0
 40
0.0
 40
0.0
 40
0.0
 40
0.0624674673
 40
0.1251597976
 40
0.1875518509
 40
0.2498795858
 40
0.3747959213
 40
0.4998880058
 40
0.7498560868
 40
1.0
 40
1.0
 40
1.0
 40
1.0
 10
392.9143597582
 20
328.2101297321
 30
0.0
 10
392.8846804888
 20
328.2342565604
 30
0.0
 10
392.8330106287
 20
328.2917482175
 30
0.0
 10
392.7647174938
 20
328.3839068693
 30
0.0
 10
392.6993441118
 20
328.4783046304
 30
0.0
 10
392.6184898393
 20
328.6080746034
 30
0.0
 10
392.5277504301
 20
328.7766081501
 30
0.0
 10
392.394875899
 20
329.0523938735
 30
0.0
 10
392.2544424268
 20
329.4098216687
 30
0.0
 10
392.1843688841
 20
329.708641416
 30
0.0
 10
392.1528319726
 20
329.8585220398
 30
0.0
  0
SPLINE
  5
353
100
AcDbEntity
  8
0
100
AcDbSpline
 62
7
  6
CONTINUOUS
 70
0
 71
3
 72
11
 73
7
 74
0
 42
0.0000001
 43
0.0000001
 44
0.0000000001
 40
0.0
 40
0.0
 40
0.0
 40
0.0
 40
0.1644098367
 40
0.3918145697
 40
0.6765601029
 40
1.0
 40
1.0
 40
1.0
 40
1.0
 10
390.6913891914
 20
324.3001949271
 30
0.0
 10
390.7710862198
 20
324.2241633759
 30
0.0
 10
390.976178949
 20
324.0592027465
 30
0.0
 10
391.3511692348
 20
323.8041100845
 30
0.0
 10
391.8375048538
 20
323.5257073808
 30
0.0
 10
392.2026215985
 20
323.3446492895
 30
0.0
 10
392.3973880217
 20
323.2496718798
 30
0.0
  0
SPLINE
  5
354
100
AcDbEntity
  8
0
100
AcDbSpline
 62
7
  6
CONTINUOUS
 70
0
 71
3
 72
9
 73
5
 74
0
 42
0.0000001
 43
0.0000001
 44
0.0000000001
 40
0.0
 40
0.0
 40
0.0
 40
0.0
 40
0.5000849614
 40
1.0
 40
1.0
 40
1.0
 40
1.0
 10
415.2340397685
 20
328.5696301882
 30
0.0
 10
415.1951348976
 20
328.5052679455
 30
0.0
 10
415.114272769
 20
328.3785261987
 30
0.0
 10
415.0182383813
 20
328.2612047443
 30
0.0
 10
414.9630145142
 20
328.2101893673
 30
0.0
  0
SPLINE
  5
355
100
AcDbEntity
  8
0
100
AcDbSpline
 62
7
  6
CONTINUOUS
 70
0
 71
3
 72
11
 73
7
 74
0
 42
0.0000001
 43
0.0000001
 44
0.0000000001
 40
0.0
 40
0.0
 40
0.0
 40
0.0
 40
0.2503057547
 40
0.5003489363
 40
0.7502675974
 40
1.0
 40
1.0
 40
1.0
 40
1.0
 10
415.820146767
 20
330.4522514822
 30
0.0
 10
415.7979352118
 20
330.2880136382
 30
0.0
 10
415.7498248419
 20
329.9601919962
 30
0.0
 10
415.6429379289
 20
329.4740080864
 30
0.0
 10
415.4690543551
 20
329.0071899661
 30
0.0
 10
415.3149616632
 20
328.7138292851
 30
0.0
 10
415.2340397685
 20
328.5696301882
 30
0.0
  0
SPLINE
  5
356
100
AcDbEntity
  8
0
100
AcDbSpline
 62
7
  6
CONTINUOUS
 70
0
 71
3
 72
9
 73
5
 74
0
 42
0.0000001
 43
0.0000001
 44
0.0000000001
 40
0.0
 40
0.0
 40
0.0
 40
0.0
 40
0.2629385566
 40
1.0
 40
1.0
 40
1.0
 40
1.0
 10
415.4799550276
 20
323.2496758406
 30
0.0
 10
415.5554488434
 20
323.2864153318
 30
0.0
 10
415.8423005432
 20
323.4266223314
 30
0.0
 10
416.1252518142
 20
323.5752606348
 30
0.0
 10
416.3287328737
 20
323.6935215963
 30
0.0
  0
SPLINE
  5
357
100
AcDbEntity
  8
0
100
AcDbSpline
 62
7
  6
CONTINUOUS
 70
0
 71
3
 72
11
 73
7
 74
0
 42
0.0000001
 43
0.0000001
 44
0.0000000001
 40
0.0
 40
0.0
 40
0.0
 40
0.0
 40
0.3178673627
 40
0.5921372327
 40
0.8177451325
 40
1.0
 40
1.0
 40
1.0
 40
1.0
 10
416.3287328737
 20
323.6935215963
 30
0.0
 10
416.4251137634
 20
323.749537113
 30
0.0
 10
416.6027932455
 20
323.8572004351
 30
0.0
 10
416.8400175498
 20
324.0186013001
 30
0.0
 10
417.0309655111
 20
324.1628111274
 30
0.0
 10
417.1398742687
 20
324.2558622226
 30
0.0
 10
417.1859355689
 20
324.3001763675
 30
0.0
  0
SPLINE
  5
358
100
AcDbEntity
  8
0
100
AcDbSpline
 62
7
  6
CONTINUOUS
 70
0
 71
3
 72
16
 73
12
 74
0
 42
0.0000001
 43
0.0000001
 44
0.0000000001
 40
0.0
 40
0.0
 40
0.0
 40
0.0
 40
0.1252478988
 40
0.2490262689
 40
0.3108611752
 40
0.3727433174
 40
0.4967921095
 40
0.6221956421
 40
0.7481810795
 40
0.8741847298
 40
1.0
 40
1.0
 40
1.0
 40
1.0
 10
411.4430224973
 20
328.4047988019
 30
0.0
 10
411.4750788447
 20
328.2162897495
 30
0.0
 10
411.5835843916
 20
327.8461713984
 30
0.0
 10
411.8692682711
 20
327.4505125918
 30
0.0
 10
412.1799741957
 20
327.2302237246
 30
0.0
 10
412.5317948882
 20
327.083476278
 30
0.0
 10
413.0182007201
 20
327.0464546512
 30
0.0
 10
413.5805995695
 20
327.1861566965
 30
0.0
 10
414.0977903274
 20
327.4483579614
 30
0.0
 10
414.5613864535
 20
327.7951909881
 30
0.0
 10
414.8350134897
 20
328.0669741189
 30
0.0
 10
414.9630122742
 20
328.2101928187
 30
0.0
  0
SPLINE
  5
359
100
AcDbEntity
  8
0
100
AcDbSpline
 62
7
  6
CONTINUOUS
 70
0
 71
3
 72
13
 73
9
 74
0
 42
0.0000001
 43
0.0000001
 44
0.0000000001
 40
0.0
 40
0.0
 40
0.0
 40
0.0
 40
0.2502989
 40
0.5003289529
 40
0.6253293424
 40
0.7501616665
 40
0.8752038474
 40
1.0
 40
1.0
 40
1.0
 40
1.0
 10
415.7137354636
 20
359.9365655925
 30
0.0
 10
415.6886093259
 20
360.1334976291
 30
0.0
 10
415.6312190147
 20
360.5264392726
 30
0.0
 10
415.5077072186
 20
361.0086029994
 30
0.0
 10
415.3649899722
 20
361.3788091186
 30
0.0
 10
415.2394607273
 20
361.6487905856
 30
0.0
 10
415.0939670064
 20
361.9076068133
 30
0.0
 10
414.9769929848
 20
362.0703404758
 30
0.0
 10
414.9058137726
 20
362.1391253101
 30
0.0
  0
SPLINE
  5
35A
100
AcDbEntity
  8
0
100
AcDbSpline
 62
7
  6
CONTINUOUS
 70
0
 71
3
 72
13
 73
9
 74
0
 42
0.0000001
 43
0.0000001
 44
0.0000000001
 40
0.0
 40
0.0
 40
0.0
 40
0.0
 40
0.2499472324
 40
0.3749685735
 40
0.4999999424
 40
0.6250313482
 40
0.7500527246
 40
1.0
 40
1.0
 40
1.0
 40
1.0
 10
415.7140023158
 20
330.463405848
 30
0.0
 10
415.9675693045
 20
332.9086829366
 30
0.0
 10
416.1833963719
 20
336.5943139256
 30
0.0
 10
416.2919425318
 20
341.5107046919
 30
0.0
 10
416.3165153793
 20
345.1999989599
 30
0.0
 10
416.2919426418
 20
348.8892935687
 30
0.0
 10
416.1833988856
 20
353.8056855177
 30
0.0
 10
415.9675705677
 20
357.4913172943
 30
0.0
 10
415.7140022286
 20
359.9365946677
 30
0.0
  0
SPLINE
  5
35B
100
AcDbEntity
  8
0
100
AcDbSpline
 62
7
  6
CONTINUOUS
 70
0
 71
3
 72
14
 73
10
 74
0
 42
0.0000001
 43
0.0000001
 44
0.0000000001
 40
0.0
 40
0.0
 40
0.0
 40
0.0
 40
0.1246301435
 40
0.1875247007
 40
0.250199358
 40
0.3749947569
 40
0.4997613183
 40
0.7497678555
 40
1.0
 40
1.0
 40
1.0
 40
1.0
 10
414.9058145786
 20
328.2608756117
 30
0.0
 10
414.977352294
 20
328.3291136695
 30
0.0
 10
415.0671033617
 20
328.4502374667
 30
0.0
 10
415.1667210647
 20
328.6216412015
 30
0.0
 10
415.2606667314
 20
328.7967328914
 30
0.0
 10
415.365363414
 20
329.0214471529
 30
0.0
 10
415.5064057246
 20
329.392117199
 30
0.0
 10
415.6323128503
 20
329.8733502699
 30
0.0
 10
415.6886144515
 20
330.2665321472
 30
0.0
 10
415.7137355553
 20
330.4634349251
 30
0.0
  0
SPLINE
  5
35C
100
AcDbEntity
  8
0
100
AcDbSpline
 62
7
  6
CONTINUOUS
 70
0
 71
3
 72
18
 73
14
 74
0
 42
0.0000001
 43
0.0000001
 44
0.0000000001
 40
0.0
 40
0.0
 40
0.0
 40
0.0
 40
0.1252957105
 40
0.2491017249
 40
0.3109351124
 40
0.3728379789
 40
0.4350014332
 40
0.4974894232
 40
0.6227891564
 40
0.7485376638
 40
0.8114970184
 40
0.8743650184
 40
1.0
 40
1.0
 40
1.0
 40
1.0
 10
411.4995558252
 20
328.4145491148
 30
0.0
 10
411.5367625109
 20
328.2321321356
 30
0.0
 10
411.6283501549
 20
327.8689619736
 30
0.0
 10
411.9084309814
 20
327.482430059
 30
0.0
 10
412.2112807354
 20
327.2688497694
 30
0.0
 10
412.4699290352
 20
327.1648364054
 30
0.0
 10
412.7453637589
 20
327.1199222164
 30
0.0
 10
413.1183587103
 20
327.1273736899
 30
0.0
 10
413.575060162
 20
327.248721711
 30
0.0
 10
413.9891312975
 20
327.4692034986
 30
0.0
 10
414.2964158992
 20
327.6826183655
 30
0.0
 10
414.5834545344
 20
327.9225853364
 30
0.0
 10
414.7781570569
 20
328.1246705944
 30
0.0
 10
414.9058145786
 20
328.2608756117
 30
0.0
  0
SPLINE
  5
35D
100
AcDbEntity
  8
0
100
AcDbSpline
 62
7
  6
CONTINUOUS
 70
0
 71
3
 72
8
 73
4
 74
0
 42
0.0000001
 43
0.0000001
 44
0.0000000001
 40
0.0
 40
0.0
 40
0.0
 40
0.0
 40
1.0
 40
1.0
 40
1.0
 40
1.0
 10
406.6015588311
 20
363.962810409
 30
0.0
 10
406.5272280118
 20
363.7908955156
 30
0.0
 10
406.4772406828
 20
363.6081904983
 30
0.0
 10
406.4401592354
 20
363.4246019161
 30
0.0
  0
SPLINE
  5
35E
100
AcDbEntity
  8
0
100
AcDbSpline
 62
7
  6
CONTINUOUS
 70
0
 71
3
 72
14
 73
10
 74
0
 42
0.0000001
 43
0.0000001
 44
0.0000000001
 40
0.0
 40
0.0
 40
0.0
 40
0.0
 40
0.2505807115
 40
0.3766260196
 40
0.5023441068
 40
0.6273070267
 40
0.7514585173
 40
0.8754499645
 40
1.0
 40
1.0
 40
1.0
 40
1.0
 10
410.0775855362
 20
364.4422978032
 30
0.0
 10
409.8122355443
 20
364.654897474
 30
0.0
 10
409.3588938825
 20
364.9173008538
 30
0.0
 10
408.6941535706
 20
365.0841733381
 30
0.0
 10
408.1787718007
 20
365.1012677807
 30
0.0
 10
407.6755064458
 20
364.996125566
 30
0.0
 10
407.2196283583
 20
364.7609291978
 30
0.0
 10
406.847383291
 20
364.4095092388
 30
0.0
 10
406.6701121166
 20
364.1172843799
 30
0.0
 10
406.6015588311
 20
363.962810409
 30
0.0
  0
SPLINE
  5
35F
100
AcDbEntity
  8
0
100
AcDbSpline
 62
7
  6
CONTINUOUS
 70
0
 71
3
 72
9
 73
5
 74
0
 42
0.0000001
 43
0.0000001
 44
0.0000000001
 40
0.0
 40
0.0
 40
0.0
 40
0.0
 40
0.4993746039
 40
1.0
 40
1.0
 40
1.0
 40
1.0
 10
410.5161004274
 20
364.0253780285
 30
0.0
 10
410.4492383017
 20
364.100958261
 30
0.0
 10
410.3165150347
 20
364.2543275639
 30
0.0
 10
410.156783207
 20
364.3793556163
 30
0.0
 10
410.0775855362
 20
364.4422978032
 30
0.0
  0
SPLINE
  5
360
100
AcDbEntity
  8
0
100
AcDbSpline
 62
7
  6
CONTINUOUS
 70
0
 71
3
 72
8
 73
4
 74
0
 42
0.0000001
 43
0.0000001
 44
0.0000000001
 40
0.0
 40
0.0
 40
0.0
 40
0.0
 40
1.0
 40
1.0
 40
1.0
 40
1.0
 10
410.9425978512
 20
363.4333497853
 30
0.0
 10
410.8145124145
 20
363.6401090606
 30
0.0
 10
410.6723766111
 20
363.8390100284
 30
0.0
 10
410.5161004274
 20
364.0253780285
 30
0.0
  0
SPLINE
  5
361
100
AcDbEntity
  8
0
100
AcDbSpline
 62
7
  6
CONTINUOUS
 70
0
 71
3
 72
8
 73
4
 74
0
 42
0.0000001
 43
0.0000001
 44
0.0000000001
 40
0.0
 40
0.0
 40
0.0
 40
0.0
 40
1.0
 40
1.0
 40
1.0
 40
1.0
 10
411.4450086189
 20
362.0049328488
 30
0.0
 10
411.397889907
 20
362.2777351397
 30
0.0
 10
411.3319532557
 20
362.5486056259
 30
0.0
 10
411.2402857705
 20
362.809830309
 30
0.0
  0
SPLINE
  5
362
100
AcDbEntity
  8
0
100
AcDbSpline
 62
7
  6
CONTINUOUS
 70
0
 71
3
 72
10
 73
6
 74
0
 42
0.0000001
 43
0.0000001
 44
0.0000000001
 40
0.0
 40
0.0
 40
0.0
 40
0.0
 40
0.5153146661
 40
0.7541234035
 40
1.0
 40
1.0
 40
1.0
 40
1.0
 10
411.3781507882
 20
361.974589263
 30
0.0
 10
411.379217862
 20
361.9778577472
 30
0.0
 10
411.3807875435
 20
361.9827241524
 30
0.0
 10
411.3865290547
 20
361.9873644836
 30
0.0
 10
411.3899776887
 20
361.9861465161
 30
0.0
 10
411.3914584516
 20
361.9854403495
 30
0.0
  0
SPLINE
  5
363
100
AcDbEntity
  8
0
100
AcDbSpline
 62
7
  6
CONTINUOUS
 70
0
 71
3
 72
18
 73
14
 74
0
 42
0.0000001
 43
0.0000001
 44
0.0000000001
 40
0.0
 40
0.0
 40
0.0
 40
0.0
 40
0.0628132333
 40
0.1252381915
 40
0.2484302045
 40
0.3107471763
 40
0.3734733473
 40
0.4364023507
 40
0.4994284465
 40
0.6247146511
 40
0.7495521543
 40
0.8745091983
 40
1.0
 40
1.0
 40
1.0
 40
1.0
 10
406.4995381379
 20
363.4139495102
 30
0.0
 10
406.5274889373
 20
363.5647254015
 30
0.0
 10
406.6047772471
 20
363.86306544
 30
0.0
 10
406.8899419687
 20
364.403351502
 30
0.0
 10
407.3733003771
 20
364.8196617706
 30
0.0
 10
407.9560359864
 20
365.0033439403
 30
0.0
 10
408.4169787708
 20
365.0448386003
 30
0.0
 10
408.8765262731
 20
364.9799220076
 30
0.0
 10
409.4608182309
 20
364.7854705675
 30
0.0
 10
410.1184482476
 20
364.3709939309
 30
0.0
 10
410.7363805684
 20
363.6829797173
 30
0.0
 10
411.1795515241
 20
362.8718903198
 30
0.0
 10
411.3361016998
 20
362.2734577713
 30
0.0
 10
411.3781502179
 20
361.9699987966
 30
0.0
  0
SPLINE
  5
364
100
AcDbEntity
  8
0
100
AcDbSpline
 62
7
  6
CONTINUOUS
 70
0
 71
3
 72
10
 73
6
 74
0
 42
0.0000001
 43
0.0000001
 44
0.0000000001
 40
0.0
 40
0.0
 40
0.0
 40
0.0
 40
0.1774132406
 40
0.4125497528
 40
1.0
 40
1.0
 40
1.0
 40
1.0
 10
392.3973768555
 20
367.1503337676
 30
0.0
 10
392.4245235738
 20
366.8566196022
 30
0.0
 10
392.4817251454
 20
366.1730928796
 30
0.0
 10
392.6299540775
 20
364.5171488276
 30
0.0
 10
392.7822914764
 20
363.1575325437
 30
0.0
 10
392.9143231527
 20
362.1898071814
 30
0.0
  0
SPLINE
  5
365
100
AcDbEntity
  8
0
100
AcDbSpline
 62
7
  6
CONTINUOUS
 70
0
 71
3
 72
10
 73
6
 74
0
 42
0.0000001
 43
0.0000001
 44
0.0000000001
 40
0.0
 40
0.0
 40
0.0
 40
0.0
 40
0.5874498229
 40
0.8225861322
 40
1.0
 40
1.0
 40
1.0
 40
1.0
 10
414.9629734277
 20
362.1898668147
 30
0.0
 10
415.0950046045
 20
363.1575814729
 30
0.0
 10
415.2473900587
 20
364.5171770482
 30
0.0
 10
415.3956167937
 20
366.1731045192
 30
0.0
 10
415.4528030204
 20
366.8566262361
 30
0.0
 10
415.479949707
 20
367.1503384284
 30
0.0
  0
SPLINE
  5
366
100
AcDbEntity
  8
0
100
AcDbSpline
 62
7
  6
CONTINUOUS
 70
0
 71
3
 72
16
 73
12
 74
0
 42
0.0000001
 43
0.0000001
 44
0.0000000001
 40
0.0
 40
0.0
 40
0.0
 40
0.0
 40
0.1252478988
 40
0.2490262689
 40
0.3108611752
 40
0.3727433174
 40
0.4967921095
 40
0.6221956421
 40
0.7481810795
 40
0.8741847298
 40
1.0
 40
1.0
 40
1.0
 40
1.0
 10
396.4343129296
 20
361.9952011982
 30
0.0
 10
396.4022565822
 20
362.1837102505
 30
0.0
 10
396.2937510353
 20
362.5538286017
 30
0.0
 10
396.0080671558
 20
362.9494874083
 30
0.0
 10
395.6973612312
 20
363.1697762755
 30
0.0
 10
395.3455405387
 20
363.3165237221
 30
0.0
 10
394.8591347068
 20
363.3535453489
 30
0.0
 10
394.2967358574
 20
363.2138433036
 30
0.0
 10
393.7795450994
 20
362.9516420387
 30
0.0
 10
393.3159489734
 20
362.604809012
 30
0.0
 10
393.0423219372
 20
362.3330258812
 30
0.0
 10
392.9143231527
 20
362.1898071814
 30
0.0
  0
SPLINE
  5
367
100
AcDbEntity
  8
0
100
AcDbSpline
 62
7
  6
CONTINUOUS
 70
0
 71
3
 72
17
 73
13
 74
0
 42
0.0000001
 43
0.0000001
 44
0.0000000001
 40
0.0
 40
0.0
 40
0.0
 40
0.0
 40
0.0628784909
 40
0.1253702504
 40
0.1875296572
 40
0.249644249
 40
0.3120354711
 40
0.3748217758
 40
0.5004615837
 40
0.6259837242
 40
0.751041965
 40
1.0
 40
1.0
 40
1.0
 40
1.0
 10
401.4372346551
 20
363.4245847676
 30
0.0
 10
401.4112782434
 20
363.5791867382
 30
0.0
 10
401.3282347734
 20
363.8833276861
 30
0.0
 10
401.107108271
 20
364.2998928637
 30
0.0
 10
400.7929484455
 20
364.6503060915
 30
0.0
 10
400.4001135934
 20
364.9093715179
 30
0.0
 10
399.9535731021
 20
365.061615714
 30
0.0
 10
399.3261034431
 20
365.1201639775
 30
0.0
 10
398.5425954986
 20
364.9438067424
 30
0.0
 10
397.7327768675
 20
364.4434519688
 30
0.0
 10
396.8824974224
 20
363.5206971333
 30
0.0
 10
396.5144623683
 20
362.6106953494
 30
0.0
 10
396.4343129296
 20
361.9952011982
 30
0.0
  0
SPLINE
  5
368
100
AcDbEntity
  8
0
100
AcDbSpline
 62
7
  6
CONTINUOUS
 70
0
 71
3
 72
20
 73
16
 74
0
 42
0.0000001
 43
0.0000001
 44
0.0000000001
 40
0.0
 40
0.0
 40
0.0
 40
0.0
 40
0.1253093708
 40
0.250061566
 40
0.3124984328
 40
0.3749936649
 40
0.5002445502
 40
0.5631941611
 40
0.6260620928
 40
0.6887013179
 40
0.7509617044
 40
0.8129452384
 40
0.8749508359
 40
0.9372715715
 40
1.0
 40
1.0
 40
1.0
 40
1.0
 10
396.4995490209
 20
361.9854618475
 30
0.0
 10
396.5433373175
 20
362.2879679114
 30
0.0
 10
396.7014023273
 20
362.8841883366
 30
0.0
 10
397.0737880792
 20
363.5579809656
 30
0.0
 10
397.457003201
 20
364.0329314208
 30
0.0
 10
397.8951385612
 20
364.4594311994
 30
0.0
 10
398.4230679966
 20
364.7894027387
 30
0.0
 10
399.0071745243
 20
364.9819283494
 30
0.0
 10
399.4660854114
 20
365.0419430234
 30
0.0
 10
399.9264577265
 20
365.0052053618
 30
0.0
 10
400.3638848622
 20
364.8605895749
 30
0.0
 10
400.7487329015
 20
364.6095424576
 30
0.0
 10
401.0568986885
 20
364.2691038573
 30
0.0
 10
401.2734979085
 20
363.8620579401
 30
0.0
 10
401.3489381176
 20
363.5643254198
 30
0.0
 10
401.3777775107
 20
363.414058537
 30
0.0
  0
SPLINE
  5
369
100
AcDbEntity
  8
0
100
AcDbSpline
 62
7
  6
CONTINUOUS
 70
0
 71
3
 72
17
 73
13
 74
0
 42
0.0000001
 43
0.0000001
 44
0.0000000001
 40
0.0
 40
0.0
 40
0.0
 40
0.0
 40
0.1251685475
 40
0.2495038807
 40
0.3119211961
 40
0.3745621743
 40
0.5000107114
 40
0.6254707206
 40
0.6881095669
 40
0.7505126742
 40
0.8748379295
 40
1.0
 40
1.0
 40
1.0
 40
1.0
 10
406.4401592354
 20
363.4246019161
 30
0.0
 10
406.3942564101
 20
363.7234375217
 30
0.0
 10
406.1994169806
 20
364.3077631306
 30
0.0
 10
405.7282460484
 20
364.9152515266
 30
0.0
 10
405.2452027119
 20
365.2804862815
 30
0.0
 10
404.7004708662
 20
365.550343389
 30
0.0
 10
403.9386033841
 20
365.6985018933
 30
0.0
 10
403.1764141049
 20
365.5508386632
 30
0.0
 10
402.6321089121
 20
365.2801413504
 30
0.0
 10
402.1491380371
 20
364.9150269571
 30
0.0
 10
401.6775664096
 20
364.3078517904
 30
0.0
 10
401.4831333982
 20
363.7234051719
 30
0.0
 10
401.4372346551
 20
363.4245847676
 30
0.0
  0
SPLINE
  5
36A
100
AcDbEntity
  8
0
100
AcDbSpline
 62
7
  6
CONTINUOUS
 70
0
 71
3
 72
15
 73
11
 74
0
 42
0.0000001
 43
0.0000001
 44
0.0000000001
 40
0.0
 40
0.0
 40
0.0
 40
0.0
 40
0.1253135004
 40
0.2497678799
 40
0.3744527796
 40
0.5000302114
 40
0.6255893264
 40
0.7502604635
 40
0.8746968512
 40
1.0
 40
1.0
 40
1.0
 40
1.0
 10
401.4995509871
 20
363.4140544373
 30
0.0
 10
401.5453026517
 20
363.7050770758
 30
0.0
 10
401.7358190411
 20
364.2738644946
 30
0.0
 10
402.2848628728
 20
364.984317956
 30
0.0
 10
403.0516215492
 20
365.4548444631
 30
0.0
 10
403.9388426161
 20
365.6327220858
 30
0.0
 10
404.8259868763
 20
365.4546790915
 30
0.0
 10
405.5925860806
 20
364.9841492001
 30
0.0
 10
406.1415794579
 20
364.2737842115
 30
0.0
 10
406.3320320866
 20
363.7050457252
 30
0.0
 10
406.3777798471
 20
363.414047107
 30
0.0
  0
SPLINE
  5
36B
100
AcDbEntity
  8
0
100
AcDbSpline
 62
7
  6
CONTINUOUS
 70
0
 71
3
 72
11
 73
7
 74
0
 42
0.0000001
 43
0.0000001
 44
0.0000000001
 40
0.0
 40
0.0
 40
0.0
 40
0.0
 40
0.2513262358
 40
0.5026894673
 40
0.7535585255
 40
1.0
 40
1.0
 40
1.0
 40
1.0
 10
409.9403019783
 20
355.8598193005
 30
0.0
 10
409.8617052374
 20
356.3501806672
 30
0.0
 10
409.5821809656
 20
357.3156947089
 30
0.0
 10
408.8248492039
 20
358.6145152707
 30
0.0
 10
407.7831233002
 20
359.6849063463
 30
0.0
 10
406.9402164729
 20
360.2109487732
 30
0.0
 10
406.4995381379
 20
360.4181695523
 30
0.0
  0
LINE
  5
36C
100
AcDbEntity
  8
0
100
AcDbLine
 62
7
  6
CONTINUOUS
 10
409.8703112772
 20
355.8256276525
 11
409.9403024667
 21
355.8598193391
  0
LINE
  5
36D
100
AcDbEntity
  8
0
100
AcDbLine
 62
7
  6
CONTINUOUS
 10
397.9370330048
 20
355.8598196197
 11
398.007024199
 21
355.8256288799
  0
SPLINE
  5
36E
100
AcDbEntity
  8
0
100
AcDbSpline
 62
7
  6
CONTINUOUS
 70
0
 71
3
 72
11
 73
7
 74
0
 42
0.0000001
 43
0.0000001
 44
0.0000000001
 40
0.0
 40
0.0
 40
0.0
 40
0.0
 40
0.2464351168
 40
0.4973231187
 40
0.7486695815
 40
1.0
 40
1.0
 40
1.0
 40
1.0
 10
401.3777775107
 20
360.4181596976
 30
0.0
 10
400.9371128066
 20
360.2109439452
 30
0.0
 10
400.0941976598
 20
359.6848782119
 30
0.0
 10
399.0524699296
 20
358.6145062932
 30
0.0
 10
398.2951489374
 20
357.3156725698
 30
0.0
 10
398.0156312558
 20
356.3501871736
 30
0.0
 10
397.9370334924
 20
355.8598195746
 30
0.0
  0
SPLINE
  5
36F
100
AcDbEntity
  8
0
100
AcDbSpline
 62
7
  6
CONTINUOUS
 70
0
 71
3
 72
8
 73
4
 74
0
 42
0.0000001
 43
0.0000001
 44
0.0000000001
 40
0.0
 40
0.0
 40
0.0
 40
0.0
 40
1.0
 40
1.0
 40
1.0
 40
1.0
 10
409.9931391773
 20
355.7532890292
 30
0.0
 10
409.965749652
 20
355.7819416421
 30
0.0
 10
409.9465326204
 20
355.8206741796
 30
0.0
 10
409.9403024667
 20
355.8598193391
 30
0.0
  0
SPLINE
  5
370
100
AcDbEntity
  8
0
100
AcDbSpline
 62
7
  6
CONTINUOUS
 70
0
 71
3
 72
9
 73
5
 74
0
 42
0.0000001
 43
0.0000001
 44
0.0000000001
 40
0.0
 40
0.0
 40
0.0
 40
0.0
 40
0.2370603575
 40
1.0
 40
1.0
 40
1.0
 40
1.0
 10
409.870308237
 20
355.8256272207
 30
0.0
 10
409.871782366
 20
355.8162417051
 30
0.0
 10
409.8810243547
 20
355.77719893
 30
0.0
 10
409.9020111505
 20
355.7408181945
 30
0.0
 10
409.9231049303
 20
355.7186834574
 30
0.0
  0
SPLINE
  5
371
100
AcDbEntity
  8
0
100
AcDbSpline
 62
7
  6
CONTINUOUS
 70
0
 71
3
 72
16
 73
12
 74
0
 42
0.0000001
 43
0.0000001
 44
0.0000000001
 40
0.0
 40
0.0
 40
0.0
 40
0.0
 40
0.0203952693
 40
0.0656919758
 40
0.1219846632
 40
0.1829730441
 40
0.3129013792
 40
0.4474958522
 40
0.5843083162
 40
0.7223433478
 40
1.0
 40
1.0
 40
1.0
 40
1.0
 10
409.8703105079
 20
355.8256276585
 30
0.0
 10
409.8690622542
 20
355.8294774163
 30
0.0
 10
409.8603456046
 20
355.8396965603
 30
0.0
 10
409.8498434223
 20
355.8614355299
 30
0.0
 10
409.8331384291
 20
355.8891017577
 30
0.0
 10
409.8084479242
 20
355.9314647584
 30
0.0
 10
409.7761350359
 20
355.9874060064
 30
0.0
 10
409.7357810235
 20
356.0560601618
 30
0.0
 10
409.6937151028
 20
356.1255716766
 30
0.0
 10
409.6362383474
 20
356.2189323939
 30
0.0
 10
409.5919407198
 20
356.2885226565
 30
0.0
 10
409.5619781928
 20
356.3347590662
 30
0.0
  0
SPLINE
  5
372
100
AcDbEntity
  8
0
100
AcDbSpline
 62
7
  6
CONTINUOUS
 70
0
 71
3
 72
16
 73
12
 74
0
 42
0.0000001
 43
0.0000001
 44
0.0000000001
 40
0.0
 40
0.0
 40
0.0
 40
0.0
 40
0.2776513958
 40
0.4156836405
 40
0.5524949389
 40
0.6870824894
 40
0.8169693117
 40
0.8780613212
 40
0.9343681986
 40
0.979405251
 40
1.0
 40
1.0
 40
1.0
 40
1.0
 10
398.3153572251
 20
356.3347590307
 30
0.0
 10
398.2853964296
 20
356.2885231439
 30
0.0
 10
398.2410960831
 20
356.2189370587
 30
0.0
 10
398.1836241246
 20
356.1255763969
 30
0.0
 10
398.1415573409
 20
356.0560682667
 30
0.0
 10
398.1012170195
 20
355.9874188126
 30
0.0
 10
398.068861115
 20
355.9314883363
 30
0.0
 10
398.0441755467
 20
355.8891091034
 30
0.0
 10
398.0276234614
 20
355.8613765425
 30
0.0
 10
398.0169296719
 20
355.8397857247
 30
0.0
 10
398.0082242936
 20
355.8295368197
 30
0.0
 10
398.0070252909
 20
355.8256300412
 30
0.0
  0
SPLINE
  5
373
100
AcDbEntity
  8
0
100
AcDbSpline
 62
7
  6
CONTINUOUS
 70
0
 71
3
 72
16
 73
12
 74
0
 42
0.0000001
 43
0.0000001
 44
0.0000000001
 40
0.0
 40
0.0
 40
0.0
 40
0.0
 40
0.0072805659
 40
0.0362987314
 40
0.0764174785
 40
0.1251577016
 40
0.2466866516
 40
0.3850219732
 40
0.5327210933
 40
0.6860066997
 40
1.0
 40
1.0
 40
1.0
 40
1.0
 10
397.9541548091
 20
355.7185831849
 30
0.0
 10
397.9536059469
 20
355.7170277892
 30
0.0
 10
397.9659804219
 20
355.728993645
 30
0.0
 10
397.971987251
 20
355.7344859178
 30
0.0
 10
397.9941942313
 20
355.7563337545
 30
0.0
 10
398.0266476249
 20
355.7882710505
 30
0.0
 10
398.0772736083
 20
355.8383899306
 30
0.0
 10
398.1430306435
 20
355.9024901772
 30
0.0
 10
398.2149952712
 20
355.9714605582
 30
0.0
 10
398.3165357098
 20
356.0667789194
 30
0.0
 10
398.3948833116
 20
356.1380192928
 30
0.0
 10
398.4481097033
 20
356.1852110584
 30
0.0
  0
SPLINE
  5
374
100
AcDbEntity
  8
0
100
AcDbSpline
 62
7
  6
CONTINUOUS
 70
0
 71
3
 72
9
 73
5
 74
0
 42
0.0000001
 43
0.0000001
 44
0.0000000001
 40
0.0
 40
0.0
 40
0.0
 40
0.0
 40
0.2370620742
 40
1.0
 40
1.0
 40
1.0
 40
1.0
 10
398.0070254316
 20
355.825628692
 30
0.0
 10
398.0055516545
 20
355.816242539
 30
0.0
 10
397.9963114443
 20
355.7771971831
 30
0.0
 10
397.9753272099
 20
355.7408127896
 30
0.0
 10
397.9542347475
 20
355.7186746415
 30
0.0
  0
SPLINE
  5
375
100
AcDbEntity
  8
0
100
AcDbSpline
 62
7
  6
CONTINUOUS
 70
0
 71
3
 72
8
 73
4
 74
0
 42
0.0000001
 43
0.0000001
 44
0.0000000001
 40
0.0
 40
0.0
 40
0.0
 40
0.0
 40
1.0
 40
1.0
 40
1.0
 40
1.0
 10
397.9370330048
 20
355.8598196197
 30
0.0
 10
397.9308027245
 20
355.8206733049
 30
0.0
 10
397.9115847345
 20
355.7819395885
 30
0.0
 10
397.8841939245
 20
355.7532865977
 30
0.0
  0
SPLINE
  5
376
100
AcDbEntity
  8
0
100
AcDbSpline
 62
7
  6
CONTINUOUS
 70
0
 71
3
 72
13
 73
9
 74
0
 42
0.0000001
 43
0.0000001
 44
0.0000000001
 40
0.0
 40
0.0
 40
0.0
 40
0.0
 40
0.2502989
 40
0.5003289529
 40
0.6253293424
 40
0.7501616665
 40
0.8752038474
 40
1.0
 40
1.0
 40
1.0
 40
1.0
 10
392.1635999633
 20
330.4634344076
 30
0.0
 10
392.188726101
 20
330.266502371
 30
0.0
 10
392.2461164122
 20
329.8735607275
 30
0.0
 10
392.3696282083
 20
329.3913970007
 30
0.0
 10
392.5123454547
 20
329.0211908815
 30
0.0
 10
392.6378746996
 20
328.7512094145
 30
0.0
 10
392.7833684205
 20
328.4923931868
 30
0.0
 10
392.9003424421
 20
328.3296595243
 30
0.0
 10
392.9715216543
 20
328.26087469
 30
0.0
  0
SPLINE
  5
377
100
AcDbEntity
  8
0
100
AcDbSpline
 62
7
  6
CONTINUOUS
 70
0
 71
3
 72
13
 73
9
 74
0
 42
0.0000001
 43
0.0000001
 44
0.0000000001
 40
0.0
 40
0.0
 40
0.0
 40
0.0
 40
0.2499472324
 40
0.3749685735
 40
0.4999999424
 40
0.6250313482
 40
0.7500527246
 40
1.0
 40
1.0
 40
1.0
 40
1.0
 10
392.1633331111
 20
359.9365941521
 30
0.0
 10
391.9097661224
 20
357.4913170634
 30
0.0
 10
391.693939055
 20
353.8056860744
 30
0.0
 10
391.5853928951
 20
348.8892953082
 30
0.0
 10
391.5608200476
 20
345.2000010402
 30
0.0
 10
391.5853927851
 20
341.5107064314
 30
0.0
 10
391.6939365412
 20
336.5943144824
 30
0.0
 10
391.9097648592
 20
332.9086827058
 30
0.0
 10
392.1633331983
 20
330.4634053324
 30
0.0
  0
SPLINE
  5
378
100
AcDbEntity
  8
0
100
AcDbSpline
 62
7
  6
CONTINUOUS
 70
0
 71
3
 72
14
 73
10
 74
0
 42
0.0000001
 43
0.0000001
 44
0.0000000001
 40
0.0
 40
0.0
 40
0.0
 40
0.0
 40
0.1246301435
 40
0.1875247007
 40
0.250199358
 40
0.3749947569
 40
0.4997613183
 40
0.7497678555
 40
1.0
 40
1.0
 40
1.0
 40
1.0
 10
392.9715208483
 20
362.1391243884
 30
0.0
 10
392.8999831329
 20
362.0708863306
 30
0.0
 10
392.8102320652
 20
361.9497625334
 30
0.0
 10
392.7106143622
 20
361.7783587986
 30
0.0
 10
392.6166686955
 20
361.6032671087
 30
0.0
 10
392.5119720129
 20
361.3785528471
 30
0.0
 10
392.3709297023
 20
361.0078828011
 30
0.0
 10
392.2450225766
 20
360.5266497302
 30
0.0
 10
392.1887209754
 20
360.1334678529
 30
0.0
 10
392.1635998716
 20
359.936565075
 30
0.0
  0
SPLINE
  5
379
100
AcDbEntity
  8
0
100
AcDbSpline
 62
7
  6
CONTINUOUS
 70
0
 71
3
 72
18
 73
14
 74
0
 42
0.0000001
 43
0.0000001
 44
0.0000000001
 40
0.0
 40
0.0
 40
0.0
 40
0.0
 40
0.1252957105
 40
0.2491017249
 40
0.3109351124
 40
0.3728379789
 40
0.4350014332
 40
0.4974894232
 40
0.6227891564
 40
0.7485376638
 40
0.8114970184
 40
0.8743650184
 40
1.0
 40
1.0
 40
1.0
 40
1.0
 10
396.3777796017
 20
361.9854508853
 30
0.0
 10
396.340572916
 20
362.1678678645
 30
0.0
 10
396.248985272
 20
362.5310380265
 30
0.0
 10
395.9689044455
 20
362.9175699411
 30
0.0
 10
395.6660546915
 20
363.1311502307
 30
0.0
 10
395.4074063917
 20
363.2351635947
 30
0.0
 10
395.131971668
 20
363.2800777837
 30
0.0
 10
394.7589767166
 20
363.2726263102
 30
0.0
 10
394.3022752649
 20
363.151278289
 30
0.0
 10
393.8882041294
 20
362.9307965015
 30
0.0
 10
393.5809195276
 20
362.7173816346
 30
0.0
 10
393.2938808925
 20
362.4774146637
 30
0.0
 10
393.09917837
 20
362.2753294057
 30
0.0
 10
392.9715208483
 20
362.1391243884
 30
0.0
  0
SPLINE
  5
37A
100
AcDbEntity
  8
0
100
AcDbSpline
 62
7
  6
CONTINUOUS
 70
0
 71
3
 72
9
 73
5
 74
0
 42
0.0000001
 43
0.0000001
 44
0.0000000001
 40
0.0
 40
0.0
 40
0.0
 40
0.0
 40
0.4774583051
 40
1.0
 40
1.0
 40
1.0
 40
1.0
 10
396.4858742093
 20
328.4145596498
 30
0.0
 10
396.4883078941
 20
328.413599868
 30
0.0
 10
396.4948345563
 20
328.4137353709
 30
0.0
 10
396.497741968
 20
328.4189957861
 30
0.0
 10
396.4994401191
 20
328.4213009494
 30
0.0
  0
SPLINE
  5
37B
100
AcDbEntity
  8
0
100
AcDbSpline
 62
7
  6
CONTINUOUS
 70
0
 71
3
 72
8
 73
4
 74
0
 42
0.0000001
 43
0.0000001
 44
0.0000000001
 40
0.0
 40
0.0
 40
0.0
 40
0.0
 40
1.0
 40
1.0
 40
1.0
 40
1.0
 10
401.2757410624
 20
326.4371103207
 30
0.0
 10
401.3501051205
 20
326.6090478214
 30
0.0
 10
401.4001268299
 20
326.7917788933
 30
0.0
 10
401.4372362469
 20
326.9753964536
 30
0.0
  0
SPLINE
  5
37C
100
AcDbEntity
  8
0
100
AcDbSpline
 62
7
  6
CONTINUOUS
 70
0
 71
3
 72
14
 73
10
 74
0
 42
0.0000001
 43
0.0000001
 44
0.0000000001
 40
0.0
 40
0.0
 40
0.0
 40
0.0
 40
0.2505806896
 40
0.3766260128
 40
0.5023440978
 40
0.6273071128
 40
0.7514586923
 40
0.8754500322
 40
1.0
 40
1.0
 40
1.0
 40
1.0
 10
397.7997459232
 20
325.9577052751
 30
0.0
 10
398.0650887691
 20
325.7451076313
 30
0.0
 10
398.5184229673
 20
325.4827136149
 30
0.0
 10
399.1831458324
 20
325.3158311025
 30
0.0
 10
399.6985174356
 20
325.2987280551
 30
0.0
 10
400.2017743524
 20
325.4038580016
 30
0.0
 10
400.6576523552
 20
325.6390313147
 30
0.0
 10
401.0299022199
 20
325.9904322064
 30
0.0
 10
401.2071786927
 20
326.2826441879
 30
0.0
 10
401.2757410624
 20
326.4371103207
 30
0.0
  0
SPLINE
  5
37D
100
AcDbEntity
  8
0
100
AcDbSpline
 62
7
  6
CONTINUOUS
 70
0
 71
3
 72
9
 73
5
 74
0
 42
0.0000001
 43
0.0000001
 44
0.0000000001
 40
0.0
 40
0.0
 40
0.0
 40
0.0
 40
0.4993744204
 40
1.0
 40
1.0
 40
1.0
 40
1.0
 10
397.361287428
 20
326.3745608743
 30
0.0
 10
397.4281417917
 20
326.2989927084
 30
0.0
 10
397.5608436202
 20
326.145641835
 30
0.0
 10
397.7205595024
 20
326.0206388877
 30
0.0
 10
397.7997459232
 20
325.9577052751
 30
0.0
  0
SPLINE
  5
37E
100
AcDbEntity
  8
0
100
AcDbSpline
 62
7
  6
CONTINUOUS
 70
0
 71
3
 72
8
 73
4
 74
0
 42
0.0000001
 43
0.0000001
 44
0.0000000001
 40
0.0
 40
0.0
 40
0.0
 40
0.0
 40
1.0
 40
1.0
 40
1.0
 40
1.0
 10
396.9348041665
 20
326.9665415839
 30
0.0
 10
397.0628892721
 20
326.7598004725
 30
0.0
 10
397.2050202951
 20
326.5609160851
 30
0.0
 10
397.361287428
 20
326.3745608743
 30
0.0
  0
SPLINE
  5
37F
100
AcDbEntity
  8
0
100
AcDbSpline
 62
7
  6
CONTINUOUS
 70
0
 71
3
 72
8
 73
4
 74
0
 42
0.0000001
 43
0.0000001
 44
0.0000000001
 40
0.0
 40
0.0
 40
0.0
 40
0.0
 40
1.0
 40
1.0
 40
1.0
 40
1.0
 10
396.4323268017
 20
328.3950671305
 30
0.0
 10
396.4794543645
 20
328.1222293271
 30
0.0
 10
396.5453997036
 20
327.8513226849
 30
0.0
 10
396.6370860698
 20
327.5900659445
 30
0.0
  0
SPLINE
  5
380
100
AcDbEntity
  8
0
100
AcDbSpline
 62
7
  6
CONTINUOUS
 70
0
 71
3
 72
18
 73
14
 74
0
 42
0.0000001
 43
0.0000001
 44
0.0000000001
 40
0.0
 40
0.0
 40
0.0
 40
0.0
 40
0.0628082453
 40
0.1252373901
 40
0.2484350841
 40
0.3107489435
 40
0.3734693383
 40
0.4363965556
 40
0.4994173661
 40
0.6247011638
 40
0.7495407998
 40
0.8745046315
 40
1.0
 40
1.0
 40
1.0
 40
1.0
 10
401.3777722509
 20
326.9859748452
 30
0.0
 10
401.3503403451
 20
326.8352955522
 30
0.0
 10
401.2726692121
 20
326.5373612468
 30
0.0
 10
400.9880499968
 20
325.9976903626
 30
0.0
 10
400.505685389
 20
325.5813822934
 30
0.0
 10
399.9238574272
 20
325.3972169275
 30
0.0
 10
399.4635331593
 20
325.3551167915
 30
0.0
 10
399.0044619372
 20
325.4193119844
 30
0.0
 10
398.4205272006
 20
325.6125065691
 30
0.0
 10
397.763063684
 20
326.0255945871
 30
0.0
 10
397.1448162644
 20
326.7118382524
 30
0.0
 10
396.700463793
 20
327.521163246
 30
0.0
 10
396.5430400216
 20
328.1185110241
 30
0.0
 10
396.4995908136
 20
328.4214274297
 30
0.0
  0
SPLINE
  5
381
100
AcDbEntity
  8
0
100
AcDbSpline
 62
7
  6
CONTINUOUS
 70
0
 71
3
 72
9
 73
5
 74
0
 42
0.0000001
 43
0.0000001
 44
0.0000000001
 40
0.0
 40
0.0
 40
0.0
 40
0.0
 40
0.5001323917
 40
1.0
 40
1.0
 40
1.0
 40
1.0
 10
396.4323338608
 20
328.3950858062
 30
0.0
 10
396.4386559219
 20
328.4022456168
 30
0.0
 10
396.4584556264
 20
328.4082710973
 30
0.0
 10
396.4766828388
 20
328.4119661329
 30
0.0
 10
396.4858742169
 20
328.4145455397
 30
0.0
  0
SPLINE
  5
382
100
AcDbEntity
  8
0
100
AcDbSpline
 62
7
  6
CONTINUOUS
 70
0
 71
3
 72
8
 73
4
 74
0
 42
0.0000001
 43
0.0000001
 44
0.0000000001
 40
0.0
 40
0.0
 40
0.0
 40
0.0
 40
1.0
 40
1.0
 40
1.0
 40
1.0
 10
403.0761714562
 20
327.5
 30
0.0
 10
403.0761714562
 20
327.6125181298
 30
0.0
 10
403.0992979316
 20
327.727141207
 30
0.0
 10
403.1427835226
 20
327.8309166034
 30
0.0
  0
SPLINE
  5
383
100
AcDbEntity
  8
0
100
AcDbSpline
 62
7
  6
CONTINUOUS
 70
0
 71
3
 72
8
 73
4
 74
0
 42
0.0000001
 43
0.0000001
 44
0.0000000001
 40
0.0
 40
0.0
 40
0.0
 40
0.0
 40
1.0
 40
1.0
 40
1.0
 40
1.0
 10
404.7348432203
 20
327.8302360408
 30
0.0
 10
404.7781488441
 20
327.726647168
 30
0.0
 10
404.8011639707
 20
327.6122765854
 30
0.0
 10
404.8011639707
 20
327.5
 30
0.0
  0
SPLINE
  5
384
100
AcDbEntity
  8
0
100
AcDbSpline
 62
7
  6
CONTINUOUS
 70
0
 71
3
 72
8
 73
4
 74
0
 42
0.0000001
 43
0.0000001
 44
0.0000000001
 40
0.0
 40
0.0
 40
0.0
 40
0.0
 40
1.0
 40
1.0
 40
1.0
 40
1.0
 10
404.8011639707
 20
327.5
 30
0.0
 10
404.8011639707
 20
327.3874818703
 30
0.0
 10
404.7780374953
 20
327.2728587931
 30
0.0
 10
404.7345519043
 20
327.1690833967
 30
0.0
  0
SPLINE
  5
385
100
AcDbEntity
  8
0
100
AcDbSpline
 62
7
  6
CONTINUOUS
 70
0
 71
3
 72
8
 73
4
 74
0
 42
0.0000001
 43
0.0000001
 44
0.0000000001
 40
0.0
 40
0.0
 40
0.0
 40
0.0
 40
1.0
 40
1.0
 40
1.0
 40
1.0
 10
403.1424922066
 20
327.1697639593
 30
0.0
 10
403.0991865828
 20
327.2733528321
 30
0.0
 10
403.0761714562
 20
327.3877234147
 30
0.0
 10
403.0761714562
 20
327.5
 30
0.0
  0
SPLINE
  5
386
100
AcDbEntity
  8
0
100
AcDbSpline
 62
7
  6
CONTINUOUS
 70
0
 71
3
 72
15
 73
11
 74
0
 42
0.0000001
 43
0.0000001
 44
0.0000000001
 40
0.0
 40
0.0
 40
0.0
 40
0.0
 40
0.1253114349
 40
0.2497667224
 40
0.3744528646
 40
0.5000321505
 40
0.6255919836
 40
0.7502626133
 40
0.8747002697
 40
1.0
 40
1.0
 40
1.0
 40
1.0
 10
406.3777849734
 20
326.985947574
 30
0.0
 10
406.3319800228
 20
326.694940755
 30
0.0
 10
406.141456805
 20
326.1261928217
 30
0.0
 10
405.5925232812
 20
325.4156386943
 30
0.0
 10
404.8256798462
 20
324.9452344275
 30
0.0
 10
403.9384871032
 20
324.7672889637
 30
0.0
 10
403.0513402772
 20
324.945317609
 30
0.0
 10
402.2847106857
 20
325.4158389672
 30
0.0
 10
401.7359215657
 20
326.1263207596
 30
0.0
 10
401.5453108922
 20
326.6949779912
 30
0.0
 10
401.4995508158
 20
326.9859640159
 30
0.0
  0
SPLINE
  5
387
100
AcDbEntity
  8
0
100
AcDbSpline
 62
7
  6
CONTINUOUS
 70
0
 71
3
 72
11
 73
7
 74
0
 42
0.0000001
 43
0.0000001
 44
0.0000000001
 40
0.0
 40
0.0
 40
0.0
 40
0.0
 40
0.251326199
 40
0.5026893933
 40
0.7535584382
 40
1.0
 40
1.0
 40
1.0
 40
1.0
 10
397.9370334486
 20
344.1401806996
 30
0.0
 10
398.0156298064
 20
343.649821723
 30
0.0
 10
398.2951520977
 20
342.6843123295
 30
0.0
 10
399.0524778083
 20
341.3854968262
 30
0.0
 10
400.0941954198
 20
340.3151077027
 30
0.0
 10
400.937096378
 20
339.7890643128
 30
0.0
 10
401.3777722509
 20
339.5818433026
 30
0.0
  0
LINE
  5
388
100
AcDbEntity
  8
0
100
AcDbLine
 62
7
  6
CONTINUOUS
 10
398.0070241497
 20
344.1743723476
 11
397.9370329602
 21
344.140180661
  0
LINE
  5
389
100
AcDbEntity
  8
0
100
AcDbLine
 62
7
  6
CONTINUOUS
 10
409.9403024221
 20
344.1401803804
 11
409.8703112279
 21
344.1743711202
  0
SPLINE
  5
38A
100
AcDbEntity
  8
0
100
AcDbSpline
 62
7
  6
CONTINUOUS
 70
0
 71
3
 72
11
 73
7
 74
0
 42
0.0000001
 43
0.0000001
 44
0.0000000001
 40
0.0
 40
0.0
 40
0.0
 40
0.0
 40
0.2464413108
 40
0.4973103032
 40
0.748673572
 40
1.0
 40
1.0
 40
1.0
 40
1.0
 10
406.4995577758
 20
339.5818403671
 30
0.0
 10
406.9402336907
 20
339.7890612517
 30
0.0
 10
407.7831354156
 20
340.3151040011
 30
0.0
 10
408.8248547558
 20
341.3854929119
 30
0.0
 10
409.5821824297
 20
342.6843096088
 30
0.0
 10
409.8617054046
 20
343.6498205218
 30
0.0
 10
409.9403019345
 20
344.1401804255
 30
0.0
  0
SPLINE
  5
38B
100
AcDbEntity
  8
0
100
AcDbSpline
 62
7
  6
CONTINUOUS
 70
0
 71
3
 72
8
 73
4
 74
0
 42
0.0000001
 43
0.0000001
 44
0.0000000001
 40
0.0
 40
0.0
 40
0.0
 40
0.0
 40
1.0
 40
1.0
 40
1.0
 40
1.0
 10
397.8841962639
 20
344.246710956
 30
0.0
 10
397.9115857817
 20
344.218058345
 30
0.0
 10
397.9308028076
 20
344.179325814
 30
0.0
 10
397.9370329602
 20
344.140180661
 30
0.0
  0
SPLINE
  5
38C
100
AcDbEntity
  8
0
100
AcDbSpline
 62
7
  6
CONTINUOUS
 70
0
 71
3
 72
9
 73
5
 74
0
 42
0.0000001
 43
0.0000001
 44
0.0000000001
 40
0.0
 40
0.0
 40
0.0
 40
0.0
 40
0.2370603581
 40
1.0
 40
1.0
 40
1.0
 40
1.0
 10
398.0070271899
 20
344.1743727794
 30
0.0
 10
398.0055530612
 20
344.1837582934
 30
0.0
 10
397.9963110745
 20
344.2228010621
 30
0.0
 10
397.9753242848
 20
344.2591817921
 30
0.0
 10
397.9542305108
 20
344.2813165278
 30
0.0
  0
SPLINE
  5
38D
100
AcDbEntity
  8
0
100
AcDbSpline
 62
7
  6
CONTINUOUS
 70
0
 71
3
 72
10
 73
6
 74
0
 42
0.0000001
 43
0.0000001
 44
0.0000000001
 40
0.0
 40
0.0
 40
0.0
 40
0.0
 40
0.1461190805
 40
0.3660978015
 40
1.0
 40
1.0
 40
1.0
 40
1.0
 10
416.4227261156
 20
323.540168801
 30
0.0
 10
416.3793631521
 20
323.5214343468
 30
0.0
 10
416.2725413062
 20
323.4703521434
 30
0.0
 10
415.984746012
 20
323.3231314409
 30
0.0
 10
415.7409884149
 20
323.193552271
 30
0.0
 10
415.5596074617
 20
323.0981815241
 30
0.0
  0
SPLINE
  5
38E
100
AcDbEntity
  8
0
100
AcDbSpline
 62
7
  6
CONTINUOUS
 70
0
 71
3
 72
10
 73
6
 74
0
 42
0.0000001
 43
0.0000001
 44
0.0000000001
 40
0.0
 40
0.0
 40
0.0
 40
0.0
 40
0.6339022116
 40
0.8538811268
 40
1.0
 40
1.0
 40
1.0
 40
1.0
 10
392.3177368841
 20
323.0981768393
 30
0.0
 10
392.136354034
 20
323.1935485842
 30
0.0
 10
391.8925938309
 20
323.3231291344
 30
0.0
 10
391.6047955706
 20
323.4703514453
 30
0.0
 10
391.4979726293
 20
323.5214342163
 30
0.0
 10
391.4546092696
 20
323.5401688277
 30
0.0
  0
SPLINE
  5
38F
100
AcDbEntity
  8
0
100
AcDbSpline
 62
7
  6
CONTINUOUS
 70
0
 71
3
 72
10
 73
6
 74
0
 42
0.0000001
 43
0.0000001
 44
0.0000000001
 40
0.0
 40
0.0
 40
0.0
 40
0.0
 40
0.6339022282
 40
0.853881157
 40
1.0
 40
1.0
 40
1.0
 40
1.0
 10
415.5595985412
 20
367.3018231589
 30
0.0
 10
415.740981403
 20
367.2064513934
 30
0.0
 10
415.9847416377
 20
367.0768708389
 30
0.0
 10
416.2725399174
 20
366.9296485168
 30
0.0
 10
416.37936286
 20
366.8785657397
 30
0.0
 10
416.4227262194
 20
366.8598311436
 30
0.0
  0
SPLINE
  5
390
100
AcDbEntity
  8
0
100
AcDbSpline
 62
7
  6
CONTINUOUS
 70
0
 71
3
 72
10
 73
6
 74
0
 42
0.0000001
 43
0.0000001
 44
0.0000000001
 40
0.0
 40
0.0
 40
0.0
 40
0.0
 40
0.1461191043
 40
0.3660978226
 40
1.0
 40
1.0
 40
1.0
 40
1.0
 10
391.4546093152
 20
366.8598311987
 30
0.0
 10
391.4979722203
 20
366.8785656149
 30
0.0
 10
391.6047938992
 20
366.9296477406
 30
0.0
 10
391.8925887313
 20
367.0768681972
 30
0.0
 10
392.1363459337
 20
367.2064471425
 30
0.0
 10
392.3177265805
 20
367.3018177452
 30
0.0
  0
SPLINE
  5
391
100
AcDbEntity
  8
0
100
AcDbSpline
 62
7
  6
CONTINUOUS
 70
0
 71
3
 72
11
 73
7
 74
0
 42
0.0000001
 43
0.0000001
 44
0.0000000001
 40
0.0
 40
0.0
 40
0.0
 40
0.0
 40
0.1691442866
 40
0.4093702117
 40
0.6932383485
 40
1.0
 40
1.0
 40
1.0
 40
1.0
 10
390.2148707231
 20
325.5216796404
 30
0.0
 10
390.1729192738
 20
325.7734655039
 30
0.0
 10
390.0551678538
 20
326.3800303387
 30
0.0
 10
389.8531289338
 20
327.4064483138
 30
0.0
 10
389.6146257138
 20
328.6374330256
 30
0.0
 10
389.4526259686
 20
329.5139236754
 30
0.0
 10
389.3707618035
 20
329.9695640318
 30
0.0
  0
SPLINE
  5
392
100
AcDbEntity
  8
0
100
AcDbSpline
 62
7
  6
CONTINUOUS
 70
0
 71
3
 72
11
 73
7
 74
0
 42
0.0000001
 43
0.0000001
 44
0.0000000001
 40
0.0
 40
0.0
 40
0.0
 40
0.0
 40
0.3067616486
 40
0.5906297848
 40
0.830855714
 40
1.0
 40
1.0
 40
1.0
 40
1.0
 10
389.370761537
 20
360.4304344832
 30
0.0
 10
389.4526257233
 20
360.8860749877
 30
0.0
 10
389.6146255136
 20
361.7625659251
 30
0.0
 10
389.8531288079
 20
362.9935510477
 30
0.0
 10
390.0551677959
 20
364.0199693681
 30
0.0
 10
390.1729192593
 20
364.6265344089
 30
0.0
 10
390.2148707224
 20
364.8783203553
 30
0.0
  0
SPLINE
  5
393
100
AcDbEntity
  8
0
100
AcDbSpline
 62
7
  6
CONTINUOUS
 70
0
 71
3
 72
21
 73
17
 74
0
 42
0.0000001
 43
0.0000001
 44
0.0000000001
 40
0.0
 40
0.0
 40
0.0
 40
0.0
 40
0.0624879784
 40
0.1249806922
 40
0.1874780262
 40
0.2499790543
 40
0.3749863447
 40
0.4999979892
 40
0.6250096727
 40
0.6875148954
 40
0.7500186453
 40
0.8125199625
 40
0.8750177763
 40
0.937511328
 40
0.9687565203
 40
1.0
 40
1.0
 40
1.0
 40
1.0
 10
392.0571967208
 20
330.4522528299
 30
0.0
 10
391.9972614029
 20
331.0644168089
 30
0.0
 10
391.8827799026
 20
332.289385432
 30
0.0
 10
391.7533504621
 20
334.1303958774
 30
0.0
 10
391.6558101043
 20
335.9734289204
 30
0.0
 10
391.5625175291
 20
338.4326212608
 30
0.0
 10
391.4974993526
 20
341.5083871101
 30
0.0
 10
391.4775591877
 20
345.1999685599
 30
0.0
 10
391.4944500241
 20
348.2763386461
 30
0.0
 10
391.536004828
 20
350.737061266
 30
0.0
 10
391.5859494075
 20
352.5821476205
 30
0.0
 10
391.6558139823
 20
354.4265286914
 30
0.0
 10
391.7529412278
 20
356.2696120393
 30
0.0
 10
391.8619263953
 20
357.8037383202
 30
0.0
 10
391.9675236011
 20
359.029468742
 30
0.0
 10
392.0278505229
 20
359.6416083153
 30
0.0
 10
392.0571964581
 20
359.9477455007
 30
0.0
  0
SPLINE
  5
394
100
AcDbEntity
  8
0
100
AcDbSpline
 62
7
  6
CONTINUOUS
 70
0
 71
3
 72
9
 73
5
 74
0
 42
0.0000001
 43
0.0000001
 44
0.0000000001
 40
0.0
 40
0.0
 40
0.0
 40
0.0
 40
0.2629370697
 40
1.0
 40
1.0
 40
1.0
 40
1.0
 10
392.3973791555
 20
367.1503235102
 30
0.0
 10
392.3218892761
 20
367.1135859844
 30
0.0
 10
392.0350505931
 20
366.9733863178
 30
0.0
 10
391.752112911
 20
366.8247543591
 30
0.0
 10
391.5486403383
 20
366.7064997456
 30
0.0
  0
SPLINE
  5
395
100
AcDbEntity
  8
0
100
AcDbSpline
 62
7
  6
CONTINUOUS
 70
0
 71
3
 72
11
 73
7
 74
0
 42
0.0000001
 43
0.0000001
 44
0.0000000001
 40
0.0
 40
0.0
 40
0.0
 40
0.0
 40
0.3178678053
 40
0.5921398556
 40
0.8177440289
 40
1.0
 40
1.0
 40
1.0
 40
1.0
 10
391.5486403383
 20
366.7064997456
 30
0.0
 10
391.4522550651
 20
366.6504823518
 30
0.0
 10
391.2745662616
 20
366.5428161211
 30
0.0
 10
391.0373331507
 20
366.3814078671
 30
0.0
 10
390.8463757245
 20
366.237194827
 30
0.0
 10
390.737461727
 20
366.1441418209
 30
0.0
 10
390.6913999625
 20
366.0998238145
 30
0.0
  0
SPLINE
  5
396
100
AcDbEntity
  8
0
100
AcDbSpline
 62
7
  6
CONTINUOUS
 70
0
 71
3
 72
11
 73
7
 74
0
 42
0.0000001
 43
0.0000001
 44
0.0000000001
 40
0.0
 40
0.0
 40
0.0
 40
0.0
 40
0.2503057547
 40
0.5003489363
 40
0.7502675974
 40
1.0
 40
1.0
 40
1.0
 40
1.0
 10
392.0571886599
 20
359.9477485179
 30
0.0
 10
392.0794002151
 20
360.1119863619
 30
0.0
 10
392.127510585
 20
360.4398080039
 30
0.0
 10
392.234397498
 20
360.9259919137
 30
0.0
 10
392.4082810718
 20
361.392810034
 30
0.0
 10
392.5623737637
 20
361.686170715
 30
0.0
 10
392.6432956584
 20
361.8303698119
 30
0.0
  0
SPLINE
  5
397
100
AcDbEntity
  8
0
100
AcDbSpline
 62
7
  6
CONTINUOUS
 70
0
 71
3
 72
9
 73
5
 74
0
 42
0.0000001
 43
0.0000001
 44
0.0000000001
 40
0.0
 40
0.0
 40
0.0
 40
0.0
 40
0.5000849614
 40
1.0
 40
1.0
 40
1.0
 40
1.0
 10
392.6432956584
 20
361.8303698119
 30
0.0
 10
392.6822005293
 20
361.8947320546
 30
0.0
 10
392.7630626579
 20
362.0214738014
 30
0.0
 10
392.8590970456
 20
362.1387952558
 30
0.0
 10
392.9143209127
 20
362.1898106328
 30
0.0
  0
SPLINE
  5
398
100
AcDbEntity
  8
0
100
AcDbSpline
 62
7
  6
CONTINUOUS
 70
0
 71
3
 72
9
 73
5
 74
0
 42
0.0000001
 43
0.0000001
 44
0.0000000001
 40
0.0
 40
0.0
 40
0.0
 40
0.0
 40
0.5001327879
 40
1.0
 40
1.0
 40
1.0
 40
1.0
 10
411.4450015599
 20
362.0049141731
 30
0.0
 10
411.438678931
 20
361.9977542636
 30
0.0
 10
411.4188785775
 20
361.991728344
 30
0.0
 10
411.4006503644
 20
361.988033543
 30
0.0
 10
411.391458444
 20
361.9854544604
 30
0.0
  0
SPLINE
  5
399
100
AcDbEntity
  8
0
100
AcDbSpline
 62
7
  6
CONTINUOUS
 70
0
 71
3
 72
11
 73
7
 74
0
 42
0.0000001
 43
0.0000001
 44
0.0000000001
 40
0.0
 40
0.0
 40
0.0
 40
0.0
 40
0.2550457849
 40
0.5046794502
 40
0.7561276383
 40
1.0
 40
1.0
 40
1.0
 40
1.0
 10
411.4450015599
 20
362.0049141731
 30
0.0
 10
411.4487721222
 20
362.0015552501
 30
0.0
 10
411.4561852201
 20
361.9945963116
 30
0.0
 10
411.4706778001
 20
361.9896994671
 30
0.0
 10
411.4852248462
 20
361.987555508
 30
0.0
 10
411.4949058226
 20
361.9857926168
 30
0.0
 10
411.4997220984
 20
361.9854495554
 30
0.0
  0
SPLINE
  5
39A
100
AcDbEntity
  8
0
100
AcDbSpline
 62
7
  6
CONTINUOUS
 70
0
 71
3
 72
16
 73
12
 74
0
 42
0.0000001
 43
0.0000001
 44
0.0000000001
 40
0.0
 40
0.0
 40
0.0
 40
0.0
 40
0.1253394056
 40
0.2492352053
 40
0.3111270841
 40
0.3730929127
 40
0.4972622772
 40
0.6226530721
 40
0.7484914493
 40
0.8743179343
 40
1.0
 40
1.0
 40
1.0
 40
1.0
 10
411.4995481393
 20
361.9854841617
 30
0.0
 10
411.5343289513
 20
362.1683241825
 30
0.0
 10
411.6296304354
 20
362.5306415622
 30
0.0
 10
411.9080284896
 20
362.9177695267
 30
0.0
 10
412.2114694822
 20
363.1309673499
 30
0.0
 10
412.5560273358
 20
363.2696481867
 30
0.0
 10
413.0301905931
 20
363.2965568737
 30
0.0
 10
413.5746352622
 20
363.1510658302
 30
0.0
 10
414.0721664191
 20
362.8870555994
 30
0.0
 10
414.5196249862
 20
362.5459847375
 30
0.0
 10
414.7798382903
 20
362.2768206894
 30
0.0
 10
414.9058137726
 20
362.1391253101
 30
0.0
  0
SPLINE
  5
39B
100
AcDbEntity
  8
0
100
AcDbSpline
 62
7
  6
CONTINUOUS
 70
0
 71
3
 72
17
 73
13
 74
0
 42
0.0000001
 43
0.0000001
 44
0.0000000001
 40
0.0
 40
0.0
 40
0.0
 40
0.0
 40
0.1256919735
 40
0.2515004922
 40
0.3773447035
 40
0.5026284365
 40
0.6267700485
 40
0.6886673685
 40
0.7505046471
 40
0.8125066593
 40
0.8748330944
 40
1.0
 40
1.0
 40
1.0
 40
1.0
 10
414.9629734277
 20
362.1898668147
 30
0.0
 10
414.8324478757
 20
362.3301076971
 30
0.0
 10
414.5620357193
 20
362.6029858878
 30
0.0
 10
414.1006846185
 20
362.9506683071
 30
0.0
 10
413.5848558135
 20
363.2118119353
 30
0.0
 10
413.0241476181
 20
363.3528579116
 30
0.0
 10
412.5384869482
 20
363.3177120979
 30
0.0
 10
412.1862871437
 20
363.1732226236
 30
0.0
 10
411.9524928595
 20
363.0093043382
 30
0.0
 10
411.7598427422
 20
362.7982686991
 30
0.0
 10
411.5600605361
 20
362.4721456744
 30
0.0
 10
411.4807966294
 20
362.1923298184
 30
0.0
 10
411.4450086189
 20
362.0049328488
 30
0.0
  0
SPLINE
  5
39C
100
AcDbEntity
  8
0
100
AcDbSpline
 62
7
  6
CONTINUOUS
 70
0
 71
3
 72
11
 73
7
 74
0
 42
0.0000001
 43
0.0000001
 44
0.0000000001
 40
0.0
 40
0.0
 40
0.0
 40
0.0
 40
0.1691442866
 40
0.4093702117
 40
0.6932383485
 40
1.0
 40
1.0
 40
1.0
 40
1.0
 10
417.6624647038
 20
364.8783203596
 30
0.0
 10
417.704416153
 20
364.6265344962
 30
0.0
 10
417.8221675731
 20
364.0199696614
 30
0.0
 10
418.0242064931
 20
362.9935516863
 30
0.0
 10
418.2627097131
 20
361.7625669745
 30
0.0
 10
418.4247094583
 20
360.8860763247
 30
0.0
 10
418.5065736234
 20
360.4304359683
 30
0.0
  0
SPLINE
  5
39D
100
AcDbEntity
  8
0
100
AcDbSpline
 62
7
  6
CONTINUOUS
 70
0
 71
3
 72
11
 73
7
 74
0
 42
0.0000001
 43
0.0000001
 44
0.0000000001
 40
0.0
 40
0.0
 40
0.0
 40
0.0
 40
0.3067616486
 40
0.5906297848
 40
0.830855714
 40
1.0
 40
1.0
 40
1.0
 40
1.0
 10
418.5065738899
 20
329.9695655169
 30
0.0
 10
418.4247097036
 20
329.5139250124
 30
0.0
 10
418.2627099133
 20
328.637434075
 30
0.0
 10
418.024206619
 20
327.4064489524
 30
0.0
 10
417.822167631
 20
326.380030632
 30
0.0
 10
417.7044161676
 20
325.7734655912
 30
0.0
 10
417.6624647045
 20
325.5216796448
 30
0.0
  0
SPLINE
  5
39E
100
AcDbEntity
  8
0
100
AcDbSpline
 62
7
  6
CONTINUOUS
 70
0
 71
3
 72
21
 73
17
 74
0
 42
0.0000001
 43
0.0000001
 44
0.0000000001
 40
0.0
 40
0.0
 40
0.0
 40
0.0
 40
0.0624879784
 40
0.1249806922
 40
0.1874780262
 40
0.2499790543
 40
0.3749863447
 40
0.4999979892
 40
0.6250096727
 40
0.6875148954
 40
0.7500186453
 40
0.8125199625
 40
0.8750177763
 40
0.937511328
 40
0.9687565203
 40
1.0
 40
1.0
 40
1.0
 40
1.0
 10
415.8201387061
 20
359.9477471702
 30
0.0
 10
415.880074024
 20
359.3355831912
 30
0.0
 10
415.9945555243
 20
358.1106145681
 30
0.0
 10
416.1239849648
 20
356.2696041227
 30
0.0
 10
416.2215253226
 20
354.4265710797
 30
0.0
 10
416.3148178978
 20
351.9673787393
 30
0.0
 10
416.3798360743
 20
348.89161289
 30
0.0
 10
416.3997762392
 20
345.2000314402
 30
0.0
 10
416.3828854028
 20
342.123661354
 30
0.0
 10
416.3413305989
 20
339.6629387341
 30
0.0
 10
416.2913860194
 20
337.8178523796
 30
0.0
 10
416.2215214446
 20
335.9734713087
 30
0.0
 10
416.1243941991
 20
334.1303879608
 30
0.0
 10
416.0154090316
 20
332.5962616799
 30
0.0
 10
415.9098118258
 20
331.3705312581
 30
0.0
 10
415.849484904
 20
330.7583916848
 30
0.0
 10
415.8201389688
 20
330.4522544994
 30
0.0
  0
SPLINE
  5
39F
100
AcDbEntity
  8
0
100
AcDbSpline
 62
7
  6
CONTINUOUS
 70
0
 71
3
 72
11
 73
7
 74
0
 42
0.0000001
 43
0.0000001
 44
0.0000000001
 40
0.0
 40
0.0
 40
0.0
 40
0.0
 40
0.1644092395
 40
0.3918145554
 40
0.6765599332
 40
1.0
 40
1.0
 40
1.0
 40
1.0
 10
417.1859461147
 20
366.0998052831
 30
0.0
 10
417.1062518742
 20
366.1758391543
 30
0.0
 10
416.9011543273
 20
366.3407945131
 30
0.0
 10
416.5261675113
 20
366.5958909514
 30
0.0
 10
416.0398299907
 20
366.8742916597
 30
0.0
 10
415.674714252
 20
367.0553513893
 30
0.0
 10
415.4799474053
 20
367.1503281202
 30
0.0
  0
SPLINE
  5
3A0
100
AcDbEntity
  8
0
100
AcDbSpline
 62
7
  6
CONTINUOUS
 70
0
 71
3
 72
15
 73
11
 74
0
 42
0.0000001
 43
0.0000001
 44
0.0000000001
 40
0.0
 40
0.0
 40
0.0
 40
0.0
 40
0.0624674673
 40
0.1251597976
 40
0.1875518509
 40
0.2498795858
 40
0.3747959213
 40
0.4998880058
 40
0.7498560868
 40
1.0
 40
1.0
 40
1.0
 40
1.0
 10
414.9629756687
 20
362.189870268
 30
0.0
 10
414.9926549381
 20
362.1657434397
 30
0.0
 10
415.0443247982
 20
362.1082517826
 30
0.0
 10
415.1126179331
 20
362.0160931308
 30
0.0
 10
415.1779913151
 20
361.9216953697
 30
0.0
 10
415.2588455876
 20
361.7919253967
 30
0.0
 10
415.3495849968
 20
361.62339185
 30
0.0
 10
415.4824595279
 20
361.3476061266
 30
0.0
 10
415.6228930001
 20
360.9901783313
 30
0.0
 10
415.6929665428
 20
360.6913585841
 30
0.0
 10
415.7245034543
 20
360.5414779603
 30
0.0
  0
SPLINE
  5
3A1
100
AcDbEntity
  8
0
100
AcDbSpline
 62
7
  6
CONTINUOUS
 70
0
 71
3
 72
8
 73
4
 74
0
 42
0.0000001
 43
0.0000001
 44
0.0000000001
 40
0.0
 40
0.0
 40
0.0
 40
0.0
 40
1.0
 40
1.0
 40
1.0
 40
1.0
 10
415.7245034543
 20
360.5414779603
 30
0.0
 10
415.7633811566
 20
360.3448235532
 30
0.0
 10
415.7936453099
 20
360.1464515815
 30
0.0
 10
415.8201464618
 20
359.9477504981
 30
0.0
  0
SPLINE
  5
3A2
100
AcDbEntity
  8
0
100
AcDbSpline
 62
7
  6
CONTINUOUS
 70
0
 71
3
 72
16
 73
12
 74
0
 42
0.0000001
 43
0.0000001
 44
0.0000000001
 40
0.0
 40
0.0
 40
0.0
 40
0.0
 40
0.0077285165
 40
0.0361213617
 40
0.0762593527
 40
0.1255573412
 40
0.2465567516
 40
0.3850824181
 40
0.5328357267
 40
0.6860799338
 40
1.0
 40
1.0
 40
1.0
 40
1.0
 10
409.9231798462
 20
355.7185838027
 30
0.0
 10
409.9238359163
 20
355.7169605067
 30
0.0
 10
409.9113518775
 20
355.7289892752
 30
0.0
 10
409.9053203739
 20
355.7345041107
 30
0.0
 10
409.8831053806
 20
355.7563594224
 30
0.0
 10
409.8506862456
 20
355.7883045055
 30
0.0
 10
409.7999904336
 20
355.8384351965
 30
0.0
 10
409.7342988427
 20
355.9025022133
 30
0.0
 10
409.6622985699
 20
355.9715028498
 30
0.0
 10
409.560767699
 20
356.0668089039
 30
0.0
 10
409.4824351239
 20
356.1380258958
 30
0.0
 10
409.4292258224
 20
356.1852109708
 30
0.0
  0
SPLINE
  5
3A3
100
AcDbEntity
  8
0
100
AcDbSpline
 62
7
  6
CONTINUOUS
 70
0
 71
3
 72
9
 73
5
 74
0
 42
0.0000001
 43
0.0000001
 44
0.0000000001
 40
0.0
 40
0.0
 40
0.0
 40
0.0
 40
0.2497814116
 40
1.0
 40
1.0
 40
1.0
 40
1.0
 10
411.3781502179
 20
353.808105253
 30
0.0
 10
411.2869280519
 20
353.9851998372
 30
0.0
 10
410.8965797854
 20
354.6809837258
 30
0.0
 10
410.4059034908
 20
355.3203182275
 30
0.0
 10
409.9930518508
 20
355.7533808835
 30
0.0
  0
SPLINE
  5
3A4
100
AcDbEntity
  8
0
100
AcDbSpline
 62
7
  6
CONTINUOUS
 70
0
 71
3
 72
16
 73
12
 74
0
 42
0.0000001
 43
0.0000001
 44
0.0000000001
 40
0.0
 40
0.0
 40
0.0
 40
0.0
 40
0.0077285082
 40
0.0361213516
 40
0.0762593441
 40
0.1255573333
 40
0.2465567448
 40
0.3850824126
 40
0.5328357227
 40
0.6860799311
 40
1.0
 40
1.0
 40
1.0
 40
1.0
 10
397.9541555854
 20
344.2814161924
 30
0.0
 10
397.9534995143
 20
344.2830394859
 30
0.0
 10
397.9659835552
 20
344.271010726
 30
0.0
 10
397.9720150505
 20
344.2654958881
 30
0.0
 10
397.9942300476
 20
344.2436405779
 30
0.0
 10
398.0266491809
 20
344.2116954939
 30
0.0
 10
398.0773449941
 20
344.1615648032
 30
0.0
 10
398.1430365846
 20
344.0974977863
 30
0.0
 10
398.2150368576
 20
344.0284971497
 30
0.0
 10
398.3165677284
 20
343.9331910957
 30
0.0
 10
398.3949003036
 20
343.8619741038
 30
0.0
 10
398.448109605
 20
343.8147890289
 30
0.0
  0
SPLINE
  5
3A5
100
AcDbEntity
  8
0
100
AcDbSpline
 62
7
  6
CONTINUOUS
 70
0
 71
3
 72
9
 73
5
 74
0
 42
0.0000001
 43
0.0000001
 44
0.0000000001
 40
0.0
 40
0.0
 40
0.0
 40
0.0
 40
0.2497813992
 40
1.0
 40
1.0
 40
1.0
 40
1.0
 10
396.4994402614
 20
346.1914460069
 30
0.0
 10
396.5906436606
 20
346.0143899708
 30
0.0
 10
396.980933354
 20
345.3187690828
 30
0.0
 10
397.4715207624
 20
344.6795885943
 30
0.0
 10
397.8842836003
 20
344.2466190912
 30
0.0
  0
SPLINE
  5
3A6
100
AcDbEntity
  8
0
100
AcDbSpline
 62
7
  6
CONTINUOUS
 70
0
 71
3
 72
9
 73
5
 74
0
 42
0.0000001
 43
0.0000001
 44
0.0000000001
 40
0.0
 40
0.0
 40
0.0
 40
0.0
 40
0.2410586231
 40
1.0
 40
1.0
 40
1.0
 40
1.0
 10
67.7335144828
 20
153.9381318401
 30
0.0
 10
67.801987493
 20
154.0002179182
 30
0.0
 10
68.0813848143
 20
154.2629256646
 30
0.0
 10
68.3456090327
 20
154.5412268503
 30
0.0
 10
68.5429207091
 20
154.755120646
 30
0.0
  0
SPLINE
  5
3A7
100
AcDbEntity
  8
0
100
AcDbSpline
 62
7
  6
CONTINUOUS
 70
0
 71
3
 72
8
 73
4
 74
0
 42
0.0000001
 43
0.0000001
 44
0.0000000001
 40
0.0
 40
0.0
 40
0.0
 40
0.0
 40
1.0
 40
1.0
 40
1.0
 40
1.0
 10
68.5429207091
 20
154.755120646
 30
0.0
 10
68.6788491789
 20
154.9024725761
 30
0.0
 10
68.8132341046
 20
155.0512433537
 30
0.0
 10
68.9476238378
 20
155.2
 30
0.0
  0
SPLINE
  5
3A8
100
AcDbEntity
  8
0
100
AcDbSpline
 62
7
  6
CONTINUOUS
 70
0
 71
3
 72
9
 73
5
 74
0
 42
0.0000001
 43
0.0000001
 44
0.0000000001
 40
0.0
 40
0.0
 40
0.0
 40
0.0
 40
0.2417215448
 40
1.0
 40
1.0
 40
1.0
 40
1.0
 10
65.1120408874
 20
153.0
 30
0.0
 10
65.2579111219
 20
153.0
 30
0.0
 10
65.8616783997
 20
153.0390713635
 30
0.0
 10
66.4474050057
 20
153.236942877
 30
0.0
 10
66.8597473542
 20
153.4353509968
 30
0.0
  0
SPLINE
  5
3A9
100
AcDbEntity
  8
0
100
AcDbSpline
 62
7
  6
CONTINUOUS
 70
0
 71
3
 72
9
 73
5
 74
0
 42
0.0000001
 43
0.0000001
 44
0.0000000001
 40
0.0
 40
0.0
 40
0.0
 40
0.0
 40
0.2626223961
 40
1.0
 40
1.0
 40
1.0
 40
1.0
 10
445.0175880727
 20
153.4353509968
 30
0.0
 10
445.1603134064
 20
153.36667538
 30
0.0
 10
445.7133176976
 20
153.1271222227
 30
0.0
 10
446.320579981
 20
153.0
 30
0.0
 10
446.7652945395
 20
153.0
 30
0.0
  0
SPLINE
  5
3AA
100
AcDbEntity
  8
0
100
AcDbSpline
 62
7
  6
CONTINUOUS
 70
0
 71
3
 72
8
 73
4
 74
0
 42
0.0000001
 43
0.0000001
 44
0.0000000001
 40
0.0
 40
0.0
 40
0.0
 40
0.0
 40
1.0
 40
1.0
 40
1.0
 40
1.0
 10
442.929711589
 20
155.2
 30
0.0
 10
443.0641013222
 20
155.0512433538
 30
0.0
 10
443.1984862478
 20
154.9024725763
 30
0.0
 10
443.3344147176
 20
154.7551206463
 30
0.0
  0
SPLINE
  5
3AB
100
AcDbEntity
  8
0
100
AcDbSpline
 62
7
  6
CONTINUOUS
 70
0
 71
3
 72
9
 73
5
 74
0
 42
0.0000001
 43
0.0000001
 44
0.0000000001
 40
0.0
 40
0.0
 40
0.0
 40
0.0
 40
0.2577494775
 40
1.0
 40
1.0
 40
1.0
 40
1.0
 10
443.3344147176
 20
154.7551206463
 30
0.0
 10
443.4014207659
 20
154.682483394
 30
0.0
 10
443.6628501951
 20
154.4020936078
 30
0.0
 10
443.9329974929
 20
154.129290389
 30
0.0
 10
444.1438209442
 20
153.93813184
 30
0.0
  0
SPLINE
  5
3AC
100
AcDbEntity
  8
0
100
AcDbSpline
 62
7
  6
CONTINUOUS
 70
0
 71
3
 72
8
 73
4
 74
0
 42
0.0000001
 43
0.0000001
 44
0.0000000001
 40
0.0
 40
0.0
 40
0.0
 40
0.0
 40
1.0
 40
1.0
 40
1.0
 40
1.0
 10
444.191579749
 20
153.7244353065
 30
0.0
 10
444.0663995845
 20
153.8922234084
 30
0.0
 10
443.935378655
 20
154.0557021774
 30
0.0
 10
443.8010864249
 20
154.2162902145
 30
0.0
  0
SPLINE
  5
3AD
100
AcDbEntity
  8
0
100
AcDbSpline
 62
7
  6
CONTINUOUS
 70
0
 71
3
 72
8
 73
4
 74
0
 42
0.0000001
 43
0.0000001
 44
0.0000000001
 40
0.0
 40
0.0
 40
0.0
 40
0.0
 40
1.0
 40
1.0
 40
1.0
 40
1.0
 10
443.8010864249
 20
154.2162902145
 30
0.0
 10
443.6618767243
 20
154.3827586137
 30
0.0
 10
443.519038377
 20
154.5462006356
 30
0.0
 10
443.374590941
 20
154.7081450918
 30
0.0
  0
SPLINE
  5
3AE
100
AcDbEntity
  8
0
100
AcDbSpline
 62
7
  6
CONTINUOUS
 70
0
 71
3
 72
8
 73
4
 74
0
 42
0.0000001
 43
0.0000001
 44
0.0000000001
 40
0.0
 40
0.0
 40
0.0
 40
0.0
 40
1.0
 40
1.0
 40
1.0
 40
1.0
 10
443.374590941
 20
154.7081450918
 30
0.0
 10
443.227438957
 20
154.8731216999
 30
0.0
 10
443.0785683093
 20
155.0365599056
 30
0.0
 10
442.929711589
 20
155.2
 30
0.0
  0
SPLINE
  5
3AF
100
AcDbEntity
  8
0
100
AcDbSpline
 62
7
  6
CONTINUOUS
 70
0
 71
3
 72
9
 73
5
 74
0
 42
0.0000001
 43
0.0000001
 44
0.0000000001
 40
0.0
 40
0.0
 40
0.0
 40
0.0
 40
0.255189328
 40
1.0
 40
1.0
 40
1.0
 40
1.0
 10
442.929711589
 20
544.8
 30
0.0
 10
443.029841041
 20
544.9099390555
 30
0.0
 10
443.4220730501
 20
545.3407416315
 30
0.0
 10
443.8075420576
 20
545.7787874641
 30
0.0
 10
444.0740296888
 20
546.1213531911
 30
0.0
  0
SPLINE
  5
3B0
100
AcDbEntity
  8
0
100
AcDbSpline
 62
7
  6
CONTINUOUS
 70
0
 71
3
 72
9
 73
5
 74
0
 42
0.0000001
 43
0.0000001
 44
0.0000000001
 40
0.0
 40
0.0
 40
0.0
 40
0.0
 40
0.2410586231
 40
1.0
 40
1.0
 40
1.0
 40
1.0
 10
444.1438209441
 20
546.06186816
 30
0.0
 10
444.0753479338
 20
545.9997820818
 30
0.0
 10
443.7959506126
 20
545.7370743355
 30
0.0
 10
443.5317263942
 20
545.4587731497
 30
0.0
 10
443.3344147178
 20
545.2448793541
 30
0.0
  0
SPLINE
  5
3B1
100
AcDbEntity
  8
0
100
AcDbSpline
 62
7
  6
CONTINUOUS
 70
0
 71
3
 72
8
 73
4
 74
0
 42
0.0000001
 43
0.0000001
 44
0.0000000001
 40
0.0
 40
0.0
 40
0.0
 40
0.0
 40
1.0
 40
1.0
 40
1.0
 40
1.0
 10
443.3344147178
 20
545.2448793541
 30
0.0
 10
443.198486248
 20
545.097527424
 30
0.0
 10
443.0641013223
 20
544.9487566464
 30
0.0
 10
442.929711589
 20
544.8
 30
0.0
  0
SPLINE
  5
3B2
100
AcDbEntity
  8
0
100
AcDbSpline
 62
7
  6
CONTINUOUS
 70
0
 71
3
 72
9
 73
5
 74
0
 42
0.0000001
 43
0.0000001
 44
0.0000000001
 40
0.0
 40
0.0
 40
0.0
 40
0.0
 40
0.2417215448
 40
1.0
 40
1.0
 40
1.0
 40
1.0
 10
446.7652945395
 20
547.0
 30
0.0
 10
446.619424305
 20
547.0
 30
0.0
 10
446.0156570272
 20
546.9609286366
 30
0.0
 10
445.4299304212
 20
546.7630571231
 30
0.0
 10
445.0175880727
 20
546.5646490033
 30
0.0
  0
SPLINE
  5
3B3
100
AcDbEntity
  8
0
100
AcDbSpline
 62
7
  6
CONTINUOUS
 70
0
 71
3
 72
9
 73
5
 74
0
 42
0.0000001
 43
0.0000001
 44
0.0000000001
 40
0.0
 40
0.0
 40
0.0
 40
0.0
 40
0.2626223961
 40
1.0
 40
1.0
 40
1.0
 40
1.0
 10
66.8597473543
 20
546.5646490033
 30
0.0
 10
66.7170220205
 20
546.6333246201
 30
0.0
 10
66.1640177294
 20
546.8728777774
 30
0.0
 10
65.5567554459
 20
547.0000000001
 30
0.0
 10
65.1120408874
 20
547.0
 30
0.0
  0
SPLINE
  5
3B4
100
AcDbEntity
  8
0
100
AcDbSpline
 62
7
  6
CONTINUOUS
 70
0
 71
3
 72
8
 73
4
 74
0
 42
0.0000001
 43
0.0000001
 44
0.0000000001
 40
0.0
 40
0.0
 40
0.0
 40
0.0
 40
1.0
 40
1.0
 40
1.0
 40
1.0
 10
68.9476238378
 20
544.8
 30
0.0
 10
68.8132341048
 20
544.9487566464
 30
0.0
 10
68.6788491791
 20
545.0975274238
 30
0.0
 10
68.5429207093
 20
545.2448793538
 30
0.0
  0
SPLINE
  5
3B5
100
AcDbEntity
  8
0
100
AcDbSpline
 62
7
  6
CONTINUOUS
 70
0
 71
3
 72
9
 73
5
 74
0
 42
0.0000001
 43
0.0000001
 44
0.0000000001
 40
0.0
 40
0.0
 40
0.0
 40
0.0
 40
0.2577494775
 40
1.0
 40
1.0
 40
1.0
 40
1.0
 10
68.5429207093
 20
545.2448793538
 30
0.0
 10
68.475914661
 20
545.3175166061
 30
0.0
 10
68.2144852317
 20
545.5979063922
 30
0.0
 10
67.9443379342
 20
545.8707096113
 30
0.0
 10
67.7335144828
 20
546.06186816
 30
0.0
  0
SPLINE
  5
3B6
100
AcDbEntity
  8
0
100
AcDbSpline
 62
7
  6
CONTINUOUS
 70
0
 71
3
 72
9
 73
5
 74
0
 42
0.0000001
 43
0.0000001
 44
0.0000000001
 40
0.0
 40
0.0
 40
0.0
 40
0.0
 40
0.255189328
 40
1.0
 40
1.0
 40
1.0
 40
1.0
 10
68.9476238378
 20
155.2
 30
0.0
 10
68.8474943859
 20
155.0900609446
 30
0.0
 10
68.4552623768
 20
154.6592583685
 30
0.0
 10
68.0697933693
 20
154.2212125359
 30
0.0
 10
67.8033057381
 20
153.878646809
 30
0.0
  0
SPLINE
  5
3B7
100
AcDbEntity
  8
0
100
AcDbSpline
 62
7
  6
CONTINUOUS
 70
0
 71
3
 72
8
 73
4
 74
0
 42
0.0000001
 43
0.0000001
 44
0.0000000001
 40
0.0
 40
0.0
 40
0.0
 40
0.0
 40
1.0
 40
1.0
 40
1.0
 40
1.0
 10
67.6857556779
 20
546.2755646936
 30
0.0
 10
67.8109358424
 20
546.1077765917
 30
0.0
 10
67.9419567719
 20
545.9442978228
 30
0.0
 10
68.076249002
 20
545.7837097856
 30
0.0
  0
SPLINE
  5
3B8
100
AcDbEntity
  8
0
100
AcDbSpline
 62
7
  6
CONTINUOUS
 70
0
 71
3
 72
8
 73
4
 74
0
 42
0.0000001
 43
0.0000001
 44
0.0000000001
 40
0.0
 40
0.0
 40
0.0
 40
0.0
 40
1.0
 40
1.0
 40
1.0
 40
1.0
 10
68.076249002
 20
545.7837097856
 30
0.0
 10
68.2154587026
 20
545.6172413864
 30
0.0
 10
68.3582970497
 20
545.4537993644
 30
0.0
 10
68.5027444859
 20
545.2918549083
 30
0.0
  0
SPLINE
  5
3B9
100
AcDbEntity
  8
0
100
AcDbSpline
 62
7
  6
CONTINUOUS
 70
0
 71
3
 72
8
 73
4
 74
0
 42
0.0000001
 43
0.0000001
 44
0.0000000001
 40
0.0
 40
0.0
 40
0.0
 40
0.0
 40
1.0
 40
1.0
 40
1.0
 40
1.0
 10
68.5027444859
 20
545.2918549083
 30
0.0
 10
68.6498964701
 20
545.1268783003
 30
0.0
 10
68.7987671184
 20
544.9634400951
 30
0.0
 10
68.9476238378
 20
544.8
 30
0.0
  0
SPLINE
  5
3BA
100
AcDbEntity
  8
0
100
AcDbSpline
 62
7
  6
CONTINUOUS
 70
0
 71
3
 72
9
 73
5
 74
0
 42
0.0000001
 43
0.0000001
 44
0.0000000001
 40
0.0
 40
0.0
 40
0.0
 40
0.0
 40
0.2436086852
 40
1.0
 40
1.0
 40
1.0
 40
1.0
 10
444.7651561854
 20
546.2755646935
 30
0.0
 10
444.7202855236
 20
546.2342160925
 30
0.0
 10
444.5345615834
 20
546.066144836
 30
0.0
 10
444.3435121639
 20
545.9040252407
 30
0.0
 10
444.1971658906
 20
545.7837097813
 30
0.0
  0
SPLINE
  5
3BB
100
AcDbEntity
  8
0
100
AcDbSpline
 62
7
  6
CONTINUOUS
 70
0
 71
3
 72
8
 73
4
 74
0
 42
0.0000001
 43
0.0000001
 44
0.0000000001
 40
0.0
 40
0.0
 40
0.0
 40
0.0
 40
1.0
 40
1.0
 40
1.0
 40
1.0
 10
444.1971658906
 20
545.7837097813
 30
0.0
 10
443.9933174773
 20
545.6161201669
 30
0.0
 10
443.7858222525
 20
545.4529568838
 30
0.0
 10
443.5768088336
 20
545.2918549124
 30
0.0
  0
SPLINE
  5
3BC
100
AcDbEntity
  8
0
100
AcDbSpline
 62
7
  6
CONTINUOUS
 70
0
 71
3
 72
8
 73
4
 74
0
 42
0.0000001
 43
0.0000001
 44
0.0000000001
 40
0.0
 40
0.0
 40
0.0
 40
0.0
 40
1.0
 40
1.0
 40
1.0
 40
1.0
 10
443.5768088336
 20
545.2918549124
 30
0.0
 10
443.3622186554
 20
545.1264545236
 30
0.0
 10
443.1459554121
 20
544.9632324789
 30
0.0
 10
442.929711589
 20
544.8
 30
0.0
  0
SPLINE
  5
3BD
100
AcDbEntity
  8
0
100
AcDbSpline
 62
7
  6
CONTINUOUS
 70
0
 71
3
 72
8
 73
4
 74
0
 42
0.0000001
 43
0.0000001
 44
0.0000000001
 40
0.0
 40
0.0
 40
0.0
 40
0.0
 40
1.0
 40
1.0
 40
1.0
 40
1.0
 10
442.929711589
 20
155.2
 30
0.0
 10
443.1459554125
 20
155.0367675216
 30
0.0
 10
443.3622186555
 20
154.8735454766
 30
0.0
 10
443.5768088336
 20
154.7081450877
 30
0.0
  0
SPLINE
  5
3BE
100
AcDbEntity
  8
0
100
AcDbSpline
 62
7
  6
CONTINUOUS
 70
0
 71
3
 72
8
 73
4
 74
0
 42
0.0000001
 43
0.0000001
 44
0.0000000001
 40
0.0
 40
0.0
 40
0.0
 40
0.0
 40
1.0
 40
1.0
 40
1.0
 40
1.0
 10
443.5768088336
 20
154.7081450877
 30
0.0
 10
443.8241133908
 20
154.5175293274
 30
0.0
 10
444.0693496285
 20
154.3240455093
 30
0.0
 10
444.3088349541
 20
154.1236940907
 30
0.0
  0
SPLINE
  5
3BF
100
AcDbEntity
  8
0
100
AcDbSpline
 62
7
  6
CONTINUOUS
 70
0
 71
3
 72
9
 73
5
 74
0
 42
0.0000001
 43
0.0000001
 44
0.0000000001
 40
0.0
 40
0.0
 40
0.0
 40
0.0
 40
0.2425775327
 40
1.0
 40
1.0
 40
1.0
 40
1.0
 10
67.7335144826
 20
546.6354445965
 30
0.0
 10
67.7675888296
 20
546.5905049507
 30
0.0
 10
67.9064379007
 20
546.4040182196
 30
0.0
 10
68.0395516917
 20
546.2133107605
 30
0.0
 10
68.1382176145
 20
546.0674542993
 30
0.0
  0
SPLINE
  5
3C0
100
AcDbEntity
  8
0
100
AcDbSpline
 62
7
  6
CONTINUOUS
 70
0
 71
3
 72
8
 73
4
 74
0
 42
0.0000001
 43
0.0000001
 44
0.0000000001
 40
0.0
 40
0.0
 40
0.0
 40
0.0
 40
1.0
 40
1.0
 40
1.0
 40
1.0
 10
68.1382176145
 20
546.0674542993
 30
0.0
 10
68.2765552404
 20
545.8629517115
 30
0.0
 10
68.4106887154
 20
545.6555997838
 30
0.0
 10
68.542920706
 20
545.4470972471
 30
0.0
  0
SPLINE
  5
3C1
100
AcDbEntity
  8
0
100
AcDbSpline
 62
7
  6
CONTINUOUS
 70
0
 71
3
 72
8
 73
4
 74
0
 42
0.0000001
 43
0.0000001
 44
0.0000000001
 40
0.0
 40
0.0
 40
0.0
 40
0.0
 40
1.0
 40
1.0
 40
1.0
 40
1.0
 10
68.542920706
 20
545.4470972471
 30
0.0
 10
68.6791758751
 20
545.2322509888
 30
0.0
 10
68.8133933062
 20
545.0161169826
 30
0.0
 10
68.9476238378
 20
544.8
 30
0.0
  0
SPLINE
  5
3C2
100
AcDbEntity
  8
0
100
AcDbSpline
 62
7
  6
CONTINUOUS
 70
0
 71
3
 72
9
 73
5
 74
0
 42
0.0000001
 43
0.0000001
 44
0.0000000001
 40
0.0
 40
0.0
 40
0.0
 40
0.0
 40
0.7422457555
 40
1.0
 40
1.0
 40
1.0
 40
1.0
 10
65.1120408874
 20
548.0
 30
0.0
 10
65.3325598917
 20
548.0000000001
 30
0.0
 10
65.6313857196
 20
547.9559135363
 30
0.0
 10
65.9139447305
 20
547.8640529339
 30
0.0
 10
65.9858064873
 20
547.8375938927
 30
0.0
  0
SPLINE
  5
3C3
100
AcDbEntity
  8
0
100
AcDbSpline
 62
7
  6
CONTINUOUS
 70
0
 71
3
 72
9
 73
5
 74
0
 42
0.0000001
 43
0.0000001
 44
0.0000000001
 40
0.0
 40
0.0
 40
0.0
 40
0.0
 40
0.2377353068
 40
1.0
 40
1.0
 40
1.0
 40
1.0
 10
65.9858064873
 20
547.8375938927
 30
0.0
 10
66.0597503083
 20
547.8103682486
 30
0.0
 10
66.3661920414
 20
547.6833340484
 30
0.0
 10
66.6527674079
 20
547.5116437816
 30
0.0
 10
66.8597488829
 20
547.366761119
 30
0.0
  0
SPLINE
  5
3C4
100
AcDbEntity
  8
0
100
AcDbSpline
 62
7
  6
CONTINUOUS
 70
0
 71
3
 72
9
 73
5
 74
0
 42
0.0000001
 43
0.0000001
 44
0.0000000001
 40
0.0
 40
0.0
 40
0.0
 40
0.0
 40
0.2381838582
 40
1.0
 40
1.0
 40
1.0
 40
1.0
 10
66.8597488829
 20
547.366761119
 30
0.0
 10
66.9339050318
 20
547.3148533804
 30
0.0
 10
67.2395892884
 20
547.0888291748
 30
0.0
 10
67.5246463631
 20
546.8359292913
 30
0.0
 10
67.7335144826
 20
546.6354445965
 30
0.0
  0
SPLINE
  5
3C5
100
AcDbEntity
  8
0
100
AcDbSpline
 62
7
  6
CONTINUOUS
 70
0
 71
3
 72
9
 73
5
 74
0
 42
0.0000001
 43
0.0000001
 44
0.0000000001
 40
0.0
 40
0.0
 40
0.0
 40
0.0
 40
0.261517311
 40
1.0
 40
1.0
 40
1.0
 40
1.0
 10
444.1438209442
 20
546.6354445964
 30
0.0
 10
444.2155146582
 20
546.7042607107
 30
0.0
 10
444.4932958868
 20
546.9634604925
 30
0.0
 10
444.787689275
 20
547.2058378844
 30
0.0
 10
445.017586544
 20
547.366761119
 30
0.0
  0
SPLINE
  5
3C6
100
AcDbEntity
  8
0
100
AcDbSpline
 62
7
  6
CONTINUOUS
 70
0
 71
3
 72
9
 73
5
 74
0
 42
0.0000001
 43
0.0000001
 44
0.0000000001
 40
0.0
 40
0.0
 40
0.0
 40
0.0
 40
0.2635463524
 40
1.0
 40
1.0
 40
1.0
 40
1.0
 10
445.017586544
 20
547.366761119
 30
0.0
 10
445.0891347049
 20
547.4168433211
 30
0.0
 10
445.3651722489
 20
547.5999934664
 30
0.0
 10
445.6625110471
 20
547.753270963
 30
0.0
 10
445.8915289396
 20
547.8375938927
 30
0.0
  0
SPLINE
  5
3C7
100
AcDbEntity
  8
0
100
AcDbSpline
 62
7
  6
CONTINUOUS
 70
0
 71
3
 72
9
 73
5
 74
0
 42
0.0000001
 43
0.0000001
 44
0.0000000001
 40
0.0
 40
0.0
 40
0.0
 40
0.0
 40
0.2577542445
 40
1.0
 40
1.0
 40
1.0
 40
1.0
 10
445.8915289396
 20
547.8375938927
 30
0.0
 10
445.9633906964
 20
547.8640529339
 30
0.0
 10
446.2459497073
 20
547.9559135363
 30
0.0
 10
446.5447755352
 20
548.0000000001
 30
0.0
 10
446.7652945395
 20
548.0
 30
0.0
  0
SPLINE
  5
3C8
100
AcDbEntity
  8
0
100
AcDbSpline
 62
7
  6
CONTINUOUS
 70
0
 71
3
 72
8
 73
4
 74
0
 42
0.0000001
 43
0.0000001
 44
0.0000000001
 40
0.0
 40
0.0
 40
0.0
 40
0.0
 40
1.0
 40
1.0
 40
1.0
 40
1.0
 10
442.929711589
 20
544.8
 30
0.0
 10
443.0639421207
 20
545.0161169826
 30
0.0
 10
443.1981595518
 20
545.2322509889
 30
0.0
 10
443.3344147209
 20
545.4470972472
 30
0.0
  0
SPLINE
  5
3C9
100
AcDbEntity
  8
0
100
AcDbSpline
 62
7
  6
CONTINUOUS
 70
0
 71
3
 72
9
 73
5
 74
0
 42
0.0000001
 43
0.0000001
 44
0.0000000001
 40
0.0
 40
0.0
 40
0.0
 40
0.0
 40
0.2558522378
 40
1.0
 40
1.0
 40
1.0
 40
1.0
 10
443.3344147209
 20
545.4470972472
 30
0.0
 10
443.3790141518
 20
545.5174213376
 30
0.0
 10
443.5542014265
 20
545.7917205089
 30
0.0
 10
443.7339428621
 20
546.0631902453
 30
0.0
 10
443.8726028519
 20
546.2617749893
 30
0.0
  0
SPLINE
  5
3CA
100
AcDbEntity
  8
0
100
AcDbSpline
 62
7
  6
CONTINUOUS
 70
0
 71
3
 72
9
 73
5
 74
0
 42
0.0000001
 43
0.0000001
 44
0.0000000001
 40
0.0
 40
0.0
 40
0.0
 40
0.0
 40
0.2436086851
 40
1.0
 40
1.0
 40
1.0
 40
1.0
 10
67.1121792415
 20
153.7244353065
 30
0.0
 10
67.1570499033
 20
153.7657839076
 30
0.0
 10
67.3427738435
 20
153.9338551641
 30
0.0
 10
67.533823263
 20
154.0959747594
 30
0.0
 10
67.6801695363
 20
154.2162902188
 30
0.0
  0
SPLINE
  5
3CB
100
AcDbEntity
  8
0
100
AcDbSpline
 62
7
  6
CONTINUOUS
 70
0
 71
3
 72
8
 73
4
 74
0
 42
0.0000001
 43
0.0000001
 44
0.0000000001
 40
0.0
 40
0.0
 40
0.0
 40
0.0
 40
1.0
 40
1.0
 40
1.0
 40
1.0
 10
67.6801695363
 20
154.2162902188
 30
0.0
 10
67.8840179496
 20
154.3838798332
 30
0.0
 10
68.0915131744
 20
154.5470431163
 30
0.0
 10
68.3005265933
 20
154.7081450877
 30
0.0
  0
SPLINE
  5
3CC
100
AcDbEntity
  8
0
100
AcDbSpline
 62
7
  6
CONTINUOUS
 70
0
 71
3
 72
8
 73
4
 74
0
 42
0.0000001
 43
0.0000001
 44
0.0000000001
 40
0.0
 40
0.0
 40
0.0
 40
0.0
 40
1.0
 40
1.0
 40
1.0
 40
1.0
 10
68.3005265933
 20
154.7081450877
 30
0.0
 10
68.5151167715
 20
154.8735454765
 30
0.0
 10
68.7313800147
 20
155.0367675212
 30
0.0
 10
68.9476238378
 20
155.2
 30
0.0
  0
SPLINE
  5
3CD
100
AcDbEntity
  8
0
100
AcDbSpline
 62
7
  6
CONTINUOUS
 70
0
 71
3
 72
8
 73
4
 74
0
 42
0.0000001
 43
0.0000001
 44
0.0000000001
 40
0.0
 40
0.0
 40
0.0
 40
0.0
 40
1.0
 40
1.0
 40
1.0
 40
1.0
 10
68.9476238378
 20
544.8
 30
0.0
 10
68.7313800147
 20
544.9632324789
 30
0.0
 10
68.5151167715
 20
545.1264545236
 30
0.0
 10
68.3005265933
 20
545.2918549124
 30
0.0
  0
SPLINE
  5
3CE
100
AcDbEntity
  8
0
100
AcDbSpline
 62
7
  6
CONTINUOUS
 70
0
 71
3
 72
8
 73
4
 74
0
 42
0.0000001
 43
0.0000001
 44
0.0000000001
 40
0.0
 40
0.0
 40
0.0
 40
0.0
 40
1.0
 40
1.0
 40
1.0
 40
1.0
 10
68.3005265933
 20
545.2918549124
 30
0.0
 10
68.053222036
 20
545.4824706725
 30
0.0
 10
67.8079857984
 20
545.6759544908
 30
0.0
 10
67.5685004728
 20
545.8763059094
 30
0.0
  0
SPLINE
  5
3CF
100
AcDbEntity
  8
0
100
AcDbSpline
 62
7
  6
CONTINUOUS
 70
0
 71
3
 72
9
 73
5
 74
0
 42
0.0000001
 43
0.0000001
 44
0.0000000001
 40
0.0
 40
0.0
 40
0.0
 40
0.0
 40
0.2425775327
 40
1.0
 40
1.0
 40
1.0
 40
1.0
 10
444.1438209443
 20
153.3645554036
 30
0.0
 10
444.1097465973
 20
153.4094950494
 30
0.0
 10
443.9708975262
 20
153.5959817804
 30
0.0
 10
443.8377837352
 20
153.7866892396
 30
0.0
 10
443.7391178124
 20
153.9325457008
 30
0.0
  0
SPLINE
  5
3D0
100
AcDbEntity
  8
0
100
AcDbSpline
 62
7
  6
CONTINUOUS
 70
0
 71
3
 72
8
 73
4
 74
0
 42
0.0000001
 43
0.0000001
 44
0.0000000001
 40
0.0
 40
0.0
 40
0.0
 40
0.0
 40
1.0
 40
1.0
 40
1.0
 40
1.0
 10
443.7391178124
 20
153.9325457008
 30
0.0
 10
443.6007801865
 20
154.1370482886
 30
0.0
 10
443.4666467115
 20
154.3444002163
 30
0.0
 10
443.3344147209
 20
154.552902753
 30
0.0
  0
SPLINE
  5
3D1
100
AcDbEntity
  8
0
100
AcDbSpline
 62
7
  6
CONTINUOUS
 70
0
 71
3
 72
8
 73
4
 74
0
 42
0.0000001
 43
0.0000001
 44
0.0000000001
 40
0.0
 40
0.0
 40
0.0
 40
0.0
 40
1.0
 40
1.0
 40
1.0
 40
1.0
 10
443.3344147209
 20
154.552902753
 30
0.0
 10
443.1981595518
 20
154.7677490112
 30
0.0
 10
443.0639421207
 20
154.9838830175
 30
0.0
 10
442.929711589
 20
155.2
 30
0.0
  0
SPLINE
  5
3D2
100
AcDbEntity
  8
0
100
AcDbSpline
 62
7
  6
CONTINUOUS
 70
0
 71
3
 72
9
 73
5
 74
0
 42
0.0000001
 43
0.0000001
 44
0.0000000001
 40
0.0
 40
0.0
 40
0.0
 40
0.0
 40
0.7422457555
 40
1.0
 40
1.0
 40
1.0
 40
1.0
 10
446.7652945395
 20
152.0
 30
0.0
 10
446.5447755352
 20
152.0
 30
0.0
 10
446.2459497073
 20
152.0440864638
 30
0.0
 10
445.9633906964
 20
152.1359470662
 30
0.0
 10
445.8915289396
 20
152.1624061074
 30
0.0
  0
SPLINE
  5
3D3
100
AcDbEntity
  8
0
100
AcDbSpline
 62
7
  6
CONTINUOUS
 70
0
 71
3
 72
9
 73
5
 74
0
 42
0.0000001
 43
0.0000001
 44
0.0000000001
 40
0.0
 40
0.0
 40
0.0
 40
0.0
 40
0.2377353068
 40
1.0
 40
1.0
 40
1.0
 40
1.0
 10
445.8915289396
 20
152.1624061074
 30
0.0
 10
445.8175851186
 20
152.1896317515
 30
0.0
 10
445.5111433856
 20
152.3166659517
 30
0.0
 10
445.224568019
 20
152.4883562185
 30
0.0
 10
445.017586544
 20
152.6332388811
 30
0.0
  0
SPLINE
  5
3D4
100
AcDbEntity
  8
0
100
AcDbSpline
 62
7
  6
CONTINUOUS
 70
0
 71
3
 72
9
 73
5
 74
0
 42
0.0000001
 43
0.0000001
 44
0.0000000001
 40
0.0
 40
0.0
 40
0.0
 40
0.0
 40
0.2381838582
 40
1.0
 40
1.0
 40
1.0
 40
1.0
 10
445.017586544
 20
152.6332388811
 30
0.0
 10
444.9434303951
 20
152.6851466197
 30
0.0
 10
444.6377461385
 20
152.9111708253
 30
0.0
 10
444.3526890638
 20
153.1640707088
 30
0.0
 10
444.1438209443
 20
153.3645554036
 30
0.0
  0
SPLINE
  5
3D5
100
AcDbEntity
  8
0
100
AcDbSpline
 62
7
  6
CONTINUOUS
 70
0
 71
3
 72
9
 73
5
 74
0
 42
0.0000001
 43
0.0000001
 44
0.0000000001
 40
0.0
 40
0.0
 40
0.0
 40
0.0
 40
0.2615173562
 40
1.0
 40
1.0
 40
1.0
 40
1.0
 10
67.7335144828
 20
153.3645554037
 30
0.0
 10
67.6618205195
 20
153.2957390502
 30
0.0
 10
67.3840383574
 20
153.0365384301
 30
0.0
 10
67.0896439102
 20
152.7941603231
 30
0.0
 10
66.8597457832
 20
152.6332367277
 30
0.0
  0
SPLINE
  5
3D6
100
AcDbEntity
  8
0
100
AcDbSpline
 62
7
  6
CONTINUOUS
 70
0
 71
3
 72
9
 73
5
 74
0
 42
0.0000001
 43
0.0000001
 44
0.0000000001
 40
0.0
 40
0.0
 40
0.0
 40
0.0
 40
0.2635463054
 40
1.0
 40
1.0
 40
1.0
 40
1.0
 10
66.8597457832
 20
152.6332367277
 30
0.0
 10
66.7881978776
 20
152.5831547789
 30
0.0
 10
66.5121612855
 20
152.4000055215
 30
0.0
 10
66.2148235962
 20
152.2467287475
 30
0.0
 10
65.9858065801
 20
152.1624061331
 30
0.0
  0
SPLINE
  5
3D7
100
AcDbEntity
  8
0
100
AcDbSpline
 62
7
  6
CONTINUOUS
 70
0
 71
3
 72
9
 73
5
 74
0
 42
0.0000001
 43
0.0000001
 44
0.0000000001
 40
0.0
 40
0.0
 40
0.0
 40
0.0
 40
0.2577542408
 40
1.0
 40
1.0
 40
1.0
 40
1.0
 10
65.9858065801
 20
152.1624061331
 30
0.0
 10
65.9139448173
 20
152.1359470873
 30
0.0
 10
65.6313857772
 20
152.04408647
 30
0.0
 10
65.3325599167
 20
152.0
 30
0.0
 10
65.1120408874
 20
152.0
 30
0.0
  0
SPLINE
  5
3D8
100
AcDbEntity
  8
0
100
AcDbSpline
 62
7
  6
CONTINUOUS
 70
0
 71
3
 72
8
 73
4
 74
0
 42
0.0000001
 43
0.0000001
 44
0.0000000001
 40
0.0
 40
0.0
 40
0.0
 40
0.0
 40
1.0
 40
1.0
 40
1.0
 40
1.0
 10
68.9476238378
 20
155.2
 30
0.0
 10
68.8133933062
 20
154.9838830175
 30
0.0
 10
68.6791758751
 20
154.7677490112
 30
0.0
 10
68.542920706
 20
154.5529027529
 30
0.0
  0
SPLINE
  5
3D9
100
AcDbEntity
  8
0
100
AcDbSpline
 62
7
  6
CONTINUOUS
 70
0
 71
3
 72
9
 73
5
 74
0
 42
0.0000001
 43
0.0000001
 44
0.0000000001
 40
0.0
 40
0.0
 40
0.0
 40
0.0
 40
0.2558522378
 40
1.0
 40
1.0
 40
1.0
 40
1.0
 10
68.542920706
 20
154.5529027529
 30
0.0
 10
68.4983212751
 20
154.4825786625
 30
0.0
 10
68.3231340004
 20
154.2082794912
 30
0.0
 10
68.1433925648
 20
153.9368097547
 30
0.0
 10
68.0047325749
 20
153.7382250108
 30
0.0
  0
SPLINE
  5
3DA
100
AcDbEntity
  8
0
100
AcDbSpline
 62
7
  6
CONTINUOUS
 70
0
 71
3
 72
9
 73
5
 74
0
 42
0.0000001
 43
0.0000001
 44
0.0000000001
 40
0.0
 40
0.0
 40
0.0
 40
0.0
 40
0.4417954345
 40
1.0
 40
1.0
 40
1.0
 40
1.0
 10
56.617620131
 20
548.4737725101
 30
0.0
 10
56.7583963684
 20
548.229101812
 30
0.0
 10
57.219840746
 20
547.7655548893
 30
0.0
 10
57.7417972023
 20
547.4008395495
 30
0.0
 10
58.0389295509
 20
547.2035656415
 30
0.0
  0
SPLINE
  5
3DB
100
AcDbEntity
  8
0
100
AcDbSpline
 62
7
  6
CONTINUOUS
 70
0
 71
3
 72
9
 73
5
 74
0
 42
0.0000001
 43
0.0000001
 44
0.0000000001
 40
0.0
 40
0.0
 40
0.0
 40
0.0
 40
0.5582151224
 40
1.0
 40
1.0
 40
1.0
 40
1.0
 10
58.038938303
 20
152.7964402466
 30
0.0
 10
57.7417671521
 20
152.5991407743
 30
0.0
 10
57.2197547075
 20
152.2343863529
 30
0.0
 10
56.7582703575
 20
151.7707611393
 30
0.0
 10
56.6175175107
 20
151.5260484999
 30
0.0
  0
SPLINE
  5
3DC
100
AcDbEntity
  8
0
100
AcDbSpline
 62
7
  6
CONTINUOUS
 70
0
 71
3
 72
9
 73
5
 74
0
 42
0.0000001
 43
0.0000001
 44
0.0000000001
 40
0.0
 40
0.0
 40
0.0
 40
0.0
 40
0.2256365369
 40
1.0
 40
1.0
 40
1.0
 40
1.0
 10
56.4641239986
 20
151.0
 30
0.0
 10
56.4641239986
 20
151.0374289159
 30
0.0
 10
56.4845304358
 20
151.2037508167
 30
0.0
 10
56.5804519679
 20
151.3512148737
 30
0.0
 10
56.6647038905
 20
151.4481770674
 30
0.0
  0
SPLINE
  5
3DD
100
AcDbEntity
  8
0
100
AcDbSpline
 62
7
  6
CONTINUOUS
 70
0
 71
3
 72
8
 73
4
 74
0
 42
0.0000001
 43
0.0000001
 44
0.0000000001
 40
0.0
 40
0.0
 40
0.0
 40
0.0
 40
1.0
 40
1.0
 40
1.0
 40
1.0
 10
56.6647038905
 20
151.4481770674
 30
0.0
 10
56.6931977563
 20
151.4809695267
 30
0.0
 10
56.723290192
 20
151.5124045527
 30
0.0
 10
56.7543856624
 20
151.5427412879
 30
0.0
  0
SPLINE
  5
3DE
100
AcDbEntity
  8
0
100
AcDbSpline
 62
7
  6
CONTINUOUS
 70
0
 71
3
 72
9
 73
5
 74
0
 42
0.0000001
 43
0.0000001
 44
0.0000000001
 40
0.0
 40
0.0
 40
0.0
 40
0.0
 40
0.2227955393
 40
1.0
 40
1.0
 40
1.0
 40
1.0
 10
56.7543856624
 20
151.5427412879
 30
0.0
 10
56.8082428576
 20
151.5952843576
 30
0.0
 10
57.0640324499
 20
151.8167070754
 30
0.0
 10
57.3496823136
 20
151.9992801343
 30
0.0
 10
57.5708842458
 20
152.1405719043
 30
0.0
  0
SPLINE
  5
3DF
100
AcDbEntity
  8
0
100
AcDbSpline
 62
7
  6
CONTINUOUS
 70
0
 71
3
 72
9
 73
5
 74
0
 42
0.0000001
 43
0.0000001
 44
0.0000000001
 40
0.0
 40
0.0
 40
0.0
 40
0.0
 40
0.2711484876
 40
1.0
 40
1.0
 40
1.0
 40
1.0
 10
57.5711634808
 20
547.8592497249
 30
0.0
 10
57.4939920513
 20
547.9085416924
 30
0.0
 10
57.2107418865
 20
548.0915767022
 30
0.0
 10
56.9303853627
 20
548.2855110362
 30
0.0
 10
56.7542210809
 20
548.4574188749
 30
0.0
  0
SPLINE
  5
3E0
100
AcDbEntity
  8
0
100
AcDbSpline
 62
7
  6
CONTINUOUS
 70
0
 71
3
 72
8
 73
4
 74
0
 42
0.0000001
 43
0.0000001
 44
0.0000000001
 40
0.0
 40
0.0
 40
0.0
 40
0.0
 40
1.0
 40
1.0
 40
1.0
 40
1.0
 10
56.7542210809
 20
548.4574188749
 30
0.0
 10
56.7231603817
 20
548.4877290922
 30
0.0
 10
56.6931015118
 20
548.519135948
 30
0.0
 10
56.6646386965
 20
548.551897884
 30
0.0
  0
SPLINE
  5
3E1
100
AcDbEntity
  8
0
100
AcDbSpline
 62
7
  6
CONTINUOUS
 70
0
 71
3
 72
9
 73
5
 74
0
 42
0.0000001
 43
0.0000001
 44
0.0000000001
 40
0.0
 40
0.0
 40
0.0
 40
0.0
 40
0.2850596652
 40
1.0
 40
1.0
 40
1.0
 40
1.0
 10
56.6646386965
 20
548.551897884
 30
0.0
 10
56.633710383
 20
548.5874977154
 30
0.0
 10
56.5320007547
 20
548.7167897266
 30
0.0
 10
56.4641239986
 20
548.8817251262
 30
0.0
 10
56.4641239986
 20
549.0000000001
 30
0.0
  0
SPLINE
  5
3E2
100
AcDbEntity
  8
0
100
AcDbSpline
 62
7
  6
CONTINUOUS
 70
0
 71
3
 72
9
 73
5
 74
0
 42
0.0000001
 43
0.0000001
 44
0.0000000001
 40
0.0
 40
0.0
 40
0.0
 40
0.0
 40
0.2628446443
 40
1.0
 40
1.0
 40
1.0
 40
1.0
 10
58.1989532393
 20
547.2979948238
 30
0.0
 10
58.1052893752
 20
547.396526165
 30
0.0
 10
57.7460031399
 20
547.7682248783
 30
0.0
 10
57.3674079795
 20
548.1240124308
 30
0.0
 10
57.0644024868
 20
548.3554222307
 30
0.0
  0
SPLINE
  5
3E3
100
AcDbEntity
  8
0
100
AcDbSpline
 62
7
  6
CONTINUOUS
 70
0
 71
3
 72
8
 73
4
 74
0
 42
0.0000001
 43
0.0000001
 44
0.0000000001
 40
0.0
 40
0.0
 40
0.0
 40
0.0
 40
1.0
 40
1.0
 40
1.0
 40
1.0
 10
57.0644024868
 20
548.3554222307
 30
0.0
 10
56.9725026084
 20
548.4256075342
 30
0.0
 10
56.8782184702
 20
548.4928419567
 30
0.0
 10
56.781283712
 20
548.5558912796
 30
0.0
  0
SPLINE
  5
3E4
100
AcDbEntity
  8
0
100
AcDbSpline
 62
7
  6
CONTINUOUS
 70
0
 71
3
 72
8
 73
4
 74
0
 42
0.0000001
 43
0.0000001
 44
0.0000000001
 40
0.0
 40
0.0
 40
0.0
 40
0.0
 40
1.0
 40
1.0
 40
1.0
 40
1.0
 10
56.781283712
 20
548.5558912796
 30
0.0
 10
56.6804595095
 20
548.6214704158
 30
0.0
 10
56.5765403769
 20
548.6826680338
 30
0.0
 10
56.4694766056
 20
548.7374721557
 30
0.0
  0
SPLINE
  5
3E5
100
AcDbEntity
  8
0
100
AcDbSpline
 62
7
  6
CONTINUOUS
 70
0
 71
3
 72
9
 73
5
 74
0
 42
0.0000001
 43
0.0000001
 44
0.0000000001
 40
0.0
 40
0.0
 40
0.0
 40
0.0
 40
0.2610157113
 40
1.0
 40
1.0
 40
1.0
 40
1.0
 10
56.3262410237
 20
548.8059280199
 30
0.0
 10
56.255675412
 20
548.8372218598
 30
0.0
 10
55.9805193713
 20
548.9454775773
 30
0.0
 10
55.6826727469
 20
549.0
 30
0.0
 10
55.4641239986
 20
549.0
 30
0.0
  0
SPLINE
  5
3E6
100
AcDbEntity
  8
0
100
AcDbSpline
 62
7
  6
CONTINUOUS
 70
0
 71
3
 72
9
 73
5
 74
0
 42
0.0000001
 43
0.0000001
 44
0.0000000001
 40
0.0
 40
0.0
 40
0.0
 40
0.0
 40
0.2427427233
 40
1.0
 40
1.0
 40
1.0
 40
1.0
 10
55.4641239987
 20
151.0
 30
0.0
 10
55.5359426414
 20
151.0
 30
0.0
 10
55.8318224425
 20
151.0171347706
 30
0.0
 10
56.1215197918
 20
151.1032750517
 30
0.0
 10
56.3263248782
 20
151.1941092261
 30
0.0
  0
SPLINE
  5
3E7
100
AcDbEntity
  8
0
100
AcDbSpline
 62
7
  6
CONTINUOUS
 70
0
 71
3
 72
8
 73
4
 74
0
 42
0.0000001
 43
0.0000001
 44
0.0000000001
 40
0.0
 40
0.0
 40
0.0
 40
0.0
 40
1.0
 40
1.0
 40
1.0
 40
1.0
 10
56.4694788607
 20
151.2625292635
 30
0.0
 10
56.5765376445
 20
151.3173309766
 30
0.0
 10
56.6804521716
 20
151.3785254046
 30
0.0
 10
56.7812720202
 20
151.444101079
 30
0.0
  0
SPLINE
  5
3E8
100
AcDbEntity
  8
0
100
AcDbSpline
 62
7
  6
CONTINUOUS
 70
0
 71
3
 72
8
 73
4
 74
0
 42
0.0000001
 43
0.0000001
 44
0.0000000001
 40
0.0
 40
0.0
 40
0.0
 40
0.0
 40
1.0
 40
1.0
 40
1.0
 40
1.0
 10
56.7812720202
 20
151.444101079
 30
0.0
 10
56.8780152565
 20
151.5070252258
 30
0.0
 10
56.9721182277
 20
151.5741180924
 30
0.0
 10
57.0638455112
 20
151.6441524231
 30
0.0
  0
SPLINE
  5
3E9
100
AcDbEntity
  8
0
100
AcDbSpline
 62
7
  6
CONTINUOUS
 70
0
 71
3
 72
9
 73
5
 74
0
 42
0.0000001
 43
0.0000001
 44
0.0000000001
 40
0.0
 40
0.0
 40
0.0
 40
0.0
 40
0.235411064
 40
1.0
 40
1.0
 40
1.0
 40
1.0
 10
57.0638455112
 20
151.6441524231
 30
0.0
 10
57.16199246
 20
151.7190882066
 30
0.0
 10
57.5677111236
 20
152.0521587607
 30
0.0
 10
57.9372998632
 20
152.4262976912
 30
0.0
 10
58.2133876564
 20
152.7172021482
 30
0.0
  0
SPLINE
  5
3EA
100
AcDbEntity
  8
0
100
AcDbSpline
 62
7
  6
CONTINUOUS
 70
0
 71
3
 72
9
 73
5
 74
0
 42
0.0000001
 43
0.0000001
 44
0.0000000001
 40
0.0
 40
0.0
 40
0.0
 40
0.0
 40
0.2591934479
 40
1.0
 40
1.0
 40
1.0
 40
1.0
 10
453.2146850526
 20
152.2103397764
 30
0.0
 10
453.2682582204
 20
152.1586878776
 30
0.0
 10
453.4769123315
 20
151.9615107551
 30
0.0
 10
453.69480873
 20
151.7736736719
 30
0.0
 10
453.8638455106
 20
151.6445777693
 30
0.0
  0
SPLINE
  5
3EB
100
AcDbEntity
  8
0
100
AcDbSpline
 62
7
  6
CONTINUOUS
 70
0
 71
3
 72
8
 73
4
 74
0
 42
0.0000001
 43
0.0000001
 44
0.0000000001
 40
0.0
 40
0.0
 40
0.0
 40
0.0
 40
1.0
 40
1.0
 40
1.0
 40
1.0
 10
453.8638455106
 20
151.6445777693
 30
0.0
 10
453.955745389
 20
151.5743924658
 30
0.0
 10
454.0500295272
 20
151.5071580434
 30
0.0
 10
454.1469642854
 20
151.4441087205
 30
0.0
  0
SPLINE
  5
3EC
100
AcDbEntity
  8
0
100
AcDbSpline
 62
7
  6
CONTINUOUS
 70
0
 71
3
 72
8
 73
4
 74
0
 42
0.0000001
 43
0.0000001
 44
0.0000000001
 40
0.0
 40
0.0
 40
0.0
 40
0.0
 40
1.0
 40
1.0
 40
1.0
 40
1.0
 10
454.1469642854
 20
151.4441087205
 30
0.0
 10
454.2477884879
 20
151.3785295843
 30
0.0
 10
454.3517076204
 20
151.3173319663
 30
0.0
 10
454.4587713917
 20
151.2625278444
 30
0.0
  0
SPLINE
  5
3ED
100
AcDbEntity
  8
0
100
AcDbSpline
 62
7
  6
CONTINUOUS
 70
0
 71
3
 72
9
 73
5
 74
0
 42
0.0000001
 43
0.0000001
 44
0.0000000001
 40
0.0
 40
0.0
 40
0.0
 40
0.0
 40
0.2610157113
 40
1.0
 40
1.0
 40
1.0
 40
1.0
 10
454.6020069736
 20
151.1940719801
 30
0.0
 10
454.6725725853
 20
151.1627781403
 30
0.0
 10
454.947728626
 20
151.0545224227
 30
0.0
 10
455.2455752503
 20
151.0
 30
0.0
 10
455.4641239986
 20
151.0
 30
0.0
  0
SPLINE
  5
3EE
100
AcDbEntity
  8
0
100
AcDbSpline
 62
7
  6
CONTINUOUS
 70
0
 71
3
 72
9
 73
5
 74
0
 42
0.0000001
 43
0.0000001
 44
0.0000000001
 40
0.0
 40
0.0
 40
0.0
 40
0.0
 40
0.2427427233
 40
1.0
 40
1.0
 40
1.0
 40
1.0
 10
455.4641239986
 20
549.0
 30
0.0
 10
455.3923053562
 20
549.0
 30
0.0
 10
455.0964255561
 20
548.9828652297
 30
0.0
 10
454.8067282078
 20
548.8967249491
 30
0.0
 10
454.6019231221
 20
548.8058907753
 30
0.0
  0
SPLINE
  5
3EF
100
AcDbEntity
  8
0
100
AcDbSpline
 62
7
  6
CONTINUOUS
 70
0
 71
3
 72
8
 73
4
 74
0
 42
0.0000001
 43
0.0000001
 44
0.0000000001
 40
0.0
 40
0.0
 40
0.0
 40
0.0
 40
1.0
 40
1.0
 40
1.0
 40
1.0
 10
454.4587691366
 20
548.7374707366
 30
0.0
 10
454.3517103528
 20
548.6826690235
 30
0.0
 10
454.2477958257
 20
548.6214745955
 30
0.0
 10
454.146975977
 20
548.5558989211
 30
0.0
  0
SPLINE
  5
3F0
100
AcDbEntity
  8
0
100
AcDbSpline
 62
7
  6
CONTINUOUS
 70
0
 71
3
 72
8
 73
4
 74
0
 42
0.0000001
 43
0.0000001
 44
0.0000000001
 40
0.0
 40
0.0
 40
0.0
 40
0.0
 40
1.0
 40
1.0
 40
1.0
 40
1.0
 10
454.146975977
 20
548.5558989211
 30
0.0
 10
454.0502327408
 20
548.4929747743
 30
0.0
 10
453.9561297696
 20
548.4258819076
 30
0.0
 10
453.8644024861
 20
548.355847577
 30
0.0
  0
SPLINE
  5
3F1
100
AcDbEntity
  8
0
100
AcDbSpline
 62
7
  6
CONTINUOUS
 70
0
 71
3
 72
9
 73
5
 74
0
 42
0.0000001
 43
0.0000001
 44
0.0000000001
 40
0.0
 40
0.0
 40
0.0
 40
0.0
 40
0.240611227
 40
1.0
 40
1.0
 40
1.0
 40
1.0
 10
453.8644024861
 20
548.355847577
 30
0.0
 10
453.8107423703
 20
548.3148777571
 30
0.0
 10
453.5910128074
 20
548.1402918985
 30
0.0
 10
453.3830013174
 20
547.9513742763
 30
0.0
 10
453.229339445
 20
547.8037634868
 30
0.0
  0
SPLINE
  5
3F2
100
AcDbEntity
  8
0
100
AcDbSpline
 62
7
  6
CONTINUOUS
 70
0
 71
3
 72
9
 73
5
 74
0
 42
0.0000001
 43
0.0000001
 44
0.0000000001
 40
0.0
 40
0.0
 40
0.0
 40
0.0
 40
0.2256364682
 40
1.0
 40
1.0
 40
1.0
 40
1.0
 10
454.4641239986
 20
549.0000000001
 30
0.0
 10
454.4641239986
 20
548.962571003
 30
0.0
 10
454.4437174712
 20
548.7962486882
 30
0.0
 10
454.3477955236
 20
548.6487843485
 30
0.0
 10
454.2635432884
 20
548.5518219905
 30
0.0
  0
SPLINE
  5
3F3
100
AcDbEntity
  8
0
100
AcDbSpline
 62
7
  6
CONTINUOUS
 70
0
 71
3
 72
9
 73
5
 74
0
 42
0.0000001
 43
0.0000001
 44
0.0000000001
 40
0.0
 40
0.0
 40
0.0
 40
0.0
 40
0.2209702425
 40
1.0
 40
1.0
 40
1.0
 40
1.0
 10
454.1969821333
 20
548.4802195615
 30
0.0
 10
454.1428331828
 20
548.4254499021
 30
0.0
 10
453.8813972268
 20
548.1938217039
 30
0.0
 10
453.5861942044
 20
548.0055925587
 30
0.0
 10
453.3573638234
 20
547.8594281431
 30
0.0
  0
SPLINE
  5
3F4
100
AcDbEntity
  8
0
100
AcDbSpline
 62
7
  6
CONTINUOUS
 70
0
 71
3
 72
9
 73
5
 74
0
 42
0.0000001
 43
0.0000001
 44
0.0000000001
 40
0.0
 40
0.0
 40
0.0
 40
0.0
 40
0.2726989704
 40
1.0
 40
1.0
 40
1.0
 40
1.0
 10
453.3570845165
 20
152.1407502752
 30
0.0
 10
453.4371290503
 20
152.0896231601
 30
0.0
 10
453.7290853548
 20
151.9007808269
 30
0.0
 10
454.0185749862
 20
151.7001533527
 30
0.0
 10
454.1967118041
 20
151.5200542267
 30
0.0
  0
SPLINE
  5
3F5
100
AcDbEntity
  8
0
100
AcDbSpline
 62
7
  6
CONTINUOUS
 70
0
 71
3
 72
8
 73
4
 74
0
 42
0.0000001
 43
0.0000001
 44
0.0000000001
 40
0.0
 40
0.0
 40
0.0
 40
0.0
 40
1.0
 40
1.0
 40
1.0
 40
1.0
 10
454.1967118041
 20
151.5200542267
 30
0.0
 10
454.2197415418
 20
151.4967707994
 30
0.0
 10
454.2421313049
 20
151.4728242217
 30
0.0
 10
454.2636093008
 20
151.4481021161
 30
0.0
  0
SPLINE
  5
3F6
100
AcDbEntity
  8
0
100
AcDbSpline
 62
7
  6
CONTINUOUS
 70
0
 71
3
 72
9
 73
5
 74
0
 42
0.0000001
 43
0.0000001
 44
0.0000000001
 40
0.0
 40
0.0
 40
0.0
 40
0.0
 40
0.2850596653
 40
1.0
 40
1.0
 40
1.0
 40
1.0
 10
454.2636093008
 20
151.4481021161
 30
0.0
 10
454.2945376143
 20
151.4125022847
 30
0.0
 10
454.3962472426
 20
151.2832102735
 30
0.0
 10
454.4641239986
 20
151.1182748739
 30
0.0
 10
454.4641239986
 20
151.0
 30
0.0
  0
SPLINE
  5
3F7
100
AcDbEntity
  8
0
100
AcDbSpline
 62
7
  6
CONTINUOUS
 70
0
 71
3
 72
9
 73
5
 74
0
 42
0.0000001
 43
0.0000001
 44
0.0000000001
 40
0.0
 40
0.0
 40
0.0
 40
0.0
 40
0.2179169409
 40
1.0
 40
1.0
 40
1.0
 40
1.0
 10
454.3106278663
 20
151.5262274899
 30
0.0
 10
454.2698932664
 20
151.5970246867
 30
0.0
 10
454.0551582448
 20
151.9059841737
 30
0.0
 10
453.7677906605
 20
152.1557089148
 30
0.0
 10
453.5366902037
 20
152.3360522442
 30
0.0
  0
SPLINE
  5
3F8
100
AcDbEntity
  8
0
100
AcDbSpline
 62
7
  6
CONTINUOUS
 70
0
 71
3
 72
8
 73
4
 74
0
 42
0.0000001
 43
0.0000001
 44
0.0000000001
 40
0.0
 40
0.0
 40
0.0
 40
0.0
 40
1.0
 40
1.0
 40
1.0
 40
1.0
 10
453.3510873217
 20
152.4761884461
 30
0.0
 10
453.2341037062
 20
152.5618741918
 30
0.0
 10
453.1150180024
 20
152.644710002
 30
0.0
 10
452.9948226945
 20
152.7258290582
 30
0.0
  0
SPLINE
  5
3F9
100
AcDbEntity
  8
0
100
AcDbSpline
 62
7
  6
CONTINUOUS
 70
0
 71
3
 72
8
 73
4
 74
0
 42
0.0000001
 43
0.0000001
 44
0.0000000001
 40
0.0
 40
0.0
 40
0.0
 40
0.0
 40
1.0
 40
1.0
 40
1.0
 40
1.0
 10
452.9947815547
 20
547.2741431318
 30
0.0
 10
453.1149680414
 20
547.3552557223
 30
0.0
 10
453.234045138
 20
547.4380847261
 30
0.0
 10
453.3510207668
 20
547.5237628806
 30
0.0
  0
SPLINE
  5
3FA
100
AcDbEntity
  8
0
100
AcDbSpline
 62
7
  6
CONTINUOUS
 70
0
 71
3
 72
9
 73
5
 74
0
 42
0.0000001
 43
0.0000001
 44
0.0000000001
 40
0.0
 40
0.0
 40
0.0
 40
0.0
 40
0.2830615885
 40
1.0
 40
1.0
 40
1.0
 40
1.0
 10
453.5366461917
 20
547.6639133601
 30
0.0
 10
453.6202197702
 20
547.7291302925
 30
0.0
 10
453.9087457424
 20
547.9661095811
 30
0.0
 10
454.1768610925
 20
548.241206419
 30
0.0
 10
454.3107304866
 20
548.4739515002
 30
0.0
  0
SPLINE
  5
3FB
100
AcDbEntity
  8
0
100
AcDbSpline
 62
7
  6
CONTINUOUS
 70
0
 71
3
 72
9
 73
5
 74
0
 42
0.0000001
 43
0.0000001
 44
0.0000000001
 40
0.0
 40
0.0
 40
0.0
 40
0.0
 40
0.265145271
 40
1.0
 40
1.0
 40
1.0
 40
1.0
 10
453.0542174154
 20
548.0102225767
 30
0.0
 10
453.1207341444
 20
548.1069348451
 30
0.0
 10
453.3750983031
 20
548.4691278602
 30
0.0
 10
453.6461983616
 20
548.8206461704
 30
0.0
 10
453.8638457444
 20
549.0624325955
 30
0.0
  0
SPLINE
  5
3FC
100
AcDbEntity
  8
0
100
AcDbSpline
 62
7
  6
CONTINUOUS
 70
0
 71
3
 72
9
 73
5
 74
0
 42
0.0000001
 43
0.0000001
 44
0.0000000001
 40
0.0
 40
0.0
 40
0.0
 40
0.0
 40
0.286445847
 40
1.0
 40
1.0
 40
1.0
 40
1.0
 10
453.8638457444
 20
549.0624325955
 30
0.0
 10
453.9576487467
 20
549.1666391901
 30
0.0
 10
454.2956738106
 20
549.5173512461
 30
0.0
 10
454.7067161019
 20
549.8220324099
 30
0.0
 10
455.0388263542
 20
549.9301451822
 30
0.0
  0
SPLINE
  5
3FD
100
AcDbEntity
  8
0
100
AcDbSpline
 62
7
  6
CONTINUOUS
 70
0
 71
3
 72
8
 73
4
 74
0
 42
0.0000001
 43
0.0000001
 44
0.0000000001
 40
0.0
 40
0.0
 40
0.0
 40
0.0
 40
1.0
 40
1.0
 40
1.0
 40
1.0
 10
455.0388263542
 20
549.9301451822
 30
0.0
 10
455.175435655
 20
549.9746159871
 30
0.0
 10
455.3204585764
 20
550.0000000001
 30
0.0
 10
455.4641239986
 20
550.0
 30
0.0
  0
SPLINE
  5
3FE
100
AcDbEntity
  8
0
100
AcDbSpline
 62
7
  6
CONTINUOUS
 70
0
 71
3
 72
8
 73
4
 74
0
 42
0.0000001
 43
0.0000001
 44
0.0000000001
 40
0.0
 40
0.0
 40
0.0
 40
0.0
 40
1.0
 40
1.0
 40
1.0
 40
1.0
 10
55.4641239986
 20
550.0
 30
0.0
 10
55.6077706468
 20
550.0000000001
 30
0.0
 10
55.7527744586
 20
549.9746234643
 30
0.0
 10
55.889367606
 20
549.9301636889
 30
0.0
  0
SPLINE
  5
3FF
100
AcDbEntity
  8
0
100
AcDbSpline
 62
7
  6
CONTINUOUS
 70
0
 71
3
 72
9
 73
5
 74
0
 42
0.0000001
 43
0.0000001
 44
0.0000000001
 40
0.0
 40
0.0
 40
0.0
 40
0.0
 40
0.2179203626
 40
1.0
 40
1.0
 40
1.0
 40
1.0
 10
55.889367606
 20
549.9301636889
 30
0.0
 10
55.9909273899
 20
549.8971069414
 30
0.0
 10
56.4414974216
 20
549.696292385
 30
0.0
 10
56.8073644045
 20
549.3479001426
 30
0.0
 10
57.0638447585
 20
549.0630518597
 30
0.0
  0
SPLINE
  5
400
100
AcDbEntity
  8
0
100
AcDbSpline
 62
7
  6
CONTINUOUS
 70
0
 71
3
 72
9
 73
5
 74
0
 42
0.0000001
 43
0.0000001
 44
0.0000000001
 40
0.0
 40
0.0
 40
0.0
 40
0.0
 40
0.2296751408
 40
1.0
 40
1.0
 40
1.0
 40
1.0
 10
57.0638447585
 20
549.0630518597
 30
0.0
 10
57.1619797478
 20
548.9540626808
 30
0.0
 10
57.5720518847
 20
548.4639883845
 30
0.0
 10
57.9311682998
 20
547.9341599493
 30
0.0
 10
58.2002408086
 20
547.5223841038
 30
0.0
  0
SPLINE
  5
401
100
AcDbEntity
  8
0
100
AcDbSpline
 62
7
  6
CONTINUOUS
 70
0
 71
3
 72
9
 73
5
 74
0
 42
0.0000001
 43
0.0000001
 44
0.0000000001
 40
0.0
 40
0.0
 40
0.0
 40
0.0
 40
0.2717470575
 40
1.0
 40
1.0
 40
1.0
 40
1.0
 10
57.9504195219
 20
547.1150220984
 30
0.0
 10
57.8069025936
 20
547.1794550816
 30
0.0
 10
57.280600811
 20
547.4199808814
 30
0.0
 10
56.7601868722
 20
547.6779564627
 30
0.0
 10
56.4016878371
 20
547.8998109071
 30
0.0
  0
SPLINE
  5
402
100
AcDbEntity
  8
0
100
AcDbSpline
 62
7
  6
CONTINUOUS
 70
0
 71
3
 72
9
 73
5
 74
0
 42
0.0000001
 43
0.0000001
 44
0.0000000001
 40
0.0
 40
0.0
 40
0.0
 40
0.0
 40
0.2881489063
 40
1.0
 40
1.0
 40
1.0
 40
1.0
 10
56.4016878371
 20
547.8998109071
 30
0.0
 10
56.3230483923
 20
547.9484763389
 30
0.0
 10
56.0551569127
 20
548.1237249444
 30
0.0
 10
55.7997065466
 20
548.3290554564
 30
0.0
 10
55.6588975155
 20
548.5089686613
 30
0.0
  0
SPLINE
  5
403
100
AcDbEntity
  8
0
100
AcDbSpline
 62
7
  6
CONTINUOUS
 70
0
 71
3
 72
9
 73
5
 74
0
 42
0.0000001
 43
0.0000001
 44
0.0000000001
 40
0.0
 40
0.0
 40
0.0
 40
0.0
 40
0.2798743219
 40
1.0
 40
1.0
 40
1.0
 40
1.0
 10
55.6588975155
 20
548.5089686613
 30
0.0
 10
55.6282252305
 20
548.5481589679
 30
0.0
 10
55.5263515297
 20
548.693212406
 30
0.0
 10
55.4641239986
 20
548.8719500993
 30
0.0
 10
55.4641239986
 20
548.9999999994
 30
0.0
  0
SPLINE
  5
404
100
AcDbEntity
  8
0
100
AcDbSpline
 62
7
  6
CONTINUOUS
 70
0
 71
3
 72
8
 73
4
 74
0
 42
0.0000001
 43
0.0000001
 44
0.0000000001
 40
0.0
 40
0.0
 40
0.0
 40
0.0
 40
1.0
 40
1.0
 40
1.0
 40
1.0
 10
455.4641239986
 20
150.0
 30
0.0
 10
455.320477222
 20
150.0
 30
0.0
 10
455.1754732803
 20
150.025376589
 30
0.0
 10
455.0388800219
 20
150.0698364383
 30
0.0
  0
SPLINE
  5
405
100
AcDbEntity
  8
0
100
AcDbSpline
 62
7
  6
CONTINUOUS
 70
0
 71
3
 72
9
 73
5
 74
0
 42
0.0000001
 43
0.0000001
 44
0.0000000001
 40
0.0
 40
0.0
 40
0.0
 40
0.0
 40
0.2179202814
 40
1.0
 40
1.0
 40
1.0
 40
1.0
 10
455.0388800219
 20
150.0698364383
 30
0.0
 10
454.9373199294
 20
150.1028933144
 30
0.0
 10
454.4867484122
 20
150.3037088101
 30
0.0
 10
454.1208805389
 20
150.6521027287
 30
0.0
 10
453.8643995239
 20
150.9369522718
 30
0.0
  0
SPLINE
  5
406
100
AcDbEntity
  8
0
100
AcDbSpline
 62
7
  6
CONTINUOUS
 70
0
 71
3
 72
9
 73
5
 74
0
 42
0.0000001
 43
0.0000001
 44
0.0000000001
 40
0.0
 40
0.0
 40
0.0
 40
0.0
 40
0.2337484011
 40
1.0
 40
1.0
 40
1.0
 40
1.0
 10
453.8643995239
 20
150.9369522718
 30
0.0
 10
453.7951099237
 20
151.0139057685
 30
0.0
 10
453.5071420199
 20
151.3507579573
 30
0.0
 10
453.2466068006
 20
151.7100531813
 30
0.0
 10
453.054243699
 20
151.9897391639
 30
0.0
  0
SPLINE
  5
407
100
AcDbEntity
  8
0
100
AcDbSpline
 62
7
  6
CONTINUOUS
 70
0
 71
3
 72
9
 73
5
 74
0
 42
0.0000001
 43
0.0000001
 44
0.0000000001
 40
0.0
 40
0.0
 40
0.0
 40
0.0
 40
0.267779179
 40
1.0
 40
1.0
 40
1.0
 40
1.0
 10
58.2002320684
 20
152.4776023204
 30
0.0
 10
58.1067597963
 20
152.3345568914
 30
0.0
 10
57.7536630937
 20
151.8034274618
 30
0.0
 10
57.3770077319
 20
151.2848436285
 30
0.0
 10
57.0644022529
 20
150.9375674046
 30
0.0
  0
SPLINE
  5
408
100
AcDbEntity
  8
0
100
AcDbSpline
 62
7
  6
CONTINUOUS
 70
0
 71
3
 72
9
 73
5
 74
0
 42
0.0000001
 43
0.0000001
 44
0.0000000001
 40
0.0
 40
0.0
 40
0.0
 40
0.0
 40
0.286445847
 40
1.0
 40
1.0
 40
1.0
 40
1.0
 10
57.0644022529
 20
150.9375674046
 30
0.0
 10
56.9705992508
 20
150.8333608102
 30
0.0
 10
56.6325741874
 20
150.4826487547
 30
0.0
 10
56.2215318969
 20
150.1779675912
 30
0.0
 10
55.8894216452
 20
150.0698548186
 30
0.0
  0
SPLINE
  5
409
100
AcDbEntity
  8
0
100
AcDbSpline
 62
7
  6
CONTINUOUS
 70
0
 71
3
 72
8
 73
4
 74
0
 42
0.0000001
 43
0.0000001
 44
0.0000000001
 40
0.0
 40
0.0
 40
0.0
 40
0.0
 40
1.0
 40
1.0
 40
1.0
 40
1.0
 10
55.8894216452
 20
150.0698548186
 30
0.0
 10
55.7528123438
 20
150.0253840133
 30
0.0
 10
55.6077894217
 20
150.0
 30
0.0
 10
55.4641239987
 20
150.0
 30
0.0
  0
SPLINE
  5
40A
100
AcDbEntity
  8
0
100
AcDbSpline
 62
7
  6
CONTINUOUS
 70
0
 71
3
 72
9
 73
5
 74
0
 42
0.0000001
 43
0.0000001
 44
0.0000000001
 40
0.0
 40
0.0
 40
0.0
 40
0.0
 40
0.230166399
 40
1.0
 40
1.0
 40
1.0
 40
1.0
 10
55.4641239986
 20
151.0000000001
 30
0.0
 10
55.4641239986
 20
151.0409916628
 30
0.0
 10
55.4825753463
 20
151.2194376318
 30
0.0
 10
55.5743851956
 20
151.3830477821
 30
0.0
 10
55.6588852314
 20
151.4910166708
 30
0.0
  0
SPLINE
  5
40B
100
AcDbEntity
  8
0
100
AcDbSpline
 62
7
  6
CONTINUOUS
 70
0
 71
3
 72
9
 73
5
 74
0
 42
0.0000001
 43
0.0000001
 44
0.0000000001
 40
0.0
 40
0.0
 40
0.0
 40
0.0
 40
0.2127826406
 40
1.0
 40
1.0
 40
1.0
 40
1.0
 10
55.6588852314
 20
151.4910166708
 30
0.0
 10
55.7009784333
 20
151.5448007453
 30
0.0
 10
55.9186072692
 20
151.7820711474
 30
0.0
 10
56.1862327374
 20
151.9668203736
 30
0.0
 10
56.401078001
 20
152.0998116476
 30
0.0
  0
SPLINE
  5
40C
100
AcDbEntity
  8
0
100
AcDbSpline
 62
7
  6
CONTINUOUS
 70
0
 71
3
 72
9
 73
5
 74
0
 42
0.0000001
 43
0.0000001
 44
0.0000000001
 40
0.0
 40
0.0
 40
0.0
 40
0.0
 40
0.2248162283
 40
1.0
 40
1.0
 40
1.0
 40
1.0
 10
56.401078001
 20
152.0998116476
 30
0.0
 10
56.5118041252
 20
152.1683521779
 30
0.0
 10
57.0144015215
 20
152.4569545844
 30
0.0
 10
57.5407744017
 20
152.7010644107
 30
0.0
 10
57.9504046593
 20
152.8849711574
 30
0.0
  0
SPLINE
  5
40D
100
AcDbEntity
  8
0
100
AcDbSpline
 62
7
  6
CONTINUOUS
 70
0
 71
3
 72
9
 73
5
 74
0
 42
0.0000001
 43
0.0000001
 44
0.0000000001
 40
0.0
 40
0.0
 40
0.0
 40
0.0
 40
0.2649976083
 40
1.0
 40
1.0
 40
1.0
 40
1.0
 10
453.8033790101
 20
152.497140454
 30
0.0
 10
453.8685832146
 20
152.464577715
 30
0.0
 10
454.1136544774
 20
152.3397992648
 30
0.0
 10
454.354660387
 20
152.2065678263
 30
0.0
 10
454.5265568671
 20
152.1001911291
 30
0.0
  0
SPLINE
  5
40E
100
AcDbEntity
  8
0
100
AcDbSpline
 62
7
  6
CONTINUOUS
 70
0
 71
3
 72
9
 73
5
 74
0
 42
0.0000001
 43
0.0000001
 44
0.0000000001
 40
0.0
 40
0.0
 40
0.0
 40
0.0
 40
0.2881489994
 40
1.0
 40
1.0
 40
1.0
 40
1.0
 10
454.5265568671
 20
152.1001911291
 30
0.0
 10
454.6051966748
 20
152.0515255427
 30
0.0
 10
454.873089306
 20
151.8762764314
 30
0.0
 10
455.1285408436
 20
151.6709452908
 30
0.0
 10
455.2693504131
 20
151.4910314154
 30
0.0
  0
SPLINE
  5
40F
100
AcDbEntity
  8
0
100
AcDbSpline
 62
7
  6
CONTINUOUS
 70
0
 71
3
 72
9
 73
5
 74
0
 42
0.0000001
 43
0.0000001
 44
0.0000000001
 40
0.0
 40
0.0
 40
0.0
 40
0.0
 40
0.2798743287
 40
1.0
 40
1.0
 40
1.0
 40
1.0
 10
455.2693504131
 20
151.4910314154
 30
0.0
 10
455.3000227063
 20
151.4518411022
 30
0.0
 10
455.4018964336
 20
151.3067876447
 30
0.0
 10
455.4641239986
 20
151.1280499232
 30
0.0
 10
455.4641239986
 20
151.000000001
 30
0.0
  0
SPLINE
  5
410
100
AcDbEntity
  8
0
100
AcDbSpline
 62
7
  6
CONTINUOUS
 70
0
 71
3
 72
9
 73
5
 74
0
 42
0.0000001
 43
0.0000001
 44
0.0000000001
 40
0.0
 40
0.0
 40
0.0
 40
0.0
 40
0.230166399
 40
1.0
 40
1.0
 40
1.0
 40
1.0
 10
455.4641239986
 20
549.0
 30
0.0
 10
455.4641239986
 20
548.9590083373
 30
0.0
 10
455.445672651
 20
548.7805623683
 30
0.0
 10
455.3538628017
 20
548.616952218
 30
0.0
 10
455.2693627659
 20
548.5089833293
 30
0.0
  0
SPLINE
  5
411
100
AcDbEntity
  8
0
100
AcDbSpline
 62
7
  6
CONTINUOUS
 70
0
 71
3
 72
9
 73
5
 74
0
 42
0.0000001
 43
0.0000001
 44
0.0000000001
 40
0.0
 40
0.0
 40
0.0
 40
0.0
 40
0.2127826406
 40
1.0
 40
1.0
 40
1.0
 40
1.0
 10
455.2693627659
 20
548.5089833293
 30
0.0
 10
455.227269564
 20
548.4551992548
 30
0.0
 10
455.0096407281
 20
548.2179288527
 30
0.0
 10
454.7420152599
 20
548.0331796265
 30
0.0
 10
454.5271699963
 20
547.9001883525
 30
0.0
  0
SPLINE
  5
412
100
AcDbEntity
  8
0
100
AcDbSpline
 62
7
  6
CONTINUOUS
 70
0
 71
3
 72
9
 73
5
 74
0
 42
0.0000001
 43
0.0000001
 44
0.0000000001
 40
0.0
 40
0.0
 40
0.0
 40
0.0
 40
0.2342185253
 40
1.0
 40
1.0
 40
1.0
 40
1.0
 10
454.5271699963
 20
547.9001883525
 30
0.0
 10
454.4723519969
 20
547.8662554864
 30
0.0
 10
454.2359157031
 20
547.7252342571
 30
0.0
 10
453.9920266035
 20
547.5970706577
 30
0.0
 10
453.8034474608
 20
547.5028936346
 30
0.0
  0
ENDSEC
  0
SECTION
  2
OBJECTS
  0
DICTIONARY
  5
C
100
AcDbDictionary
280
0
281
1
  3
ACAD_GROUP
350
D
  3
ACAD_MLINESTYLE
350
17
  3
ACAD_LAYOUT
350
1A
  3
ACAD_PLOTSETTINGS
350
19
  3
ACAD_PLOTSTYLENAME
350
E
  0
DICTIONARY
  5
D
102
{ACAD_REACTORS
330
C
102
}
100
AcDbDictionary
280
0
281
1
  0
ACDBDICTIONARYWDFLT
  5
E
102
{ACAD_REACTORS
330
C
102
}
100
AcDbDictionary
281
1
  3
Normal
350
F
100
AcDbDictionaryWithDefault
340
F
  0
DICTIONARY
  5
17
102
{ACAD_REACTORS
330
C
102
}
100
AcDbDictionary
280
0
281
1
  3
Standard
350
18
  0
DICTIONARY
  5
19
102
{ACAD_REACTORS
330
C
102
}
100
AcDbDictionary
281
1
  0
DICTIONARY
  5
1A
102
{ACAD_REACTORS
330
C
102
}
100
AcDbDictionary
281
1
  3
Model
350
413
  3
Layout1
350
414
  0
ACDBPLACEHOLDER
  5
F
102
{ACAD_REACTORS
330
E
102
}
  0
MLINESTYLE
  5
18
102
{ACAD_REACTORS
330
17
102
}
100
AcDbMlineStyle
  2
STANDARD
 70
0
  3

 62
256
 51
90.0
 52
90.0
 71
2
 49
0.5
 62
256
  6
BYLAYER
 49
-0.5
 62
256
  6
BYLAYER
  0
LAYOUT
  5
413
102
{ACAD_REACTORS
330
1A
102
}
100
AcDbPlotSettings
  1

  2
none_device
  4

  6

 40
0.0
 41
0.0
 42
0.0
 43
0.0
 44
210.0
 45
297.0
 46
0.0
 47
0.0
 48
0.0
 49
0.0
140
0.0
141
0.0
142
1.0
143
1.0
 70
1024
 72
1
 73
0
 74
0
  7

 75
0
147
1.0
148
0.0
149
0.0
100
AcDbLayout
  1
Model
 70
0
 71
0
 10
0.0
 20
0.0
 11
210.0
 21
297.0
 12
0.0
 22
0.0
 32
0.0
 14
0.0
 24
0.0
 34
0.0
 15
0.0
 25
0.0
 35
0.0
146
0.0
 13
0.0
 23
0.0
 33
0.0
 16
1.0
 26
0.0
 36
0.0
 17
0.0
 27
1.0
 37
0.0
 76
0
330
210
345
0
346
0
  0
LAYOUT
  5
414
102
{ACAD_REACTORS
330
1A
102
}
100
AcDbPlotSettings
  1

  2
none_device
  4

  6

 40
0.0
 41
0.0
 42
0.0
 43
0.0
 44
210.0
 45
297.0
 46
0.0
 47
0.0
 48
0.0
 49
0.0
140
0.0
141
0.0
142
1.0
143
1.0
 70
0
 72
1
 73
0
 74
0
  7

 75
0
147
1.0
148
0.0
149
0.0
100
AcDbLayout
  1
Layout1
 70
0
 71
1
 10
0.0
 20
0.0
 11
210.0
 21
297.0
 12
0.0
 22
0.0
 32
0.0
 14
0.0
 24
0.0
 34
0.0
 15
0.0
 25
0.0
 35
0.0
146
0.0
 13
0.0
 23
0.0
 33
0.0
 16
1.0
 26
0.0
 36
0.0
 17
0.0
 27
1.0
 37
0.0
 76
0
330
211
345
0
346
0
  0
ENDSEC
  0
EOF
