999
DXF file: C:\Gen2D\CAD\LC2D09BNE_3D-CAD\drw0001_6.dxf
999
Pro/ENGINEER 2019471 by Parametric Technology Corporation
  0
SECTION
  2
HEADER
  9
$ACADVER
  1
AC1024
  9
$DWGCODEPAGE
  3
ANSI_1252
  9
$EXTMAX
 10
108.1405852839
 20
152.9416849015
 30
0.0
  9
$EXTMIN
 10
0.0
 20
0.0
 30
0.0
  9
$LIMMIN
 10
0.0
 20
0.0
  9
$LIMMAX
 10
108.1405852839
 20
152.9416849015
  9
$VIEWCTR
 10
54.070292642
 20
76.4708424508
  9
$VIEWSIZE
 40
152.9416849015
  9
$CLAYER
  8
0
  9
$LTSCALE
 40
9.9695320528
  9
$CELTYPE
  6
BYLAYER
  9
$DIMSCALE
 40
1.0
  9
$DIMASZ
 40
1.28738792
  9
$DIMEXO
 40
1.0
  9
$DIMDLI
 40
6.8880403274
  9
$DIMEXE
 40
1.0
  9
$DIMCEN
 40
1.6313779723
  9
$DIMLFAC
 40
1.0
  9
$DIMBLK
  1
_FILLED
  9
$DIMALT
 70
0
  9
$DIMALTF
 40
0.0393700787
  9
$DIMTXT
 40
1.8023430881
  9
$DIMTOL
 70
1
  9
$DIMLIM
 70
0
  9
$DIMTFAC
 40
1.0
  9
$DIMTP
 40
0.01
  9
$DIMTM
 40
0.01
  9
$DIMGAP
 40
0.625
  9
$DIMDSEP
 70
46
  9
$AUNITS
 70
0
  9
$PDMODE
 70
3
  9
$PDSIZE
 40
0.3125
  9
$HANDSEED
  5
2B3
  9
$TILEMODE
 70
1
  9
$MEASUREMENT
 70
1
  9
$INSUNITS
 70
4
  0
ENDSEC
  0
SECTION
  2
CLASSES
  0
CLASS
  1
ACDBDICTIONARYWDFLT
  2
AcDbDictionaryWithDefault
  3
AutoCAD 2000
 90
0
 91
1
280
0
281
0
  0
CLASS
  1
ACDBPLACEHOLDER
  2
AcDbPlaceHolder
  3
AutoCAD 2000
 90
0
 91
1
280
0
281
0
  0
CLASS
  1
LAYOUT
  2
AcDbLayout
  3
AutoCAD 2000
 90
0
 91
0
280
0
281
0
  0
ENDSEC
  0
SECTION
  2
TABLES
  0
TABLE
  2
VPORT
  5
8
100
AcDbSymbolTable
 70
2
  0
VPORT
  5
1F4
100
AcDbSymbolTableRecord
100
AcDbViewportTableRecord
  2
*ACTIVE
 70
0
 10
0.0
 20
0.0
 11
1.0
 21
1.0
 12
54.070292642
 22
76.4708424508
 13
0.0
 23
0.0
 14
1.0
 24
1.0
 15
0.0
 25
0.0
 16
0.0
 26
0.0
 36
1.0
 17
0.0
 27
0.0
 37
0.0
 40
152.9416849015
 41
0.7070707071
 42
50.0
 43
0.0
 44
0.0
 50
0.0
 51
0.0
 71
0
 72
100
 73
1
 74
1
 75
0
 76
0
 77
0
 78
0
  0
ENDTAB
  0
TABLE
  2
LTYPE
  5
5
100
AcDbSymbolTable
 70
6
  0
LTYPE
  5
14
100
AcDbSymbolTableRecord
100
AcDbLinetypeTableRecord
  2
BYBLOCK
 70
0
  3

 72
65
 73
0
 40
0.0
  0
LTYPE
  5
15
100
AcDbSymbolTableRecord
100
AcDbLinetypeTableRecord
  2
BYLAYER
 70
0
  3

 72
65
 73
0
 40
0.0
  0
LTYPE
  5
16
100
AcDbSymbolTableRecord
100
AcDbLinetypeTableRecord
  2
CONTINUOUS
 70
64
  3
Solid line
 72
65
 73
0
 40
0.0
  0
LTYPE
  5
1F5
100
AcDbSymbolTableRecord
100
AcDbLinetypeTableRecord
  2
CENTER
 70
64
  3
____ _ ____ _ ____ _ ____ _ ____ _ ____ _ ____
 72
65
 73
4
 40
0.6
 49
0.375
 74
0
 49
-0.075
 74
0
 49
0.075
 74
0
 49
-0.075
 74
0
  0
LTYPE
  5
1F6
100
AcDbSymbolTableRecord
100
AcDbLinetypeTableRecord
  2
HIDDEN
 70
64
  3
- - - - - - - - - - - - - - - - - - - -
 72
65
 73
2
 40
0.2
 49
0.1
 74
0
 49
-0.1
 74
0
  0
LTYPE
  5
1F7
100
AcDbSymbolTableRecord
100
AcDbLinetypeTableRecord
  2
PHANTOM
 70
64
  3
_____ _ _ _____ _ _ _____ _ _ _____
 72
65
 73
6
 40
0.8
 49
0.45
 74
0
 49
-0.05
 74
0
 49
0.1
 74
0
 49
-0.05
 74
0
 49
0.1
 74
0
 49
-0.05
 74
0
  0
LTYPE
  5
1F8
100
AcDbSymbolTableRecord
100
AcDbLinetypeTableRecord
  2
DOT
 70
64
  3
. . . . . . . . . . . . . . . . . . . .
 72
65
 73
2
 40
0.2
 49
0.1
 74
0
 49
-0.1
 74
0
  0
LTYPE
  5
1F9
100
AcDbSymbolTableRecord
100
AcDbLinetypeTableRecord
  2
DASHED
 70
64
  3
- - - - - - - - - - - - - - - - - - - -
 72
65
 73
2
 40
0.2
 49
0.1
 74
0
 49
-0.1
 74
0
  0
ENDTAB
  0
TABLE
  2
LAYER
  5
2
100
AcDbSymbolTable
 70
36
  0
LAYER
  5
10
100
AcDbSymbolTableRecord
100
AcDbLayerTableRecord
  2
0
 70
0
 62
7
  6
CONTINUOUS
370
-3
390
F
  0
LAYER
  5
1FA
100
AcDbSymbolTableRecord
100
AcDbLayerTableRecord
  2
DEFAULT_1
 70
0
 62
7
  6
CENTER
370
-3
390
F
  0
LAYER
  5
1FB
100
AcDbSymbolTableRecord
100
AcDbLayerTableRecord
  2
DEFAULT_2
 70
0
 62
8
  6
HIDDEN
370
-3
390
F
  0
LAYER
  5
1FC
100
AcDbSymbolTableRecord
100
AcDbLayerTableRecord
  2
DEFAULT_3
 70
0
 62
7
  6
PHANTOM
370
-3
390
F
  0
LAYER
  5
1FD
100
AcDbSymbolTableRecord
100
AcDbLayerTableRecord
  2
00_COMPONENTS
 70
0
 62
7
  6
CONTINUOUS
370
-3
390
F
  0
LAYER
  5
1FE
100
AcDbSymbolTableRecord
100
AcDbLayerTableRecord
  2
01_1_DEFAULT_DATUMS
 70
0
 62
7
  6
CONTINUOUS
370
-3
390
F
  0
LAYER
  5
1FF
100
AcDbSymbolTableRecord
100
AcDbLayerTableRecord
  2
01_PLANES
 70
0
 62
7
  6
CONTINUOUS
370
-3
390
F
  0
LAYER
  5
200
100
AcDbSymbolTableRecord
100
AcDbLayerTableRecord
  2
02_COORD_SYS
 70
0
 62
7
  6
CONTINUOUS
370
-3
390
F
  0
LAYER
  5
201
100
AcDbSymbolTableRecord
100
AcDbLayerTableRecord
  2
03_AXES
 70
0
 62
7
  6
CONTINUOUS
370
-3
390
F
  0
LAYER
  5
202
100
AcDbSymbolTableRecord
100
AcDbLayerTableRecord
  2
04_POINTS
 70
0
 62
7
  6
CONTINUOUS
370
-3
390
F
  0
LAYER
  5
203
100
AcDbSymbolTableRecord
100
AcDbLayerTableRecord
  2
05_CURVES
 70
0
 62
7
  6
CONTINUOUS
370
-3
390
F
  0
LAYER
  5
204
100
AcDbSymbolTableRecord
100
AcDbLayerTableRecord
  2
06_SURFS
 70
0
 62
7
  6
CONTINUOUS
370
-3
390
F
  0
LAYER
  5
205
100
AcDbSymbolTableRecord
100
AcDbLayerTableRecord
  2
07_COSMETICS
 70
0
 62
7
  6
CONTINUOUS
370
-3
390
F
  0
LAYER
  5
206
100
AcDbSymbolTableRecord
100
AcDbLayerTableRecord
  2
10_NOTES
 70
0
 62
7
  6
CONTINUOUS
370
-3
390
F
  0
LAYER
  5
207
100
AcDbSymbolTableRecord
100
AcDbLayerTableRecord
  2
11_NOTES_PUB
 70
0
 62
7
  6
CONTINUOUS
370
-3
390
F
  0
LAYER
  5
208
100
AcDbSymbolTableRecord
100
AcDbLayerTableRecord
  2
13_REF_GTOL
 70
0
 62
7
  6
CONTINUOUS
370
-3
390
F
  0
LAYER
  5
209
100
AcDbSymbolTableRecord
100
AcDbLayerTableRecord
  2
16_MISC
 70
0
 62
7
  6
CONTINUOUS
370
-3
390
F
  0
LAYER
  5
20A
100
AcDbSymbolTableRecord
100
AcDbLayerTableRecord
  2
17_NO_PRINT
 70
0
 62
7
  6
CONTINUOUS
370
-3
390
F
  0
LAYER
  5
20B
100
AcDbSymbolTableRecord
100
AcDbLayerTableRecord
  2
18_DATUM_CAMS_JOINTS
 70
0
 62
7
  6
CONTINUOUS
370
-3
390
F
  0
LAYER
  5
20C
100
AcDbSymbolTableRecord
100
AcDbLayerTableRecord
  2
19_DATUM_FUNCTIONAL
 70
0
 62
7
  6
CONTINUOUS
370
-3
390
F
  0
LAYER
  5
20D
100
AcDbSymbolTableRecord
100
AcDbLayerTableRecord
  2
20_DATUM_KINEMATIC_SCHEME
 70
0
 62
7
  6
CONTINUOUS
370
-3
390
F
  0
LAYER
  5
20E
100
AcDbSymbolTableRecord
100
AcDbLayerTableRecord
  2
INTFCLR_74
 70
0
 62
7
  6
CONTINUOUS
370
-3
390
F
  0
LAYER
  5
20F
100
AcDbSymbolTableRecord
100
AcDbLayerTableRecord
  2
INTFCLR_76
 70
0
 62
7
  6
CONTINUOUS
370
-3
390
F
  0
ENDTAB
  0
TABLE
  2
STYLE
  5
3
100
AcDbSymbolTable
 70
1
  0
STYLE
  5
11
100
AcDbSymbolTableRecord
100
AcDbTextStyleTableRecord
  2
STANDARD
 70
0
 40
0.0
 41
0.8
 50
0.0
 71
0
 42
0.2
  3
txt
  4

  0
STYLE
  5
210
100
AcDbSymbolTableRecord
100
AcDbTextStyleTableRecord
  2
TEXTSTYLE_1
 70
0
 40
0.0
 41
0.8
 50
0.0
 71
0
 42
0.2
  3
gdt
  4

  0
ENDTAB
  0
TABLE
  2
VIEW
  5
6
100
AcDbSymbolTable
 70
0
  0
ENDTAB
  0
TABLE
  2
UCS
  5
7
100
AcDbSymbolTable
 70
0
  0
ENDTAB
  0
TABLE
  2
APPID
  5
9
100
AcDbSymbolTable
 70
1
  0
APPID
  5
211
100
AcDbSymbolTableRecord
100
AcDbRegAppTableRecord
  2
ACAD
 70
0
  0
ENDTAB
  0
TABLE
  2
BLOCK_RECORD
  5
1
100
AcDbSymbolTable
 70
0
  0
BLOCK_RECORD
  5
212
100
AcDbSymbolTableRecord
100
AcDbBlockTableRecord
  2
*Model_Space
  0
BLOCK_RECORD
  5
213
100
AcDbSymbolTableRecord
100
AcDbBlockTableRecord
  2
*Paper_Space
  0
BLOCK_RECORD
  5
214
100
AcDbSymbolTableRecord
100
AcDbBlockTableRecord
  2
_FILLED
  0
ENDTAB
  0
TABLE
  2
DIMSTYLE
  5
A
100
AcDbSymbolTable
 70
1
100
AcDbDimStyleTable
 71
0
  0
DIMSTYLE
105
215
100
AcDbSymbolTableRecord
100
AcDbDimStyleTableRecord
  2
STANDARD
 70
0
  3

  4

 40
1.0
 41
1.28738792
 42
1.0
 43
0.38
 44
1.0
 45
0.0
 46
0.0
 47
0.01
 48
0.01
140
1.8023430881
141
0.09
142
0.0
143
25.4
144
1.0
145
0.0
146
1.0
147
0.625
 71
1
 72
0
 73
0
 74
0
 75
0
 76
0
 77
1
 78
8
 79
2
170
0
171
1
172
0
173
0
174
0
175
0
176
0
177
0
178
0
270
2
179
2
271
2
272
2
273
2
274
2
275
0
280
0
281
0
282
0
283
1
284
8
285
0
286
0
287
3
288
0
340
11
278
46
341
214
342
214
343
214
344
214
  0
ENDTAB
  0
ENDSEC
  0
SECTION
  2
BLOCKS
  0
BLOCK
  5
20
100
AcDbEntity
  8
0
100
AcDbBlockBegin
  2
*Model_Space
 70
0
 10
0.0
 20
0.0
 30
0.0
  3
*Model_Space
  1

  0
ENDBLK
  5
21
100
AcDbEntity
  8
0
100
AcDbBlockEnd
  0
BLOCK
  5
1C
100
AcDbEntity
  8
0
100
AcDbBlockBegin
  2
*Paper_Space
 70
0
 10
0.0
 20
0.0
 30
0.0
  3
*Paper_Space
  1

  0
ENDBLK
  5
1D
100
AcDbEntity
  8
0
100
AcDbBlockEnd
  0
BLOCK
  5
216
100
AcDbEntity
  8
0
100
AcDbBlockBegin
  2
_FILLED
 70
64
 10
0.0
 20
0.0
  3
_FILLED
  1

  0
SOLID
  5
217
100
AcDbEntity
  8
0
  6
BYBLOCK
 62
0
100
AcDbTrace
 10
0.0
 20
0.0
 11
-1.0
 21
0.25
 12
-1.0
 22
-0.25
 13
-1.0
 23
-0.25
  0
ENDBLK
  5
218
100
AcDbEntity
  8
0
  6
BYBLOCK
 62
0
100
AcDbBlockEnd
  0
ENDSEC
  0
SECTION
  2
ENTITIES
  0
LINE
  5
219
100
AcDbEntity
  8
0
100
AcDbLine
 62
7
  6
CONTINUOUS
 10
12.2312882656
 20
91.8703507077
 11
12.2312882656
 21
62.7690570242
  0
LINE
  5
21A
100
AcDbEntity
  8
0
100
AcDbLine
 62
7
  6
CONTINUOUS
 10
18.9312882656
 20
62.7690570242
 11
18.9312882656
 21
91.8703507077
  0
LINE
  5
21B
100
AcDbEntity
  8
0
100
AcDbLine
 62
7
  6
CONTINUOUS
 10
19.0312882656
 20
92.1697038659
 11
19.0312882656
 21
62.4697038659
  0
LINE
  5
21C
100
AcDbEntity
  8
INTFCLR_74
100
AcDbLine
 62
7
420
48875
  6
CONTINUOUS
 10
19.0312882656
 20
41.3197038659
 11
19.0312882656
 21
62.4697038659
  0
LINE
  5
21D
100
AcDbEntity
  8
INTFCLR_74
100
AcDbLine
 62
7
420
48875
  6
CONTINUOUS
 10
19.0312882656
 20
92.1697038659
 11
19.0312882656
 21
113.3197038659
  0
LINE
  5
21E
100
AcDbEntity
  8
0
100
AcDbLine
 62
7
  6
CONTINUOUS
 10
19.2312882656
 20
51.3697038659
 11
19.2312882656
 21
62.4697038659
  0
LINE
  5
21F
100
AcDbEntity
  8
0
100
AcDbLine
 62
7
  6
CONTINUOUS
 10
19.2312882656
 20
92.1697038659
 11
19.2312882656
 21
103.2697038659
  0
LINE
  5
220
100
AcDbEntity
  8
0
100
AcDbLine
 62
7
  6
CONTINUOUS
 10
63.8208874064
 20
38.108173931
 11
50.4453987377
 21
34.5242225439
  0
LINE
  5
221
100
AcDbEntity
  8
0
100
AcDbLine
 62
7
  6
CONTINUOUS
 10
48.4858069435
 20
35.6555933938
 11
65.1585071831
 21
40.1230299586
  0
LINE
  5
222
100
AcDbEntity
  8
0
100
AcDbLine
 62
7
  6
CONTINUOUS
 10
44.1812882656
 20
37.5697038659
 11
55.6293644769
 21
37.5697038659
  0
LINE
  5
223
100
AcDbEntity
  8
0
100
AcDbLine
 62
7
  6
CONTINUOUS
 10
61.8112897652
 20
37.5697038659
 11
81.2812882656
 21
37.5697038659
  0
LINE
  5
224
100
AcDbEntity
  8
0
100
AcDbLine
 62
7
  6
CONTINUOUS
 10
97.7812882656
 20
38.8697038659
 11
90.7812882656
 21
38.8697038659
  0
LINE
  5
225
100
AcDbEntity
  8
0
100
AcDbLine
 62
7
  6
CONTINUOUS
 10
90.7812882656
 20
39.079942758
 11
97.7812882656
 21
39.079942758
  0
LINE
  5
226
100
AcDbEntity
  8
0
100
AcDbLine
 62
7
  6
CONTINUOUS
 10
90.7812882656
 20
40.0360334501
 11
97.7812882656
 21
40.0360334501
  0
LINE
  5
227
100
AcDbEntity
  8
0
100
AcDbLine
 62
7
  6
CONTINUOUS
 10
90.7812882656
 20
40.3699152517
 11
97.7812882656
 21
40.3699152517
  0
LINE
  5
228
100
AcDbEntity
  8
0
100
AcDbLine
 62
7
  6
CONTINUOUS
 10
21.0312882656
 20
103.2697038659
 11
21.0312882656
 21
92.1697038659
  0
LINE
  5
229
100
AcDbEntity
  8
0
100
AcDbLine
 62
7
  6
CONTINUOUS
 10
21.0312882656
 20
62.4697038659
 11
21.0312882656
 21
51.3697038659
  0
LINE
  5
22A
100
AcDbEntity
  8
0
100
AcDbLine
 62
7
  6
CONTINUOUS
 10
22.0312882656
 20
103.2697038659
 11
22.0312882656
 21
101.8697038659
  0
LINE
  5
22B
100
AcDbEntity
  8
0
100
AcDbLine
 62
7
  6
CONTINUOUS
 10
22.0312882656
 20
51.3697038659
 11
22.0312882656
 21
52.7697038659
  0
LINE
  5
22C
100
AcDbEntity
  8
0
100
AcDbLine
 62
7
  6
CONTINUOUS
 10
22.0728659178
 20
51.3697038659
 11
22.0728659178
 21
52.3697038659
  0
LINE
  5
22D
100
AcDbEntity
  8
0
100
AcDbLine
 62
7
  6
CONTINUOUS
 10
22.0728659178
 20
102.2697038659
 11
22.0728659178
 21
103.2697038659
  0
LINE
  5
22E
100
AcDbEntity
  8
INTFCLR_74
100
AcDbLine
 62
7
420
48875
  6
CONTINUOUS
 10
90.7812882656
 20
41.3197038659
 11
81.2812882656
 21
41.3197038659
  0
LINE
  5
22F
100
AcDbEntity
  8
INTFCLR_74
100
AcDbLine
 62
7
420
48875
  6
CONTINUOUS
 10
33.7312882656
 20
41.3197038659
 11
19.0312882656
 21
41.3197038659
  0
LINE
  5
230
100
AcDbEntity
  8
0
100
AcDbLine
 62
7
  6
CONTINUOUS
 10
33.7312882656
 20
41.3197038659
 11
81.2812882656
 21
41.3197038659
  0
LINE
  5
231
100
AcDbEntity
  8
0
100
AcDbLine
 62
7
  6
CONTINUOUS
 10
90.7812882656
 20
43.1548241157
 11
97.7812882656
 21
43.1548241157
  0
LINE
  5
232
100
AcDbEntity
  8
0
100
AcDbLine
 62
7
  6
CONTINUOUS
 10
68.7812882656
 20
44.2697038659
 11
90.7812882656
 21
44.2697038659
  0
LINE
  5
233
100
AcDbEntity
  8
0
100
AcDbLine
 62
7
  6
CONTINUOUS
 10
68.7812882656
 20
44.5389386295
 11
74.2812882656
 21
44.5389386295
  0
LINE
  5
234
100
AcDbEntity
  8
0
100
AcDbLine
 62
7
  6
CONTINUOUS
 10
73.7812882656
 20
44.6578992556
 11
68.7812882656
 21
44.6578992556
  0
LINE
  5
235
100
AcDbEntity
  8
0
100
AcDbLine
 62
7
  6
CONTINUOUS
 10
26.0312882656
 20
52.7697038659
 11
26.0312882656
 21
51.3697038659
  0
LINE
  5
236
100
AcDbEntity
  8
0
100
AcDbLine
 62
7
  6
CONTINUOUS
 10
26.0312882656
 20
101.8697038659
 11
26.0312882656
 21
103.2697038659
  0
LINE
  5
237
100
AcDbEntity
  8
0
100
AcDbLine
 62
7
  6
CONTINUOUS
 10
97.7812882656
 20
45.0833985822
 11
90.7812882656
 21
45.083398625
  0
LINE
  5
238
100
AcDbEntity
  8
0
100
AcDbLine
 62
7
  6
CONTINUOUS
 10
68.7812882656
 20
47.4449199425
 11
90.7812882656
 21
47.4449199425
  0
LINE
  5
239
100
AcDbEntity
  8
0
100
AcDbLine
 62
7
  6
CONTINUOUS
 10
27.9312882656
 20
103.2697038659
 11
27.9312882656
 21
101.8697038659
  0
LINE
  5
23A
100
AcDbEntity
  8
0
100
AcDbLine
 62
7
  6
CONTINUOUS
 10
27.9312882656
 20
51.3697038659
 11
27.9312882656
 21
52.7697038659
  0
LINE
  5
23B
100
AcDbEntity
  8
0
100
AcDbLine
 62
7
  6
CONTINUOUS
 10
34.2194577906
 20
50.3697038659
 11
26.4164530727
 21
50.3697038659
  0
LINE
  5
23C
100
AcDbEntity
  8
0
100
AcDbLine
 62
7
  6
CONTINUOUS
 10
19.2312882656
 20
51.3697038659
 11
35.7312882656
 21
51.3697038659
  0
LINE
  5
23D
100
AcDbEntity
  8
0
100
AcDbLine
 62
7
  6
CONTINUOUS
 10
97.3812882656
 20
51.4197038659
 11
96.7812882656
 21
51.4197038659
  0
LINE
  5
23E
100
AcDbEntity
  8
0
100
AcDbLine
 62
7
  6
CONTINUOUS
 10
22.0728659179
 20
52.3697038659
 11
26.0312882656
 21
52.3697038659
  0
LINE
  5
23F
100
AcDbEntity
  8
0
100
AcDbLine
 62
7
  6
CONTINUOUS
 10
96.7812882656
 20
52.5197038659
 11
97.7812882656
 21
52.5197038659
  0
LINE
  5
240
100
AcDbEntity
  8
0
100
AcDbLine
 62
7
  6
CONTINUOUS
 10
22.0312882656
 20
52.7697038659
 11
27.9312882656
 21
52.7697038659
  0
LINE
  5
241
100
AcDbEntity
  8
0
100
AcDbLine
 62
7
  6
CONTINUOUS
 10
33.7312882656
 20
41.3197038659
 11
33.7312882656
 21
43.6197038659
  0
LINE
  5
242
100
AcDbEntity
  8
0
100
AcDbLine
 62
7
  6
CONTINUOUS
 10
33.7312882656
 20
50.0197038659
 11
33.7312882656
 21
50.3697038659
  0
LINE
  5
243
100
AcDbEntity
  8
0
100
AcDbLine
 62
7
  6
CONTINUOUS
 10
33.7312882656
 20
104.2697038659
 11
33.7312882656
 21
104.6197038659
  0
LINE
  5
244
100
AcDbEntity
  8
0
100
AcDbLine
 62
7
  6
CONTINUOUS
 10
33.7312882656
 20
111.0197038659
 11
33.7312882656
 21
113.3197038659
  0
LINE
  5
245
100
AcDbEntity
  8
0
100
AcDbLine
 62
7
  6
CONTINUOUS
 10
34.2194577906
 20
50.3697038659
 11
34.2194577906
 21
51.3697038659
  0
LINE
  5
246
100
AcDbEntity
  8
0
100
AcDbLine
 62
7
  6
CONTINUOUS
 10
34.2194577906
 20
103.2697038659
 11
34.2194577906
 21
104.2697038659
  0
LINE
  5
247
100
AcDbEntity
  8
0
100
AcDbLine
 62
7
  6
CONTINUOUS
 10
34.9812882656
 20
118.4697038659
 11
34.9812882656
 21
113.3197038659
  0
LINE
  5
248
100
AcDbEntity
  8
0
100
AcDbLine
 62
7
  6
CONTINUOUS
 10
35.7312882656
 20
113.3197038659
 11
35.7312882656
 21
103.2697038659
  0
LINE
  5
249
100
AcDbEntity
  8
0
100
AcDbLine
 62
7
  6
CONTINUOUS
 10
35.7312882656
 20
51.3697038659
 11
35.7312882656
 21
41.3197038659
  0
LINE
  5
24A
100
AcDbEntity
  8
0
100
AcDbLine
 62
7
  6
CONTINUOUS
 10
36.7812882656
 20
113.3197038659
 11
36.7812882656
 21
117.1697038659
  0
LINE
  5
24B
100
AcDbEntity
  8
0
100
AcDbLine
 62
7
  6
CONTINUOUS
 10
37.9812882656
 20
117.1697038659
 11
37.9812882656
 21
113.3197038659
  0
LINE
  5
24C
100
AcDbEntity
  8
0
100
AcDbLine
 62
7
  6
CONTINUOUS
 10
38.4812882656
 20
117.1697038659
 11
38.4812882656
 21
118.4697038659
  0
LINE
  5
24D
100
AcDbEntity
  8
0
100
AcDbLine
 62
7
  6
CONTINUOUS
 10
38.9812882656
 20
118.4697038659
 11
38.9812882656
 21
117.1697038659
  0
LINE
  5
24E
100
AcDbEntity
  8
0
100
AcDbLine
 62
7
  6
CONTINUOUS
 10
92.9812882656
 20
58.4697038659
 11
92.8812882656
 21
58.4697038659
  0
LINE
  5
24F
100
AcDbEntity
  8
0
100
AcDbLine
 62
7
  6
CONTINUOUS
 10
68.7812882656
 20
58.7649589068
 11
90.7812882656
 21
58.7649589068
  0
LINE
  5
250
100
AcDbEntity
  8
0
100
AcDbLine
 62
7
  6
CONTINUOUS
 10
93.5812882656
 20
59.8697038659
 11
92.2812882656
 21
59.8697038659
  0
LINE
  5
251
100
AcDbEntity
  8
0
100
AcDbLine
 62
7
  6
CONTINUOUS
 10
94.2812882656
 20
60.8697038659
 11
93.9812882656
 21
60.8697038659
  0
LINE
  5
252
100
AcDbEntity
  8
0
100
AcDbLine
 62
7
  6
CONTINUOUS
 10
21.0312882656
 20
62.4697038659
 11
19.0312882656
 21
62.4697038659
  0
LINE
  5
253
100
AcDbEntity
  8
0
100
AcDbLine
 62
7
  6
CONTINUOUS
 10
18.9312882656
 20
62.7690570242
 11
12.2312882656
 21
62.7690570242
  0
LINE
  5
254
100
AcDbEntity
  8
0
100
AcDbLine
 62
7
  6
CONTINUOUS
 10
44.1812882656
 20
37.5697038659
 11
44.1812882656
 21
41.3197038659
  0
LINE
  5
255
100
AcDbEntity
  8
0
100
AcDbLine
 62
7
  6
CONTINUOUS
 10
44.9312882656
 20
41.3197038659
 11
44.9312882656
 21
37.5697038659
  0
LINE
  5
256
100
AcDbEntity
  8
0
100
AcDbLine
 62
7
  6
CONTINUOUS
 10
12.2312882656
 20
66.5697038659
 11
18.9312882656
 21
66.5697038659
  0
LINE
  5
257
100
AcDbEntity
  8
0
100
AcDbLine
 62
7
  6
CONTINUOUS
 10
64.3812882656
 20
117.1697038659
 11
64.3812882656
 21
118.4697038659
  0
LINE
  5
258
100
AcDbEntity
  8
0
100
AcDbLine
 62
7
  6
CONTINUOUS
 10
64.8812882656
 20
118.4697038659
 11
64.8812882656
 21
117.1697038659
  0
LINE
  5
259
100
AcDbEntity
  8
0
100
AcDbLine
 62
7
  6
CONTINUOUS
 10
65.1585071831
 20
40.1230299586
 11
65.1585071831
 21
41.3197038659
  0
LINE
  5
25A
100
AcDbEntity
  8
0
100
AcDbLine
 62
7
  6
CONTINUOUS
 10
65.3812882656
 20
113.3197038659
 11
65.3812882656
 21
117.1697038659
  0
LINE
  5
25B
100
AcDbEntity
  8
0
100
AcDbLine
 62
7
  6
CONTINUOUS
 10
66.5812882656
 20
117.1697038659
 11
66.5812882656
 21
113.3197038659
  0
LINE
  5
25C
100
AcDbEntity
  8
0
100
AcDbLine
 62
7
  6
CONTINUOUS
 10
18.9312882656
 20
88.0697038659
 11
12.2312882656
 21
88.0697038659
  0
LINE
  5
25D
100
AcDbEntity
  8
0
100
AcDbLine
 62
7
  6
CONTINUOUS
 10
94.2812882656
 20
60.8697038659
 11
97.7812882656
 21
58.4189774822
  0
LINE
  5
25E
100
AcDbEntity
  8
0
100
AcDbLine
 62
7
  6
CONTINUOUS
 10
97.3812882656
 20
51.4197038659
 11
97.7812882656
 21
51.0197038659
  0
LINE
  5
25F
100
AcDbEntity
  8
0
100
AcDbLine
 62
7
  6
CONTINUOUS
 10
68.3812882656
 20
118.4697038659
 11
68.3812882656
 21
113.3197038659
  0
LINE
  5
260
100
AcDbEntity
  8
0
100
AcDbLine
 62
7
  6
CONTINUOUS
 10
68.7812882656
 20
113.3197038659
 11
68.7812882656
 21
95.8744488251
  0
LINE
  5
261
100
AcDbEntity
  8
0
100
AcDbLine
 62
7
  6
CONTINUOUS
 10
68.7812882656
 20
58.7649589068
 11
68.7812882656
 21
41.3197038659
  0
LINE
  5
262
100
AcDbEntity
  8
0
100
AcDbLine
 62
7
  6
CONTINUOUS
 10
12.2312882656
 20
91.8703507077
 11
18.9312882656
 21
91.8703507077
  0
LINE
  5
263
100
AcDbEntity
  8
0
100
AcDbLine
 62
7
  6
CONTINUOUS
 10
21.0312882656
 20
92.1697038659
 11
19.0312882656
 21
92.1697038659
  0
LINE
  5
264
100
AcDbEntity
  8
0
100
AcDbLine
 62
7
  6
CONTINUOUS
 10
74.2812882656
 20
110.1004691024
 11
74.2812882656
 21
110.0437306197
  0
LINE
  5
265
100
AcDbEntity
  8
0
100
AcDbLine
 62
7
  6
CONTINUOUS
 10
74.2812882656
 20
44.5956771122
 11
74.2812882656
 21
44.5389386295
  0
LINE
  5
266
100
AcDbEntity
  8
0
100
AcDbLine
 62
7
  6
CONTINUOUS
 10
97.7812882656
 20
94.3697038659
 11
96.5812882656
 21
93.1697038659
  0
LINE
  5
267
100
AcDbEntity
  8
0
100
AcDbLine
 62
7
  6
CONTINUOUS
 10
93.9812882656
 20
93.1697038659
 11
96.5812882656
 21
93.1697038659
  0
LINE
  5
268
100
AcDbEntity
  8
0
100
AcDbLine
 62
7
  6
CONTINUOUS
 10
92.119749804
 20
94.0697038659
 11
91.5812882656
 21
94.0697038659
  0
LINE
  5
269
100
AcDbEntity
  8
0
100
AcDbLine
 62
7
  6
CONTINUOUS
 10
68.7812882656
 20
95.8744488251
 11
90.7812882656
 21
95.8744488251
  0
LINE
  5
26A
100
AcDbEntity
  8
0
100
AcDbLine
 62
7
  6
CONTINUOUS
 10
97.7812882656
 20
97.072867172
 11
91.5812882656
 21
97.0697038659
  0
LINE
  5
26B
100
AcDbEntity
  8
0
100
AcDbLine
 62
7
  6
CONTINUOUS
 10
81.2812882656
 20
37.5697038659
 11
81.2812882656
 21
41.3197038659
  0
LINE
  5
26C
100
AcDbEntity
  8
0
100
AcDbLine
 62
7
  6
CONTINUOUS
 10
22.0312882656
 20
101.8697038659
 11
27.9312882656
 21
101.8697038659
  0
LINE
  5
26D
100
AcDbEntity
  8
0
100
AcDbLine
 62
7
  6
CONTINUOUS
 10
22.0728659178
 20
102.2697038659
 11
26.0312882656
 21
102.2697038659
  0
LINE
  5
26E
100
AcDbEntity
  8
0
100
AcDbLine
 62
7
  6
CONTINUOUS
 10
19.2312882656
 20
103.2697038659
 11
35.7312882656
 21
103.2697038659
  0
LINE
  5
26F
100
AcDbEntity
  8
0
100
AcDbLine
 62
7
  6
CONTINUOUS
 10
34.2194577906
 20
104.2697038659
 11
26.4164530727
 21
104.2697038659
  0
LINE
  5
270
100
AcDbEntity
  8
0
100
AcDbLine
 62
7
  6
CONTINUOUS
 10
90.7812882656
 20
107.1944877893
 11
68.7812882656
 21
107.1944877893
  0
LINE
  5
271
100
AcDbEntity
  8
0
100
AcDbLine
 62
7
  6
CONTINUOUS
 10
90.7812882656
 20
38.8697038659
 11
90.7812882656
 21
58.7649589068
  0
LINE
  5
272
100
AcDbEntity
  8
0
100
AcDbLine
 62
7
  6
CONTINUOUS
 10
90.7812882656
 20
95.8744488251
 11
90.7812882656
 21
115.3697038659
  0
LINE
  5
273
100
AcDbEntity
  8
0
100
AcDbLine
 62
7
  6
CONTINUOUS
 10
68.7812882656
 20
109.9815084763
 11
73.7812882656
 21
109.9815084763
  0
LINE
  5
274
100
AcDbEntity
  8
0
100
AcDbLine
 62
7
  6
CONTINUOUS
 10
74.2812882656
 20
110.1004691024
 11
68.7812882656
 21
110.1004691024
  0
LINE
  5
275
100
AcDbEntity
  8
0
100
AcDbLine
 62
7
  6
CONTINUOUS
 10
90.7812882656
 20
110.3697038659
 11
68.7812882656
 21
110.3697038659
  0
LINE
  5
276
100
AcDbEntity
  8
0
100
AcDbLine
 62
7
  6
CONTINUOUS
 10
91.5812882656
 20
94.0697038659
 11
91.5812882656
 21
97.0697038659
  0
LINE
  5
277
100
AcDbEntity
  8
0
100
AcDbLine
 62
7
  6
CONTINUOUS
 10
92.2812882656
 20
59.0697038659
 11
92.2812882656
 21
93.1697038659
  0
LINE
  5
278
100
AcDbEntity
  8
0
100
AcDbLine
 62
7
  6
CONTINUOUS
 10
93.5812882656
 20
60.4697038659
 11
93.5812882656
 21
59.0697038659
  0
LINE
  5
279
100
AcDbEntity
  8
0
100
AcDbLine
 62
7
  6
CONTINUOUS
 10
93.5812882656
 20
60.4697038659
 11
93.9812882656
 21
60.8697038659
  0
LINE
  5
27A
100
AcDbEntity
  8
0
100
AcDbLine
 62
7
  6
CONTINUOUS
 10
97.7359355167
 20
113.2912711764
 11
90.7812882656
 21
113.2912724995
  0
LINE
  5
27B
100
AcDbEntity
  8
INTFCLR_74
100
AcDbLine
 62
7
420
48875
  6
CONTINUOUS
 10
19.0312882656
 20
113.3197038659
 11
33.7312882656
 21
113.3197038659
  0
LINE
  5
27C
100
AcDbEntity
  8
0
100
AcDbLine
 62
7
  6
CONTINUOUS
 10
33.7312882656
 20
113.3197038659
 11
68.7812882656
 21
113.3197038659
  0
LINE
  5
27D
100
AcDbEntity
  8
INTFCLR_74
100
AcDbLine
 62
7
420
48875
  6
CONTINUOUS
 10
68.7812882656
 20
113.3197038659
 11
90.7812882656
 21
113.3197038659
  0
LINE
  5
27E
100
AcDbEntity
  8
0
100
AcDbLine
 62
7
  6
CONTINUOUS
 10
90.7812882656
 20
115.1437518992
 11
97.409293184
 21
115.1437518992
  0
LINE
  5
27F
100
AcDbEntity
  8
0
100
AcDbLine
 62
7
  6
CONTINUOUS
 10
91.2812882656
 20
115.8697038659
 11
97.2812882656
 21
115.8697038659
  0
LINE
  5
280
100
AcDbEntity
  8
0
100
AcDbLine
 62
7
  6
CONTINUOUS
 10
92.119749804
 20
94.0697038659
 11
92.2812882656
 21
93.1697038659
  0
LINE
  5
281
100
AcDbEntity
  8
0
100
AcDbLine
 62
7
  6
CONTINUOUS
 10
96.2812882656
 20
51.9197038659
 11
96.2812882656
 21
52.0197038659
  0
LINE
  5
282
100
AcDbEntity
  8
0
100
AcDbLine
 62
7
  6
CONTINUOUS
 10
97.7812882656
 20
38.8697038659
 11
97.7812882656
 21
51.0197038659
  0
LINE
  5
283
100
AcDbEntity
  8
0
100
AcDbLine
 62
7
  6
CONTINUOUS
 10
97.7812882656
 20
52.5197038659
 11
97.7812882656
 21
58.4189774822
  0
LINE
  5
284
100
AcDbEntity
  8
0
100
AcDbLine
 62
7
  6
CONTINUOUS
 10
97.7812882656
 20
94.3697038659
 11
97.7812882656
 21
113.0340629561
  0
LINE
  5
285
100
AcDbEntity
  8
0
100
AcDbLine
 62
7
  6
CONTINUOUS
 10
66.5812882656
 20
117.1697038659
 11
36.7812882656
 21
117.1697038659
  0
LINE
  5
286
100
AcDbEntity
  8
0
100
AcDbLine
 62
7
  6
CONTINUOUS
 10
68.3812882656
 20
118.4697038659
 11
64.3812882656
 21
118.4697038659
  0
LINE
  5
287
100
AcDbEntity
  8
0
100
AcDbLine
 62
7
  6
CONTINUOUS
 10
38.9812882656
 20
118.4697038659
 11
34.9812882656
 21
118.4697038659
  0
LINE
  5
288
100
AcDbEntity
  8
0
100
AcDbLine
 62
7
  6
CONTINUOUS
 10
93.9812882656
 20
93.1697038659
 11
93.3809204557
 21
97.071303804
  0
LINE
  5
289
100
AcDbEntity
  8
0
100
AcDbLine
 62
7
  6
CONTINUOUS
 10
97.7812882656
 20
113.0340629561
 11
97.2812882656
 21
115.8697038659
  0
ARC
  5
28A
100
AcDbEntity
  8
0
100
AcDbCircle
 62
7
  6
CONTINUOUS
 10
-93.6056296712
 20
46.8310893276
 40
127.3774184467
100
AcDbArc
 50
358.5551154014
 51
359.9948786927
  0
ARC
  5
28B
100
AcDbEntity
  8
0
100
AcDbCircle
 62
7
  6
CONTINUOUS
 10
-93.5410645913
 20
107.8302855167
 40
127.3128532976
100
AcDbArc
 50
358.5547502834
 51
359.9952378419
  0
ARC
  5
28C
100
AcDbEntity
  8
0
100
AcDbCircle
 62
7
  6
CONTINUOUS
 10
-92.8092725712
 20
107.8183963073
 40
126.5810608445
100
AcDbArc
 50
0.0005918547
 51
1.4494138201
  0
ARC
  5
28D
100
AcDbEntity
  8
0
100
AcDbCircle
 62
7
  6
CONTINUOUS
 10
-92.7992801927
 20
46.8185085577
 40
126.5710684649
100
AcDbArc
 50
0.0005410882
 51
1.4494710155
  0
ARC
  5
28E
100
AcDbEntity
  8
0
100
AcDbCircle
 62
7
  6
CONTINUOUS
 10
26.4164530727
 20
65.3697038659
 40
15.0
100
AcDbArc
 50
248.9605302187
 51
270.0
  0
ARC
  5
28F
100
AcDbEntity
  8
0
100
AcDbCircle
 62
7
  6
CONTINUOUS
 10
26.4164530727
 20
89.2697038659
 40
15.0
100
AcDbArc
 50
90.0
 51
111.0394697813
  0
ARC
  5
290
100
AcDbEntity
  8
0
100
AcDbCircle
 62
7
  6
CONTINUOUS
 10
50.0312882656
 20
36.0697038659
 40
1.6
100
AcDbArc
 50
194.9999999999
 51
284.9999999997
  0
ARC
  5
291
100
AcDbEntity
  8
0
100
AcDbCircle
 62
7
  6
CONTINUOUS
 10
64.1314702605
 20
36.9490629394
 40
1.2
100
AcDbArc
 50
31.1446714327
 51
105.0000000005
  0
ARC
  5
292
100
AcDbEntity
  8
0
100
AcDbCircle
 62
7
  6
CONTINUOUS
 10
92.8812882656
 20
59.0697038659
 40
0.6
100
AcDbArc
 50
180.0
 51
270.0
  0
ARC
  5
293
100
AcDbEntity
  8
0
100
AcDbCircle
 62
7
  6
CONTINUOUS
 10
92.9812882656
 20
59.0697038659
 40
0.6
100
AcDbArc
 50
270.0
 51
360.0
  0
ARC
  5
294
100
AcDbEntity
  8
0
100
AcDbCircle
 62
7
  6
CONTINUOUS
 10
96.7812882656
 20
52.0197038659
 40
0.5
100
AcDbArc
 50
90.0
 51
180.0
  0
ARC
  5
295
100
AcDbEntity
  8
0
100
AcDbCircle
 62
7
  6
CONTINUOUS
 10
96.7812882656
 20
51.9197038659
 40
0.5
100
AcDbArc
 50
180.0
 51
270.0
  0
ARC
  5
296
100
AcDbEntity
  8
0
100
AcDbCircle
 62
7
  6
CONTINUOUS
 10
91.2812882656
 20
115.3697038659
 40
0.5
100
AcDbArc
 50
90.0
 51
180.0
  0
SPLINE
  5
297
100
AcDbEntity
  8
0
100
AcDbSpline
 62
7
  6
CONTINUOUS
 70
0
 71
3
 72
21
 73
17
 74
0
 42
0.0000001
 43
0.0000001
 44
0.0000000001
 40
0.0
 40
0.0
 40
0.0
 40
0.0
 40
0.0022374043
 40
0.0063535159
 40
0.0213273958
 40
0.0455034042
 40
0.0787294845
 40
0.1206926797
 40
0.1710447582
 40
0.2293297906
 40
0.295025441
 40
0.3675585438
 40
0.4461787511
 40
0.6185082143
 40
0.8055842973
 40
1.0
 40
1.0
 40
1.0
 40
1.0
 10
19.3314468073
 20
54.6192090039
 30
0.0
 10
19.3338797246
 20
54.6192118241
 30
0.0
 10
19.3396747776
 20
54.6247328927
 30
0.0
 10
19.3484603381
 20
54.64557482
 30
0.0
 10
19.3597643259
 20
54.6920552819
 30
0.0
 10
19.3722309796
 20
54.7693952543
 30
0.0
 10
19.385545606
 20
54.8768038692
 30
0.0
 10
19.3989728327
 20
55.0125990195
 30
0.0
 10
19.4123732801
 20
55.1758381417
 30
0.0
 10
19.4254406468
 20
55.3649507831
 30
0.0
 10
19.4379359668
 20
55.5782768782
 30
0.0
 10
19.4495961103
 20
55.8137887379
 30
0.0
 10
19.4642257835
 20
56.1652377503
 30
0.0
 10
19.4788056385
 20
56.6413331926
 30
0.0
 10
19.4896284748
 20
57.2434663081
 30
0.0
 10
19.4920940783
 20
57.6582992259
 30
0.0
 10
19.4920940783
 20
57.8697038659
 30
0.0
  0
SPLINE
  5
298
100
AcDbEntity
  8
0
100
AcDbSpline
 62
7
  6
CONTINUOUS
 70
0
 71
3
 72
21
 73
17
 74
0
 42
0.0000001
 43
0.0000001
 44
0.0000000001
 40
0.0
 40
0.0
 40
0.0
 40
0.0
 40
0.0022345116
 40
0.0063458607
 40
0.0213099179
 40
0.0454787668
 40
0.0787071909
 40
0.12068188
 40
0.1710532138
 40
0.2293598133
 40
0.2950610643
 40
0.3675800835
 40
0.4461856839
 40
0.6185310819
 40
0.805608053
 40
1.0
 40
1.0
 40
1.0
 40
1.0
 10
19.331446801
 20
93.5192358651
 30
0.0
 10
19.3338765599
 20
93.5192321045
 30
0.0
 10
19.339677744
 20
93.5247370785
 30
0.0
 10
19.3484600064
 20
93.545562124
 30
0.0
 10
19.3597688879
 20
93.5920147416
 30
0.0
 10
19.372233599
 20
93.6693399006
 30
0.0
 10
19.385548791
 20
93.7767547467
 30
0.0
 10
19.398975296
 20
93.9125856747
 30
0.0
 10
19.4123730193
 20
94.0758812542
 30
0.0
 10
19.4254370062
 20
94.2650438174
 30
0.0
 10
19.4379344688
 20
94.4783829735
 30
0.0
 10
19.4496017874
 20
94.7138681992
 30
0.0
 10
19.4642407396
 20
95.0653012823
 30
0.0
 10
19.47880727
 20
95.5413973409
 30
0.0
 10
19.4896234155
 20
96.143520038
 30
0.0
 10
19.4920940783
 20
96.5583260726
 30
0.0
 10
19.4920940783
 20
96.7697038659
 30
0.0
  0
SPLINE
  5
299
100
AcDbEntity
  8
0
100
AcDbSpline
 62
7
  6
CONTINUOUS
 70
0
 71
3
 72
20
 73
16
 74
0
 42
0.0000001
 43
0.0000001
 44
0.0000000001
 40
0.0
 40
0.0
 40
0.0
 40
0.0
 40
0.0117773075
 40
0.0198037294
 40
0.0296719659
 40
0.0554115589
 40
0.0894474802
 40
0.1316969286
 40
0.1819289986
 40
0.2397774383
 40
0.304762868
 40
0.4538985409
 40
0.6238212051
 40
0.8082818114
 40
1.0
 40
1.0
 40
1.0
 40
1.0
 10
34.5087498937
 20
104.6192796496
 30
0.0
 10
34.5215760862
 20
104.6192474027
 30
0.0
 10
34.5424576289
 20
104.63092535
 30
0.0
 10
34.5635205447
 20
104.6550845017
 30
0.0
 10
34.5896008504
 20
104.6951335597
 30
0.0
 10
34.6201871449
 20
104.7648255691
 30
0.0
 10
34.654682716
 20
104.8705291822
 30
0.0
 10
34.6886111745
 20
105.0041563758
 30
0.0
 10
34.7216163991
 20
105.1645503943
 30
0.0
 10
34.7531647133
 20
105.3504033902
 30
0.0
 10
34.7946205656
 20
105.6437090977
 30
0.0
 10
34.8383429567
 20
106.0597956955
 30
0.0
 10
34.8769429375
 20
106.6068805842
 30
0.0
 10
34.9011314277
 20
107.2012069808
 30
0.0
 10
34.906634033
 20
107.6109106282
 30
0.0
 10
34.906634033
 20
107.8197038659
 30
0.0
  0
SPLINE
  5
29A
100
AcDbEntity
  8
0
100
AcDbSpline
 62
7
  6
CONTINUOUS
 70
0
 71
3
 72
20
 73
16
 74
0
 42
0.0000001
 43
0.0000001
 44
0.0000000001
 40
0.0
 40
0.0
 40
0.0
 40
0.0
 40
0.0117852648
 40
0.019815422
 40
0.029686477
 40
0.0554307233
 40
0.0894645765
 40
0.1317067793
 40
0.1819308399
 40
0.2397679388
 40
0.3047515095
 40
0.4539205633
 40
0.6238493211
 40
0.808290064
 40
1.0
 40
1.0
 40
1.0
 40
1.0
 10
34.5087497003
 20
43.6192458788
 30
0.0
 10
34.5215845717
 20
43.6192396316
 30
0.0
 10
34.5424543609
 20
43.6309508005
 30
0.0
 10
34.5635219095
 20
43.6551261334
 30
0.0
 10
34.5896007966
 20
43.6951906685
 30
0.0
 10
34.6201833174
 20
43.7648898814
 30
0.0
 10
34.6546777626
 20
43.8705882745
 30
0.0
 10
34.6886059338
 20
44.0041956743
 30
0.0
 10
34.721614826
 20
44.1645589543
 30
0.0
 10
34.7531757921
 20
44.350386003
 30
0.0
 10
34.7946394947
 20
44.6437124785
 30
0.0
 10
34.8383279226
 20
45.0598431122
 30
0.0
 10
34.8769405888
 20
45.6069467051
 30
0.0
 10
34.9011438857
 20
46.2012476722
 30
0.0
 10
34.906634033
 20
46.61092004
 30
0.0
 10
34.906634033
 20
46.8197038659
 30
0.0
  0
SPLINE
  5
29B
100
AcDbEntity
  8
0
100
AcDbSpline
 62
7
  6
CONTINUOUS
 70
0
 71
3
 72
20
 73
16
 74
0
 42
0.0000001
 43
0.0000001
 44
0.0000000001
 40
0.0
 40
0.0
 40
0.0
 40
0.0
 40
0.0119927591
 40
0.0200901641
 40
0.0300101493
 40
0.0558123537
 40
0.0898757245
 40
0.1321295803
 40
0.1823498424
 40
0.2401748787
 40
0.3051286689
 40
0.4541855687
 40
0.6240174968
 40
0.8083810799
 40
1.0
 40
1.0
 40
1.0
 40
1.0
 10
20.1353063595
 20
93.5192745951
 30
0.0
 10
20.148579511
 20
93.5192422158
 30
0.0
 10
20.1701922008
 20
93.5309740256
 30
0.0
 10
20.1921324395
 20
93.555587345
 30
0.0
 10
20.2191177565
 20
93.5962098518
 30
0.0
 10
20.2507609768
 20
93.6669792366
 30
0.0
 10
20.2863572031
 20
93.7743341623
 30
0.0
 10
20.3213078395
 20
93.910040646
 30
0.0
 10
20.3552447687
 20
94.07292659
 30
0.0
 10
20.3876338575
 20
94.2616710741
 30
0.0
 10
20.4301341121
 20
94.5595435197
 30
0.0
 10
20.4748648759
 20
94.9821424296
 30
0.0
 10
20.5142851497
 20
95.5378125424
 30
0.0
 10
20.5389566001
 20
96.1414796714
 30
0.0
 10
20.5445654028
 20
96.5576263531
 30
0.0
 10
20.5445654028
 20
96.7697038659
 30
0.0
  0
SPLINE
  5
29C
100
AcDbEntity
  8
0
100
AcDbSpline
 62
7
  6
CONTINUOUS
 70
0
 71
3
 72
20
 73
16
 74
0
 42
0.0000001
 43
0.0000001
 44
0.0000000001
 40
0.0
 40
0.0
 40
0.0
 40
0.0
 40
0.0120037639
 40
0.0201072317
 40
0.0300320981
 40
0.0558407063
 40
0.0898951054
 40
0.1321296748
 40
0.1823293934
 40
0.2401306085
 40
0.305081004
 40
0.4541826013
 40
0.6240139844
 40
0.8083717552
 40
1.0
 40
1.0
 40
1.0
 40
1.0
 10
20.1353062147
 20
54.61922739
 30
0.0
 10
20.1485915124
 20
54.6192337402
 30
0.0
 10
20.1701870177
 20
54.6310174664
 30
0.0
 10
20.1921304844
 20
54.6556589216
 30
0.0
 10
20.2191112385
 20
54.6963072155
 30
0.0
 10
20.2507466715
 20
54.7670808396
 30
0.0
 10
20.2863450941
 20
54.8744088659
 30
0.0
 10
20.3212967704
 20
55.0100584531
 30
0.0
 10
20.3552380708
 20
55.172870542
 30
0.0
 10
20.3876434598
 20
55.3615576515
 30
0.0
 10
20.4301435303
 20
55.6594484834
 30
0.0
 10
20.4748248564
 20
56.0820955329
 30
0.0
 10
20.5142823116
 20
56.6378016054
 30
0.0
 10
20.5389751407
 20
57.2414686256
 30
0.0
 10
20.5445654028
 20
57.6576171745
 30
0.0
 10
20.5445654028
 20
57.8697038659
 30
0.0
  0
SPLINE
  5
29D
100
AcDbEntity
  8
0
100
AcDbSpline
 62
7
  6
CONTINUOUS
 70
0
 71
3
 72
20
 73
16
 74
0
 42
0.0000001
 43
0.0000001
 44
0.0000000001
 40
0.0
 40
0.0
 40
0.0
 40
0.0
 40
0.1917035607
 40
0.3761604803
 40
0.5460894004
 40
0.6952373994
 40
0.760224779
 40
0.8180699682
 40
0.8683006244
 40
0.9105418398
 40
0.9445723642
 40
0.9703142278
 40
0.9801831878
 40
0.9882122348
 40
1.0
 40
1.0
 40
1.0
 40
1.0
 10
34.906634033
 20
46.8197038659
 30
0.0
 10
34.906634033
 20
47.0284786184
 30
0.0
 10
34.9011324664
 20
47.4381573195
 30
0.0
 10
34.8769444807
 20
48.0324632944
 30
0.0
 10
34.8383478923
 20
48.5795579057
 30
0.0
 10
34.7946297177
 20
48.9956622621
 30
0.0
 10
34.7531746628
 20
49.288976651
 30
0.0
 10
34.7216196415
 20
49.4748231836
 30
0.0
 10
34.6886150212
 20
49.6352009109
 30
0.0
 10
34.654681879
 20
49.7688085449
 30
0.0
 10
34.6201798342
 20
49.8744952534
 30
0.0
 10
34.5895969309
 20
49.9441847699
 30
0.0
 10
34.5635177289
 20
49.9842404315
 30
0.0
 10
34.5424453738
 20
50.0084128161
 30
0.0
 10
34.5215872639
 20
50.020126358
 30
0.0
 10
34.5087498076
 20
50.0201413971
 30
0.0
  0
SPLINE
  5
29E
100
AcDbEntity
  8
0
100
AcDbSpline
 62
7
  6
CONTINUOUS
 70
0
 71
3
 72
20
 73
16
 74
0
 42
0.0000001
 43
0.0000001
 44
0.0000000001
 40
0.0
 40
0.0
 40
0.0
 40
0.0
 40
0.1916044089
 40
0.3759644795
 40
0.5458027899
 40
0.6948721109
 40
0.7598278042
 40
0.8176494812
 40
0.867868251
 40
0.9101138562
 40
0.9441718681
 40
0.9699763804
 40
0.9798970971
 40
0.9879970924
 40
1.0
 40
1.0
 40
1.0
 40
1.0
 10
20.5445654028
 20
57.8697038659
 30
0.0
 10
20.5445654028
 20
58.081762684
 30
0.0
 10
20.5389576213
 20
58.4978842601
 30
0.0
 10
20.5142866905
 20
59.1015309896
 30
0.0
 10
20.4748697947
 20
59.6572113162
 30
0.0
 10
20.4301434538
 20
60.0798284096
 30
0.0
 10
20.3876439553
 20
60.3777095559
 30
0.0
 10
20.3552478702
 20
60.5664471268
 30
0.0
 10
20.3213116919
 20
60.7293162715
 30
0.0
 10
20.2863561048
 20
60.865002718
 30
0.0
 10
20.250753108
 20
60.9723403587
 30
0.0
 10
20.2191138645
 20
61.0431075147
 30
0.0
 10
20.1921294155
 20
61.0837367089
 30
0.0
 10
20.1701800383
 20
61.1083631346
 30
0.0
 10
20.148590542
 20
61.120131366
 30
0.0
 10
20.1353062926
 20
61.1201465347
 30
0.0
  0
SPLINE
  5
29F
100
AcDbEntity
  8
0
100
AcDbSpline
 62
7
  6
CONTINUOUS
 70
0
 71
3
 72
21
 73
17
 74
0
 42
0.0000001
 43
0.0000001
 44
0.0000000001
 40
0.0
 40
0.0
 40
0.0
 40
0.0
 40
0.1943949337
 40
0.3814782509
 40
0.5538228275
 40
0.6324281137
 40
0.704948171
 40
0.7706485513
 40
0.8289517022
 40
0.8793207402
 40
0.921291468
 40
0.954516621
 40
0.9786852128
 40
0.9936500734
 40
0.9977632752
 40
1.0
 40
1.0
 40
1.0
 40
1.0
 10
19.4920940783
 20
57.8697038659
 30
0.0
 10
19.4920940783
 20
58.0810844816
 30
0.0
 10
19.4896215113
 20
58.4958998195
 30
0.0
 10
19.4788060565
 20
59.0980305601
 30
0.0
 10
19.4642402449
 20
59.5741313572
 30
0.0
 10
19.4496010197
 20
59.9255636147
 30
0.0
 10
19.4379340153
 20
60.1610482185
 30
0.0
 10
19.4254368845
 20
60.3743833964
 30
0.0
 10
19.4123719165
 20
60.5635382949
 30
0.0
 10
19.3989741749
 20
60.7268229691
 30
0.0
 10
19.3855473014
 20
60.8626431343
 30
0.0
 10
19.372233121
 20
60.9700497615
 30
0.0
 10
19.3597656832
 20
61.0473711865
 30
0.0
 10
19.3484620082
 20
61.0938274857
 30
0.0
 10
19.3396736328
 20
61.114656457
 30
0.0
 10
19.3338789593
 20
61.1201692639
 30
0.0
 10
19.3314467975
 20
61.1201721195
 30
0.0
  0
SPLINE
  5
2A0
100
AcDbEntity
  8
0
100
AcDbSpline
 62
7
  6
CONTINUOUS
 70
0
 71
3
 72
20
 73
16
 74
0
 42
0.0000001
 43
0.0000001
 44
0.0000000001
 40
0.0
 40
0.0
 40
0.0
 40
0.0
 40
0.1916200395
 40
0.3759650787
 40
0.5457988445
 40
0.6948999303
 40
0.7598520879
 40
0.8176596179
 40
0.8678643051
 40
0.9101038316
 40
0.9441615614
 40
0.969970573
 40
0.9798954532
 40
0.9879984283
 40
1.0
 40
1.0
 40
1.0
 40
1.0
 10
20.5445654028
 20
96.7697038659
 30
0.0
 10
20.5445654028
 20
96.9817823472
 30
0.0
 10
20.5389783804
 20
97.3979094847
 30
0.0
 10
20.5142851578
 20
98.0015583987
 30
0.0
 10
20.4748330376
 20
98.5572550958
 30
0.0
 10
20.4301482642
 20
98.9799076823
 30
0.0
 10
20.3876443919
 20
99.2778076156
 30
0.0
 10
20.355241661
 20
99.466510589
 30
0.0
 10
20.3213006017
 20
99.6293418197
 30
0.0
 10
20.2863490359
 20
99.7650071152
 30
0.0
 10
20.2507512485
 20
99.8723461184
 30
0.0
 10
20.2191137801
 20
99.9431237065
 30
0.0
 10
20.1921320212
 20
99.9837717881
 30
0.0
 10
20.170190208
 20
100.0084101398
 30
0.0
 10
20.1485891139
 20
100.0201869154
 30
0.0
 10
20.1353061875
 20
100.0201814101
 30
0.0
  0
SPLINE
  5
2A1
100
AcDbEntity
  8
0
100
AcDbSpline
 62
7
  6
CONTINUOUS
 70
0
 71
3
 72
21
 73
17
 74
0
 42
0.0000001
 43
0.0000001
 44
0.0000000001
 40
0.0
 40
0.0
 40
0.0
 40
0.0
 40
0.1944066825
 40
0.3814704223
 40
0.5538042809
 40
0.6324263995
 40
0.7049595843
 40
0.7706574261
 40
0.8289481453
 40
0.8793045456
 40
0.9212713476
 40
0.9544996626
 40
0.9786758691
 40
0.9936492505
 40
0.9977641094
 40
1.0
 40
1.0
 40
1.0
 40
1.0
 10
19.4920940783
 20
96.7697038659
 30
0.0
 10
19.4920940783
 20
96.9810990464
 30
0.0
 10
19.4896302686
 20
97.395909431
 30
0.0
 10
19.4788068073
 20
97.9980250761
 30
0.0
 10
19.4642285755
 20
98.474114784
 30
0.0
 10
19.4495986164
 20
98.825571322
 30
0.0
 10
19.4379374621
 20
99.0610880799
 30
0.0
 10
19.4254410012
 20
99.2744231262
 30
0.0
 10
19.4123742182
 20
99.4635494165
 30
0.0
 10
19.3989739122
 20
99.6268036734
 30
0.0
 10
19.3855468175
 20
99.7626101805
 30
0.0
 10
19.3722312711
 20
99.8700254681
 30
0.0
 10
19.3597664522
 20
99.9473679882
 30
0.0
 10
19.3484589178
 20
99.9938462226
 30
0.0
 10
19.3396776065
 20
100.014685378
 30
0.0
 10
19.3338780727
 20
100.0202012931
 30
0.0
 10
19.3314467963
 20
100.0201994839
 30
0.0
  0
SPLINE
  5
2A2
100
AcDbEntity
  8
0
100
AcDbSpline
 62
7
  6
CONTINUOUS
 70
0
 71
3
 72
20
 73
16
 74
0
 42
0.0000001
 43
0.0000001
 44
0.0000000001
 40
0.0
 40
0.0
 40
0.0
 40
0.0
 40
0.1917133944
 40
0.3761593766
 40
0.5460900813
 40
0.6952626794
 40
0.7602453565
 40
0.8180787567
 40
0.8682997606
 40
0.9105385195
 40
0.9445698311
 40
0.9703136006
 40
0.9801845944
 40
0.9882147512
 40
1.0
 40
1.0
 40
1.0
 40
1.0
 10
34.906634033
 20
107.8197038659
 30
0.0
 10
34.906634033
 20
108.0284912799
 30
0.0
 10
34.901142594
 20
108.438172754
 30
0.0
 10
34.8769386823
 20
109.0324847977
 30
0.0
 10
34.8383238724
 20
109.5795994659
 30
0.0
 10
34.7946366565
 20
109.995734891
 30
0.0
 10
34.7531726805
 20
110.2890599609
 30
0.0
 10
34.7216091978
 20
110.4748779852
 30
0.0
 10
34.6885999264
 20
110.6352296824
 30
0.0
 10
34.6546721379
 20
110.7688269129
 30
0.0
 10
34.6201779331
 20
110.8745178408
 30
0.0
 10
34.5895974963
 20
110.9442141043
 30
0.0
 10
34.563519844
 20
110.984278698
 30
0.0
 10
34.5424531205
 20
111.0084545235
 30
0.0
 10
34.5215845387
 20
111.0201672934
 30
0.0
 10
34.5087496951
 20
111.0201621859
 30
0.0
  0
SPLINE
  5
2A3
100
AcDbEntity
  8
0
100
AcDbSpline
 62
7
  6
CONTINUOUS
 70
0
 71
3
 72
14
 73
10
 74
0
 42
0.0000001
 43
0.0000001
 44
0.0000000001
 40
0.0
 40
0.0
 40
0.0
 40
0.0
 40
0.0295309663
 40
0.0892634021
 40
0.1819174525
 40
0.3047919736
 40
0.4538203624
 40
0.6237695044
 40
1.0
 40
1.0
 40
1.0
 40
1.0
 10
74.2812882656
 20
44.5956771122
 30
0.0
 10
74.2812882656
 20
44.6007011344
 30
0.0
 10
74.2666786266
 20
44.6118492407
 30
0.0
 10
74.2387909659
 20
44.6205586097
 30
0.0
 10
74.1922321679
 20
44.6312471078
 30
0.0
 10
74.1311520932
 20
44.6400086432
 30
0.0
 10
74.0562423021
 20
44.6477541431
 30
0.0
 10
73.9382681935
 20
44.6556816815
 30
0.0
 10
73.8452953267
 20
44.6578992556
 30
0.0
 10
73.7812882656
 20
44.6578992556
 30
0.0
  0
SPLINE
  5
2A4
100
AcDbEntity
  8
0
100
AcDbSpline
 62
7
  6
CONTINUOUS
 70
0
 71
3
 72
14
 73
10
 74
0
 42
0.0000001
 43
0.0000001
 44
0.0000000001
 40
0.0
 40
0.0
 40
0.0
 40
0.0
 40
0.3762918714
 40
0.5462638292
 40
0.6952831187
 40
0.8181369477
 40
0.9107692011
 40
0.9704803219
 40
1.0
 40
1.0
 40
1.0
 40
1.0
 10
73.7812882656
 20
109.9815084763
 30
0.0
 10
73.8453060761
 20
109.9815084763
 30
0.0
 10
73.9382935335
 20
109.9837304951
 30
0.0
 10
74.0562812011
 20
109.9916570838
 30
0.0
 10
74.1311897177
 20
109.9994037178
 30
0.0
 10
74.19226234
 20
110.008164561
 30
0.0
 10
74.2388077904
 20
110.0188528272
 30
0.0
 10
74.2666922486
 20
110.0275577923
 30
0.0
 10
74.2812882656
 20
110.0387084938
 30
0.0
 10
74.2812882656
 20
110.0437306197
 30
0.0
  0
SPLINE
  5
2A5
100
AcDbEntity
  8
0
100
AcDbSpline
 62
7
  6
CONTINUOUS
 70
0
 71
3
 72
20
 73
16
 74
0
 42
0.0000001
 43
0.0000001
 44
0.0000000001
 40
0.0
 40
0.0
 40
0.0
 40
0.0
 40
0.1920851118
 40
0.3769234151
 40
0.5471770356
 40
0.6965057102
 40
0.7614809364
 40
0.8192308273
 40
0.8692950505
 40
0.9112993355
 40
0.945043673
 40
0.9704914245
 40
0.9802319556
 40
0.9881679382
 40
1.0
 40
1.0
 40
1.0
 40
1.0
 10
19.8028298251
 20
96.7697038659
 30
0.0
 10
19.8028298251
 20
96.5578829029
 30
0.0
 10
19.8064899114
 20
96.142223246
 30
0.0
 10
19.8228637768
 20
95.5390083764
 30
0.0
 10
19.8499065484
 20
94.9833760766
 30
0.0
 10
19.8819790463
 20
94.5604265853
 30
0.0
 10
19.9140664923
 20
94.2621173684
 30
0.0
 10
19.9393080336
 20
94.0732244596
 30
0.0
 10
19.9666490051
 20
93.9102584447
 30
0.0
 10
19.9958222267
 20
93.7745295758
 30
0.0
 10
20.0266527284
 20
93.6672077961
 30
0.0
 10
20.0550569143
 20
93.5963615576
 30
0.0
 10
20.0802136926
 20
93.5556913635
 30
0.0
 10
20.1010567424
 20
93.5309717207
 30
0.0
 10
20.1222586472
 20
93.5193064244
 30
0.0
 10
20.1353063595
 20
93.5192745951
 30
0.0
  0
SPLINE
  5
2A6
100
AcDbEntity
  8
0
100
AcDbSpline
 62
7
  6
CONTINUOUS
 70
0
 71
3
 72
21
 73
17
 74
0
 42
0.0000001
 43
0.0000001
 44
0.0000000001
 40
0.0
 40
0.0
 40
0.0
 40
0.0
 40
0.1945771246
 40
0.3818351737
 40
0.5543393601
 40
0.6330098018
 40
0.7055728647
 40
0.7712851495
 40
0.8295688303
 40
0.8798903395
 40
0.921786317
 40
0.9549092952
 40
0.9789498084
 40
0.993767676
 40
0.9978083863
 40
1.0
 40
1.0
 40
1.0
 40
1.0
 10
19.2462682734
 20
96.7697038659
 30
0.0
 10
19.2462682734
 20
96.5584025276
 30
0.0
 10
19.2468456631
 20
96.1437476835
 30
0.0
 10
19.2495777359
 20
95.5417671613
 30
0.0
 10
19.253780114
 20
95.0656663656
 30
0.0
 10
19.258704152
 20
94.7141363
 30
0.0
 10
19.2630389309
 20
94.4785832507
 30
0.0
 10
19.2681974144
 20
94.2651882815
 30
0.0
 10
19.2742012341
 20
94.0759876829
 30
0.0
 10
19.2810969903
 20
93.9126714238
 30
0.0
 10
19.2888270395
 20
93.7768295664
 30
0.0
 10
19.2974643766
 20
93.6694318438
 30
0.0
 10
19.3064151718
 20
93.5921190238
 30
0.0
 10
19.3156739977
 20
93.5456966194
 30
0.0
 10
19.3234255887
 20
93.5247619467
 30
0.0
 10
19.3290668175
 20
93.5192395487
 30
0.0
 10
19.331446801
 20
93.5192358651
 30
0.0
  0
SPLINE
  5
2A7
100
AcDbEntity
  8
0
100
AcDbSpline
 62
7
  6
CONTINUOUS
 70
0
 71
3
 72
20
 73
16
 74
0
 42
0.0000001
 43
0.0000001
 44
0.0000000001
 40
0.0
 40
0.0
 40
0.0
 40
0.0
 40
0.192218872
 40
0.3771880158
 40
0.5475618932
 40
0.6969878172
 40
0.7619969251
 40
0.8197667379
 40
0.8698333189
 40
0.9118176118
 40
0.9455132769
 40
0.9708727676
 40
0.9805478311
 40
0.9883995364
 40
1.0
 40
1.0
 40
1.0
 40
1.0
 10
34.193379091
 20
107.8197038644
 30
0.0
 10
34.193379091
 20
107.6111788697
 30
0.0
 10
34.1967884599
 20
107.2019855918
 30
0.0
 10
34.2120637138
 20
106.6081340619
 30
0.0
 10
34.2373667347
 20
106.0610918817
 30
0.0
 10
34.2674894382
 20
105.6446402788
 30
0.0
 10
34.2977532422
 20
105.3508766719
 30
0.0
 10
34.3216175969
 20
105.1648658315
 30
0.0
 10
34.347533604
 20
105.0043848528
 30
0.0
 10
34.3752517692
 20
104.8707315836
 30
0.0
 10
34.4046254911
 20
104.7650616277
 30
0.0
 10
34.431729051
 20
104.6952892405
 30
0.0
 10
34.4558416682
 20
104.6551891148
 30
0.0
 10
34.4757209282
 20
104.6309185077
 30
0.0
 10
34.4961653907
 20
104.6193112889
 30
0.0
 10
34.5087498937
 20
104.6192796496
 30
0.0
  0
SPLINE
  5
2A8
100
AcDbEntity
  8
0
100
AcDbSpline
 62
7
  6
CONTINUOUS
 70
0
 71
3
 72
20
 73
16
 74
0
 42
0.0000001
 43
0.0000001
 44
0.0000000001
 40
0.0
 40
0.0
 40
0.0
 40
0.0
 40
0.1922255301
 40
0.3771833629
 40
0.547546444
 40
0.6969709643
 40
0.7619795797
 40
0.8197524685
 40
0.8698194812
 40
0.9118094376
 40
0.9455116387
 40
0.9708731012
 40
0.9805500707
 40
0.9884026223
 40
1.0
 40
1.0
 40
1.0
 40
1.0
 10
34.193379091
 20
46.8197038674
 30
0.0
 10
34.193379091
 20
46.6111682817
 30
0.0
 10
34.1967821797
 20
46.2019734028
 30
0.0
 10
34.2120604266
 20
45.6081290012
 30
0.0
 10
34.2373727176
 20
45.0611039965
 30
0.0
 10
34.2674925626
 20
44.6446592609
 30
0.0
 10
34.297755643
 20
44.3508895488
 30
0.0
 10
34.3216130685
 20
44.1648714888
 30
0.0
 10
34.3475304116
 20
44.0043778436
 30
0.0
 10
34.3752452266
 20
43.8707081557
 30
0.0
 10
34.4046116575
 20
43.7650175538
 30
0.0
 10
34.4317242476
 20
43.6952359505
 30
0.0
 10
34.4558369344
 20
43.6551283723
 30
0.0
 10
34.4757095608
 20
43.6308549883
 30
0.0
 10
34.4961683035
 20
43.6192520027
 30
0.0
 10
34.5087497003
 20
43.6192458788
 30
0.0
  0
SPLINE
  5
2A9
100
AcDbEntity
  8
0
100
AcDbSpline
 62
7
  6
CONTINUOUS
 70
0
 71
3
 72
20
 73
16
 74
0
 42
0.0000001
 43
0.0000001
 44
0.0000000001
 40
0.0
 40
0.0
 40
0.0
 40
0.0
 40
0.0115969563
 40
0.0194494457
 40
0.0291263916
 40
0.0544874561
 40
0.0881877508
 40
0.1301747846
 40
0.1802380808
 40
0.2380062423
 40
0.3030126745
 40
0.4524354674
 40
0.6227982376
 40
0.8077668165
 40
1.0
 40
1.0
 40
1.0
 40
1.0
 10
34.5087496951
 20
111.0201621859
 30
0.0
 10
34.496168755
 20
111.0201571794
 30
0.0
 10
34.4757099469
 20
111.0085541633
 30
0.0
 10
34.4558383298
 20
110.9842808456
 30
0.0
 10
34.4317264913
 20
110.9441733243
 30
0.0
 10
34.4046154026
 20
110.8743939642
 30
0.0
 10
34.3752488915
 20
110.7687092938
 30
0.0
 10
34.3475344801
 20
110.6350489742
 30
0.0
 10
34.3216174882
 20
110.4745677804
 30
0.0
 10
34.2977584818
 20
110.2885615372
 30
0.0
 10
34.2674963801
 20
109.9948011191
 30
0.0
 10
34.2373765729
 20
109.5783609942
 30
0.0
 10
34.2120627598
 20
109.0313265939
 30
0.0
 10
34.1967836333
 20
108.4374625862
 30
0.0
 10
34.193379091
 20
108.0282477536
 30
0.0
 10
34.193379091
 20
107.8197038644
 30
0.0
  0
SPLINE
  5
2AA
100
AcDbEntity
  8
0
100
AcDbSpline
 62
7
  6
CONTINUOUS
 70
0
 71
3
 72
20
 73
16
 74
0
 42
0.0000001
 43
0.0000001
 44
0.0000000001
 40
0.0
 40
0.0
 40
0.0
 40
0.0
 40
0.1921000344
 40
0.3769245913
 40
0.5471564717
 40
0.6964828095
 40
0.761461668
 40
0.8192195065
 40
0.8692841779
 40
0.9112911618
 40
0.9450393486
 40
0.9704899732
 40
0.980234241
 40
0.9881723003
 40
1.0
 40
1.0
 40
1.0
 40
1.0
 10
19.8028298251
 20
57.8697038659
 30
0.0
 10
19.8028298251
 20
57.6578619621
 30
0.0
 10
19.8064791632
 20
57.242192138
 30
0.0
 10
19.8228574444
 20
56.6389870843
 30
0.0
 10
19.8499171536
 20
56.0833856613
 30
0.0
 10
19.8819863557
 20
55.6604496356
 30
0.0
 10
19.914071032
 20
55.3621235658
 30
0.0
 10
19.939301956
 20
55.1732118137
 30
0.0
 10
19.9666440875
 20
55.0102297944
 30
0.0
 10
19.9958144694
 20
54.8744900592
 30
0.0
 10
20.0266396662
 20
54.7671522046
 30
0.0
 10
20.0550550166
 20
54.6962979273
 30
0.0
 10
20.080209503
 20
54.655612892
 30
0.0
 10
20.1010405924
 20
54.6308849678
 30
0.0
 10
20.1222629992
 20
54.6192211554
 30
0.0
 10
20.1353062147
 20
54.61922739
 30
0.0
  0
SPLINE
  5
2AB
100
AcDbEntity
  8
0
100
AcDbSpline
 62
7
  6
CONTINUOUS
 70
0
 71
3
 72
21
 73
17
 74
0
 42
0.0000001
 43
0.0000001
 44
0.0000000001
 40
0.0
 40
0.0
 40
0.0
 40
0.0
 40
0.194590752
 40
0.3818432025
 40
0.5543289701
 40
0.6329996165
 40
0.7055665639
 40
0.7712843232
 40
0.8295714561
 40
0.8798895601
 40
0.9217797236
 40
0.9548990089
 40
0.9789421176
 40
0.9937675585
 40
0.9978096582
 40
1.0
 40
1.0
 40
1.0
 40
1.0
 10
19.2462682734
 20
57.8697038659
 30
0.0
 10
19.2462682734
 20
57.6583858215
 30
0.0
 10
19.2468439184
 20
57.2437185136
 30
0.0
 10
19.2495772088
 20
56.6417438401
 30
0.0
 10
19.253781824
 20
56.1656646302
 30
0.0
 10
19.2587057582
 20
55.8141469538
 30
0.0
 10
19.2630401514
 20
55.5785813848
 30
0.0
 10
19.268197618
 20
55.3651705471
 30
0.0
 10
19.2741997875
 20
55.1759621949
 30
0.0
 10
19.281096094
 20
55.0126507106
 30
0.0
 10
19.2888256897
 20
54.8768217415
 30
0.0
 10
19.2974652002
 20
54.7694304339
 30
0.0
 10
19.3064147816
 20
54.6921106174
 30
0.0
 10
19.3156788107
 20
54.6456738964
 30
0.0
 10
19.3234199552
 20
54.6247303157
 30
0.0
 10
19.3290681823
 20
54.6192062467
 30
0.0
 10
19.3314468073
 20
54.6192090039
 30
0.0
  0
SPLINE
  5
2AC
100
AcDbEntity
  8
0
100
AcDbSpline
 62
7
  6
CONTINUOUS
 70
0
 71
3
 72
21
 73
17
 74
0
 42
0.0000001
 43
0.0000001
 44
0.0000000001
 40
0.0
 40
0.0
 40
0.0
 40
0.0
 40
0.0021895268
 40
0.0062283842
 40
0.0210453434
 40
0.0450858373
 40
0.0782120683
 40
0.120112359
 40
0.1704369657
 40
0.2287249873
 40
0.2944383775
 40
0.3670000553
 40
0.445670483
 40
0.6181752912
 40
0.8054263392
 40
1.0
 40
1.0
 40
1.0
 40
1.0
 10
19.3314467975
 20
61.1201721195
 30
0.0
 10
19.329069074
 20
61.1201749112
 30
0.0
 10
19.3234209587
 20
61.1146603601
 30
0.0
 10
19.315676321
 20
61.093728871
 30
0.0
 10
19.306412765
 20
61.0473109143
 30
0.0
 10
19.297463481
 20
60.9699947133
 30
0.0
 10
19.2888258581
 20
60.8625887757
 30
0.0
 10
19.2810967562
 20
60.7267348937
 30
0.0
 10
19.2742001475
 20
60.5634055845
 30
0.0
 10
19.2681973897
 20
60.3741952519
 30
0.0
 10
19.2630389107
 20
60.1607954259
 30
0.0
 10
19.258703755
 20
59.9252421994
 30
0.0
 10
19.2537798051
 20
59.57371223
 30
0.0
 10
19.2495772446
 20
59.097617367
 30
0.0
 10
19.2468455078
 20
58.4956462525
 30
0.0
 10
19.2462682734
 20
58.0810018918
 30
0.0
 10
19.2462682734
 20
57.8697038659
 30
0.0
  0
SPLINE
  5
2AD
100
AcDbEntity
  8
0
100
AcDbSpline
 62
7
  6
CONTINUOUS
 70
0
 71
3
 72
20
 73
16
 74
0
 42
0.0000001
 43
0.0000001
 44
0.0000000001
 40
0.0
 40
0.0
 40
0.0
 40
0.0
 40
0.011823495
 40
0.0197571794
 40
0.0294971396
 40
0.0549438184
 40
0.0886986058
 40
0.1307165353
 40
0.1807887371
 40
0.238549428
 40
0.3035247033
 40
0.4528445378
 40
0.6230942025
 40
0.8079159636
 40
1.0
 40
1.0
 40
1.0
 40
1.0
 10
20.1353062926
 20
61.1201465347
 30
0.0
 10
20.1222677479
 20
61.1201614227
 30
0.0
 10
20.1010425105
 20
61.1085249902
 30
0.0
 10
20.0802089622
 20
61.0838154683
 30
0.0
 10
20.0550516905
 20
61.0431489787
 30
0.0
 10
20.0266355359
 20
60.9722956061
 30
0.0
 10
19.9958164679
 20
60.8649409764
 30
0.0
 10
19.9666486674
 20
60.7291726913
 30
0.0
 10
19.9393045167
 20
60.5661676136
 30
0.0
 10
19.9140718013
 20
60.3772489451
 30
0.0
 10
19.8819796611
 20
60.0789323633
 30
0.0
 10
19.8499035991
 20
59.6559890121
 30
0.0
 10
19.8228594008
 20
59.1003785457
 30
0.0
 10
19.8064851356
 20
58.4971758989
 30
0.0
 10
19.8028298251
 20
58.0815276917
 30
0.0
 10
19.8028298251
 20
57.8697038659
 30
0.0
  0
SPLINE
  5
2AE
100
AcDbEntity
  8
0
100
AcDbSpline
 62
7
  6
CONTINUOUS
 70
0
 71
3
 72
20
 73
16
 74
0
 42
0.0000001
 43
0.0000001
 44
0.0000000001
 40
0.0
 40
0.0
 40
0.0
 40
0.0
 40
0.011591639
 40
0.0194409854
 40
0.0291154623
 40
0.0544739264
 40
0.088180246
 40
0.1301783524
 40
0.1802529656
 40
0.2380335937
 40
0.3030426793
 40
0.4524596944
 40
0.6228295733
 40
0.8077821473
 40
1.0
 40
1.0
 40
1.0
 40
1.0
 10
34.5087498076
 20
50.0201413971
 30
0.0
 10
34.4961746073
 20
50.0201561289
 30
0.0
 10
34.4757065217
 20
50.0085771223
 30
0.0
 10
34.4558372068
 20
49.9843166686
 30
0.0
 10
34.4317240295
 20
49.9442201947
 30
0.0
 10
34.404608723
 20
49.8744404588
 30
0.0
 10
34.3752462575
 20
49.7687379051
 30
0.0
 10
34.3475333837
 20
49.6350454999
 30
0.0
 10
34.3216140618
 20
49.474525895
 30
0.0
 10
34.297758253
 20
49.2884898067
 30
0.0
 10
34.2674900135
 20
48.9947190691
 30
0.0
 10
34.237363915
 20
48.5782737166
 30
0.0
 10
34.2120596344
 20
48.0312531883
 30
0.0
 10
34.1967840819
 20
47.4374137393
 30
0.0
 10
34.193379091
 20
47.0282317254
 30
0.0
 10
34.193379091
 20
46.8197038674
 30
0.0
  0
SPLINE
  5
2AF
100
AcDbEntity
  8
0
100
AcDbSpline
 62
7
  6
CONTINUOUS
 70
0
 71
3
 72
20
 73
16
 74
0
 42
0.0000001
 43
0.0000001
 44
0.0000000001
 40
0.0
 40
0.0
 40
0.0
 40
0.0
 40
0.0118299961
 40
0.0197687436
 40
0.0295131505
 40
0.0549634636
 40
0.088708726
 40
0.1307117449
 40
0.1807731987
 40
0.2385265622
 40
0.3035037821
 40
0.452827285
 40
0.6230559886
 40
0.807892667
 40
1.0
 40
1.0
 40
1.0
 40
1.0
 10
20.1353061875
 20
100.0201814101
 30
0.0
 10
20.1222604852
 20
100.0201760032
 30
0.0
 10
20.1010437787
 20
100.0085042071
 30
0.0
 10
20.0802104316
 20
99.9837733277
 30
0.0
 10
20.0550561914
 20
99.9430878409
 30
0.0
 10
20.0266429815
 20
99.872236668
 30
0.0
 10
19.9958161695
 20
99.7649081045
 30
0.0
 10
19.9666450628
 20
99.6291803146
 30
0.0
 10
19.9393043138
 20
99.4662117133
 30
0.0
 10
19.9140715151
 20
99.2773112636
 30
0.0
 10
19.8819893815
 20
98.9789958739
 30
0.0
 10
19.8499207728
 20
98.556069817
 30
0.0
 10
19.8228593415
 20
98.0004636737
 30
0.0
 10
19.8064810348
 20
97.3972428327
 30
0.0
 10
19.8028298251
 20
96.9815530723
 30
0.0
 10
19.8028298251
 20
96.7697038659
 30
0.0
  0
SPLINE
  5
2B0
100
AcDbEntity
  8
0
100
AcDbSpline
 62
7
  6
CONTINUOUS
 70
0
 71
3
 72
21
 73
17
 74
0
 42
0.0000001
 43
0.0000001
 44
0.0000000001
 40
0.0
 40
0.0
 40
0.0
 40
0.0
 40
0.0021918339
 40
0.0062353313
 40
0.0210615485
 40
0.0451043783
 40
0.0782212284
 40
0.1201080415
 40
0.1704230392
 40
0.2287059215
 40
0.2944217191
 40
0.3669874806
 40
0.4456551465
 40
0.6181367886
 40
0.8054012492
 40
1.0
 40
1.0
 40
1.0
 40
1.0
 10
19.3314467963
 20
100.0201994839
 30
0.0
 10
19.3290665528
 20
100.0201977127
 30
0.0
 10
19.3234231452
 20
100.014667844
 30
0.0
 10
19.3156772459
 20
99.9937217967
 30
0.0
 10
19.3064164646
 20
99.947281946
 30
0.0
 10
19.2974654885
 20
99.869964892
 30
0.0
 10
19.2888263262
 20
99.7625801242
 30
0.0
 10
19.2810961581
 20
99.6267610931
 30
0.0
 10
19.2742004833
 20
99.463461393
 30
0.0
 10
19.2681977508
 20
99.2742634258
 30
0.0
 10
19.2630406119
 20
99.0608608719
 30
0.0
 10
19.2587066086
 20
98.8253022422
 30
0.0
 10
19.2537824478
 20
98.4737940044
 30
0.0
 10
19.2495777167
 20
97.9977100518
 30
0.0
 10
19.2468438752
 20
97.3957188683
 30
0.0
 10
19.2462682734
 20
96.9810303382
 30
0.0
 10
19.2462682734
 20
96.7697038659
 30
0.0
  0
ENDSEC
  0
SECTION
  2
OBJECTS
  0
DICTIONARY
  5
C
100
AcDbDictionary
280
0
281
1
  3
ACAD_GROUP
350
D
  3
ACAD_MLINESTYLE
350
17
  3
ACAD_LAYOUT
350
1A
  3
ACAD_PLOTSETTINGS
350
19
  3
ACAD_PLOTSTYLENAME
350
E
  0
DICTIONARY
  5
D
102
{ACAD_REACTORS
330
C
102
}
100
AcDbDictionary
280
0
281
1
  0
ACDBDICTIONARYWDFLT
  5
E
102
{ACAD_REACTORS
330
C
102
}
100
AcDbDictionary
281
1
  3
Normal
350
F
100
AcDbDictionaryWithDefault
340
F
  0
DICTIONARY
  5
17
102
{ACAD_REACTORS
330
C
102
}
100
AcDbDictionary
280
0
281
1
  3
Standard
350
18
  0
DICTIONARY
  5
19
102
{ACAD_REACTORS
330
C
102
}
100
AcDbDictionary
281
1
  0
DICTIONARY
  5
1A
102
{ACAD_REACTORS
330
C
102
}
100
AcDbDictionary
281
1
  3
Model
350
2B1
  3
Layout1
350
2B2
  0
ACDBPLACEHOLDER
  5
F
102
{ACAD_REACTORS
330
E
102
}
  0
MLINESTYLE
  5
18
102
{ACAD_REACTORS
330
17
102
}
100
AcDbMlineStyle
  2
STANDARD
 70
0
  3

 62
256
 51
90.0
 52
90.0
 71
2
 49
0.5
 62
256
  6
BYLAYER
 49
-0.5
 62
256
  6
BYLAYER
  0
LAYOUT
  5
2B1
102
{ACAD_REACTORS
330
1A
102
}
100
AcDbPlotSettings
  1

  2
none_device
  4

  6

 40
0.0
 41
0.0
 42
0.0
 43
0.0
 44
210.0
 45
297.0
 46
0.0
 47
0.0
 48
0.0
 49
0.0
140
0.0
141
0.0
142
1.0
143
1.0
 70
1024
 72
1
 73
0
 74
0
  7

 75
0
147
1.0
148
0.0
149
0.0
100
AcDbLayout
  1
Model
 70
0
 71
0
 10
0.0
 20
0.0
 11
210.0
 21
297.0
 12
0.0
 22
0.0
 32
0.0
 14
0.0
 24
0.0
 34
0.0
 15
0.0
 25
0.0
 35
0.0
146
0.0
 13
0.0
 23
0.0
 33
0.0
 16
1.0
 26
0.0
 36
0.0
 17
0.0
 27
1.0
 37
0.0
 76
0
330
212
345
0
346
0
  0
LAYOUT
  5
2B2
102
{ACAD_REACTORS
330
1A
102
}
100
AcDbPlotSettings
  1

  2
none_device
  4

  6

 40
0.0
 41
0.0
 42
0.0
 43
0.0
 44
210.0
 45
297.0
 46
0.0
 47
0.0
 48
0.0
 49
0.0
140
0.0
141
0.0
142
1.0
143
1.0
 70
0
 72
1
 73
0
 74
0
  7

 75
0
147
1.0
148
0.0
149
0.0
100
AcDbLayout
  1
Layout1
 70
0
 71
1
 10
0.0
 20
0.0
 11
210.0
 21
297.0
 12
0.0
 22
0.0
 32
0.0
 14
0.0
 24
0.0
 34
0.0
 15
0.0
 25
0.0
 35
0.0
146
0.0
 13
0.0
 23
0.0
 33
0.0
 16
1.0
 26
0.0
 36
0.0
 17
0.0
 27
1.0
 37
0.0
 76
0
330
213
345
0
346
0
  0
ENDSEC
  0
EOF
