999
DXF file: Y:\001_SCHNEIDER_PARIS\78_2020_429_Grey Project M580\TRAVAIL LUCAS SANTANA G2P3\CAD3D\2D Views\BMXEIA0100_2D-Views\BMXEIA0100_2D-TRIM.dxf
999
Pro/ENGINEER 2018260 by Parametric Technology Corporation
  0
SECTION
  2
HEADER
  9
$ACADVER
  1
AC1027
  9
$DWGCODEPAGE
  3
ANSI_1252
  9
$EXTMAX
 10
558.8
 20
431.8
 30
0.0
  9
$EXTMIN
 10
0.0
 20
0.0
 30
0.0
  9
$LIMMIN
 10
0.0
 20
0.0
  9
$LIMMAX
 10
558.8
 20
431.8
  9
$VIEWCTR
 10
279.4
 20
215.9
  9
$VIEWSIZE
 40
431.8
  9
$CLAYER
  8
0
  9
$LTSCALE
 40
30.734
  9
$CELTYPE
  6
BYLAYER
  9
$DIMSCALE
 40
1.0
  9
$DIMASZ
 40
3.5
  9
$DIMEXO
 40
1.0
  9
$DIMDLI
 40
21.2344
  9
$DIMEXE
 40
3.0
  9
$DIMCEN
 40
5.0292
  9
$DIMLFAC
 40
1.0
  9
$DIMBLK
  1
_FILLED
  9
$DIMALT
 70
0
  9
$DIMALTF
 40
0.0393700787
  9
$DIMTXT
 40
4.0
  9
$DIMTOL
 70
1
  9
$DIMLIM
 70
0
  9
$DIMTFAC
 40
1.0
  9
$DIMTP
 40
0.0001
  9
$DIMTM
 40
0.0001
  9
$DIMGAP
 40
0.625
  9
$DIMDSEP
 70
46
  9
$AUNITS
 70
0
  9
$PDMODE
 70
0
  9
$PDSIZE
 40
0.01
  9
$HANDSEED
  5
418
  9
$TILEMODE
 70
1
  9
$MEASUREMENT
 70
1
  9
$INSUNITS
 70
4
  0
ENDSEC
  0
SECTION
  2
CLASSES
  0
CLASS
  1
ACDBDICTIONARYWDFLT
  2
AcDbDictionaryWithDefault
  3
AutoCAD 2000
 90
0
 91
1
280
0
281
0
  0
CLASS
  1
ACDBPLACEHOLDER
  2
AcDbPlaceHolder
  3
AutoCAD 2000
 90
0
 91
1
280
0
281
0
  0
CLASS
  1
LAYOUT
  2
AcDbLayout
  3
AutoCAD 2000
 90
0
 91
0
280
0
281
0
  0
ENDSEC
  0
SECTION
  2
TABLES
  0
TABLE
  2
VPORT
  5
8
100
AcDbSymbolTable
 70
2
  0
VPORT
  5
1F4
100
AcDbSymbolTableRecord
100
AcDbViewportTableRecord
  2
*ACTIVE
 70
0
 10
0.0
 20
0.0
 11
1.0
 21
1.0
 12
279.4
 22
215.9
 13
0.0
 23
0.0
 14
1.0
 24
1.0
 15
0.0
 25
0.0
 16
0.0
 26
0.0
 36
1.0
 17
0.0
 27
0.0
 37
0.0
 40
431.8
 41
1.2941176471
 42
50.0
 43
0.0
 44
0.0
 50
0.0
 51
0.0
 71
0
 72
100
 73
1
 74
1
 75
0
 76
0
 77
0
 78
0
  0
ENDTAB
  0
TABLE
  2
LTYPE
  5
5
100
AcDbSymbolTable
 70
6
  0
LTYPE
  5
14
100
AcDbSymbolTableRecord
100
AcDbLinetypeTableRecord
  2
BYBLOCK
 70
0
  3

 72
65
 73
0
 40
0.0
  0
LTYPE
  5
15
100
AcDbSymbolTableRecord
100
AcDbLinetypeTableRecord
  2
BYLAYER
 70
0
  3

 72
65
 73
0
 40
0.0
  0
LTYPE
  5
16
100
AcDbSymbolTableRecord
100
AcDbLinetypeTableRecord
  2
CONTINUOUS
 70
64
  3
Solid line
 72
65
 73
0
 40
0.0
  0
LTYPE
  5
1F5
100
AcDbSymbolTableRecord
100
AcDbLinetypeTableRecord
  2
CENTER
 70
64
  3
____ _ ____ _ ____ _ ____ _ ____ _ ____ _ ____
 72
65
 73
4
 40
0.6
 49
0.375
 74
0
 49
-0.075
 74
0
 49
0.075
 74
0
 49
-0.075
 74
0
  0
LTYPE
  5
1F6
100
AcDbSymbolTableRecord
100
AcDbLinetypeTableRecord
  2
HIDDEN
 70
64
  3
- - - - - - - - - - - - - - - - - - - -
 72
65
 73
2
 40
0.2
 49
0.1
 74
0
 49
-0.1
 74
0
  0
LTYPE
  5
1F7
100
AcDbSymbolTableRecord
100
AcDbLinetypeTableRecord
  2
PHANTOM
 70
64
  3
_____ _ _ _____ _ _ _____ _ _ _____
 72
65
 73
6
 40
0.8
 49
0.45
 74
0
 49
-0.05
 74
0
 49
0.1
 74
0
 49
-0.05
 74
0
 49
0.1
 74
0
 49
-0.05
 74
0
  0
LTYPE
  5
1F8
100
AcDbSymbolTableRecord
100
AcDbLinetypeTableRecord
  2
DOT
 70
64
  3
. . . . . . . . . . . . . . . . . . . .
 72
65
 73
2
 40
0.2
 49
0.1
 74
0
 49
-0.1
 74
0
  0
LTYPE
  5
1F9
100
AcDbSymbolTableRecord
100
AcDbLinetypeTableRecord
  2
DASHED
 70
64
  3
- - - - - - - - - - - - - - - - - - - -
 72
65
 73
2
 40
0.2
 49
0.1
 74
0
 49
-0.1
 74
0
  0
ENDTAB
  0
TABLE
  2
LAYER
  5
2
100
AcDbSymbolTable
 70
36
  0
LAYER
  5
10
100
AcDbSymbolTableRecord
100
AcDbLayerTableRecord
  2
0
 70
0
 62
7
  6
CONTINUOUS
370
-3
390
F
  0
LAYER
  5
1FA
100
AcDbSymbolTableRecord
100
AcDbLayerTableRecord
  2
DEFAULT_1
 70
0
 62
7
  6
CENTER
370
-3
390
F
  0
LAYER
  5
1FB
100
AcDbSymbolTableRecord
100
AcDbLayerTableRecord
  2
DEFAULT_2
 70
0
 62
8
  6
HIDDEN
370
-3
390
F
  0
LAYER
  5
1FC
100
AcDbSymbolTableRecord
100
AcDbLayerTableRecord
  2
DEFAULT_3
 70
0
 62
7
  6
PHANTOM
370
-3
390
F
  0
LAYER
  5
1FD
100
AcDbSymbolTableRecord
100
AcDbLayerTableRecord
  2
01_ALL_DTM_PLN
 70
0
 62
7
  6
CONTINUOUS
370
-3
390
F
  0
LAYER
  5
1FE
100
AcDbSymbolTableRecord
100
AcDbLayerTableRecord
  2
01__ASM_ALL_DTM_PLN
 70
0
 62
7
  6
CONTINUOUS
370
-3
390
F
  0
LAYER
  5
1FF
100
AcDbSymbolTableRecord
100
AcDbLayerTableRecord
  2
01__ASM_DEF_DTM_PLN
 70
0
 62
7
  6
CONTINUOUS
370
-3
390
F
  0
LAYER
  5
200
100
AcDbSymbolTableRecord
100
AcDbLayerTableRecord
  2
01___PRT_ALL_DTM_PLN
 70
0
 62
7
  6
CONTINUOUS
370
-3
390
F
  0
LAYER
  5
201
100
AcDbSymbolTableRecord
100
AcDbLayerTableRecord
  2
01___PRT_DEF_DTM_PLN
 70
0
 62
7
  6
CONTINUOUS
370
-3
390
F
  0
LAYER
  5
202
100
AcDbSymbolTableRecord
100
AcDbLayerTableRecord
  2
02_ALL_AXES
 70
0
 62
7
  6
CONTINUOUS
370
-3
390
F
  0
LAYER
  5
203
100
AcDbSymbolTableRecord
100
AcDbLayerTableRecord
  2
02__ASM_ALL_AXES
 70
0
 62
7
  6
CONTINUOUS
370
-3
390
F
  0
LAYER
  5
204
100
AcDbSymbolTableRecord
100
AcDbLayerTableRecord
  2
02___PRT_ALL_AXES
 70
0
 62
7
  6
CONTINUOUS
370
-3
390
F
  0
LAYER
  5
205
100
AcDbSymbolTableRecord
100
AcDbLayerTableRecord
  2
03_ALL_CURVES
 70
0
 62
7
  6
CONTINUOUS
370
-3
390
F
  0
LAYER
  5
206
100
AcDbSymbolTableRecord
100
AcDbLayerTableRecord
  2
03__ASM_ALL_CURVES
 70
0
 62
7
  6
CONTINUOUS
370
-3
390
F
  0
LAYER
  5
207
100
AcDbSymbolTableRecord
100
AcDbLayerTableRecord
  2
03___PRT_ALL_CURVES
 70
0
 62
7
  6
CONTINUOUS
370
-3
390
F
  0
LAYER
  5
208
100
AcDbSymbolTableRecord
100
AcDbLayerTableRecord
  2
04_ALL_DTM_PNT
 70
0
 62
7
  6
CONTINUOUS
370
-3
390
F
  0
LAYER
  5
209
100
AcDbSymbolTableRecord
100
AcDbLayerTableRecord
  2
04__ASM_ALL_DTM_PNT
 70
0
 62
7
  6
CONTINUOUS
370
-3
390
F
  0
LAYER
  5
20A
100
AcDbSymbolTableRecord
100
AcDbLayerTableRecord
  2
04___PRT_ALL_DTM_PNT
 70
0
 62
7
  6
CONTINUOUS
370
-3
390
F
  0
LAYER
  5
20B
100
AcDbSymbolTableRecord
100
AcDbLayerTableRecord
  2
05_ALL_DTM_CSYS
 70
0
 62
7
  6
CONTINUOUS
370
-3
390
F
  0
LAYER
  5
20C
100
AcDbSymbolTableRecord
100
AcDbLayerTableRecord
  2
05__ASM_ALL_DTM_CSYS
 70
0
 62
7
  6
CONTINUOUS
370
-3
390
F
  0
LAYER
  5
20D
100
AcDbSymbolTableRecord
100
AcDbLayerTableRecord
  2
05__ASM_DEF_DTM_CSYS
 70
0
 62
7
  6
CONTINUOUS
370
-3
390
F
  0
LAYER
  5
20E
100
AcDbSymbolTableRecord
100
AcDbLayerTableRecord
  2
05___PRT_ALL_DTM_CSYS
 70
0
 62
7
  6
CONTINUOUS
370
-3
390
F
  0
LAYER
  5
20F
100
AcDbSymbolTableRecord
100
AcDbLayerTableRecord
  2
05___PRT_DEF_DTM_CSYS
 70
0
 62
7
  6
CONTINUOUS
370
-3
390
F
  0
LAYER
  5
210
100
AcDbSymbolTableRecord
100
AcDbLayerTableRecord
  2
06_ALL_SURFS
 70
0
 62
7
  6
CONTINUOUS
370
-3
390
F
  0
LAYER
  5
211
100
AcDbSymbolTableRecord
100
AcDbLayerTableRecord
  2
06__ASM_ALL_SURFS
 70
0
 62
7
  6
CONTINUOUS
370
-3
390
F
  0
LAYER
  5
212
100
AcDbSymbolTableRecord
100
AcDbLayerTableRecord
  2
06___PRT_ALL_SURFS
 70
0
 62
7
  6
CONTINUOUS
370
-3
390
F
  0
LAYER
  5
213
100
AcDbSymbolTableRecord
100
AcDbLayerTableRecord
  2
07__ASM_ALL_SKELETONS
 70
0
 62
7
  6
CONTINUOUS
370
-3
390
F
  0
ENDTAB
  0
TABLE
  2
STYLE
  5
3
100
AcDbSymbolTable
 70
1
  0
STYLE
  5
11
100
AcDbSymbolTableRecord
100
AcDbTextStyleTableRecord
  2
STANDARD
 70
0
 40
0.0
 41
0.6
 50
0.0
 71
0
 42
0.2
  3
txt
  4

  0
STYLE
  5
214
100
AcDbSymbolTableRecord
100
AcDbTextStyleTableRecord
  2
TEXTSTYLE_1
 70
0
 40
0.0
 41
0.8
 50
0.0
 71
0
 42
0.2
  3
gdt
  4

  0
ENDTAB
  0
TABLE
  2
VIEW
  5
6
100
AcDbSymbolTable
 70
0
  0
ENDTAB
  0
TABLE
  2
UCS
  5
7
100
AcDbSymbolTable
 70
0
  0
ENDTAB
  0
TABLE
  2
APPID
  5
9
100
AcDbSymbolTable
 70
1
  0
APPID
  5
215
100
AcDbSymbolTableRecord
100
AcDbRegAppTableRecord
  2
ACAD
 70
0
  0
ENDTAB
  0
TABLE
  2
BLOCK_RECORD
  5
1
100
AcDbSymbolTable
 70
0
  0
BLOCK_RECORD
  5
216
100
AcDbSymbolTableRecord
100
AcDbBlockTableRecord
  2
*Model_Space
  0
BLOCK_RECORD
  5
217
100
AcDbSymbolTableRecord
100
AcDbBlockTableRecord
  2
*Paper_Space
  0
BLOCK_RECORD
  5
218
100
AcDbSymbolTableRecord
100
AcDbBlockTableRecord
  2
_FILLED
  0
ENDTAB
  0
TABLE
  2
DIMSTYLE
  5
A
100
AcDbSymbolTable
 70
1
100
AcDbDimStyleTable
 71
0
  0
DIMSTYLE
105
219
100
AcDbSymbolTableRecord
100
AcDbDimStyleTableRecord
  2
STANDARD
 70
0
  3

  4

 40
1.0
 41
3.5
 42
1.0
 43
0.38
 44
3.0
 45
0.0
 46
0.0
 47
0.0001
 48
0.0001
140
4.0
141
0.09
142
0.0
143
25.4
144
1.0
145
0.0
146
1.0
147
0.625
 71
1.0
 72
0.0
 73
0
 74
0
 75
0
 76
0
 77
1
 78
8
 79
2
170
0
171
3
172
0
173
0
174
0
175
0
176
0
177
0
178
0
270
2
179
4
271
4
272
4
273
2
274
2
275
0
280
0
281
0
282
0
283
1
284
8
285
0
286
0
287
3
288
0
340
11
278
46
341
218
342
218
343
218
344
218
  0
ENDTAB
  0
ENDSEC
  0
SECTION
  2
BLOCKS
  0
BLOCK
  5
20
100
AcDbEntity
  8
0
100
AcDbBlockBegin
  2
*Model_Space
 70
0
 10
0.0
 20
0.0
 30
0.0
  3
*Model_Space
  1

  0
ENDBLK
  5
21
100
AcDbEntity
  8
0
100
AcDbBlockEnd
  0
BLOCK
  5
1C
100
AcDbEntity
  8
0
100
AcDbBlockBegin
  2
*Paper_Space
 70
0
 10
0.0
 20
0.0
 30
0.0
  3
*Paper_Space
  1

  0
ENDBLK
  5
1D
100
AcDbEntity
  8
0
100
AcDbBlockEnd
  0
BLOCK
  5
21A
100
AcDbEntity
  8
0
100
AcDbBlockBegin
  2
_FILLED
 70
64
 10
0.0
 20
0.0
  3
_FILLED
  1

  0
SOLID
  5
21B
100
AcDbEntity
  8
0
  6
BYBLOCK
 62
0
100
AcDbTrace
 10
0.0
 20
0.0
 11
-1.0
 21
0.2857142857
 12
-1.0
 22
-0.2857142857
 13
-1.0
 23
-0.2857142857
  0
ENDBLK
  5
21C
100
AcDbEntity
  8
0
  6
BYBLOCK
 62
0
100
AcDbBlockEnd
  0
ENDSEC
  0
SECTION
  2
ENTITIES
  0
LINE
  5
21D
100
AcDbEntity
  8
0
100
AcDbLine
 62
7
  6
CONTINUOUS
 10
57.4924511919
 20
143.172189078
 11
31.3203606981
 21
136.1565114669
  0
LINE
  5
21E
100
AcDbEntity
  8
0
100
AcDbLine
 62
7
  6
CONTINUOUS
 10
-11.328649932
 20
256.4832618675
 11
-6.1931535344
 21
261.1844428805
  0
LINE
  5
21F
100
AcDbEntity
  8
0
100
AcDbLine
 62
7
  6
CONTINUOUS
 10
-7.3191961525
 20
261.8348144261
 11
-12.4723808352
 21
257.1438496848
  0
LINE
  5
220
100
AcDbEntity
  8
0
100
AcDbLine
 62
7
  6
CONTINUOUS
 10
-18.081036662
 20
255.8948923549
 11
-17.5934459054
 21
256.0729405214
  0
LINE
  5
221
100
AcDbEntity
  8
0
100
AcDbLine
 62
7
  6
CONTINUOUS
 10
45.4371383768
 20
143.8468545037
 11
47.7274426995
 21
144.4607923295
  0
LINE
  5
222
100
AcDbEntity
  8
0
100
AcDbLine
 62
7
  6
CONTINUOUS
 10
44.3237617071
 20
143.792247369
 11
45.1487812873
 21
144.0134017089
  0
LINE
  5
223
100
AcDbEntity
  8
0
100
AcDbLine
 62
7
  6
CONTINUOUS
 10
43.4229276125
 20
144.3125446055
 11
44.2479472091
 21
144.5336989498
  0
LINE
  5
224
100
AcDbEntity
  8
0
100
AcDbLine
 62
7
  6
CONTINUOUS
 10
42.7002699802
 20
144.9480600867
 11
43.2673428194
 21
145.1000693511
  0
LINE
  5
225
100
AcDbEntity
  8
0
100
AcDbLine
 62
7
  6
CONTINUOUS
 10
47.7274426995
 20
148.8735984739
 11
45.4371383768
 21
148.2596606482
  0
LINE
  5
226
100
AcDbEntity
  8
0
100
AcDbLine
 62
7
  6
CONTINUOUS
 10
41.5964845584
 20
148.8529828723
 11
42.6708769495
 21
149.1409839644
  0
LINE
  5
227
100
AcDbEntity
  8
0
100
AcDbLine
 62
7
  6
CONTINUOUS
 10
48.9379103348
 20
150.8209218287
 11
49.0345589648
 21
150.8468294126
  0
LINE
  5
228
100
AcDbEntity
  8
0
100
AcDbLine
 62
7
  6
CONTINUOUS
 10
44.1710023113
 20
150.2055839718
 11
42.7346361453
 21
149.820552369
  0
LINE
  5
229
100
AcDbEntity
  8
0
100
AcDbLine
 62
7
  6
CONTINUOUS
 10
41.7700428549
 20
149.6612812009
 11
40.6956252778
 21
149.3732733574
  0
LINE
  5
22A
100
AcDbEntity
  8
0
100
AcDbLine
 62
7
  6
CONTINUOUS
 10
7.3161779551
 20
262.7502012097
 11
7.2480641993
 21
262.6845985827
  0
LINE
  5
22B
100
AcDbEntity
  8
0
100
AcDbLine
 62
7
  6
CONTINUOUS
 10
49.7258811195
 20
153.3853861178
 11
46.1721788906
 21
152.432782459
  0
LINE
  5
22C
100
AcDbEntity
  8
0
100
AcDbLine
 62
7
  6
CONTINUOUS
 10
46.1721788906
 20
153.260183611
 11
45.5936692254
 21
153.1051085968
  0
LINE
  5
22D
100
AcDbEntity
  8
0
100
AcDbLine
 62
7
  6
CONTINUOUS
 10
46.871399301
 20
154.6379483874
 11
47.0896640681
 21
154.6964563328
  0
LINE
  5
22E
100
AcDbEntity
  8
0
100
AcDbLine
 62
7
  6
CONTINUOUS
 10
45.5936692254
 20
154.3002435943
 11
46.1721788906
 21
154.4553186085
  0
LINE
  5
22F
100
AcDbEntity
  8
0
100
AcDbLine
 62
7
  6
CONTINUOUS
 10
46.871399301
 20
154.8807461437
 11
47.0896640681
 21
154.939254089
  0
LINE
  5
230
100
AcDbEntity
  8
0
100
AcDbLine
 62
7
  6
CONTINUOUS
 10
46.1721788906
 20
155.2827197606
 11
49.7258811195
 21
156.2353234194
  0
LINE
  5
231
100
AcDbEntity
  8
0
100
AcDbLine
 62
7
  6
CONTINUOUS
 10
49.7258811195
 20
156.6030572648
 11
46.1721788906
 21
155.650453606
  0
LINE
  5
232
100
AcDbEntity
  8
0
100
AcDbLine
 62
7
  6
CONTINUOUS
 10
46.1721788906
 20
156.477854758
 11
45.5936692254
 21
156.3227797438
  0
LINE
  5
233
100
AcDbEntity
  8
0
100
AcDbLine
 62
7
  6
CONTINUOUS
 10
31.3203606981
 20
136.156511467
 11
20.4859230111
 21
142.1458728811
  0
LINE
  5
234
100
AcDbEntity
  8
0
100
AcDbLine
 62
7
  6
CONTINUOUS
 10
-15.8062384791
 20
163.107236848
 11
20.4859230111
 21
142.1458728811
  0
LINE
  5
235
100
AcDbEntity
  8
0
100
AcDbLine
 62
7
  6
CONTINUOUS
 10
47.9341960317
 20
157.4263488205
 11
47.7159312647
 21
157.3678408752
  0
LINE
  5
236
100
AcDbEntity
  8
0
100
AcDbLine
 62
7
  6
CONTINUOUS
 10
47.9341960317
 20
157.6691465768
 11
47.7159312647
 21
157.6106386315
  0
LINE
  5
237
100
AcDbEntity
  8
0
100
AcDbLine
 62
7
  6
CONTINUOUS
 10
45.5936692254
 20
157.5179147413
 11
46.1721788906
 21
157.6729897555
  0
LINE
  5
238
100
AcDbEntity
  8
0
100
AcDbLine
 62
7
  6
CONTINUOUS
 10
47.5926192906
 20
158.300027638
 11
46.9314653876
 21
158.1227990503
  0
LINE
  5
239
100
AcDbEntity
  8
0
100
AcDbLine
 62
7
  6
CONTINUOUS
 10
46.1721788906
 20
158.5003909076
 11
49.7258811195
 21
159.4529945664
  0
LINE
  5
23A
100
AcDbEntity
  8
0
100
AcDbLine
 62
7
  6
CONTINUOUS
 10
49.7258811195
 20
159.8207284118
 11
46.1721788906
 21
158.868124753
  0
LINE
  5
23B
100
AcDbEntity
  8
0
100
AcDbLine
 62
7
  6
CONTINUOUS
 10
46.1721788906
 20
159.6955259051
 11
45.5936692254
 21
159.5404508908
  0
LINE
  5
23C
100
AcDbEntity
  8
0
100
AcDbLine
 62
7
  6
CONTINUOUS
 10
46.871399301
 20
161.0732906814
 11
47.0896640681
 21
161.1317986268
  0
LINE
  5
23D
100
AcDbEntity
  8
0
100
AcDbLine
 62
7
  6
CONTINUOUS
 10
45.5936692254
 20
160.7355858883
 11
46.1721788906
 21
160.8906609025
  0
LINE
  5
23E
100
AcDbEntity
  8
0
100
AcDbLine
 62
7
  6
CONTINUOUS
 10
47.0896640681
 20
161.374596383
 11
46.871399301
 21
161.3160884377
  0
LINE
  5
23F
100
AcDbEntity
  8
0
100
AcDbLine
 62
7
  6
CONTINUOUS
 10
49.7258811195
 20
162.6706657134
 11
46.1721788906
 21
161.7180620546
  0
LINE
  5
240
100
AcDbEntity
  8
0
100
AcDbLine
 62
7
  6
CONTINUOUS
 10
46.1721788906
 20
154.6553209015
 11
46.871399301
 21
154.6379483874
  0
LINE
  5
241
100
AcDbEntity
  8
0
100
AcDbLine
 62
7
  6
CONTINUOUS
 10
-18.8849975739
 20
167.0918473155
 11
-20.6146325529
 21
168.0908373684
  0
LINE
  5
242
100
AcDbEntity
  8
0
100
AcDbLine
 62
7
  6
CONTINUOUS
 10
-18.4751515784
 20
168.6938006586
 11
-17.2365046983
 21
167.9783919584
  0
LINE
  5
243
100
AcDbEntity
  8
0
100
AcDbLine
 62
7
  6
CONTINUOUS
 10
47.7159312647
 20
157.3678408752
 11
46.9314653876
 21
157.3873313596
  0
LINE
  5
244
100
AcDbEntity
  8
0
100
AcDbLine
 62
7
  6
CONTINUOUS
 10
45.5936692254
 20
154.8564410354
 11
45.0316884078
 21
154.92184037
  0
LINE
  5
245
100
AcDbEntity
  8
0
100
AcDbLine
 62
7
  6
CONTINUOUS
 10
-15.8062384791
 20
163.107236848
 11
-17.2365046983
 21
167.9783919584
  0
LINE
  5
246
100
AcDbEntity
  8
0
100
AcDbLine
 62
7
  6
CONTINUOUS
 10
-20.6146325529
 20
168.0908373684
 11
-20.6146325529
 21
170.8488412087
  0
LINE
  5
247
100
AcDbEntity
  8
0
100
AcDbLine
 62
7
  6
CONTINUOUS
 10
-18.081036662
 20
255.8948923549
 11
-18.081036662
 21
245.0007771857
  0
LINE
  5
248
100
AcDbEntity
  8
0
100
AcDbLine
 62
7
  6
CONTINUOUS
 10
-17.2365046983
 20
244.5129985265
 11
-17.2365046983
 21
177.9072057834
  0
LINE
  5
249
100
AcDbEntity
  8
0
100
AcDbLine
 62
7
  6
CONTINUOUS
 10
-20.6146325529
 20
170.8488412087
 11
-20.2100310927
 21
178.1665016975
  0
LINE
  5
24A
100
AcDbEntity
  8
0
100
AcDbLine
 62
7
  6
CONTINUOUS
 10
-2.3605418796
 20
262.8161304884
 11
-2.9092661969
 21
260.6725079963
  0
LINE
  5
24B
100
AcDbEntity
  8
0
100
AcDbLine
 62
7
  6
CONTINUOUS
 10
45.4371383768
 20
166.8302198395
 11
47.7274426995
 21
167.4441576652
  0
LINE
  5
24C
100
AcDbEntity
  8
0
100
AcDbLine
 62
7
  6
CONTINUOUS
 10
41.596516023
 20
166.3203489619
 11
42.6708769495
 21
166.6083416196
  0
LINE
  5
24D
100
AcDbEntity
  8
0
100
AcDbLine
 62
7
  6
CONTINUOUS
 10
47.9971449995
 20
168.0360983942
 11
49.0344659621
 21
168.3141621375
  0
LINE
  5
24E
100
AcDbEntity
  8
0
100
AcDbLine
 62
7
  6
CONTINUOUS
 10
47.7274426995
 20
171.8569638097
 11
45.4371383768
 21
171.243025984
  0
LINE
  5
24F
100
AcDbEntity
  8
0
100
AcDbLine
 62
7
  6
CONTINUOUS
 10
46.6473487342
 20
164.6587802418
 11
48.8456854618
 21
164.8168699948
  0
LINE
  5
250
100
AcDbEntity
  8
0
100
AcDbLine
 62
7
  6
CONTINUOUS
 10
45.3549533454
 20
166.8330217862
 11
43.1566166178
 21
166.6749320332
  0
LINE
  5
251
100
AcDbEntity
  8
0
100
AcDbLine
 62
7
  6
CONTINUOUS
 10
46.1721788906
 20
161.0906631955
 11
46.871399301
 21
161.0732906814
  0
LINE
  5
252
100
AcDbEntity
  8
0
100
AcDbLine
 62
7
  6
CONTINUOUS
 10
45.5936692254
 20
158.0741121824
 11
45.0316884078
 21
158.139511517
  0
LINE
  5
253
100
AcDbEntity
  8
0
100
AcDbLine
 62
7
  6
CONTINUOUS
 10
45.5936692254
 20
161.2917833294
 11
45.0316884078
 21
161.357182664
  0
LINE
  5
254
100
AcDbEntity
  8
0
100
AcDbLine
 62
7
  6
CONTINUOUS
 10
-17.5180153529
 20
178.0697986698
 11
-17.2365046983
 21
177.9072057834
  0
LINE
  5
255
100
AcDbEntity
  8
0
100
AcDbLine
 62
9
  6
CONTINUOUS
 10
43.4229276125
 20
144.3125446055
 11
44.3237617071
 21
143.792247369
  0
LINE
  5
256
100
AcDbEntity
  8
0
100
AcDbLine
 62
7
  6
CONTINUOUS
 10
45.4371383768
 20
143.8468545037
 11
42.7346361453
 21
145.4077462245
  0
LINE
  5
257
100
AcDbEntity
  8
0
100
AcDbLine
 62
7
  6
CONTINUOUS
 10
44.2919862155
 20
145.7462886631
 11
42.6708769495
 21
146.682597245
  0
LINE
  5
258
100
AcDbEntity
  8
0
100
AcDbLine
 62
7
  6
CONTINUOUS
 10
0.1700112696
 20
260.1256595932
 11
0.4387357343
 21
261.1993439841
  0
LINE
  5
259
100
AcDbEntity
  8
0
100
AcDbLine
 62
7
  6
CONTINUOUS
 10
46.3072234163
 20
173.3749069165
 11
44.3237617071
 21
172.8432211534
  0
LINE
  5
25A
100
AcDbEntity
  8
0
100
AcDbLine
 62
9
  6
CONTINUOUS
 10
41.5964845574
 20
148.8529828721
 11
40.6956535991
 21
149.3732809492
  0
LINE
  5
25B
100
AcDbEntity
  8
0
100
AcDbLine
 62
7
  6
CONTINUOUS
 10
42.6708769495
 20
149.1409839644
 11
41.7700428549
 21
149.6612812009
  0
LINE
  5
25C
100
AcDbEntity
  8
0
100
AcDbLine
 62
7
  6
CONTINUOUS
 10
45.4371383768
 20
148.2596606482
 11
42.7346361453
 21
149.820552369
  0
LINE
  5
25D
100
AcDbEntity
  8
0
100
AcDbLine
 62
7
  6
CONTINUOUS
 10
41.4702412887
 20
151.7654699763
 11
44.9609677749
 21
149.7493214367
  0
LINE
  5
25E
100
AcDbEntity
  8
0
100
AcDbLine
 62
7
  6
CONTINUOUS
 10
47.7274426995
 20
148.8735984739
 11
46.3911326255
 21
149.6454147954
  0
LINE
  5
25F
100
AcDbEntity
  8
0
100
AcDbLine
 62
9
  6
CONTINUOUS
 10
40.6153408272
 20
153.4538142994
 11
44.1060700937
 21
151.437664154
  0
LINE
  5
260
100
AcDbEntity
  8
0
100
AcDbLine
 62
7
  6
CONTINUOUS
 10
-6.2014293614
 20
257.8576620734
 11
-6.1931535344
 21
261.1844428805
  0
LINE
  5
261
100
AcDbEntity
  8
0
100
AcDbLine
 62
7
  6
CONTINUOUS
 10
-18.4751515784
 20
168.6938006586
 11
-18.8849975739
 21
167.0918473155
  0
LINE
  5
262
100
AcDbEntity
  8
0
100
AcDbLine
 62
7
  6
CONTINUOUS
 10
45.0316884078
 20
152.8734959689
 11
45.5936692254
 21
152.5489111557
  0
LINE
  5
263
100
AcDbEntity
  8
0
100
AcDbLine
 62
9
  6
CONTINUOUS
 10
49.0083846956
 20
150.8619033208
 11
49.034508505
 21
150.8468158863
  0
LINE
  5
264
100
AcDbEntity
  8
0
100
AcDbLine
 62
7
  6
CONTINUOUS
 10
45.0316884078
 20
153.4296934101
 11
45.5936692254
 21
153.1051085968
  0
LINE
  5
265
100
AcDbEntity
  8
0
100
AcDbLine
 62
7
  6
CONTINUOUS
 10
45.0316884078
 20
153.9188998497
 11
46.1721788906
 21
153.260183611
  0
LINE
  5
266
100
AcDbEntity
  8
0
100
AcDbLine
 62
7
  6
CONTINUOUS
 10
45.5936692254
 20
154.3002435943
 11
45.0316884078
 21
154.6248284075
  0
LINE
  5
267
100
AcDbEntity
  8
0
100
AcDbLine
 62
7
  6
CONTINUOUS
 10
45.5936692254
 20
155.7665823027
 11
45.0316884078
 21
156.091167116
  0
LINE
  5
268
100
AcDbEntity
  8
0
100
AcDbLine
 62
7
  6
CONTINUOUS
 10
45.5936692254
 20
156.3227797438
 11
45.0316884078
 21
156.6473645571
  0
LINE
  5
269
100
AcDbEntity
  8
0
100
AcDbLine
 62
7
  6
CONTINUOUS
 10
49.7258811195
 20
153.9829536165
 11
47.0623478386
 21
155.5213380078
  0
LINE
  5
26A
100
AcDbEntity
  8
0
100
AcDbLine
 62
7
  6
CONTINUOUS
 10
49.7258811195
 20
153.3853861178
 11
47.0724251762
 21
154.9710937582
  0
LINE
  5
26B
100
AcDbEntity
  8
0
100
AcDbLine
 62
7
  6
CONTINUOUS
 10
-2.867033781
 20
260.3132010456
 11
-2.8688931345
 21
260.662173303
  0
LINE
  5
26C
100
AcDbEntity
  8
0
100
AcDbLine
 62
7
  6
CONTINUOUS
 10
-2.3605418796
 20
262.8161304884
 11
-2.3605418796
 21
263.1640288338
  0
LINE
  5
26D
100
AcDbEntity
  8
0
100
AcDbLine
 62
7
  6
CONTINUOUS
 10
-1.4590084919
 20
255.8876088865
 11
-1.4590084919
 21
254.9406942347
  0
LINE
  5
26E
100
AcDbEntity
  8
0
100
AcDbLine
 62
7
  6
CONTINUOUS
 10
-4.5217778922
 20
260.2191018338
 11
-4.5300537192
 21
256.8923210267
  0
LINE
  5
26F
100
AcDbEntity
  8
0
100
AcDbLine
 62
7
  6
CONTINUOUS
 10
-17.1154727656
 20
167.5661852589
 11
-18.8849975739
 21
167.0918473155
  0
LINE
  5
270
100
AcDbEntity
  8
0
100
AcDbLine
 62
7
  6
CONTINUOUS
 10
53.5197276476
 20
159.8050184516
 11
53.6302093133
 21
159.7568962234
  0
LINE
  5
271
100
AcDbEntity
  8
0
100
AcDbLine
 62
7
  6
CONTINUOUS
 10
45.0316884078
 20
157.1365709967
 11
46.1721788906
 21
156.477854758
  0
LINE
  5
272
100
AcDbEntity
  8
0
100
AcDbLine
 62
7
  6
CONTINUOUS
 10
45.0316884078
 20
157.8424995545
 11
45.5936692254
 21
157.5179147413
  0
LINE
  5
273
100
AcDbEntity
  8
0
100
AcDbLine
 62
7
  6
CONTINUOUS
 10
49.7258811195
 20
155.6377559207
 11
49.0192293662
 21
156.0458987005
  0
LINE
  5
274
100
AcDbEntity
  8
0
100
AcDbLine
 62
7
  6
CONTINUOUS
 10
46.9314653876
 20
157.3873313596
 11
46.1721788906
 21
157.8258745592
  0
LINE
  5
275
100
AcDbEntity
  8
0
100
AcDbLine
 62
7
  6
CONTINUOUS
 10
46.9314653876
 20
158.1227990503
 11
46.2442567248
 21
158.5197120561
  0
LINE
  5
276
100
AcDbEntity
  8
0
100
AcDbLine
 62
7
  6
CONTINUOUS
 10
45.0316884078
 20
159.308838263
 11
45.5936692254
 21
158.9842534497
  0
LINE
  5
277
100
AcDbEntity
  8
0
100
AcDbLine
 62
7
  6
CONTINUOUS
 10
46.9054106278
 20
158.6969406438
 11
47.5926192906
 21
158.300027638
  0
LINE
  5
278
100
AcDbEntity
  8
0
100
AcDbLine
 62
7
  6
CONTINUOUS
 10
45.5936692254
 20
159.5404508908
 11
45.0316884078
 21
159.8650357041
  0
LINE
  5
279
100
AcDbEntity
  8
0
100
AcDbLine
 62
7
  6
CONTINUOUS
 10
49.7258811195
 20
157.2006247635
 11
47.0623478417
 21
158.7390091556
  0
LINE
  5
27A
100
AcDbEntity
  8
0
100
AcDbLine
 62
7
  6
CONTINUOUS
 10
45.0316884078
 20
160.3542421437
 11
46.1721788906
 21
159.6955259051
  0
LINE
  5
27B
100
AcDbEntity
  8
0
100
AcDbLine
 62
7
  6
CONTINUOUS
 10
45.0316884078
 20
161.0601707015
 11
45.5936692254
 21
160.7355858883
  0
LINE
  5
27C
100
AcDbEntity
  8
0
100
AcDbLine
 62
9
  6
CONTINUOUS
 10
44.1060700937
 20
161.6055049785
 11
40.6153408272
 21
163.6216551239
  0
LINE
  5
27D
100
AcDbEntity
  8
0
100
AcDbLine
 62
7
  6
CONTINUOUS
 10
49.019229367
 20
159.2635698478
 11
49.7258811195
 21
158.8554270677
  0
LINE
  5
27E
100
AcDbEntity
  8
0
100
AcDbLine
 62
7
  6
CONTINUOUS
 10
49.7258811195
 20
156.6030572648
 11
47.9362318663
 21
157.6725532561
  0
LINE
  5
27F
100
AcDbEntity
  8
0
100
AcDbLine
 62
7
  6
CONTINUOUS
 10
46.2313923869
 20
155.2985925011
 11
46.871399301
 21
154.8807461437
  0
LINE
  5
280
100
AcDbEntity
  8
0
100
AcDbLine
 62
7
  6
CONTINUOUS
 10
47.7159312647
 20
157.6106386315
 11
46.9314653876
 21
158.1227990504
  0
LINE
  5
281
100
AcDbEntity
  8
0
100
AcDbLine
 62
7
  6
CONTINUOUS
 10
2.1280282559
 20
259.0872255675
 11
2.0897611384
 21
261.9913877107
  0
LINE
  5
282
100
AcDbEntity
  8
0
100
AcDbLine
 62
7
  6
CONTINUOUS
 10
0.4368763807
 20
261.5483162414
 11
0.4387357343
 21
261.1993439841
  0
LINE
  5
283
100
AcDbEntity
  8
0
100
AcDbLine
 62
7
  6
CONTINUOUS
 10
-0.2772684515
 20
259.1340188558
 11
-0.2772684515
 21
256.2043855363
  0
LINE
  5
284
100
AcDbEntity
  8
0
100
AcDbLine
 62
7
  6
CONTINUOUS
 10
-0.2772684515
 20
255.2574708845
 11
-0.2772684515
 21
254.032814358
  0
LINE
  5
285
100
AcDbEntity
  8
0
100
AcDbLine
 62
7
  6
CONTINUOUS
 10
-0.1300695605
 20
253.947796288
 11
-0.1300695605
 21
256.0110924252
  0
LINE
  5
286
100
AcDbEntity
  8
0
100
AcDbLine
 62
7
  6
CONTINUOUS
 10
-0.1300695605
 20
256.958007077
 11
-0.1300695605
 21
259.8876403966
  0
LINE
  5
287
100
AcDbEntity
  8
0
100
AcDbLine
 62
7
  6
CONTINUOUS
 10
0.597023894
 20
256.5380577019
 11
0.597023894
 21
256.2059967364
  0
LINE
  5
288
100
AcDbEntity
  8
0
100
AcDbLine
 62
7
  6
CONTINUOUS
 10
0.7144624031
 20
254.0131825463
 11
0.7144624031
 21
255.523313766
  0
LINE
  5
289
100
AcDbEntity
  8
0
100
AcDbLine
 62
7
  6
CONTINUOUS
 10
0.7144624031
 20
256.4702284178
 11
0.7144624031
 21
259.3998617374
  0
LINE
  5
28A
100
AcDbEntity
  8
0
100
AcDbLine
 62
7
  6
CONTINUOUS
 10
1.730212483
 20
256.742509881
 11
1.730212483
 21
255.9310488237
  0
LINE
  5
28B
100
AcDbEntity
  8
0
100
AcDbLine
 62
7
  6
CONTINUOUS
 10
1.8903927408
 20
255.8385330697
 11
1.8903927408
 21
256.7854477215
  0
LINE
  5
28C
100
AcDbEntity
  8
0
100
AcDbLine
 62
7
  6
CONTINUOUS
 10
2.610232774
 20
258.8063426864
 11
2.605324107
 21
258.6869730116
  0
LINE
  5
28D
100
AcDbEntity
  8
0
100
AcDbLine
 62
7
  6
CONTINUOUS
 10
6.2823031631
 20
253.6113121866
 11
6.4356918428
 21
255.5468124753
  0
LINE
  5
28E
100
AcDbEntity
  8
0
100
AcDbLine
 62
7
  6
CONTINUOUS
 10
49.7258811195
 20
160.4182959105
 11
47.062347843
 21
161.956680303
  0
LINE
  5
28F
100
AcDbEntity
  8
0
100
AcDbLine
 62
7
  6
CONTINUOUS
 10
53.0558343988
 20
160.0729505568
 11
53.5197295814
 21
159.8050173347
  0
LINE
  5
290
100
AcDbEntity
  8
0
100
AcDbLine
 62
7
  6
CONTINUOUS
 10
49.0192293662
 20
162.4812409946
 11
49.7258811195
 21
162.0730982147
  0
LINE
  5
291
100
AcDbEntity
  8
0
100
AcDbLine
 62
9
  6
CONTINUOUS
 10
43.1566166178
 20
166.6749320332
 11
46.6473458843
 21
164.6587818878
  0
LINE
  5
292
100
AcDbEntity
  8
0
100
AcDbLine
 62
9
  6
CONTINUOUS
 10
53.1592176266
 20
161.3433962006
 11
53.6302093189
 21
161.0713642278
  0
LINE
  5
293
100
AcDbEntity
  8
0
100
AcDbLine
 62
9
  6
CONTINUOUS
 10
48.845682612
 20
164.8168716408
 11
45.3549533454
 21
166.8330217862
  0
LINE
  5
294
100
AcDbEntity
  8
0
100
AcDbLine
 62
7
  6
CONTINUOUS
 10
45.4371383768
 20
166.8302198395
 11
42.7346361453
 21
168.3911115603
  0
LINE
  5
295
100
AcDbEntity
  8
0
100
AcDbLine
 62
7
  6
CONTINUOUS
 10
46.2893351582
 20
166.6289364494
 11
49.7800616444
 21
164.6127879098
  0
LINE
  5
296
100
AcDbEntity
  8
0
100
AcDbLine
 62
7
  6
CONTINUOUS
 10
44.2919862155
 20
168.7296539989
 11
42.6708769495
 21
169.6659625807
  0
LINE
  5
297
100
AcDbEntity
  8
0
100
AcDbLine
 62
7
  6
CONTINUOUS
 10
49.7258811195
 20
159.8207284118
 11
47.0724251762
 21
161.4064360522
  0
LINE
  5
298
100
AcDbEntity
  8
0
100
AcDbLine
 62
7
  6
CONTINUOUS
 10
46.871399301
 20
161.3160884377
 11
46.2313923869
 21
161.7339347951
  0
LINE
  5
299
100
AcDbEntity
  8
0
100
AcDbLine
 62
7
  6
CONTINUOUS
 10
7.2480641993
 20
262.6845985827
 11
7.2480641993
 21
262.4301024105
  0
LINE
  5
29A
100
AcDbEntity
  8
0
100
AcDbLine
 62
7
  6
CONTINUOUS
 10
7.3161705081
 20
262.7502066471
 11
7.3161704798
 21
262.4483589463
  0
LINE
  5
29B
100
AcDbEntity
  8
0
100
AcDbLine
 62
9
  6
CONTINUOUS
 10
-17.2365046983
 20
178.1452602764
 11
-17.5180153529
 21
178.0697986698
  0
LINE
  5
29C
100
AcDbEntity
  8
0
100
AcDbLine
 62
7
  6
CONTINUOUS
 10
-17.9330172408
 20
178.8863144561
 11
-19.5893630057
 21
178.442315231
  0
LINE
  5
29D
100
AcDbEntity
  8
0
100
AcDbLine
 62
9
  6
CONTINUOUS
 10
56.8247268561
 20
163.464819509
 11
57.2604679142
 21
163.2131473423
  0
LINE
  5
29E
100
AcDbEntity
  8
0
100
AcDbLine
 62
9
  6
CONTINUOUS
 10
50.2741468346
 20
167.2674684578
 11
49.37331274
 21
167.7877656943
  0
LINE
  5
29F
100
AcDbEntity
  8
0
100
AcDbLine
 62
7
  6
CONTINUOUS
 10
57.4598131133
 20
163.1861261429
 11
56.994407094
 21
163.4549319831
  0
LINE
  5
2A0
100
AcDbEntity
  8
0
100
AcDbLine
 62
7
  6
CONTINUOUS
 10
45.4371383768
 20
171.243025984
 11
43.490199
 21
172.367525168
  0
LINE
  5
2A1
100
AcDbEntity
  8
0
100
AcDbLine
 62
7
  6
CONTINUOUS
 10
47.7274426995
 20
171.8569638097
 11
45.482203931
 21
173.153752602
  0
LINE
  5
2A2
100
AcDbEntity
  8
0
100
AcDbLine
 62
9
  6
CONTINUOUS
 10
47.9601081739
 20
171.9793091588
 11
47.0592740793
 21
172.4996063953
  0
LINE
  5
2A3
100
AcDbEntity
  8
0
100
AcDbLine
 62
7
  6
CONTINUOUS
 10
-14.7770217979
 20
263.9508278216
 11
-14.325969571
 21
262.589986995
  0
LINE
  5
2A4
100
AcDbEntity
  8
0
100
AcDbLine
 62
9
  6
CONTINUOUS
 10
51.1005610967
 20
202.9937006331
 11
50.935279543
 21
202.9493953417
  0
LINE
  5
2A5
100
AcDbEntity
  8
0
100
AcDbLine
 62
7
  6
CONTINUOUS
 10
51.2640766439
 20
203.1684335244
 11
51.4293651197
 21
203.2127406714
  0
LINE
  5
2A6
100
AcDbEntity
  8
0
100
AcDbLine
 62
9
  6
CONTINUOUS
 10
51.3857587331
 20
203.4247309216
 11
51.5509940896
 21
203.4690238294
  0
LINE
  5
2A7
100
AcDbEntity
  8
0
100
AcDbLine
 62
7
  6
CONTINUOUS
 10
42.6708769495
 20
145.513501948
 11
42.7346361453
 21
145.4077462245
  0
LINE
  5
2A8
100
AcDbEntity
  8
0
100
AcDbLine
 62
7
  6
CONTINUOUS
 10
45.4371383768
 20
143.8468545037
 11
44.2919862155
 21
145.7462886631
  0
LINE
  5
2A9
100
AcDbEntity
  8
0
100
AcDbLine
 62
7
  6
CONTINUOUS
 10
45.7320986303
 20
181.1096252982
 11
47.1002439415
 21
180.3194218314
  0
LINE
  5
2AA
100
AcDbEntity
  8
0
100
AcDbLine
 62
7
  6
CONTINUOUS
 10
47.7274426995
 20
148.8735984739
 11
48.8725948609
 21
146.9741643145
  0
LINE
  5
2AB
100
AcDbEntity
  8
0
100
AcDbLine
 62
7
  6
CONTINUOUS
 10
-2.867033781
 20
260.3132010456
 11
-2.5826470612
 21
259.3698438988
  0
LINE
  5
2AC
100
AcDbEntity
  8
0
100
AcDbLine
 62
7
  6
CONTINUOUS
 10
20.4859230111
 20
142.1458728811
 11
20.4859230111
 21
234.0793342243
  0
LINE
  5
2AD
100
AcDbEntity
  8
0
100
AcDbLine
 62
7
  6
CONTINUOUS
 10
-20.2100310927
 20
178.1665016975
 11
-19.5893331982
 21
178.4422041483
  0
LINE
  5
2AE
100
AcDbEntity
  8
0
100
AcDbLine
 62
9
  6
CONTINUOUS
 10
51.5509653125
 20
212.8462270599
 11
51.3857587299
 21
212.8019418652
  0
LINE
  5
2AF
100
AcDbEntity
  8
0
100
AcDbLine
 62
9
  6
CONTINUOUS
 10
51.325797737
 20
213.3440472472
 11
51.1605092613
 21
213.2997401002
  0
LINE
  5
2B0
100
AcDbEntity
  8
0
100
AcDbLine
 62
9
  6
CONTINUOUS
 10
50.9353288543
 20
213.7975545848
 11
51.100610408
 21
213.8418598762
  0
LINE
  5
2B1
100
AcDbEntity
  8
0
100
AcDbLine
 62
7
  6
CONTINUOUS
 10
48.2350962146
 20
185.4380210744
 11
49.6009664051
 21
184.6491316554
  0
LINE
  5
2B2
100
AcDbEntity
  8
0
100
AcDbLine
 62
7
  6
CONTINUOUS
 10
45.7320986303
 20
190.3029714325
 11
47.1002439415
 21
189.5127679657
  0
LINE
  5
2B3
100
AcDbEntity
  8
0
100
AcDbLine
 62
7
  6
CONTINUOUS
 10
42.6708769495
 20
168.4968672838
 11
42.7346361453
 21
168.3911115603
  0
LINE
  5
2B4
100
AcDbEntity
  8
0
100
AcDbLine
 62
7
  6
CONTINUOUS
 10
45.4371383768
 20
166.8302198395
 11
44.2919862155
 21
168.7296539989
  0
LINE
  5
2B5
100
AcDbEntity
  8
0
100
AcDbLine
 62
7
  6
CONTINUOUS
 10
46.8109884974
 20
155.4539587473
 11
47.0896640681
 21
154.939254089
  0
LINE
  5
2B6
100
AcDbEntity
  8
0
100
AcDbLine
 62
7
  6
CONTINUOUS
 10
47.9341960317
 20
157.6691465768
 11
47.5926192906
 21
158.300027638
  0
LINE
  5
2B7
100
AcDbEntity
  8
0
100
AcDbLine
 62
7
  6
CONTINUOUS
 10
48.2350962146
 20
194.6313672087
 11
49.6009664051
 21
193.8424777897
  0
LINE
  5
2B8
100
AcDbEntity
  8
0
100
AcDbLine
 62
7
  6
CONTINUOUS
 10
47.7274426995
 20
171.8569638097
 11
48.8725948609
 21
169.9575296503
  0
LINE
  5
2B9
100
AcDbEntity
  8
0
100
AcDbLine
 62
7
  6
CONTINUOUS
 10
46.8109884974
 20
161.8893010413
 11
47.0896640681
 21
161.374596383
  0
LINE
  5
2BA
100
AcDbEntity
  8
0
100
AcDbLine
 62
7
  6
CONTINUOUS
 10
29.6096600106
 20
227.3235820828
 11
29.6096600106
 21
228.7789282824
  0
LINE
  5
2BB
100
AcDbEntity
  8
0
100
AcDbLine
 62
7
  6
CONTINUOUS
 10
29.8548009321
 20
227.7731371367
 11
29.8548009321
 21
228.6479517718
  0
LINE
  5
2BC
100
AcDbEntity
  8
0
100
AcDbLine
 62
7
  6
CONTINUOUS
 10
31.3203606981
 20
136.1565114669
 11
31.3203606981
 21
213.515811938
  0
LINE
  5
2BD
100
AcDbEntity
  8
0
100
AcDbLine
 62
9
  6
CONTINUOUS
 10
30.8179365798
 20
214.0670933026
 11
30.8641217335
 21
214.0755293644
  0
LINE
  5
2BE
100
AcDbEntity
  8
0
100
AcDbLine
 62
7
  6
CONTINUOUS
 10
30.8786231779
 20
214.0671537332
 11
30.8197791018
 21
214.0565119765
  0
LINE
  5
2BF
100
AcDbEntity
  8
0
100
AcDbLine
 62
9
  6
CONTINUOUS
 10
30.8179462883
 20
214.0672342534
 11
30.8641121458
 21
214.0753865213
  0
LINE
  5
2C0
100
AcDbEntity
  8
0
100
AcDbLine
 62
7
  6
CONTINUOUS
 10
50.7106446763
 20
204.4180804787
 11
50.6158098476
 21
204.4695103692
  0
LINE
  5
2C1
100
AcDbEntity
  8
0
100
AcDbLine
 62
7
  6
CONTINUOUS
 10
30.8107668439
 20
214.1063456652
 11
31.430103486
 21
213.7486340398
  0
LINE
  5
2C2
100
AcDbEntity
  8
0
100
AcDbLine
 62
7
  6
CONTINUOUS
 10
-18.081036662
 20
245.0007771857
 11
-17.2365046983
 21
244.5129985265
  0
LINE
  5
2C3
100
AcDbEntity
  8
0
100
AcDbLine
 62
7
  6
CONTINUOUS
 10
30.4923797361
 20
213.9978014524
 11
31.3203606981
 21
213.515811938
  0
LINE
  5
2C4
100
AcDbEntity
  8
0
100
AcDbLine
 62
7
  6
CONTINUOUS
 10
29.6096600106
 20
227.3235820828
 11
29.9842757179
 21
225.8449964278
  0
LINE
  5
2C5
100
AcDbEntity
  8
0
100
AcDbLine
 62
7
  6
CONTINUOUS
 10
30.3007077242
 20
225.9541714285
 11
29.8548009321
 21
227.7731371367
  0
LINE
  5
2C6
100
AcDbEntity
  8
0
100
AcDbLine
 62
7
  6
CONTINUOUS
 10
30.230118746
 20
228.4311784252
 11
30.9258527886
 21
225.5931046667
  0
LINE
  5
2C7
100
AcDbEntity
  8
0
100
AcDbLine
 62
7
  6
CONTINUOUS
 10
40.3568382888
 20
164.6090396425
 11
40.3568382888
 21
149.8996858276
  0
LINE
  5
2C8
100
AcDbEntity
  8
0
100
AcDbLine
 62
7
  6
CONTINUOUS
 10
40.6153408272
 20
153.4538142994
 11
40.6153408272
 21
163.6216551239
  0
LINE
  5
2C9
100
AcDbEntity
  8
0
100
AcDbLine
 62
7
  6
CONTINUOUS
 10
41.9322217578
 20
231.6661511578
 11
41.9322217578
 21
232.0821080792
  0
LINE
  5
2CA
100
AcDbEntity
  8
0
100
AcDbLine
 62
7
  6
CONTINUOUS
 10
42.6708769495
 20
170.5614804573
 11
42.6708769495
 21
166.6083416196
  0
LINE
  5
2CB
100
AcDbEntity
  8
0
100
AcDbLine
 62
7
  6
CONTINUOUS
 10
42.6708769495
 20
149.1409839644
 11
42.6708769495
 21
145.1878451266
  0
LINE
  5
2CC
100
AcDbEntity
  8
0
100
AcDbLine
 62
7
  6
CONTINUOUS
 10
44.1060729436
 20
151.437662508
 11
44.1060729436
 21
161.6055033325
  0
LINE
  5
2CD
100
AcDbEntity
  8
0
100
AcDbLine
 62
7
  6
CONTINUOUS
 10
30.9258527886
 20
225.5931046667
 11
56.8761434834
 21
232.5493267335
  0
LINE
  5
2CE
100
AcDbEntity
  8
0
100
AcDbLine
 62
7
  6
CONTINUOUS
 10
43.1421722607
 20
229.1805549174
 11
56.9896357485
 21
232.8924991194
  0
LINE
  5
2CF
100
AcDbEntity
  8
0
100
AcDbLine
 62
7
  6
CONTINUOUS
 10
29.9842757179
 20
225.8449964278
 11
30.3067979931
 21
225.9314515891
  0
LINE
  5
2D0
100
AcDbEntity
  8
0
100
AcDbLine
 62
7
  6
CONTINUOUS
 10
29.6096600106
 20
227.3235820828
 11
29.9430952242
 21
227.412962561
  0
LINE
  5
2D1
100
AcDbEntity
  8
0
100
AcDbLine
 62
7
  6
CONTINUOUS
 10
30.230118746
 20
228.4311784252
 11
42.0482447631
 21
231.5991394301
  0
LINE
  5
2D2
100
AcDbEntity
  8
0
100
AcDbLine
 62
7
  6
CONTINUOUS
 10
56.36363299
 20
235.4814350927
 11
42.4917989757
 21
231.7629581395
  0
LINE
  5
2D3
100
AcDbEntity
  8
0
100
AcDbLine
 62
7
  6
CONTINUOUS
 10
29.8548009321
 20
228.6479517718
 11
41.6729269492
 21
231.8159127767
  0
LINE
  5
2D4
100
AcDbEntity
  8
0
100
AcDbLine
 62
7
  6
CONTINUOUS
 10
41.9322217578
 20
232.0821080792
 11
29.6096600106
 21
228.7789282824
  0
LINE
  5
2D5
100
AcDbEntity
  8
0
100
AcDbLine
 62
7
  6
CONTINUOUS
 10
50.7106446763
 20
209.9340881593
 11
50.6158098476
 21
209.9855180497
  0
LINE
  5
2D6
100
AcDbEntity
  8
0
100
AcDbLine
 62
7
  6
CONTINUOUS
 10
51.9207425408
 20
206.5132240576
 11
51.8430153954
 21
206.5609443568
  0
LINE
  5
2D7
100
AcDbEntity
  8
0
100
AcDbLine
 62
7
  6
CONTINUOUS
 10
45.0316884078
 20
161.357182664
 11
45.0316884078
 21
158.617565516
  0
LINE
  5
2D8
100
AcDbEntity
  8
0
100
AcDbLine
 62
7
  6
CONTINUOUS
 10
45.0316884078
 20
158.139511517
 11
45.0316884078
 21
155.399894369
  0
LINE
  5
2D9
100
AcDbEntity
  8
0
100
AcDbLine
 62
7
  6
CONTINUOUS
 10
45.0316884078
 20
152.182223222
 11
45.0316884078
 21
154.92184037
  0
LINE
  5
2DA
100
AcDbEntity
  8
0
100
AcDbLine
 62
7
  6
CONTINUOUS
 10
45.5936692254
 20
154.8564410354
 11
45.5936692254
 21
154.3002435943
  0
LINE
  5
2DB
100
AcDbEntity
  8
0
100
AcDbLine
 62
7
  6
CONTINUOUS
 10
45.5936692254
 20
153.1051085968
 11
45.5936692254
 21
152.5489111557
  0
LINE
  5
2DC
100
AcDbEntity
  8
0
100
AcDbLine
 62
7
  6
CONTINUOUS
 10
45.5936692254
 20
155.7665823027
 11
45.5936692254
 21
156.3227797438
  0
LINE
  5
2DD
100
AcDbEntity
  8
0
100
AcDbLine
 62
7
  6
CONTINUOUS
 10
45.5936692254
 20
157.5179147413
 11
45.5936692254
 21
158.0741121824
  0
LINE
  5
2DE
100
AcDbEntity
  8
0
100
AcDbLine
 62
7
  6
CONTINUOUS
 10
45.5936692254
 20
158.9842534497
 11
45.5936692254
 21
159.5404508908
  0
LINE
  5
2DF
100
AcDbEntity
  8
0
100
AcDbLine
 62
7
  6
CONTINUOUS
 10
45.5936692254
 20
160.7355858883
 11
45.5936692254
 21
161.2917833294
  0
LINE
  5
2E0
100
AcDbEntity
  8
0
100
AcDbLine
 62
7
  6
CONTINUOUS
 10
45.9667957943
 20
180.9740706088
 11
45.9668038969
 21
180.7686775394
  0
LINE
  5
2E1
100
AcDbEntity
  8
0
100
AcDbLine
 62
7
  6
CONTINUOUS
 10
45.9667957943
 20
190.1674167431
 11
45.9668038969
 21
189.9620236737
  0
LINE
  5
2E2
100
AcDbEntity
  8
0
100
AcDbLine
 62
7
  6
CONTINUOUS
 10
46.1721788906
 20
161.7180620546
 11
46.1721788906
 21
160.8906609025
  0
LINE
  5
2E3
100
AcDbEntity
  8
0
100
AcDbLine
 62
7
  6
CONTINUOUS
 10
46.1721788906
 20
158.5003909076
 11
46.1721788906
 21
157.6729897555
  0
LINE
  5
2E4
100
AcDbEntity
  8
0
100
AcDbLine
 62
7
  6
CONTINUOUS
 10
46.1721788906
 20
155.2827197606
 11
46.1721788906
 21
154.4553186085
  0
LINE
  5
2E5
100
AcDbEntity
  8
0
100
AcDbLine
 62
7
  6
CONTINUOUS
 10
46.1721788906
 20
152.432782459
 11
46.1721788906
 21
153.260183611
  0
LINE
  5
2E6
100
AcDbEntity
  8
0
100
AcDbLine
 62
7
  6
CONTINUOUS
 10
46.1721788906
 20
155.650453606
 11
46.1721788906
 21
156.477854758
  0
LINE
  5
2E7
100
AcDbEntity
  8
0
100
AcDbLine
 62
7
  6
CONTINUOUS
 10
46.1721788906
 20
158.868124753
 11
46.1721788906
 21
159.6955259051
  0
LINE
  5
2E8
100
AcDbEntity
  8
0
100
AcDbLine
 62
7
  6
CONTINUOUS
 10
46.4075337706
 20
189.9128584926
 11
46.4075337706
 21
189.7233323948
  0
LINE
  5
2E9
100
AcDbEntity
  8
0
100
AcDbLine
 62
7
  6
CONTINUOUS
 10
46.4075337706
 20
180.7195123583
 11
46.4075337706
 21
180.5299862605
  0
LINE
  5
2EA
100
AcDbEntity
  8
0
100
AcDbLine
 62
7
  6
CONTINUOUS
 10
46.871399301
 20
161.3160884377
 11
46.871399301
 21
161.0732906814
  0
LINE
  5
2EB
100
AcDbEntity
  8
0
100
AcDbLine
 62
7
  6
CONTINUOUS
 10
46.871399301
 20
154.6379483874
 11
46.871399301
 21
154.8807461437
  0
LINE
  5
2EC
100
AcDbEntity
  8
0
100
AcDbLine
 62
7
  6
CONTINUOUS
 10
46.9314653876
 20
157.3873313596
 11
46.9314653876
 21
158.1227990503
  0
LINE
  5
2ED
100
AcDbEntity
  8
0
100
AcDbLine
 62
7
  6
CONTINUOUS
 10
47.0592740793
 20
172.4996063953
 11
47.0592740793
 21
172.2428798157
  0
LINE
  5
2EE
100
AcDbEntity
  8
0
100
AcDbLine
 62
7
  6
CONTINUOUS
 10
47.0592740793
 20
149.9380299349
 11
47.0592740793
 21
149.2595144799
  0
LINE
  5
2EF
100
AcDbEntity
  8
0
100
AcDbLine
 62
7
  6
CONTINUOUS
 10
47.0896640681
 20
161.374596383
 11
47.0896640681
 21
161.1317986268
  0
LINE
  5
2F0
100
AcDbEntity
  8
0
100
AcDbLine
 62
7
  6
CONTINUOUS
 10
47.0896640681
 20
154.939254089
 11
47.0896640681
 21
154.6964563327
  0
LINE
  5
2F1
100
AcDbEntity
  8
0
100
AcDbLine
 62
7
  6
CONTINUOUS
 10
47.7159312647
 20
157.6106386315
 11
47.7159312647
 21
157.3678408752
  0
LINE
  5
2F2
100
AcDbEntity
  8
0
100
AcDbLine
 62
7
  6
CONTINUOUS
 10
47.9341960317
 20
157.6691465768
 11
47.9341960317
 21
157.4263488205
  0
LINE
  5
2F3
100
AcDbEntity
  8
0
100
AcDbLine
 62
7
  6
CONTINUOUS
 10
47.9601081739
 20
148.4876822921
 11
47.9601081739
 21
150.3562022217
  0
LINE
  5
2F4
100
AcDbEntity
  8
0
100
AcDbLine
 62
7
  6
CONTINUOUS
 10
47.9601081739
 20
171.4710476279
 11
47.9601081739
 21
171.9793091588
  0
LINE
  5
2F5
100
AcDbEntity
  8
0
100
AcDbLine
 62
9
  6
CONTINUOUS
 10
48.6212631619
 20
204.9032682448
 11
48.6212631619
 21
210.603135148
  0
LINE
  5
2F6
100
AcDbEntity
  8
0
100
AcDbLine
 62
7
  6
CONTINUOUS
 10
49.0367886673
 20
165.0420821365
 11
49.0367886673
 21
168.3141621373
  0
LINE
  5
2F7
100
AcDbEntity
  8
0
100
AcDbLine
 62
9
  6
CONTINUOUS
 10
49.1770475521
 20
210.5616512649
 11
49.1770475521
 21
204.8617766617
  0
LINE
  5
2F8
100
AcDbEntity
  8
0
100
AcDbLine
 62
7
  6
CONTINUOUS
 10
49.37331274
 20
164.8477149982
 11
49.37331274
 21
167.7877656943
  0
LINE
  5
2F9
100
AcDbEntity
  8
0
100
AcDbLine
 62
7
  6
CONTINUOUS
 10
30.230118746
 20
228.4311784252
 11
29.8548009321
 21
228.6479517718
  0
LINE
  5
2FA
100
AcDbEntity
  8
0
100
AcDbLine
 62
7
  6
CONTINUOUS
 10
-17.5934459054
 20
256.0729405214
 11
20.4859230111
 21
234.0793342243
  0
LINE
  5
2FB
100
AcDbEntity
  8
0
100
AcDbLine
 62
7
  6
CONTINUOUS
 10
20.4859230111
 20
234.0793342243
 11
29.6096600106
 21
228.7789282824
  0
LINE
  5
2FC
100
AcDbEntity
  8
0
100
AcDbLine
 62
7
  6
CONTINUOUS
 10
51.9207425408
 20
212.0292317382
 11
51.8430153954
 21
212.0769520374
  0
LINE
  5
2FD
100
AcDbEntity
  8
0
100
AcDbLine
 62
7
  6
CONTINUOUS
 10
52.0325040407
 20
206.4281521486
 11
52.0331065226
 21
206.4275907001
  0
LINE
  5
2FE
100
AcDbEntity
  8
0
100
AcDbLine
 62
7
  6
CONTINUOUS
 10
52.0325040407
 20
206.4281521486
 11
52.0330580916
 21
206.4275278184
  0
LINE
  5
2FF
100
AcDbEntity
  8
0
100
AcDbLine
 62
7
  6
CONTINUOUS
 10
42.4917989757
 20
231.7629581395
 11
43.1421722607
 21
229.1805549174
  0
LINE
  5
300
100
AcDbEntity
  8
0
100
AcDbLine
 62
7
  6
CONTINUOUS
 10
42.4814376575
 20
229.8320369013
 11
42.0482447631
 21
231.5991394301
  0
LINE
  5
301
100
AcDbEntity
  8
0
100
AcDbLine
 62
7
  6
CONTINUOUS
 10
49.7258811195
 20
162.6706657134
 11
49.7258811195
 21
162.0730982147
  0
LINE
  5
302
100
AcDbEntity
  8
0
100
AcDbLine
 62
7
  6
CONTINUOUS
 10
49.7258811195
 20
160.4182959105
 11
49.7258811195
 21
159.8207284118
  0
LINE
  5
303
100
AcDbEntity
  8
0
100
AcDbLine
 62
7
  6
CONTINUOUS
 10
49.7258811195
 20
159.4529945664
 11
49.7258811195
 21
158.8554270677
  0
LINE
  5
304
100
AcDbEntity
  8
0
100
AcDbLine
 62
7
  6
CONTINUOUS
 10
49.7258811195
 20
157.2006247635
 11
49.7258811195
 21
156.6030572648
  0
LINE
  5
305
100
AcDbEntity
  8
0
100
AcDbLine
 62
7
  6
CONTINUOUS
 10
49.7258811195
 20
156.2353234194
 11
49.7258811195
 21
155.6377559207
  0
LINE
  5
306
100
AcDbEntity
  8
0
100
AcDbLine
 62
7
  6
CONTINUOUS
 10
49.7258811195
 20
153.9829536165
 11
49.7258811195
 21
153.3853861178
  0
LINE
  5
307
100
AcDbEntity
  8
0
100
AcDbLine
 62
9
  6
CONTINUOUS
 10
49.7328339768
 20
210.5201459535
 11
49.7328339768
 21
204.8203624482
  0
LINE
  5
308
100
AcDbEntity
  8
0
100
AcDbLine
 62
7
  6
CONTINUOUS
 10
50.2741468346
 20
164.1529409246
 11
50.2741468346
 21
167.2674684578
  0
LINE
  5
309
100
AcDbEntity
  8
0
100
AcDbLine
 62
7
  6
CONTINUOUS
 10
50.6349677362
 20
162.9244403349
 11
50.6349677362
 21
153.6189901125
  0
LINE
  5
30A
100
AcDbEntity
  8
0
100
AcDbLine
 62
9
  6
CONTINUOUS
 10
53.2038900687
 20
205.7508120281
 11
53.2038900687
 21
211.4505955333
  0
LINE
  5
30B
100
AcDbEntity
  8
0
100
AcDbLine
 62
7
  6
CONTINUOUS
 10
53.3786824947
 20
205.8808410409
 11
53.3786824947
 21
211.5807156442
  0
LINE
  5
30C
100
AcDbEntity
  8
0
100
AcDbLine
 62
9
  6
CONTINUOUS
 10
53.4146267891
 20
211.8879869732
 11
53.4146267891
 21
206.18812007
  0
LINE
  5
30D
100
AcDbEntity
  8
0
100
AcDbLine
 62
7
  6
CONTINUOUS
 10
20.4859230111
 20
234.0793342243
 11
46.9320791332
 21
241.1684777319
  0
LINE
  5
30E
100
AcDbEntity
  8
0
100
AcDbLine
 62
7
  6
CONTINUOUS
 10
-15.695409868
 20
256.2798861191
 11
-16.0569328548
 21
256.4848227274
  0
LINE
  5
30F
100
AcDbEntity
  8
0
100
AcDbLine
 62
7
  6
CONTINUOUS
 10
-12.4723808352
 20
257.1438496848
 11
-11.328649932
 21
256.4832618675
  0
LINE
  5
310
100
AcDbEntity
  8
0
100
AcDbLine
 62
7
  6
CONTINUOUS
 10
52.0325040407
 20
211.9441598292
 11
52.0331065226
 21
211.9435983807
  0
LINE
  5
311
100
AcDbEntity
  8
0
100
AcDbLine
 62
7
  6
CONTINUOUS
 10
52.0325040407
 20
211.9441598292
 11
52.0330580916
 21
211.943535499
  0
LINE
  5
312
100
AcDbEntity
  8
0
100
AcDbLine
 62
7
  6
CONTINUOUS
 10
57.4924511919
 20
143.172189078
 11
57.4924511919
 21
159.7259684828
  0
LINE
  5
313
100
AcDbEntity
  8
0
100
AcDbLine
 62
7
  6
CONTINUOUS
 10
57.4924511919
 20
163.1643002737
 11
57.4924511919
 21
220.5314895491
  0
LINE
  5
314
100
AcDbEntity
  8
0
100
AcDbLine
 62
7
  6
CONTINUOUS
 10
44.2919862155
 20
168.7296539989
 11
45.4371383768
 21
171.243025984
  0
LINE
  5
315
100
AcDbEntity
  8
0
100
AcDbLine
 62
7
  6
CONTINUOUS
 10
48.8725948609
 20
169.9575296503
 11
47.7274426995
 21
167.4441576652
  0
LINE
  5
316
100
AcDbEntity
  8
0
100
AcDbLine
 62
7
  6
CONTINUOUS
 10
43.1421722607
 20
229.1805549174
 11
42.6478635058
 21
229.4418750889
  0
LINE
  5
317
100
AcDbEntity
  8
0
100
AcDbLine
 62
7
  6
CONTINUOUS
 10
42.4917989757
 20
231.7629581395
 11
41.9322217578
 21
232.0821080792
  0
LINE
  5
318
100
AcDbEntity
  8
0
100
AcDbLine
 62
7
  6
CONTINUOUS
 10
1.3020515373
 20
254.1706913984
 11
14.0651792244
 21
246.8759167302
  0
LINE
  5
319
100
AcDbEntity
  8
0
100
AcDbLine
 62
9
  6
CONTINUOUS
 10
6.3570869875
 20
254.5549549251
 11
3.2920421869
 21
256.323812993
  0
LINE
  5
31A
100
AcDbEntity
  8
0
100
AcDbLine
 62
7
  6
CONTINUOUS
 10
0.0603188243
 20
253.8378331426
 11
-5.0068729576
 21
256.7645050979
  0
LINE
  5
31B
100
AcDbEntity
  8
0
100
AcDbLine
 62
7
  6
CONTINUOUS
 10
-9.7776010938
 20
259.6164607322
 11
-13.8313545193
 21
261.9577982965
  0
LINE
  5
31C
100
AcDbEntity
  8
0
100
AcDbLine
 62
9
  6
CONTINUOUS
 10
43.2005797497
 20
229.1962116
 11
43.5704211845
 21
228.9826014063
  0
LINE
  5
31D
100
AcDbEntity
  8
0
100
AcDbLine
 62
7
  6
CONTINUOUS
 10
-4.5300537192
 20
256.8923210267
 11
-6.2014293614
 21
257.8576620734
  0
LINE
  5
31E
100
AcDbEntity
  8
0
100
AcDbLine
 62
7
  6
CONTINUOUS
 10
-0.2772684515
 20
255.2574708845
 11
-1.1218004151
 21
255.7452495437
  0
LINE
  5
31F
100
AcDbEntity
  8
0
100
AcDbLine
 62
7
  6
CONTINUOUS
 10
41.6729269492
 20
231.8159127767
 11
42.0482447631
 21
231.5991394301
  0
LINE
  5
320
100
AcDbEntity
  8
0
100
AcDbLine
 62
7
  6
CONTINUOUS
 10
0.7144624031
 20
255.523313766
 11
-0.1300695605
 21
256.0110924252
  0
LINE
  5
321
100
AcDbEntity
  8
0
100
AcDbLine
 62
7
  6
CONTINUOUS
 10
0.7144624031
 20
256.4702284178
 11
-0.1300695605
 21
256.958007077
  0
LINE
  5
322
100
AcDbEntity
  8
0
100
AcDbLine
 62
7
  6
CONTINUOUS
 10
1.8903927408
 20
255.8385330697
 11
1.730212483
 21
255.9310488237
  0
LINE
  5
323
100
AcDbEntity
  8
0
100
AcDbLine
 62
7
  6
CONTINUOUS
 10
-4.5217778922
 20
260.2191018338
 11
-7.3191961525
 21
261.8348144261
  0
LINE
  5
324
100
AcDbEntity
  8
0
100
AcDbLine
 62
7
  6
CONTINUOUS
 10
-7.1970049679
 20
261.8675689345
 11
-8.010747397
 21
262.3375643973
  0
LINE
  5
325
100
AcDbEntity
  8
0
100
AcDbLine
 62
9
  6
CONTINUOUS
 10
-2.5291657623
 20
259.4119026452
 11
-2.6092744316
 21
259.4581712306
  0
LINE
  5
326
100
AcDbEntity
  8
0
100
AcDbLine
 62
7
  6
CONTINUOUS
 10
-8.0270953693
 20
262.647257609
 11
-12.0808487948
 21
264.9885951733
  0
LINE
  5
327
100
AcDbEntity
  8
0
100
AcDbLine
 62
7
  6
CONTINUOUS
 10
-2.8390780443
 20
260.2204673063
 11
-2.0327427633
 21
259.7547500106
  0
LINE
  5
328
100
AcDbEntity
  8
0
100
AcDbLine
 62
7
  6
CONTINUOUS
 10
57.2684936631
 20
220.6668027049
 11
57.4924511919
 21
220.5314895491
  0
LINE
  5
329
100
AcDbEntity
  8
0
100
AcDbLine
 62
7
  6
CONTINUOUS
 10
42.7346361453
 20
149.820552369
 11
42.4762308603
 21
149.2534062438
  0
LINE
  5
32A
100
AcDbEntity
  8
0
100
AcDbLine
 62
9
  6
CONTINUOUS
 10
6.2823031631
 20
253.6113121866
 11
19.0170370698
 21
248.2033099148
  0
LINE
  5
32B
100
AcDbEntity
  8
0
100
AcDbLine
 62
7
  6
CONTINUOUS
 10
-1.1218004151
 20
259.6217975151
 11
-0.2772684515
 21
259.1340188558
  0
LINE
  5
32C
100
AcDbEntity
  8
0
100
AcDbLine
 62
7
  6
CONTINUOUS
 10
-5.6663113949
 20
262.2778858953
 11
-2.8688931345
 21
260.662173303
  0
LINE
  5
32D
100
AcDbEntity
  8
0
100
AcDbLine
 62
7
  6
CONTINUOUS
 10
0.7144624031
 20
259.3998617374
 11
-0.1300695605
 21
259.8876403966
  0
LINE
  5
32E
100
AcDbEntity
  8
0
100
AcDbLine
 62
7
  6
CONTINUOUS
 10
2.610232774
 20
258.8063426864
 11
7.6774245558
 21
255.8796707312
  0
LINE
  5
32F
100
AcDbEntity
  8
0
100
AcDbLine
 62
7
  6
CONTINUOUS
 10
2.0941388235
 20
259.1111320191
 11
0.6865855508
 21
259.9240964512
  0
LINE
  5
330
100
AcDbEntity
  8
0
100
AcDbLine
 62
7
  6
CONTINUOUS
 10
-2.3605418797
 20
262.8161304884
 11
0.4387357343
 21
261.1993439841
  0
LINE
  5
331
100
AcDbEntity
  8
0
100
AcDbLine
 62
7
  6
CONTINUOUS
 10
-2.3605418796
 20
263.1640288338
 11
0.4368763807
 21
261.5483162414
  0
LINE
  5
332
100
AcDbEntity
  8
0
100
AcDbLine
 62
7
  6
CONTINUOUS
 10
2.0897611384
 20
261.9913877107
 11
-0.707657122
 21
263.607100303
  0
LINE
  5
333
100
AcDbEntity
  8
0
100
AcDbLine
 62
7
  6
CONTINUOUS
 10
5.589258464
 20
261.0182680103
 11
4.4455275607
 21
261.6788558276
  0
LINE
  5
334
100
AcDbEntity
  8
0
100
AcDbLine
 62
7
  6
CONTINUOUS
 10
19.0170378034
 20
248.2033094863
 11
6.4356918428
 21
255.5468124753
  0
LINE
  5
335
100
AcDbEntity
  8
0
100
AcDbLine
 62
7
  6
CONTINUOUS
 10
56.9896357485
 20
232.8924991194
 11
56.36363299
 21
235.4814350927
  0
LINE
  5
336
100
AcDbEntity
  8
0
100
AcDbLine
 62
7
  6
CONTINUOUS
 10
44.2919862155
 20
145.7462886631
 11
45.4371383768
 21
148.2596606482
  0
LINE
  5
337
100
AcDbEntity
  8
0
100
AcDbLine
 62
7
  6
CONTINUOUS
 10
48.8725948609
 20
146.9741643145
 11
47.7274426995
 21
144.4607923295
  0
LINE
  5
338
100
AcDbEntity
  8
0
100
AcDbLine
 62
7
  6
CONTINUOUS
 10
45.0316884078
 20
158.617565516
 11
45.5936692254
 21
158.9842534497
  0
LINE
  5
339
100
AcDbEntity
  8
0
100
AcDbLine
 62
7
  6
CONTINUOUS
 10
0.597023894
 20
256.2059967364
 11
1.730212483
 21
255.9310488237
  0
LINE
  5
33A
100
AcDbEntity
  8
0
100
AcDbLine
 62
7
  6
CONTINUOUS
 10
56.5063022207
 20
232.7629369733
 11
56.8761434834
 21
232.5493267335
  0
LINE
  5
33B
100
AcDbEntity
  8
0
100
AcDbLine
 62
7
  6
CONTINUOUS
 10
8.8527102167
 20
263.162084029
 11
46.9320791332
 21
241.1684777318
  0
LINE
  5
33C
100
AcDbEntity
  8
0
100
AcDbLine
 62
7
  6
CONTINUOUS
 10
7.6685565935
 20
262.5428193933
 11
7.3161763129
 21
262.7502093671
  0
LINE
  5
33D
100
AcDbEntity
  8
0
100
AcDbLine
 62
7
  6
CONTINUOUS
 10
56.36363299
 20
235.4814350927
 11
46.9320791332
 21
241.1684777319
  0
LINE
  5
33E
100
AcDbEntity
  8
0
100
AcDbLine
 62
7
  6
CONTINUOUS
 10
45.0316884078
 20
155.399894369
 11
45.5936692254
 21
155.7665823027
  0
LINE
  5
33F
100
AcDbEntity
  8
0
100
AcDbLine
 62
7
  6
CONTINUOUS
 10
45.0316884078
 20
152.182223222
 11
45.5936692254
 21
152.5489111557
  0
LINE
  5
340
100
AcDbEntity
  8
0
100
AcDbLine
 62
7
  6
CONTINUOUS
 10
4.4455275607
 20
261.6788558276
 11
-0.707657122
 21
263.607100303
  0
LINE
  5
341
100
AcDbEntity
  8
0
100
AcDbLine
 62
7
  6
CONTINUOUS
 10
0.4183854962
 20
262.9567287574
 11
5.589258464
 21
261.0182680103
  0
LINE
  5
342
100
AcDbEntity
  8
0
100
AcDbLine
 62
7
  6
CONTINUOUS
 10
48.8456854618
 20
150.7672922126
 11
46.6473487341
 21
149.7468118574
  0
LINE
  5
343
100
AcDbEntity
  8
0
100
AcDbLine
 62
7
  6
CONTINUOUS
 10
7.6774245558
 20
255.8796707312
 11
6.4356918428
 21
255.5468124753
  0
LINE
  5
344
100
AcDbEntity
  8
0
100
AcDbLine
 62
7
  6
CONTINUOUS
 10
1.3020515373
 20
254.1706913984
 11
0.0603188243
 21
253.8378331426
  0
LINE
  5
345
100
AcDbEntity
  8
0
100
AcDbLine
 62
7
  6
CONTINUOUS
 10
-1.4590084919
 20
254.9406942347
 11
-0.2772684515
 21
255.2574708845
  0
LINE
  5
346
100
AcDbEntity
  8
0
100
AcDbLine
 62
7
  6
CONTINUOUS
 10
0.7144624031
 20
255.523313766
 11
1.8903927408
 21
255.8385330697
  0
LINE
  5
347
100
AcDbEntity
  8
0
100
AcDbLine
 62
7
  6
CONTINUOUS
 10
0.597023894
 20
256.2059967364
 11
-0.1300695605
 21
256.0110924252
  0
LINE
  5
348
100
AcDbEntity
  8
0
100
AcDbLine
 62
7
  6
CONTINUOUS
 10
-1.1218004151
 20
255.7452495437
 11
-1.4590084919
 21
255.6548577137
  0
LINE
  5
349
100
AcDbEntity
  8
0
100
AcDbLine
 62
7
  6
CONTINUOUS
 10
1.8903927408
 20
256.7854477215
 11
0.7144624031
 21
256.4702284178
  0
LINE
  5
34A
100
AcDbEntity
  8
0
100
AcDbLine
 62
7
  6
CONTINUOUS
 10
-0.2772684515
 20
256.2043855363
 11
-1.4590084919
 21
255.8876088865
  0
LINE
  5
34B
100
AcDbEntity
  8
0
100
AcDbLine
 62
7
  6
CONTINUOUS
 10
2.610232774
 20
258.8063426864
 11
2.5150146124
 21
258.7808185532
  0
LINE
  5
34C
100
AcDbEntity
  8
0
100
AcDbLine
 62
7
  6
CONTINUOUS
 10
-4.5300537192
 20
256.8923210267
 11
-5.0068729576
 21
256.7645050979
  0
LINE
  5
34D
100
AcDbEntity
  8
0
100
AcDbLine
 62
7
  6
CONTINUOUS
 10
5.589258464
 20
261.0182680103
 11
2.1148556187
 21
260.086921305
  0
LINE
  5
34E
100
AcDbEntity
  8
0
100
AcDbLine
 62
7
  6
CONTINUOUS
 10
-11.328649932
 20
256.4832618675
 11
-6.2014293614
 21
257.8576620734
  0
LINE
  5
34F
100
AcDbEntity
  8
0
100
AcDbLine
 62
7
  6
CONTINUOUS
 10
-15.695409868
 20
256.2798861191
 11
-12.4723808352
 21
257.1438496848
  0
LINE
  5
350
100
AcDbEntity
  8
0
100
AcDbLine
 62
7
  6
CONTINUOUS
 10
4.4455275607
 20
261.6788558276
 11
7.6685565935
 21
262.5428193933
  0
LINE
  5
351
100
AcDbEntity
  8
0
100
AcDbLine
 62
7
  6
CONTINUOUS
 10
7.3161763129
 20
262.7502093671
 11
8.8527102167
 21
263.162084029
  0
LINE
  5
352
100
AcDbEntity
  8
0
100
AcDbLine
 62
7
  6
CONTINUOUS
 10
-17.5934459054
 20
256.0729405214
 11
-16.0569305796
 21
256.4848259135
  0
LINE
  5
353
100
AcDbEntity
  8
0
100
AcDbLine
 62
7
  6
CONTINUOUS
 10
2.0897611384
 20
261.9913877107
 11
0.4368763807
 21
261.5483162414
  0
LINE
  5
354
100
AcDbEntity
  8
0
100
AcDbLine
 62
7
  6
CONTINUOUS
 10
-2.8688931345
 20
260.662173303
 11
-4.5217778922
 21
260.2191018338
  0
LINE
  5
355
100
AcDbEntity
  8
0
100
AcDbLine
 62
7
  6
CONTINUOUS
 10
-0.707657122
 20
263.607100303
 11
-2.3605418796
 21
263.1640288338
  0
LINE
  5
356
100
AcDbEntity
  8
0
100
AcDbLine
 62
7
  6
CONTINUOUS
 10
-5.6663113949
 20
262.2778858953
 11
-7.3191961525
 21
261.8348144261
  0
LINE
  5
357
100
AcDbEntity
  8
0
100
AcDbLine
 62
7
  6
CONTINUOUS
 10
-14.2797557584
 20
264.8117860799
 11
-12.8756102889
 21
265.1011152482
  0
ARC
  5
358
100
AcDbEntity
  8
0
100
AcDbCircle
 62
7
  6
CONTINUOUS
 10
-133.5133674458
 20
212.466404508
 40
164.9623211778
100
AcDbArc
 50
4.1994516288
 51
4.5640756332
  0
ARC
  5
359
100
AcDbEntity
  8
0
100
AcDbCircle
 62
7
  6
CONTINUOUS
 10
-131.8171132908
 20
212.8671360642
 40
162.6451917066
100
AcDbArc
 50
4.0549239198
 51
4.6152202286
  0
ARC
  5
35A
100
AcDbEntity
  8
0
100
AcDbCircle
 62
7
  6
CONTINUOUS
 10
4.2878578631
 20
364.9847679913
 40
153.8623452816
100
AcDbArc
 50
280.6385263138
 51
281.6390876063
  0
ARC
  5
35B
100
AcDbEntity
  8
0
100
AcDbCircle
 62
7
  6
CONTINUOUS
 10
4.555916436
 20
363.5614493955
 40
152.414004595
100
AcDbArc
 50
280.1137844142
 51
280.6382673077
  0
ARC
  5
35C
100
AcDbEntity
  8
0
100
AcDbCircle
 62
7
  6
CONTINUOUS
 10
4.8368527639
 20
363.076450015
 40
151.6773884152
100
AcDbArc
 50
280.5687085604
 51
281.587566933
  0
ARC
  5
35D
100
AcDbEntity
  8
0
100
AcDbCircle
 62
7
  6
CONTINUOUS
 10
5.1920374293
 20
361.2002687432
 40
149.7678893757
100
AcDbArc
 50
280.0898043039
 51
280.56678031
  0
ARC
  5
35E
100
AcDbEntity
  8
0
100
AcDbCircle
 62
7
  6
CONTINUOUS
 10
6.6001381598
 20
348.100180939
 40
136.2141997178
100
AcDbArc
 50
280.1020990571
 51
280.2419632776
  0
ARC
  5
35F
100
AcDbEntity
  8
0
100
AcDbCircle
 62
7
  6
CONTINUOUS
 10
68.699227526
 20
140.9031273381
 40
25.1685952616
100
AcDbArc
 50
123.6762373557
 51
123.93889329
  0
ARC
  5
360
100
AcDbEntity
  8
0
100
AcDbCircle
 62
9
  6
CONTINUOUS
 10
50.1566462816
 20
206.2204598285
 40
3.259571505
100
AcDbArc
 50
347.1805786059
 51
354.0654561075
  0
ARC
  5
361
100
AcDbEntity
  8
0
100
AcDbCircle
 62
9
  6
CONTINUOUS
 10
50.4106791984
 20
206.1919200478
 40
3.0039499942
100
AcDbArc
 50
354.1059261605
 51
359.92752118
  0
ARC
  5
362
100
AcDbEntity
  8
0
100
AcDbCircle
 62
9
  6
CONTINUOUS
 10
50.4196319337
 20
205.4687174736
 40
2.5675736101
100
AcDbArc
 50
290.1347995987
 51
293.9420970443
  0
ARC
  5
363
100
AcDbEntity
  8
0
100
AcDbCircle
 62
9
  6
CONTINUOUS
 10
50.4805153931
 20
205.3005531971
 40
2.3887288307
100
AcDbArc
 50
285.0446324823
 51
290.1521798178
  0
ARC
  5
364
100
AcDbEntity
  8
0
100
AcDbCircle
 62
7
  6
CONTINUOUS
 10
45.6985707708
 20
151.7443171246
 40
2.2103899456
100
AcDbArc
 50
285.0185224146
 51
288.2233645058
  0
ARC
  5
365
100
AcDbEntity
  8
0
100
AcDbCircle
 62
7
  6
CONTINUOUS
 10
43.3492474982
 20
164.4909227437
 40
2.1947535718
100
AcDbArc
 50
105.0157737683
 51
107.6590772168
  0
ARC
  5
366
100
AcDbEntity
  8
0
100
AcDbCircle
 62
7
  6
CONTINUOUS
 10
45.4870383795
 20
164.9985535582
 40
1.8392172617
100
AcDbArc
 50
91.5106473646
 51
94.1182929122
  0
ARC
  5
367
100
AcDbEntity
  8
0
100
AcDbCircle
 62
7
  6
CONTINUOUS
 10
-8.4688422019
 20
260.7172152242
 40
1.5185196337
100
AcDbArc
 50
179.5643958656
 51
179.9997207511
  0
ARC
  5
368
100
AcDbEntity
  8
0
100
AcDbCircle
 62
7
  6
CONTINUOUS
 10
-9.2714623107
 20
260.4928844276
 40
1.0120659979
100
AcDbArc
 50
239.9933652666
 51
240.8760877642
  0
ARC
  5
369
100
AcDbEntity
  8
0
100
AcDbCircle
 62
7
  6
CONTINUOUS
 10
-8.4416311438
 20
261.5914522904
 40
0.8615866083
100
AcDbArc
 50
59.9933355798
 51
60.2133929855
  0
ARC
  5
36A
100
AcDbEntity
  8
0
100
AcDbCircle
 62
7
  6
CONTINUOUS
 10
51.5518093231
 20
205.9125972663
 40
0.7048859824
100
AcDbArc
 50
47.0040416886
 51
58.4397977362
  0
ARC
  5
36B
100
AcDbEntity
  8
0
100
AcDbCircle
 62
7
  6
CONTINUOUS
 10
51.5518093231
 20
211.4286049468
 40
0.7048859824
100
AcDbArc
 50
47.0040416885
 51
58.4397977362
  0
ARC
  5
36C
100
AcDbEntity
  8
0
100
AcDbCircle
 62
7
  6
CONTINUOUS
 10
51.5530181057
 20
205.9136729617
 40
0.7033368776
100
AcDbArc
 50
58.4778392034
 51
70.2499351717
  0
ARC
  5
36D
100
AcDbEntity
  8
0
100
AcDbCircle
 62
7
  6
CONTINUOUS
 10
51.5530181057
 20
211.4296806423
 40
0.7033368776
100
AcDbArc
 50
58.4778392035
 51
70.2499351715
  0
ARC
  5
36E
100
AcDbEntity
  8
0
100
AcDbCircle
 62
7
  6
CONTINUOUS
 10
51.0443926077
 20
205.0334723136
 40
0.7000666146
100
AcDbArc
 50
230.7190469745
 51
241.5275176403
  0
ARC
  5
36F
100
AcDbEntity
  8
0
100
AcDbCircle
 62
7
  6
CONTINUOUS
 10
51.0443926077
 20
210.5494799942
 40
0.7000666146
100
AcDbArc
 50
230.7190469745
 51
241.5275176404
  0
ARC
  5
370
100
AcDbEntity
  8
0
100
AcDbCircle
 62
7
  6
CONTINUOUS
 10
42.7721909141
 20
229.9972528652
 40
0.6762606492
100
AcDbArc
 50
266.4556236868
 51
277.1196058101
  0
ARC
  5
371
100
AcDbEntity
  8
0
100
AcDbCircle
 62
9
  6
CONTINUOUS
 10
53.5602020283
 20
205.6423643988
 40
0.5648602817
100
AcDbArc
 50
104.9347598976
 51
109.2250999569
  0
SPLINE
  5
372
100
AcDbEntity
  8
0
100
AcDbSpline
 62
7
  6
CONTINUOUS
 70
0
 71
3
 72
20
 73
16
 74
0
 42
0.0000001
 43
0.0000001
 44
0.0000000001
 40
0.0
 40
0.0
 40
0.0
 40
0.0
 40
0.1297953181
 40
0.2651237226
 40
0.3337414913
 40
0.4022097159
 40
0.5363824602
 40
0.6013479048
 40
0.6643446298
 40
0.7251523629
 40
0.7837002967
 40
0.8400891609
 40
0.8946030882
 40
0.9477038089
 40
1.0
 40
1.0
 40
1.0
 40
1.0
 10
52.2994509084
 20
205.7430891211
 30
0.0
 10
52.2994509084
 20
205.6382718639
 30
0.0
 10
52.272272722
 20
205.4236202847
 30
0.0
 10
52.180406305
 20
205.1680777746
 30
0.0
 10
52.0747242479
 20
204.9747192282
 30
0.0
 10
51.9500861267
 20
204.7942262926
 30
0.0
 10
51.7996634941
 20
204.6362199849
 30
0.0
 10
51.6294525599
 20
204.5097069264
 30
0.0
 10
51.4967711177
 20
204.4338249055
 30
0.0
 10
51.3602539331
 20
204.3774769139
 30
0.0
 10
51.2223934143
 20
204.3417606051
 30
0.0
 10
51.0857558041
 20
204.3274400754
 30
0.0
 10
50.9529061576
 20
204.3349104511
 30
0.0
 10
50.8264699855
 20
204.3641233698
 30
0.0
 10
50.747770284
 20
204.3979496572
 30
0.0
 10
50.7106452071
 20
204.4180814317
 30
0.0
  0
SPLINE
  5
373
100
AcDbEntity
  8
0
100
AcDbSpline
 62
7
  6
CONTINUOUS
 70
0
 71
3
 72
11
 73
7
 74
0
 42
0.0000001
 43
0.0000001
 44
0.0000000001
 40
0.0
 40
0.0
 40
0.0
 40
0.0
 40
0.2330827636
 40
0.4759178348
 40
0.731278691
 40
1.0
 40
1.0
 40
1.0
 40
1.0
 10
52.0331065226
 20
206.4275907001
 30
0.0
 10
52.0759493373
 20
206.3876199951
 30
0.0
 10
52.1536428157
 20
206.2949325201
 30
0.0
 10
52.2376482876
 20
206.1298888037
 30
0.0
 10
52.2886614683
 20
205.9427342442
 30
0.0
 10
52.2994509084
 20
205.8106412787
 30
0.0
 10
52.2994509084
 20
205.7430891211
 30
0.0
  0
SPLINE
  5
374
100
AcDbEntity
  8
0
100
AcDbSpline
 62
7
  6
CONTINUOUS
 70
0
 71
3
 72
20
 73
16
 74
0
 42
0.0000001
 43
0.0000001
 44
0.0000000001
 40
0.0
 40
0.0
 40
0.0
 40
0.0
 40
0.1297953181
 40
0.2651237226
 40
0.3337414913
 40
0.4022097159
 40
0.5363824602
 40
0.6013479048
 40
0.6643446298
 40
0.7251523629
 40
0.7837002967
 40
0.8400891609
 40
0.8946030882
 40
0.9477038089
 40
1.0
 40
1.0
 40
1.0
 40
1.0
 10
52.2994509084
 20
211.2590968017
 30
0.0
 10
52.2994509084
 20
211.1542795445
 30
0.0
 10
52.272272722
 20
210.9396279653
 30
0.0
 10
52.180406305
 20
210.6840854552
 30
0.0
 10
52.0747242479
 20
210.4907269088
 30
0.0
 10
51.9500861267
 20
210.3102339732
 30
0.0
 10
51.7996634941
 20
210.1522276655
 30
0.0
 10
51.6294525599
 20
210.025714607
 30
0.0
 10
51.4967711177
 20
209.9498325861
 30
0.0
 10
51.3602539331
 20
209.8934845945
 30
0.0
 10
51.2223934143
 20
209.8577682857
 30
0.0
 10
51.0857558041
 20
209.843447756
 30
0.0
 10
50.9529061576
 20
209.8509181317
 30
0.0
 10
50.8264699855
 20
209.8801310504
 30
0.0
 10
50.747770284
 20
209.9139573377
 30
0.0
 10
50.7106452071
 20
209.9340891123
 30
0.0
  0
SPLINE
  5
375
100
AcDbEntity
  8
0
100
AcDbSpline
 62
7
  6
CONTINUOUS
 70
0
 71
3
 72
11
 73
7
 74
0
 42
0.0000001
 43
0.0000001
 44
0.0000000001
 40
0.0
 40
0.0
 40
0.0
 40
0.0
 40
0.2330827636
 40
0.4759178348
 40
0.731278691
 40
1.0
 40
1.0
 40
1.0
 40
1.0
 10
52.0331065226
 20
211.9435983807
 30
0.0
 10
52.0759493373
 20
211.9036276757
 30
0.0
 10
52.1536428157
 20
211.8109402006
 30
0.0
 10
52.2376482876
 20
211.6458964843
 30
0.0
 10
52.2886614683
 20
211.4587419248
 30
0.0
 10
52.2994509084
 20
211.3266489593
 30
0.0
 10
52.2994509084
 20
211.2590968017
 30
0.0
  0
SPLINE
  5
376
100
AcDbEntity
  8
0
100
AcDbSpline
 62
7
  6
CONTINUOUS
 70
0
 71
3
 72
9
 73
5
 74
0
 42
0.0000001
 43
0.0000001
 44
0.0000000001
 40
0.0
 40
0.0
 40
0.0
 40
0.0
 40
0.4911647526
 40
1.0
 40
1.0
 40
1.0
 40
1.0
 10
56.8247268384
 20
163.4648195027
 30
0.0
 10
56.3546184589
 20
163.2972530842
 30
0.0
 10
55.4207804862
 20
162.8879378407
 30
0.0
 10
54.5478503127
 20
162.3622346032
 30
0.0
 10
54.1215129227
 20
162.0697257951
 30
0.0
  0
SPLINE
  5
377
100
AcDbEntity
  8
0
100
AcDbSpline
 62
7
  6
CONTINUOUS
 70
0
 71
3
 72
9
 73
5
 74
0
 42
0.0000001
 43
0.0000001
 44
0.0000000001
 40
0.0
 40
0.0
 40
0.0
 40
0.0
 40
0.2480210451
 40
1.0
 40
1.0
 40
1.0
 40
1.0
 10
54.1215129227
 20
162.0697257951
 30
0.0
 10
54.0393075148
 20
162.0133249107
 30
0.0
 10
53.7104774636
 20
161.7821286369
 30
0.0
 10
53.3921750202
 20
161.5359924316
 30
0.0
 10
53.1592176246
 20
161.343396199
 30
0.0
  0
SPLINE
  5
378
100
AcDbEntity
  8
0
100
AcDbSpline
 62
7
  6
CONTINUOUS
 70
0
 71
3
 72
11
 73
7
 74
0
 42
0.0000001
 43
0.0000001
 44
0.0000000001
 40
0.0
 40
0.0
 40
0.0
 40
0.0
 40
0.2501153801
 40
0.5054268862
 40
0.7578730627
 40
1.0
 40
1.0
 40
1.0
 40
1.0
 10
53.1592176246
 20
161.343396199
 30
0.0
 10
53.1037777578
 20
161.2975615973
 30
0.0
 10
53.0022150854
 20
161.1916572847
 30
0.0
 10
52.8867379291
 20
161.0050254096
 30
0.0
 10
52.8129475651
 20
160.8007390726
 30
0.0
 10
52.79479609
 20
160.6581112932
 30
0.0
 10
52.79479609
 20
160.588475541
 30
0.0
  0
SPLINE
  5
379
100
AcDbEntity
  8
0
100
AcDbSpline
 62
7
  6
CONTINUOUS
 70
0
 71
3
 72
11
 73
7
 74
0
 42
0.0000001
 43
0.0000001
 44
0.0000000001
 40
0.0
 40
0.0
 40
0.0
 40
0.0
 40
0.2717772172
 40
0.5268672926
 40
0.7676339507
 40
1.0
 40
1.0
 40
1.0
 40
1.0
 10
52.79479609
 20
160.588475541
 30
0.0
 10
52.79479609
 20
160.5337833106
 30
0.0
 10
52.8054307513
 20
160.427305953
 30
0.0
 10
52.8563581852
 20
160.2798095656
 30
0.0
 10
52.9398177968
 20
160.1570934711
 30
0.0
 10
53.0153401144
 20
160.0963347151
 30
0.0
 10
53.0558345526
 20
160.0729508232
 30
0.0
  0
SPLINE
  5
37A
100
AcDbEntity
  8
0
100
AcDbSpline
 62
7
  6
CONTINUOUS
 70
0
 71
3
 72
10
 73
6
 74
0
 42
0.0000001
 43
0.0000001
 44
0.0000000001
 40
0.0
 40
0.0
 40
0.0
 40
0.0
 40
0.238284817
 40
0.4820672183
 40
1.0
 40
1.0
 40
1.0
 40
1.0
 10
56.9944065748
 20
163.4549310861
 30
0.0
 10
56.9823919955
 20
163.4618712753
 30
0.0
 10
56.9562587699
 20
163.4729865757
 30
0.0
 10
56.8984399992
 20
163.482736203
 30
0.0
 10
56.8531347332
 20
163.4749452724
 30
0.0
 10
56.8247268384
 20
163.4648195027
 30
0.0
  0
SPLINE
  5
37B
100
AcDbEntity
  8
0
100
AcDbSpline
 62
7
  6
CONTINUOUS
 70
0
 71
3
 72
10
 73
6
 74
0
 42
0.0000001
 43
0.0000001
 44
0.0000000001
 40
0.0
 40
0.0
 40
0.0
 40
0.0
 40
0.2472056027
 40
0.4979765009
 40
1.0
 40
1.0
 40
1.0
 40
1.0
 10
57.4598131219
 20
163.1861261837
 30
0.0
 10
57.4829624131
 20
163.1727557659
 30
0.0
 10
57.5266523007
 20
163.1404571688
 30
0.0
 10
57.6003690226
 20
163.0608709159
 30
0.0
 10
57.6397664448
 20
162.9872116023
 30
0.0
 10
57.6566948221
 20
162.9356289928
 30
0.0
  0
SPLINE
  5
37C
100
AcDbEntity
  8
0
100
AcDbSpline
 62
7
  6
CONTINUOUS
 70
0
 71
3
 72
11
 73
7
 74
0
 42
0.0000001
 43
0.0000001
 44
0.0000000001
 40
0.0
 40
0.0
 40
0.0
 40
0.0
 40
0.2186319239
 40
0.4591696384
 40
0.7204486316
 40
1.0
 40
1.0
 40
1.0
 40
1.0
 10
57.6566948221
 20
159.8933314866
 30
0.0
 10
57.7043772923
 20
159.9835449748
 30
0.0
 10
57.7876786249
 20
160.1821107608
 30
0.0
 10
57.8738721919
 20
160.5079552214
 30
0.0
 10
57.9259272244
 20
160.8696028884
 30
0.0
 10
57.9368284235
 20
161.1222107881
 30
0.0
 10
57.9368284235
 20
161.2526827017
 30
0.0
  0
SPLINE
  5
37D
100
AcDbEntity
  8
0
100
AcDbSpline
 62
7
  6
CONTINUOUS
 70
0
 71
3
 72
11
 73
7
 74
0
 42
0.0000001
 43
0.0000001
 44
0.0000000001
 40
0.0
 40
0.0
 40
0.0
 40
0.0
 40
0.2406638563
 40
0.4900687281
 40
0.7444883858
 40
1.0
 40
1.0
 40
1.0
 40
1.0
 10
57.9368284235
 20
161.2526827017
 30
0.0
 10
57.9368284235
 20
161.3900721756
 30
0.0
 10
57.9240894429
 20
161.6699544322
 30
0.0
 10
57.8702690885
 20
162.0919645464
 30
0.0
 10
57.7824474088
 20
162.516874242
 30
0.0
 10
57.7021783111
 20
162.7970358474
 30
0.0
 10
57.6566948221
 20
162.9356289928
 30
0.0
  0
SPLINE
  5
37E
100
AcDbEntity
  8
0
100
AcDbSpline
 62
7
  6
CONTINUOUS
 70
0
 71
3
 72
13
 73
9
 74
0
 42
0.0000001
 43
0.0000001
 44
0.0000000001
 40
0.0
 40
0.0
 40
0.0
 40
0.0
 40
0.1241685088
 40
0.2614598182
 40
0.5390897001
 40
0.7899841163
 40
0.9006180826
 40
1.0
 40
1.0
 40
1.0
 40
1.0
 10
57.2604678971
 20
159.620981892
 30
0.0
 10
57.2804218645
 20
159.6251153834
 30
0.0
 10
57.3217538328
 20
159.637173229
 30
0.0
 10
57.4036512599
 20
159.6709092427
 30
0.0
 10
57.4988063144
 20
159.7256784329
 30
0.0
 10
57.5804354609
 20
159.7926775856
 30
0.0
 10
57.6301172922
 20
159.8499232394
 30
0.0
 10
57.649073501
 20
159.8789121986
 30
0.0
 10
57.6566949562
 20
159.8933317464
 30
0.0
  0
SPLINE
  5
37F
100
AcDbEntity
  8
0
100
AcDbSpline
 62
7
  6
CONTINUOUS
 70
0
 71
3
 72
14
 73
10
 74
0
 42
0.0000001
 43
0.0000001
 44
0.0000000001
 40
0.0
 40
0.0
 40
0.0
 40
0.0
 40
0.1295248967
 40
0.2559751082
 40
0.3801854959
 40
0.5030804078
 40
0.625631573
 40
0.748777451
 40
1.0
 40
1.0
 40
1.0
 40
1.0
 10
53.6302093133
 20
159.7568962234
 30
0.0
 10
53.7816026474
 20
159.7096345148
 30
0.0
 10
54.0839315547
 20
159.6258994484
 30
0.0
 10
54.5403653943
 20
159.5325566874
 30
0.0
 10
54.9941619248
 20
159.4722828449
 30
0.0
 10
55.4462489958
 20
159.4438595371
 30
0.0
 10
55.8979096716
 20
159.4457892378
 30
0.0
 10
56.5052826375
 20
159.4869439882
 30
0.0
 10
56.9592492941
 20
159.5585840504
 30
0.0
 10
57.2604678795
 20
159.6209818883
 30
0.0
  0
SPLINE
  5
380
100
AcDbEntity
  8
0
100
AcDbSpline
 62
7
  6
CONTINUOUS
 70
0
 71
3
 72
11
 73
7
 74
0
 42
0.0000001
 43
0.0000001
 44
0.0000000001
 40
0.0
 40
0.0
 40
0.0
 40
0.0
 40
0.2520733449
 40
0.5068122559
 40
0.7584563447
 40
1.0
 40
1.0
 40
1.0
 40
1.0
 10
53.6302093189
 20
161.0713642278
 30
0.0
 10
53.5712102928
 20
161.0288102886
 30
0.0
 10
53.4636613797
 20
160.9269561591
 30
0.0
 10
53.3443571631
 20
160.7412334468
 30
0.0
 10
53.2700965701
 20
160.5367976333
 30
0.0
 10
53.2520664169
 20
160.3940741882
 30
0.0
 10
53.2520664169
 20
160.324368655
 30
0.0
  0
SPLINE
  5
381
100
AcDbEntity
  8
0
100
AcDbSpline
 62
7
  6
CONTINUOUS
 70
0
 71
3
 72
11
 73
7
 74
0
 42
0.0000001
 43
0.0000001
 44
0.0000000001
 40
0.0
 40
0.0
 40
0.0
 40
0.0
 40
0.2685310552
 40
0.520993998
 40
0.7617918006
 40
1.0
 40
1.0
 40
1.0
 40
1.0
 10
53.2520664169
 20
160.324368655
 30
0.0
 10
53.2520664169
 20
160.2696712625
 30
0.0
 10
53.2626364823
 20
160.1630968001
 30
0.0
 10
53.3139165352
 20
160.0149276095
 30
0.0
 10
53.3997439489
 20
159.890706474
 30
0.0
 10
53.4777104961
 20
159.8292819544
 30
0.0
 10
53.5197286568
 20
159.805017752
 30
0.0
  0
SPLINE
  5
382
100
AcDbEntity
  8
0
100
AcDbSpline
 62
7
  6
CONTINUOUS
 70
0
 71
3
 72
11
 73
7
 74
0
 42
0.0000001
 43
0.0000001
 44
0.0000000001
 40
0.0
 40
0.0
 40
0.0
 40
0.0
 40
0.2413978011
 40
0.4877157218
 40
0.7402936106
 40
1.0
 40
1.0
 40
1.0
 40
1.0
 10
57.2604679142
 20
163.2131473423
 30
0.0
 10
57.0454267896
 20
163.1292103564
 30
0.0
 10
56.6172864983
 20
162.9430553253
 30
0.0
 10
55.9877439607
 20
162.6184144585
 30
0.0
 10
55.361747838
 20
162.2512802017
 30
0.0
 10
54.9499327565
 20
161.9857414122
 30
0.0
 10
54.7432581127
 20
161.8480337637
 30
0.0
  0
SPLINE
  5
383
100
AcDbEntity
  8
0
100
AcDbSpline
 62
7
  6
CONTINUOUS
 70
0
 71
3
 72
9
 73
5
 74
0
 42
0.0000001
 43
0.0000001
 44
0.0000000001
 40
0.0
 40
0.0
 40
0.0
 40
0.0
 40
0.2462164232
 40
1.0
 40
1.0
 40
1.0
 40
1.0
 10
54.6473892236
 20
161.7838368032
 30
0.0
 10
54.5628253662
 20
161.7269330676
 30
0.0
 10
54.2207262382
 20
161.493805008
 30
0.0
 10
53.8832932192
 20
161.2539048171
 30
0.0
 10
53.6302093188
 20
161.0713642278
 30
0.0
  0
SPLINE
  5
384
100
AcDbEntity
  8
0
100
AcDbSpline
 62
7
  6
CONTINUOUS
 70
0
 71
3
 72
11
 73
7
 74
0
 42
0.0000001
 43
0.0000001
 44
0.0000000001
 40
0.0
 40
0.0
 40
0.0
 40
0.0
 40
0.2365170164
 40
0.4822635926
 40
0.7374017104
 40
1.0
 40
1.0
 40
1.0
 40
1.0
 10
57.2604678972
 20
163.2131473356
 30
0.0
 10
57.2757154811
 20
163.219098924
 30
0.0
 10
57.308749067
 20
163.2266809613
 30
0.0
 10
57.3602239321
 20
163.2245985444
 30
0.0
 10
57.411589862
 20
163.210784777
 30
0.0
 10
57.4440764539
 20
163.1952152667
 30
0.0
 10
57.4598131219
 20
163.1861261837
 30
0.0
  0
SPLINE
  5
385
100
AcDbEntity
  8
0
100
AcDbSpline
 62
7
  6
CONTINUOUS
 70
0
 71
3
 72
11
 73
7
 74
0
 42
0.0000001
 43
0.0000001
 44
0.0000000001
 40
0.0
 40
0.0
 40
0.0
 40
0.0
 40
0.2397962303
 40
0.4840531967
 40
0.7366094796
 40
1.0
 40
1.0
 40
1.0
 40
1.0
 10
47.3325049995
 20
147.6591354569
 30
0.0
 10
47.2789802142
 20
147.6900500057
 30
0.0
 10
47.1638261483
 20
147.7409309061
 30
0.0
 10
46.9766454562
 20
147.7797635441
 30
0.0
 10
46.7795102688
 20
147.7807160316
 30
0.0
 10
46.6478682191
 20
147.7568071292
 30
0.0
 10
46.5822905382
 20
147.739228409
 30
0.0
  0
SPLINE
  5
386
100
AcDbEntity
  8
0
100
AcDbSpline
 62
7
  6
CONTINUOUS
 70
0
 71
3
 72
18
 73
14
 74
0
 42
0.0000001
 43
0.0000001
 44
0.0000000001
 40
0.0
 40
0.0
 40
0.0
 40
0.0
 40
0.1227907088
 40
0.2546074095
 40
0.3915427307
 40
0.5282368149
 40
0.6593939227
 40
0.7217936652
 40
0.7816425716
 40
0.8389691975
 40
0.8940647557
 40
0.9474839804
 40
1.0
 40
1.0
 40
1.0
 40
1.0
 10
46.5822905382
 20
147.739228409
 30
0.0
 10
46.4485285291
 20
147.7033722321
 30
0.0
 10
46.1827457041
 20
147.5819572675
 30
0.0
 10
45.8416693339
 20
147.2946544346
 30
0.0
 10
45.5697080217
 20
146.9216523736
 30
0.0
 10
45.3914633488
 20
146.4969703245
 30
0.0
 10
45.3336084456
 20
146.1243132423
 30
0.0
 10
45.3496141121
 20
145.8380782966
 30
0.0
 10
45.3912078989
 20
145.6390015112
 30
0.0
 10
45.4617763982
 20
145.4569712931
 30
0.0
 10
45.5598771745
 20
145.2964420248
 30
0.0
 10
45.6832312655
 20
145.1616097905
 30
0.0
 10
45.7807880788
 20
145.0909401583
 30
0.0
 10
45.8320760768
 20
145.0613175208
 30
0.0
  0
SPLINE
  5
387
100
AcDbEntity
  8
0
100
AcDbSpline
 62
7
  6
CONTINUOUS
 70
0
 71
3
 72
11
 73
7
 74
0
 42
0.0000001
 43
0.0000001
 44
0.0000000001
 40
0.0
 40
0.0
 40
0.0
 40
0.0
 40
0.2397962303
 40
0.4840531967
 40
0.7366094796
 40
1.0
 40
1.0
 40
1.0
 40
1.0
 10
45.8320760768
 20
145.0613175208
 30
0.0
 10
45.8856008621
 20
145.030402972
 30
0.0
 10
46.000754928
 20
144.9795220716
 30
0.0
 10
46.1879356201
 20
144.9406894336
 30
0.0
 10
46.3850708076
 20
144.939736946
 30
0.0
 10
46.5167128572
 20
144.9636458485
 30
0.0
 10
46.5822905382
 20
144.9812245687
 30
0.0
  0
SPLINE
  5
388
100
AcDbEntity
  8
0
100
AcDbSpline
 62
7
  6
CONTINUOUS
 70
0
 71
3
 72
18
 73
14
 74
0
 42
0.0000001
 43
0.0000001
 44
0.0000000001
 40
0.0
 40
0.0
 40
0.0
 40
0.0
 40
0.1227907088
 40
0.2546074095
 40
0.3915427307
 40
0.5282368149
 40
0.6593939227
 40
0.7217936652
 40
0.7816425716
 40
0.8389691975
 40
0.8940647557
 40
0.9474839804
 40
1.0
 40
1.0
 40
1.0
 40
1.0
 10
46.5822905382
 20
144.9812245687
 30
0.0
 10
46.7160525472
 20
145.0170807456
 30
0.0
 10
46.9818353722
 20
145.1384957102
 30
0.0
 10
47.3229117424
 20
145.425798543
 30
0.0
 10
47.5948730546
 20
145.7988006041
 30
0.0
 10
47.7731177275
 20
146.2234826532
 30
0.0
 10
47.8309726308
 20
146.5961397354
 30
0.0
 10
47.8149669643
 20
146.8823746811
 30
0.0
 10
47.7733731774
 20
147.0814514664
 30
0.0
 10
47.7028046781
 20
147.2634816846
 30
0.0
 10
47.6047039019
 20
147.4240109528
 30
0.0
 10
47.4813498108
 20
147.5588431872
 30
0.0
 10
47.3837929975
 20
147.6295128193
 30
0.0
 10
47.3325049995
 20
147.6591354569
 30
0.0
  0
SPLINE
  5
389
100
AcDbEntity
  8
0
100
AcDbSpline
 62
7
  6
CONTINUOUS
 70
0
 71
3
 72
11
 73
7
 74
0
 42
0.0000001
 43
0.0000001
 44
0.0000000001
 40
0.0
 40
0.0
 40
0.0
 40
0.0
 40
0.2397962303
 40
0.4840531967
 40
0.7366094796
 40
1.0
 40
1.0
 40
1.0
 40
1.0
 10
47.3325049995
 20
170.6425007927
 30
0.0
 10
47.2789802142
 20
170.6734153414
 30
0.0
 10
47.1638261483
 20
170.7242962419
 30
0.0
 10
46.9766454562
 20
170.7631288799
 30
0.0
 10
46.7795102688
 20
170.7640813674
 30
0.0
 10
46.6478682191
 20
170.740172465
 30
0.0
 10
46.5822905382
 20
170.7225937448
 30
0.0
  0
SPLINE
  5
38A
100
AcDbEntity
  8
0
100
AcDbSpline
 62
7
  6
CONTINUOUS
 70
0
 71
3
 72
18
 73
14
 74
0
 42
0.0000001
 43
0.0000001
 44
0.0000000001
 40
0.0
 40
0.0
 40
0.0
 40
0.0
 40
0.1227907088
 40
0.2546074095
 40
0.3915427307
 40
0.5282368149
 40
0.6593939227
 40
0.7217936652
 40
0.7816425716
 40
0.8389691975
 40
0.8940647557
 40
0.9474839804
 40
1.0
 40
1.0
 40
1.0
 40
1.0
 10
46.5822905382
 20
170.7225937448
 30
0.0
 10
46.4485285291
 20
170.6867375678
 30
0.0
 10
46.1827457041
 20
170.5653226032
 30
0.0
 10
45.8416693339
 20
170.2780197704
 30
0.0
 10
45.5697080217
 20
169.9050177094
 30
0.0
 10
45.3914633488
 20
169.4803356602
 30
0.0
 10
45.3336084455
 20
169.107678578
 30
0.0
 10
45.3496141121
 20
168.8214436323
 30
0.0
 10
45.3912078989
 20
168.622366847
 30
0.0
 10
45.4617763982
 20
168.4403366289
 30
0.0
 10
45.5598771745
 20
168.2798073606
 30
0.0
 10
45.6832312655
 20
168.1449751263
 30
0.0
 10
45.7807880788
 20
168.0743054941
 30
0.0
 10
45.8320760768
 20
168.0446828565
 30
0.0
  0
SPLINE
  5
38B
100
AcDbEntity
  8
0
100
AcDbSpline
 62
7
  6
CONTINUOUS
 70
0
 71
3
 72
11
 73
7
 74
0
 42
0.0000001
 43
0.0000001
 44
0.0000000001
 40
0.0
 40
0.0
 40
0.0
 40
0.0
 40
0.2397962303
 40
0.4840531967
 40
0.7366094796
 40
1.0
 40
1.0
 40
1.0
 40
1.0
 10
45.8320760768
 20
168.0446828565
 30
0.0
 10
45.8856008621
 20
168.0137683078
 30
0.0
 10
46.000754928
 20
167.9628874073
 30
0.0
 10
46.1879356201
 20
167.9240547693
 30
0.0
 10
46.3850708076
 20
167.9231022818
 30
0.0
 10
46.5167128572
 20
167.9470111843
 30
0.0
 10
46.5822905382
 20
167.9645899045
 30
0.0
  0
SPLINE
  5
38C
100
AcDbEntity
  8
0
100
AcDbSpline
 62
7
  6
CONTINUOUS
 70
0
 71
3
 72
18
 73
14
 74
0
 42
0.0000001
 43
0.0000001
 44
0.0000000001
 40
0.0
 40
0.0
 40
0.0
 40
0.0
 40
0.1227907088
 40
0.2546074095
 40
0.3915427307
 40
0.5282368149
 40
0.6593939227
 40
0.7217936652
 40
0.7816425716
 40
0.8389691975
 40
0.8940647557
 40
0.9474839804
 40
1.0
 40
1.0
 40
1.0
 40
1.0
 10
46.5822905382
 20
167.9645899045
 30
0.0
 10
46.7160525472
 20
168.0004460814
 30
0.0
 10
46.9818353722
 20
168.121861046
 30
0.0
 10
47.3229117424
 20
168.4091638788
 30
0.0
 10
47.5948730546
 20
168.7821659398
 30
0.0
 10
47.7731177275
 20
169.206847989
 30
0.0
 10
47.8309726308
 20
169.5795050712
 30
0.0
 10
47.8149669643
 20
169.8657400169
 30
0.0
 10
47.7733731774
 20
170.0648168022
 30
0.0
 10
47.7028046781
 20
170.2468470204
 30
0.0
 10
47.6047039019
 20
170.4073762886
 30
0.0
 10
47.4813498108
 20
170.5422085229
 30
0.0
 10
47.3837929975
 20
170.6128781551
 30
0.0
 10
47.3325049995
 20
170.6425007927
 30
0.0
  0
SPLINE
  5
38D
100
AcDbEntity
  8
0
100
AcDbSpline
 62
7
  6
CONTINUOUS
 70
0
 71
3
 72
11
 73
7
 74
0
 42
0.0000001
 43
0.0000001
 44
0.0000000001
 40
0.0
 40
0.0
 40
0.0
 40
0.0
 40
0.2634074773
 40
0.5159333087
 40
0.7602045655
 40
1.0
 40
1.0
 40
1.0
 40
1.0
 10
48.3506051733
 20
180.1859402098
 30
0.0
 10
48.241301697
 20
180.1566403741
 30
0.0
 10
48.0219041129
 20
180.1167818858
 30
0.0
 10
47.6933454581
 20
180.1183908039
 30
0.0
 10
47.3813795815
 20
180.1830857688
 30
0.0
 10
47.1894507239
 20
180.2678955743
 30
0.0
 10
47.1002449752
 20
180.319423569
 30
0.0
  0
SPLINE
  5
38E
100
AcDbEntity
  8
0
100
AcDbSpline
 62
7
  6
CONTINUOUS
 70
0
 71
3
 72
9
 73
5
 74
0
 42
0.0000001
 43
0.0000001
 44
0.0000000001
 40
0.0
 40
0.0
 40
0.0
 40
0.0
 40
0.2467617653
 40
1.0
 40
1.0
 40
1.0
 40
1.0
 10
48.8091295957
 20
185.3775484361
 30
0.0
 10
48.8198123815
 20
185.3513273836
 30
0.0
 10
48.8612010335
 20
185.2442982456
 30
0.0
 10
48.8950160186
 20
185.1343648687
 30
0.0
 10
48.9163504019
 20
185.0506120948
 30
0.0
  0
SPLINE
  5
38F
100
AcDbEntity
  8
0
100
AcDbSpline
 62
7
  6
CONTINUOUS
 70
0
 71
3
 72
19
 73
15
 74
0
 42
0.0000001
 43
0.0000001
 44
0.0000000001
 40
0.0
 40
0.0
 40
0.0
 40
0.0
 40
0.0525033027
 40
0.1059084967
 40
0.1609897977
 40
0.2183013018
 40
0.2781341591
 40
0.3405170097
 40
0.4716376939
 40
0.6082919909
 40
0.7451892813
 40
0.8121466029
 40
0.8772452586
 40
1.0
 40
1.0
 40
1.0
 40
1.0
 10
49.6009653714
 20
184.6491299177
 30
0.0
 10
49.6864461286
 20
184.5997535931
 30
0.0
 10
49.8490498824
 20
184.4819760528
 30
0.0
 10
50.0546366001
 20
184.257242271
 30
0.0
 10
50.218136386
 20
183.9896884087
 30
0.0
 10
50.3357501603
 20
183.6863005694
 30
0.0
 10
50.4050737272
 20
183.3545027326
 30
0.0
 10
50.4317507097
 20
182.8774476165
 30
0.0
 10
50.3353023316
 20
182.2563224917
 30
0.0
 10
50.0382922036
 20
181.5486777889
 30
0.0
 10
49.6573004792
 20
181.0259649673
 30
0.0
 10
49.2888207483
 20
180.6777381318
 30
0.0
 10
48.9009705619
 20
180.3952767328
 30
0.0
 10
48.5735379659
 20
180.2456994637
 30
0.0
 10
48.3506051733
 20
180.1859402098
 30
0.0
  0
SPLINE
  5
390
100
AcDbEntity
  8
0
100
AcDbSpline
 62
7
  6
CONTINUOUS
 70
0
 71
3
 72
19
 73
15
 74
0
 42
0.0000001
 43
0.0000001
 44
0.0000000001
 40
0.0
 40
0.0
 40
0.0
 40
0.0
 40
0.0525033027
 40
0.1059084967
 40
0.1609897977
 40
0.2183013018
 40
0.2781341591
 40
0.3405170097
 40
0.4716376939
 40
0.6082919909
 40
0.7451892813
 40
0.8121466029
 40
0.8772452586
 40
1.0
 40
1.0
 40
1.0
 40
1.0
 10
47.1002449752
 20
180.319423569
 30
0.0
 10
47.0147642179
 20
180.3687998936
 30
0.0
 10
46.8521604642
 20
180.4865774339
 30
0.0
 10
46.6465737464
 20
180.7113112157
 30
0.0
 10
46.4830739606
 20
180.978865078
 30
0.0
 10
46.3654601863
 20
181.2822529173
 30
0.0
 10
46.2961366193
 20
181.6140507541
 30
0.0
 10
46.2694596369
 20
182.0911058703
 30
0.0
 10
46.365908015
 20
182.712230995
 30
0.0
 10
46.662918143
 20
183.4198756978
 30
0.0
 10
47.0439098674
 20
183.9425885194
 30
0.0
 10
47.4123895983
 20
184.2908153549
 30
0.0
 10
47.8002397847
 20
184.5732767539
 30
0.0
 10
48.1276723806
 20
184.722854023
 30
0.0
 10
48.3506051733
 20
184.7826132769
 30
0.0
  0
SPLINE
  5
391
100
AcDbEntity
  8
0
100
AcDbSpline
 62
7
  6
CONTINUOUS
 70
0
 71
3
 72
11
 73
7
 74
0
 42
0.0000001
 43
0.0000001
 44
0.0000000001
 40
0.0
 40
0.0
 40
0.0
 40
0.0
 40
0.2634074773
 40
0.5159333087
 40
0.7602045655
 40
1.0
 40
1.0
 40
1.0
 40
1.0
 10
48.3506051733
 20
184.7826132769
 30
0.0
 10
48.4599086496
 20
184.8119131126
 30
0.0
 10
48.6793062337
 20
184.8517716009
 30
0.0
 10
49.0078648885
 20
184.8501626828
 30
0.0
 10
49.3198307651
 20
184.7854677179
 30
0.0
 10
49.5117596227
 20
184.7006579124
 30
0.0
 10
49.6009653714
 20
184.6491299177
 30
0.0
  0
SPLINE
  5
392
100
AcDbEntity
  8
0
100
AcDbSpline
 62
7
  6
CONTINUOUS
 70
0
 71
3
 72
11
 73
7
 74
0
 42
0.0000001
 43
0.0000001
 44
0.0000000001
 40
0.0
 40
0.0
 40
0.0
 40
0.0
 40
0.2634074773
 40
0.5159333087
 40
0.7602045655
 40
1.0
 40
1.0
 40
1.0
 40
1.0
 10
48.3506051733
 20
189.3792863441
 30
0.0
 10
48.241301697
 20
189.3499865084
 30
0.0
 10
48.0219041129
 20
189.3101280201
 30
0.0
 10
47.6933454581
 20
189.3117369382
 30
0.0
 10
47.3813795815
 20
189.3764319032
 30
0.0
 10
47.1894507239
 20
189.4612417086
 30
0.0
 10
47.1002449752
 20
189.5127697033
 30
0.0
  0
SPLINE
  5
393
100
AcDbEntity
  8
0
100
AcDbSpline
 62
7
  6
CONTINUOUS
 70
0
 71
3
 72
9
 73
5
 74
0
 42
0.0000001
 43
0.0000001
 44
0.0000000001
 40
0.0
 40
0.0
 40
0.0
 40
0.0
 40
0.2467617653
 40
1.0
 40
1.0
 40
1.0
 40
1.0
 10
48.8091295957
 20
194.5708945704
 30
0.0
 10
48.8198123815
 20
194.5446735179
 30
0.0
 10
48.8612010335
 20
194.4376443799
 30
0.0
 10
48.8950160186
 20
194.327711003
 30
0.0
 10
48.9163504019
 20
194.2439582291
 30
0.0
  0
SPLINE
  5
394
100
AcDbEntity
  8
0
100
AcDbSpline
 62
7
  6
CONTINUOUS
 70
0
 71
3
 72
19
 73
15
 74
0
 42
0.0000001
 43
0.0000001
 44
0.0000000001
 40
0.0
 40
0.0
 40
0.0
 40
0.0
 40
0.0525033027
 40
0.1059084967
 40
0.1609897977
 40
0.2183013018
 40
0.2781341591
 40
0.3405170097
 40
0.4716376939
 40
0.6082919909
 40
0.7451892813
 40
0.8121466029
 40
0.8772452586
 40
1.0
 40
1.0
 40
1.0
 40
1.0
 10
49.6009653714
 20
193.842476052
 30
0.0
 10
49.6864461286
 20
193.7930997274
 30
0.0
 10
49.8490498824
 20
193.6753221871
 30
0.0
 10
50.0546366001
 20
193.4505884053
 30
0.0
 10
50.218136386
 20
193.1830345431
 30
0.0
 10
50.3357501603
 20
192.8796467037
 30
0.0
 10
50.4050737272
 20
192.5478488669
 30
0.0
 10
50.4317507097
 20
192.0707937508
 30
0.0
 10
50.3353023316
 20
191.449668626
 30
0.0
 10
50.0382922036
 20
190.7420239232
 30
0.0
 10
49.6573004792
 20
190.2193111016
 30
0.0
 10
49.2888207482
 20
189.8710842661
 30
0.0
 10
48.9009705619
 20
189.5886228672
 30
0.0
 10
48.5735379659
 20
189.439045598
 30
0.0
 10
48.3506051733
 20
189.3792863441
 30
0.0
  0
SPLINE
  5
395
100
AcDbEntity
  8
0
100
AcDbSpline
 62
7
  6
CONTINUOUS
 70
0
 71
3
 72
19
 73
15
 74
0
 42
0.0000001
 43
0.0000001
 44
0.0000000001
 40
0.0
 40
0.0
 40
0.0
 40
0.0
 40
0.0525033027
 40
0.1059084967
 40
0.1609897977
 40
0.2183013018
 40
0.2781341591
 40
0.3405170097
 40
0.4716376939
 40
0.6082919909
 40
0.7451892813
 40
0.8121466029
 40
0.8772452586
 40
1.0
 40
1.0
 40
1.0
 40
1.0
 10
47.1002449752
 20
189.5127697033
 30
0.0
 10
47.0147642179
 20
189.5621460279
 30
0.0
 10
46.8521604642
 20
189.6799235682
 30
0.0
 10
46.6465737464
 20
189.90465735
 30
0.0
 10
46.4830739606
 20
190.1722112123
 30
0.0
 10
46.3654601863
 20
190.4755990517
 30
0.0
 10
46.2961366193
 20
190.8073968884
 30
0.0
 10
46.2694596369
 20
191.2844520046
 30
0.0
 10
46.365908015
 20
191.9055771293
 30
0.0
 10
46.662918143
 20
192.6132218321
 30
0.0
 10
47.0439098674
 20
193.1359346537
 30
0.0
 10
47.4123895983
 20
193.4841614892
 30
0.0
 10
47.8002397847
 20
193.7666228882
 30
0.0
 10
48.1276723806
 20
193.9162001573
 30
0.0
 10
48.3506051733
 20
193.9759594112
 30
0.0
  0
SPLINE
  5
396
100
AcDbEntity
  8
0
100
AcDbSpline
 62
7
  6
CONTINUOUS
 70
0
 71
3
 72
11
 73
7
 74
0
 42
0.0000001
 43
0.0000001
 44
0.0000000001
 40
0.0
 40
0.0
 40
0.0
 40
0.0
 40
0.2634074773
 40
0.5159333087
 40
0.7602045655
 40
1.0
 40
1.0
 40
1.0
 40
1.0
 10
48.3506051733
 20
193.9759594112
 30
0.0
 10
48.4599086496
 20
194.0052592469
 30
0.0
 10
48.6793062337
 20
194.0451177352
 30
0.0
 10
49.0078648885
 20
194.0435088171
 30
0.0
 10
49.3198307651
 20
193.9788138522
 30
0.0
 10
49.5117596227
 20
193.8940040467
 30
0.0
 10
49.6009653714
 20
193.842476052
 30
0.0
  0
SPLINE
  5
397
100
AcDbEntity
  8
0
100
AcDbSpline
 62
7
  6
CONTINUOUS
 70
0
 71
3
 72
14
 73
10
 74
0
 42
0.0000001
 43
0.0000001
 44
0.0000000001
 40
0.0
 40
0.0
 40
0.0
 40
0.0
 40
0.1129773659
 40
0.2275278526
 40
0.3450430069
 40
0.4665932558
 40
0.5928509433
 40
0.7240720478
 40
1.0
 40
1.0
 40
1.0
 40
1.0
 10
0.6865811887
 20
259.9240888671
 30
0.0
 10
0.5715269558
 20
259.9905326831
 30
0.0
 10
0.3268461766
 20
260.1031597638
 30
0.0
 10
-0.0684365601
 20
260.2035837253
 30
0.0
 10
-0.4851780362
 20
260.2344838648
 30
0.0
 10
-0.9148151393
 20
260.195583047
 30
0.0
 10
-1.3491014562
 20
260.088005501
 30
0.0
 10
-1.9322065346
 20
259.8526886121
 30
0.0
 10
-2.3375693076
 20
259.5859671947
 30
0.0
 10
-2.5872125529
 20
259.378666704
 30
0.0
  0
SPLINE
  5
398
100
AcDbEntity
  8
0
100
AcDbSpline
 62
7
  6
CONTINUOUS
 70
0
 71
3
 72
11
 73
7
 74
0
 42
0.0000001
 43
0.0000001
 44
0.0000000001
 40
0.0
 40
0.0
 40
0.0
 40
0.0
 40
0.2480669533
 40
0.5014607264
 40
0.7540906539
 40
1.0
 40
1.0
 40
1.0
 40
1.0
 10
-2.5872125529
 20
259.378666704
 30
0.0
 10
-2.8134070158
 20
259.190837776
 30
0.0
 10
-3.2331555292
 20
258.7639880699
 30
0.0
 10
-3.7344380854
 20
258.0183133116
 30
0.0
 10
-4.0921182601
 20
257.1968298245
 30
0.0
 10
-4.2239531131
 20
256.6162769011
 30
0.0
 10
-4.2587969979
 20
256.3269114472
 30
0.0
  0
SPLINE
  5
399
100
AcDbEntity
  8
0
100
AcDbSpline
 62
7
  6
CONTINUOUS
 70
0
 71
3
 72
13
 73
9
 74
0
 42
0.0000001
 43
0.0000001
 44
0.0000000001
 40
0.0
 40
0.0
 40
0.0
 40
0.0
 40
0.1158152201
 40
0.2327337532
 40
0.3517707419
 40
0.4737826355
 40
0.7285649952
 40
1.0
 40
1.0
 40
1.0
 40
1.0
 10
2.0941374584
 20
259.1111296585
 30
0.0
 10
2.1888574667
 20
259.0564185066
 30
0.0
 10
2.3711298371
 20
258.931785875
 30
0.0
 10
2.6149651181
 20
258.7044038705
 30
0.0
 10
2.8267216657
 20
258.4393062155
 30
0.0
 10
3.0657868972
 20
258.0350760889
 30
0.0
 10
3.2680140677
 20
257.4499293513
 30
0.0
 10
3.3177558964
 20
256.9509744152
 30
0.0
 10
3.3177558964
 20
256.6946086559
 30
0.0
  0
SPLINE
  5
39A
100
AcDbEntity
  8
0
100
AcDbSpline
 62
7
  6
CONTINUOUS
 70
0
 71
3
 72
10
 73
6
 74
0
 42
0.0000001
 43
0.0000001
 44
0.0000000001
 40
0.0
 40
0.0
 40
0.0
 40
0.0
 40
0.4897781092
 40
0.7451770833
 40
1.0
 40
1.0
 40
1.0
 40
1.0
 10
3.3177558964
 20
256.6946086559
 30
0.0
 10
3.3177558964
 20
256.1582155202
 30
0.0
 10
3.146257614
 20
255.3353882488
 30
0.0
 10
2.6612704264
 20
254.3507578437
 30
0.0
 10
2.3316586483
 20
253.8950085171
 30
0.0
 10
2.1488705265
 20
253.6841250024
 30
0.0
  0
SPLINE
  5
39B
100
AcDbEntity
  8
0
100
AcDbSpline
 62
7
  6
CONTINUOUS
 70
0
 71
3
 72
9
 73
5
 74
0
 42
0.0000001
 43
0.0000001
 44
0.0000000001
 40
0.0
 40
0.0
 40
0.0
 40
0.0
 40
0.2582019487
 40
1.0
 40
1.0
 40
1.0
 40
1.0
 10
-14.8032182261
 20
264.1207211488
 30
0.0
 10
-14.8032182261
 20
264.1058915206
 30
0.0
 10
-14.8011229286
 20
264.0484951585
 30
0.0
 10
-14.7904291806
 20
263.9912675779
 30
0.0
 10
-14.777022749
 20
263.9508272631
 30
0.0
  0
SPLINE
  5
39C
100
AcDbEntity
  8
0
100
AcDbSpline
 62
7
  6
CONTINUOUS
 70
0
 71
3
 72
10
 73
6
 74
0
 42
0.0000001
 43
0.0000001
 44
0.0000000001
 40
0.0
 40
0.0
 40
0.0
 40
0.0
 40
0.2417033539
 40
0.4871990952
 40
1.0
 40
1.0
 40
1.0
 40
1.0
 10
-12.0808530883
 20
264.988587739
 30
0.0
 10
-12.1379388637
 20
265.0215550825
 30
0.0
 10
-12.2599322076
 20
265.0768077167
 30
0.0
 10
-12.526565151
 20
265.1398533412
 30
0.0
 10
-12.7386308024
 20
265.129347442
 30
0.0
 10
-12.8756104975
 20
265.1011110238
 30
0.0
  0
SPLINE
  5
39D
100
AcDbEntity
  8
0
100
AcDbSpline
 62
7
  6
CONTINUOUS
 70
0
 71
3
 72
9
 73
5
 74
0
 42
0.0000001
 43
0.0000001
 44
0.0000000001
 40
0.0
 40
0.0
 40
0.0
 40
0.0
 40
0.487957204
 40
1.0
 40
1.0
 40
1.0
 40
1.0
 10
-8.0270996628
 20
262.6472501747
 30
0.0
 10
-7.9219191825
 20
262.5865078795
 30
0.0
 10
-7.7279930132
 20
262.4209174898
 30
0.0
 10
-7.6027819947
 20
262.2001881225
 30
0.0
 10
-7.5564172022
 20
262.0814649847
 30
0.0
  0
SPLINE
  5
39E
100
AcDbEntity
  8
0
100
AcDbSpline
 62
7
  6
CONTINUOUS
 70
0
 71
3
 72
10
 73
6
 74
0
 42
0.0000001
 43
0.0000001
 44
0.0000000001
 40
0.0
 40
0.0
 40
0.0
 40
0.0
 40
0.5127914505
 40
0.7582930357
 40
1.0
 40
1.0
 40
1.0
 40
1.0
 10
-14.3259693452
 20
262.5899871406
 30
0.0
 10
-14.2819672605
 20
262.4572324343
 30
0.0
 10
-14.1851151578
 20
262.2682831794
 30
0.0
 10
-13.9972487861
 20
262.0688500392
 30
0.0
 10
-13.8884368313
 20
261.9907735537
 30
0.0
 10
-13.8313502257
 20
261.9578057308
 30
0.0
  0
SPLINE
  5
39F
100
AcDbEntity
  8
0
100
AcDbSpline
 62
7
  6
CONTINUOUS
 70
0
 71
3
 72
12
 73
8
 74
0
 42
0.0000001
 43
0.0000001
 44
0.0000000001
 40
0.0
 40
0.0
 40
0.0
 40
0.0
 40
0.2328661464
 40
0.4870428089
 40
0.6183149576
 40
0.7491125501
 40
1.0
 40
1.0
 40
1.0
 40
1.0
 10
-14.2797560799
 20
264.8117801425
 30
0.0
 10
-14.3502311302
 20
264.7972695579
 30
0.0
 10
-14.4911969635
 20
264.732838528
 30
0.0
 10
-14.6300584077
 20
264.5969998899
 30
0.0
 10
-14.7164715198
 20
264.4622298328
 30
0.0
 10
-14.7808468045
 20
264.3169983151
 30
0.0
 10
-14.8032182261
 20
264.1982429434
 30
0.0
 10
-14.8032182261
 20
264.1207211488
 30
0.0
  0
SPLINE
  5
3A0
100
AcDbEntity
  8
0
100
AcDbSpline
 62
7
  6
CONTINUOUS
 70
0
 71
3
 72
9
 73
5
 74
0
 42
0.0000001
 43
0.0000001
 44
0.0000000001
 40
0.0
 40
0.0
 40
0.0
 40
0.0
 40
0.2584063521
 40
1.0
 40
1.0
 40
1.0
 40
1.0
 10
-14.4023758199
 20
263.0855091993
 30
0.0
 10
-14.4023758199
 20
263.0422217324
 30
0.0
 10
-14.3962978947
 20
262.8748128158
 30
0.0
 10
-14.3650546826
 20
262.7079079737
 30
0.0
 10
-14.3259693452
 20
262.5899871406
 30
0.0
  0
SPLINE
  5
3A1
100
AcDbEntity
  8
0
100
AcDbSpline
 62
7
  6
CONTINUOUS
 70
0
 71
3
 72
11
 73
7
 74
0
 42
0.0000001
 43
0.0000001
 44
0.0000000001
 40
0.0
 40
0.0
 40
0.0
 40
0.0
 40
0.2708209769
 40
0.5261419509
 40
0.7676472447
 40
1.0
 40
1.0
 40
1.0
 40
1.0
 10
-9.9873618356
 20
260.7172226251
 30
0.0
 10
-9.9873618356
 20
260.6219693732
 30
0.0
 10
-9.9700051099
 20
260.4362443766
 30
0.0
 10
-9.8872860424
 20
260.1767993853
 30
0.0
 10
-9.7514815847
 20
259.9560427308
 30
0.0
 10
-9.6274587637
 20
259.840917294
 30
0.0
 10
-9.5602347054
 20
259.7944457262
 30
0.0
  0
SPLINE
  5
3A2
100
AcDbEntity
  8
0
100
AcDbSpline
 62
7
  6
CONTINUOUS
 70
0
 71
3
 72
11
 73
7
 74
0
 42
0.0000001
 43
0.0000001
 44
0.0000000001
 40
0.0
 40
0.0
 40
0.0
 40
0.0
 40
0.250668884
 40
0.5078374747
 40
0.7607900792
 40
1.0
 40
1.0
 40
1.0
 40
1.0
 10
-2.8509326071
 20
255.5165778289
 30
0.0
 10
-2.8045798416
 20
255.8994220742
 30
0.0
 10
-2.6037662552
 20
256.6647627132
 30
0.0
 10
-2.0392894253
 20
257.7021529929
 30
0.0
 10
-1.2577850095
 20
258.5644662837
 30
0.0
 10
-0.6130706917
 20
258.9834564084
 30
0.0
 10
-0.2772684515
 20
259.1340188558
 30
0.0
  0
SPLINE
  5
3A3
100
AcDbEntity
  8
0
100
AcDbSpline
 62
7
  6
CONTINUOUS
 70
0
 71
3
 72
15
 73
11
 74
0
 42
0.0000001
 43
0.0000001
 44
0.0000000001
 40
0.0
 40
0.0
 40
0.0
 40
0.0
 40
0.2646694599
 40
0.4021382152
 40
0.5367260625
 40
0.6646701152
 40
0.7837860162
 40
0.8943550023
 40
0.9475380985
 40
1.0
 40
1.0
 40
1.0
 40
1.0
 10
-10.3486223945
 20
260.7441716351
 30
0.0
 10
-10.3486223945
 20
261.0548156468
 30
0.0
 10
-10.2256044455
 20
261.5320630287
 30
0.0
 10
-9.8909928893
 20
262.0686143037
 30
0.0
 10
-9.5622707964
 20
262.4095413157
 30
0.0
 10
-9.182970311
 20
262.6557806275
 30
0.0
 10
-8.7793268581
 20
262.7889734294
 30
0.0
 10
-8.4407272956
 20
262.7936290687
 30
0.0
 10
-8.1937831441
 20
262.7303014391
 30
0.0
 10
-8.0804214429
 20
262.6780437906
 30
0.0
 10
-8.0270996628
 20
262.6472501747
 30
0.0
  0
SPLINE
  5
3A4
100
AcDbEntity
  8
0
100
AcDbSpline
 62
7
  6
CONTINUOUS
 70
0
 71
3
 72
15
 73
11
 74
0
 42
0.0000001
 43
0.0000001
 44
0.0000000001
 40
0.0
 40
0.0
 40
0.0
 40
0.0
 40
0.0524572082
 40
0.1056428046
 40
0.2162113517
 40
0.3352832558
 40
0.4631426842
 40
0.5976421499
 40
0.7350706256
 40
1.0
 40
1.0
 40
1.0
 40
1.0
 10
-8.0136198117
 20
262.3392074529
 30
0.0
 10
-8.0588936142
 20
262.3651219533
 30
0.0
 10
-8.1550823477
 20
262.4090687042
 30
0.0
 10
-8.3644233168
 20
262.4622249805
 30
0.0
 10
-8.6512010672
 20
262.4580409392
 30
0.0
 10
-8.9931173757
 20
262.3455025439
 30
0.0
 10
-9.314664095
 20
262.1375962043
 30
0.0
 10
-9.5938041508
 20
261.8496843358
 30
0.0
 10
-9.8790324816
 20
261.3960041884
 30
0.0
 10
-9.9853162463
 20
260.9922104263
 30
0.0
 10
-9.9873179495
 20
260.7287600022
 30
0.0
  0
SPLINE
  5
3A5
100
AcDbEntity
  8
0
100
AcDbSpline
 62
7
  6
CONTINUOUS
 70
0
 71
3
 72
11
 73
7
 74
0
 42
0.0000001
 43
0.0000001
 44
0.0000000001
 40
0.0
 40
0.0
 40
0.0
 40
0.0
 40
0.258349201
 40
0.5098015552
 40
0.7561990008
 40
1.0
 40
1.0
 40
1.0
 40
1.0
 10
0.7144624031
 20
259.3998617374
 30
0.0
 10
0.8371906476
 20
259.4106314589
 30
0.0
 10
1.0812241562
 20
259.415339718
 30
0.0
 10
1.4402136843
 20
259.3691087666
 30
0.0
 10
1.7811771197
 20
259.2699693861
 30
0.0
 10
1.9934627114
 20
259.1692803224
 30
0.0
 10
2.0941374584
 20
259.1111296585
 30
0.0
  0
SPLINE
  5
3A6
100
AcDbEntity
  8
0
100
AcDbSpline
 62
7
  6
CONTINUOUS
 70
0
 71
3
 72
9
 73
5
 74
0
 42
0.0000001
 43
0.0000001
 44
0.0000000001
 40
0.0
 40
0.0
 40
0.0
 40
0.0
 40
0.5111226061
 40
1.0
 40
1.0
 40
1.0
 40
1.0
 10
-1.1218004151
 20
259.6217975151
 30
0.0
 10
-0.9616233369
 20
259.6936155378
 30
0.0
 10
-0.6371757454
 20
259.8110026259
 30
0.0
 10
-0.2973275463
 20
259.8729630749
 30
0.0
 10
-0.1300695605
 20
259.8876403966
 30
0.0
  0
SPLINE
  5
3A7
100
AcDbEntity
  8
0
100
AcDbSpline
 62
7
  6
CONTINUOUS
 70
0
 71
3
 72
11
 73
7
 74
0
 42
0.0000001
 43
0.0000001
 44
0.0000000001
 40
0.0
 40
0.0
 40
0.0
 40
0.0
 40
0.2323674657
 40
0.4731327235
 40
0.7282256824
 40
1.0
 40
1.0
 40
1.0
 40
1.0
 10
-9.7775968002
 20
259.6164681665
 30
0.0
 10
-9.8661771724
 20
259.6676238097
 30
0.0
 10
-10.0313931712
 20
259.8005187728
 30
0.0
 10
-10.2139574641
 20
260.0689673177
 30
0.0
 10
-10.3253619738
 20
260.391613805
 30
0.0
 10
-10.3486223945
 20
260.6245336373
 30
0.0
 10
-10.3486223945
 20
260.7441716351
 30
0.0
  0
SPLINE
  5
3A8
100
AcDbEntity
  8
0
100
AcDbSpline
 62
7
  6
CONTINUOUS
 70
0
 71
3
 72
12
 73
8
 74
0
 42
0.0000001
 43
0.0000001
 44
0.0000000001
 40
0.0
 40
0.0
 40
0.0
 40
0.0
 40
0.2328616877
 40
0.3584392653
 40
0.4878815971
 40
0.749155687
 40
1.0
 40
1.0
 40
1.0
 40
1.0
 10
-12.8756104975
 20
265.1011110238
 30
0.0
 10
-13.0811644718
 20
265.0587389921
 30
0.0
 10
-13.3846762882
 20
264.9200309536
 30
0.0
 10
-13.7261258633
 20
264.6415131356
 30
0.0
 10
-14.036178043
 20
264.291862423
 30
0.0
 10
-14.3151934575
 20
263.7751115825
 30
0.0
 10
-14.4023758199
 20
263.3115924843
 30
0.0
 10
-14.4023758199
 20
263.0855091993
 30
0.0
  0
SPLINE
  5
3A9
100
AcDbEntity
  8
0
100
AcDbSpline
 62
7
  6
CONTINUOUS
 70
0
 71
3
 72
11
 73
7
 74
0
 42
0.0000001
 43
0.0000001
 44
0.0000000001
 40
0.0
 40
0.0
 40
0.0
 40
0.0
 40
0.2323695404
 40
0.4731317553
 40
0.7282212151
 40
1.0
 40
1.0
 40
1.0
 40
1.0
 10
49.7800579162
 20
164.6127684902
 30
0.0
 10
49.9126678281
 20
164.5361660016
 30
0.0
 10
50.1600332015
 20
164.3372273321
 30
0.0
 10
50.4333451348
 20
163.935312511
 30
0.0
 10
50.6001436099
 20
163.4522736204
 30
0.0
 10
50.6349677362
 20
163.1035580789
 30
0.0
 10
50.6349677362
 20
162.9244403349
 30
0.0
  0
SPLINE
  5
3AA
100
AcDbEntity
  8
0
100
AcDbSpline
 62
7
  6
CONTINUOUS
 70
0
 71
3
 72
11
 73
7
 74
0
 42
0.0000001
 43
0.0000001
 44
0.0000000001
 40
0.0
 40
0.0
 40
0.0
 40
0.0
 40
0.246248866
 40
0.5033030731
 40
0.7585525056
 40
1.0
 40
1.0
 40
1.0
 40
1.0
 10
50.6349677362
 20
153.6189901125
 30
0.0
 10
50.6349677362
 20
153.3294203868
 30
0.0
 10
50.5391669783
 20
152.7353291771
 30
0.0
 10
50.1627899897
 20
151.9159331334
 30
0.0
 10
49.5929449357
 20
151.2242333553
 30
0.0
 10
49.1032146613
 20
150.886838725
 30
0.0
 10
48.8456854618
 20
150.7672922126
 30
0.0
  0
SPLINE
  5
3AB
100
AcDbEntity
  8
0
100
AcDbSpline
 62
7
  6
CONTINUOUS
 70
0
 71
3
 72
9
 73
5
 74
0
 42
0.0000001
 43
0.0000001
 44
0.0000000001
 40
0.0
 40
0.0
 40
0.0
 40
0.0
 40
0.2530758847
 40
1.0
 40
1.0
 40
1.0
 40
1.0
 10
46.6473487341
 20
149.7468118574
 30
0.0
 10
46.6261461327
 20
149.7369694898
 30
0.0
 10
46.5418247431
 20
149.6992598742
 30
0.0
 10
46.4553438314
 20
149.6663513355
 30
0.0
 10
46.3898089527
 20
149.6447901571
 30
0.0
  0
SPLINE
  5
3AC
100
AcDbEntity
  8
0
100
AcDbSpline
 62
7
  6
CONTINUOUS
 70
0
 71
3
 72
11
 73
7
 74
0
 42
0.0000001
 43
0.0000001
 44
0.0000000001
 40
0.0
 40
0.0
 40
0.0
 40
0.0
 40
0.2633775383
 40
0.5159502279
 40
0.7601980696
 40
1.0
 40
1.0
 40
1.0
 40
1.0
 10
46.2713519761
 20
149.6094294455
 30
0.0
 10
46.1568155187
 20
149.5787268595
 30
0.0
 10
45.9268791352
 20
149.5369743435
 30
0.0
 10
45.5825517218
 20
149.5386240447
 30
0.0
 10
45.2556091741
 20
149.6064681631
 30
0.0
 10
45.0544669979
 20
149.6953223588
 30
0.0
 10
44.960978636
 20
149.7493272013
 30
0.0
  0
SPLINE
  5
3AD
100
AcDbEntity
  8
0
100
AcDbSpline
 62
7
  6
CONTINUOUS
 70
0
 71
3
 72
9
 73
5
 74
0
 42
0.0000001
 43
0.0000001
 44
0.0000000001
 40
0.0
 40
0.0
 40
0.0
 40
0.0
 40
0.491879763
 40
1.0
 40
1.0
 40
1.0
 40
1.0
 10
46.2893257998
 20
166.6289202816
 30
0.0
 10
46.163771119
 20
166.701447296
 30
0.0
 10
45.8856009775
 20
166.812163027
 30
0.0
 10
45.5882843745
 20
166.8410662522
 30
0.0
 10
45.4385516176
 20
166.8371315875
 30
0.0
  0
SPLINE
  5
3AE
100
AcDbEntity
  8
0
100
AcDbSpline
 62
7
  6
CONTINUOUS
 70
0
 71
3
 72
14
 73
10
 74
0
 42
0.0000001
 43
0.0000001
 44
0.0000000001
 40
0.0
 40
0.0
 40
0.0
 40
0.0
 40
0.1227977835
 40
0.2500288319
 40
0.3799522333
 40
0.510532112
 40
0.6396626295
 40
0.7653930895
 40
1.0
 40
1.0
 40
1.0
 40
1.0
 10
44.1060729436
 20
161.6055033325
 30
0.0
 10
44.1060729436
 20
161.766455494
 30
0.0
 10
44.135606058
 20
162.0947003086
 30
0.0
 10
44.2598459233
 20
162.5789197484
 30
0.0
 10
44.4601274887
 20
163.0481269374
 30
0.0
 10
44.7287573171
 20
163.4845658132
 30
0.0
 10
45.0562249439
 20
163.8722275735
 30
0.0
 10
45.5414563952
 20
164.2937042039
 30
0.0
 10
45.9743366327
 20
164.5149658586
 30
0.0
 10
46.2713519761
 20
164.5945836444
 30
0.0
  0
SPLINE
  5
3AF
100
AcDbEntity
  8
0
100
AcDbSpline
 62
7
  6
CONTINUOUS
 70
0
 71
3
 72
9
 73
5
 74
0
 42
0.0000001
 43
0.0000001
 44
0.0000000001
 40
0.0
 40
0.0
 40
0.0
 40
0.0
 40
0.2546457649
 40
1.0
 40
1.0
 40
1.0
 40
1.0
 10
46.2713519761
 20
164.5945836444
 30
0.0
 10
46.3026512498
 20
164.6029737122
 30
0.0
 10
46.4262814496
 20
164.6331555794
 30
0.0
 10
46.552744922
 20
164.651976965
 30
0.0
 10
46.6473487342
 20
164.6587802418
 30
0.0
  0
SPLINE
  5
3B0
100
AcDbEntity
  8
0
100
AcDbSpline
 62
7
  6
CONTINUOUS
 70
0
 71
3
 72
9
 73
5
 74
0
 42
0.0000001
 43
0.0000001
 44
0.0000000001
 40
0.0
 40
0.0
 40
0.0
 40
0.0
 40
0.5094351047
 40
1.0
 40
1.0
 40
1.0
 40
1.0
 10
48.8456854618
 20
164.8168699948
 30
0.0
 10
49.0095146415
 20
164.8286514995
 30
0.0
 10
49.3363537777
 20
164.8091906526
 30
0.0
 10
49.6430982545
 20
164.6918836238
 30
0.0
 10
49.7800579162
 20
164.6127684902
 30
0.0
  0
SPLINE
  5
3B1
100
AcDbEntity
  8
0
100
AcDbSpline
 62
7
  6
CONTINUOUS
 70
0
 71
3
 72
11
 73
7
 74
0
 42
0.0000001
 43
0.0000001
 44
0.0000000001
 40
0.0
 40
0.0
 40
0.0
 40
0.0
 40
0.2323666768
 40
0.4731314603
 40
0.7282217723
 40
1.0
 40
1.0
 40
1.0
 40
1.0
 10
44.960978636
 20
149.7493272013
 30
0.0
 10
44.8283709256
 20
149.8259298753
 30
0.0
 10
44.5810140214
 20
150.0248779273
 30
0.0
 10
44.3076940092
 20
150.4267865372
 30
0.0
 10
44.1408977206
 20
150.9098296659
 30
0.0
 10
44.1060729436
 20
151.2585450449
 30
0.0
 10
44.1060729436
 20
151.437662508
 30
0.0
  0
SPLINE
  5
3B2
100
AcDbEntity
  8
0
100
AcDbSpline
 62
7
  6
CONTINUOUS
 70
0
 71
3
 72
11
 73
7
 74
0
 42
0.0000001
 43
0.0000001
 44
0.0000000001
 40
0.0
 40
0.0
 40
0.0
 40
0.0
 40
0.2222843974
 40
0.4647976335
 40
0.7266199106
 40
1.0
 40
1.0
 40
1.0
 40
1.0
 10
49.7258811195
 20
157.2006247635
 30
0.0
 10
49.6436014586
 20
157.3006061421
 30
0.0
 10
49.5150592234
 20
157.5474788647
 30
0.0
 10
49.4569993464
 20
157.9732493219
 30
0.0
 10
49.5242977957
 20
158.4264982599
 30
0.0
 10
49.6469145758
 20
158.7171361315
 30
0.0
 10
49.7258811195
 20
158.8554270677
 30
0.0
  0
SPLINE
  5
3B3
100
AcDbEntity
  8
0
100
AcDbSpline
 62
7
  6
CONTINUOUS
 70
0
 71
3
 72
11
 73
7
 74
0
 42
0.0000001
 43
0.0000001
 44
0.0000000001
 40
0.0
 40
0.0
 40
0.0
 40
0.0
 40
0.2222843974
 40
0.4647976335
 40
0.7266199106
 40
1.0
 40
1.0
 40
1.0
 40
1.0
 10
49.7258811195
 20
160.4182959105
 30
0.0
 10
49.6436014587
 20
160.5182772891
 30
0.0
 10
49.5150592233
 20
160.7651500117
 30
0.0
 10
49.4569993464
 20
161.1909204689
 30
0.0
 10
49.5242977956
 20
161.644169407
 30
0.0
 10
49.6469145761
 20
161.9348072783
 30
0.0
 10
49.7258811195
 20
162.0730982147
 30
0.0
  0
SPLINE
  5
3B4
100
AcDbEntity
  8
0
100
AcDbSpline
 62
7
  6
CONTINUOUS
 70
0
 71
3
 72
11
 73
7
 74
0
 42
0.0000001
 43
0.0000001
 44
0.0000000001
 40
0.0
 40
0.0
 40
0.0
 40
0.0
 40
0.2222843974
 40
0.4647976335
 40
0.7266199106
 40
1.0
 40
1.0
 40
1.0
 40
1.0
 10
49.7258811195
 20
153.9829536165
 30
0.0
 10
49.6436014585
 20
154.082934995
 30
0.0
 10
49.5150592235
 20
154.3298077178
 30
0.0
 10
49.4569993464
 20
154.7555781748
 30
0.0
 10
49.5242977956
 20
155.208827113
 30
0.0
 10
49.6469145761
 20
155.4994649843
 30
0.0
 10
49.7258811195
 20
155.6377559207
 30
0.0
  0
SPLINE
  5
3B5
100
AcDbEntity
  8
0
100
AcDbSpline
 62
7
  6
CONTINUOUS
 70
0
 71
3
 72
9
 73
5
 74
0
 42
0.0000001
 43
0.0000001
 44
0.0000000001
 40
0.0
 40
0.0
 40
0.0
 40
0.0
 40
0.2457184135
 40
1.0
 40
1.0
 40
1.0
 40
1.0
 10
43.1566166178
 20
166.6749320332
 30
0.0
 10
43.1254282689
 20
166.6726891746
 30
0.0
 10
42.9987412319
 20
166.6603887035
 30
0.0
 10
42.8733327404
 20
166.6355880047
 30
0.0
 10
42.7806198597
 20
166.6107354358
 30
0.0
  0
SPLINE
  5
3B6
100
AcDbEntity
  8
0
100
AcDbSpline
 62
7
  6
CONTINUOUS
 70
0
 71
3
 72
12
 73
8
 74
0
 42
0.0000001
 43
0.0000001
 44
0.0000000001
 40
0.0
 40
0.0
 40
0.0
 40
0.0
 40
0.2366688471
 40
0.3628510758
 40
0.4920762585
 40
0.7513792727
 40
1.0
 40
1.0
 40
1.0
 40
1.0
 10
42.6834633901
 20
166.5822559936
 30
0.0
 10
42.3958324428
 20
166.4907402189
 30
0.0
 10
41.9805284728
 20
166.2601047255
 30
0.0
 10
41.5161692167
 20
165.8361654139
 30
0.0
 10
41.1009453233
 20
165.3246713284
 30
0.0
 10
40.7300312843
 20
164.589077964
 30
0.0
 10
40.6153408272
 20
163.9387369809
 30
0.0
 10
40.6153408272
 20
163.6216551239
 30
0.0
  0
SPLINE
  5
3B7
100
AcDbEntity
  8
0
100
AcDbSpline
 62
7
  6
CONTINUOUS
 70
0
 71
3
 72
11
 73
7
 74
0
 42
0.0000001
 43
0.0000001
 44
0.0000000001
 40
0.0
 40
0.0
 40
0.0
 40
0.0
 40
0.2717782425
 40
0.5268685588
 40
0.7676333371
 40
1.0
 40
1.0
 40
1.0
 40
1.0
 10
40.6153408272
 20
153.4538142994
 30
0.0
 10
40.6153408272
 20
153.2746968267
 30
0.0
 10
40.6501656077
 20
152.925981435
 30
0.0
 10
40.8169619077
 20
152.4429383001
 30
0.0
 10
41.0902819223
 20
152.0410297047
 30
0.0
 10
41.3376388168
 20
151.8420816614
 30
0.0
 10
41.4702465202
 20
151.7654789937
 30
0.0
  0
SPLINE
  5
3B8
100
AcDbEntity
  8
0
100
AcDbSpline
 62
7
  6
CONTINUOUS
 70
0
 71
3
 72
9
 73
5
 74
0
 42
0.0000001
 43
0.0000001
 44
0.0000000001
 40
0.0
 40
0.0
 40
0.0
 40
0.0
 40
0.2462935986
 40
1.0
 40
1.0
 40
1.0
 40
1.0
 10
57.3803941808
 20
220.7048561067
 30
0.0
 10
57.3765323275
 20
221.6782667436
 30
0.0
 10
57.3216821238
 20
225.6302805469
 30
0.0
 10
57.1131758123
 20
229.5799225913
 30
0.0
 10
56.8761434834
 20
232.5493267335
 30
0.0
  0
SPLINE
  5
3B9
100
AcDbEntity
  8
0
100
AcDbSpline
 62
7
  6
CONTINUOUS
 70
0
 71
3
 72
9
 73
5
 74
0
 42
0.0000001
 43
0.0000001
 44
0.0000000001
 40
0.0
 40
0.0
 40
0.0
 40
0.0
 40
0.2511294567
 40
1.0
 40
1.0
 40
1.0
 40
1.0
 10
57.3803941808
 20
220.7048561067
 30
0.0
 10
56.7865428042
 20
220.4921100081
 30
0.0
 10
54.4171238882
 20
219.658125824
 30
0.0
 10
52.0290906017
 20
218.8769888179
 30
0.0
 10
50.2315135646
 20
218.3227531087
 30
0.0
  0
SPLINE
  5
3BA
100
AcDbEntity
  8
0
100
AcDbSpline
 62
7
  6
CONTINUOUS
 70
0
 71
3
 72
9
 73
5
 74
0
 42
0.0000001
 43
0.0000001
 44
0.0000000001
 40
0.0
 40
0.0
 40
0.0
 40
0.0
 40
0.2524510602
 40
1.0
 40
1.0
 40
1.0
 40
1.0
 10
50.2315135646
 20
218.3227531087
 30
0.0
 10
48.9918891924
 20
217.9405474626
 30
0.0
 10
44.0639317497
 20
216.484418832
 30
0.0
 10
39.0665515365
 20
215.2619477522
 30
0.0
 10
35.3035845641
 20
214.4904196828
 30
0.0
  0
SPLINE
  5
3BB
100
AcDbEntity
  8
0
100
AcDbSpline
 62
7
  6
CONTINUOUS
 70
0
 71
3
 72
9
 73
5
 74
0
 42
0.0000001
 43
0.0000001
 44
0.0000000001
 40
0.0
 40
0.0
 40
0.0
 40
0.0
 40
0.2466877307
 40
1.0
 40
1.0
 40
1.0
 40
1.0
 10
30.8107668439
 20
214.1063456652
 30
0.0
 10
30.8073782165
 20
214.950862387
 30
0.0
 10
30.7638718284
 20
218.3741201731
 30
0.0
 10
30.6032817716
 20
221.7957449498
 30
0.0
 10
30.4209324723
 20
224.3682182856
 30
0.0
  0
SPLINE
  5
3BC
100
AcDbEntity
  8
0
100
AcDbSpline
 62
7
  6
CONTINUOUS
 70
0
 71
3
 72
9
 73
5
 74
0
 42
0.0000001
 43
0.0000001
 44
0.0000000001
 40
0.0
 40
0.0
 40
0.0
 40
0.0
 40
0.4871248421
 40
1.0
 40
1.0
 40
1.0
 40
1.0
 10
43.0167513628
 20
229.0669373277
 30
0.0
 10
42.8828297519
 20
229.1442408582
 30
0.0
 10
42.6484985054
 20
229.375876481
 30
0.0
 10
42.5202005258
 20
229.673913434
 30
0.0
 10
42.4814376575
 20
229.8320369013
 30
0.0
  0
SPLINE
  5
3BD
100
AcDbEntity
  8
0
100
AcDbSpline
 62
7
  6
CONTINUOUS
 70
0
 71
3
 72
10
 73
6
 74
0
 42
0.0000001
 43
0.0000001
 44
0.0000000001
 40
0.0
 40
0.0
 40
0.0
 40
0.0
 40
0.2455339453
 40
0.4929385229
 40
1.0
 40
1.0
 40
1.0
 40
1.0
 10
43.5704211845
 20
228.9826014063
 30
0.0
 10
43.5251313653
 20
228.9704610508
 30
0.0
 10
43.4313051404
 20
228.9555154528
 30
0.0
 10
43.2395441114
 20
228.9662380371
 30
0.0
 10
43.1006145072
 20
229.0185290305
 30
0.0
 10
43.0167513628
 20
229.0669373277
 30
0.0
  0
SPLINE
  5
3BE
100
AcDbEntity
  8
0
100
AcDbSpline
 62
7
  6
CONTINUOUS
 70
0
 71
3
 72
9
 73
5
 74
0
 42
0.0000001
 43
0.0000001
 44
0.0000000001
 40
0.0
 40
0.0
 40
0.0
 40
0.0
 40
0.2533209318
 40
1.0
 40
1.0
 40
1.0
 40
1.0
 10
31.0060592848
 20
224.5463729095
 30
0.0
 10
31.0728794521
 20
223.6362536121
 30
0.0
 10
31.3066890702
 20
220.0413870552
 30
0.0
 10
31.4194320012
 20
216.4384660982
 30
0.0
 10
31.430103486
 20
213.7486340398
 30
0.0
  0
SPLINE
  5
3BF
100
AcDbEntity
  8
0
100
AcDbSpline
 62
7
  6
CONTINUOUS
 70
0
 71
3
 72
14
 73
10
 74
0
 42
0.0000001
 43
0.0000001
 44
0.0000000001
 40
0.0
 40
0.0
 40
0.0
 40
0.0
 40
0.1052614333
 40
0.2158776912
 40
0.3350437003
 40
0.4630425373
 40
0.5976876018
 40
0.7352171019
 40
1.0
 40
1.0
 40
1.0
 40
1.0
 10
49.1879735177
 20
185.2340741751
 30
0.0
 10
49.0168744479
 20
185.3328980197
 30
0.0
 10
48.6244932836
 20
185.4704610072
 30
0.0
 10
47.984816072
 20
185.4605698087
 30
0.0
 10
47.3384692014
 20
185.2478038825
 30
0.0
 10
46.7317465749
 20
184.8537242949
 30
0.0
 10
46.2057483915
 20
184.3082700132
 30
0.0
 10
45.6703711499
 20
183.4497875786
 30
0.0
 10
45.4735452035
 20
182.6861910404
 30
0.0
 10
45.4735452035
 20
182.1891624592
 30
0.0
  0
SPLINE
  5
3C0
100
AcDbEntity
  8
0
100
AcDbSpline
 62
7
  6
CONTINUOUS
 70
0
 71
3
 72
9
 73
5
 74
0
 42
0.0000001
 43
0.0000001
 44
0.0000000001
 40
0.0
 40
0.0
 40
0.0
 40
0.0
 40
0.7478892127
 40
1.0
 40
1.0
 40
1.0
 40
1.0
 10
48.8914070246
 20
185.3669699677
 30
0.0
 10
48.9458420703
 20
185.3186591517
 30
0.0
 10
49.0144617865
 20
185.2491334867
 30
0.0
 10
49.0767652584
 20
185.1743656011
 30
0.0
 10
49.0920764598
 20
185.1551953417
 30
0.0
  0
SPLINE
  5
3C1
100
AcDbEntity
  8
0
100
AcDbSpline
 62
7
  6
CONTINUOUS
 70
0
 71
3
 72
9
 73
5
 74
0
 42
0.0000001
 43
0.0000001
 44
0.0000000001
 40
0.0
 40
0.0
 40
0.0
 40
0.0
 40
0.2467830868
 40
1.0
 40
1.0
 40
1.0
 40
1.0
 10
49.0920764598
 20
185.1551953417
 30
0.0
 10
49.1109767024
 20
185.1315314539
 30
0.0
 10
49.1850992278
 20
185.0336914022
 30
0.0
 10
49.2491706191
 20
184.9283038537
 30
0.0
 10
49.2914885992
 20
184.8461246838
 30
0.0
  0
SPLINE
  5
3C2
100
AcDbEntity
  8
0
100
AcDbSpline
 62
7
  6
CONTINUOUS
 70
0
 71
3
 72
14
 73
10
 74
0
 42
0.0000001
 43
0.0000001
 44
0.0000000001
 40
0.0
 40
0.0
 40
0.0
 40
0.0
 40
0.1052614333
 40
0.2158776912
 40
0.3350437003
 40
0.4630425373
 40
0.5976876018
 40
0.7352171019
 40
1.0
 40
1.0
 40
1.0
 40
1.0
 10
49.1879735177
 20
194.4274203094
 30
0.0
 10
49.0168744479
 20
194.526244154
 30
0.0
 10
48.6244932836
 20
194.6638071415
 30
0.0
 10
47.984816072
 20
194.653915943
 30
0.0
 10
47.3384692014
 20
194.4411500168
 30
0.0
 10
46.7317465749
 20
194.0470704292
 30
0.0
 10
46.2057483915
 20
193.5016161475
 30
0.0
 10
45.6703711499
 20
192.6431337129
 30
0.0
 10
45.4735452035
 20
191.8795371747
 30
0.0
 10
45.4735452035
 20
191.3825085936
 30
0.0
  0
SPLINE
  5
3C3
100
AcDbEntity
  8
0
100
AcDbSpline
 62
7
  6
CONTINUOUS
 70
0
 71
3
 72
9
 73
5
 74
0
 42
0.0000001
 43
0.0000001
 44
0.0000000001
 40
0.0
 40
0.0
 40
0.0
 40
0.0
 40
0.7478892127
 40
1.0
 40
1.0
 40
1.0
 40
1.0
 10
48.8914070246
 20
194.5603161021
 30
0.0
 10
48.9458420703
 20
194.512005286
 30
0.0
 10
49.0144617865
 20
194.4424796211
 30
0.0
 10
49.0767652584
 20
194.3677117354
 30
0.0
 10
49.0920764598
 20
194.348541476
 30
0.0
  0
SPLINE
  5
3C4
100
AcDbEntity
  8
0
100
AcDbSpline
 62
7
  6
CONTINUOUS
 70
0
 71
3
 72
9
 73
5
 74
0
 42
0.0000001
 43
0.0000001
 44
0.0000000001
 40
0.0
 40
0.0
 40
0.0
 40
0.0
 40
0.2467830868
 40
1.0
 40
1.0
 40
1.0
 40
1.0
 10
49.0920764598
 20
194.348541476
 30
0.0
 10
49.1109767024
 20
194.3248775882
 30
0.0
 10
49.1850992278
 20
194.2270375365
 30
0.0
 10
49.2491706191
 20
194.121649988
 30
0.0
 10
49.2914885991
 20
194.0394708181
 30
0.0
  0
SPLINE
  5
3C5
100
AcDbEntity
  8
0
100
AcDbSpline
 62
7
  6
CONTINUOUS
 70
0
 71
3
 72
13
 73
9
 74
0
 42
0.0000001
 43
0.0000001
 44
0.0000000001
 40
0.0
 40
0.0
 40
0.0
 40
0.0
 40
0.1054383888
 40
0.2163605835
 40
0.3358467842
 40
0.4640994384
 40
0.7349955201
 40
1.0
 40
1.0
 40
1.0
 40
1.0
 10
52.095451776
 20
206.482896974
 30
0.0
 10
52.0174874572
 20
206.5265606783
 30
0.0
 10
51.8392071081
 20
206.5865155214
 30
0.0
 10
51.5498773286
 20
206.5792318557
 30
0.0
 10
51.2580200496
 20
206.48094312
 30
0.0
 10
50.8874899288
 20
206.2374325756
 30
0.0
 10
50.5345576647
 20
205.7771409314
 30
0.0
 10
50.4179996412
 20
205.3205056605
 30
0.0
 10
50.4179996412
 20
205.0959155308
 30
0.0
  0
SPLINE
  5
3C6
100
AcDbEntity
  8
0
100
AcDbSpline
 62
7
  6
CONTINUOUS
 70
0
 71
3
 72
9
 73
5
 74
0
 42
0.0000001
 43
0.0000001
 44
0.0000000001
 40
0.0
 40
0.0
 40
0.0
 40
0.0
 40
0.508561307
 40
1.0
 40
1.0
 40
1.0
 40
1.0
 10
51.2640766439
 20
203.1684335244
 30
0.0
 10
51.0449439191
 20
203.1096929148
 30
0.0
 10
50.5894179425
 20
203.0653755532
 30
0.0
 10
50.1500035865
 20
203.2055546562
 30
0.0
 10
49.9601624787
 20
203.3152017092
 30
0.0
  0
SPLINE
  5
3C7
100
AcDbEntity
  8
0
100
AcDbSpline
 62
7
  6
CONTINUOUS
 70
0
 71
3
 72
11
 73
7
 74
0
 42
0.0000001
 43
0.0000001
 44
0.0000000001
 40
0.0
 40
0.0
 40
0.0
 40
0.0
 40
0.2404079514
 40
0.4849904339
 40
0.7374328493
 40
1.0
 40
1.0
 40
1.0
 40
1.0
 10
52.5261445196
 20
213.2159048904
 30
0.0
 10
52.6598575816
 20
213.1386758678
 30
0.0
 10
52.9074900494
 20
212.9408538456
 30
0.0
 10
53.1802202479
 20
212.5463429178
 30
0.0
 10
53.3443580784
 20
212.0815635521
 30
0.0
 10
53.3786824947
 20
211.749361864
 30
0.0
 10
53.3786824947
 20
211.5807156442
 30
0.0
  0
SPLINE
  5
3C8
100
AcDbEntity
  8
0
100
AcDbSpline
 62
7
  6
CONTINUOUS
 70
0
 71
3
 72
11
 73
7
 74
0
 42
0.0000001
 43
0.0000001
 44
0.0000000001
 40
0.0
 40
0.0
 40
0.0
 40
0.0
 40
0.2497917643
 40
0.5072786221
 40
0.7604774551
 40
1.0
 40
1.0
 40
1.0
 40
1.0
 10
53.3786824947
 20
205.8808410409
 30
0.0
 10
53.3786824947
 20
205.588099521
 30
0.0
 10
53.2716637616
 20
204.9906724016
 30
0.0
 10
52.8539509012
 20
204.1894779636
 30
0.0
 10
52.2300075224
 20
203.5516374567
 30
0.0
 10
51.7004993837
 20
203.2854207879
 30
0.0
 10
51.4293651197
 20
203.2127406714
 30
0.0
  0
SPLINE
  5
3C9
100
AcDbEntity
  8
0
100
AcDbSpline
 62
7
  6
CONTINUOUS
 70
0
 71
3
 72
13
 73
9
 74
0
 42
0.0000001
 43
0.0000001
 44
0.0000000001
 40
0.0
 40
0.0
 40
0.0
 40
0.0
 40
0.1054383888
 40
0.2163605835
 40
0.3358467842
 40
0.4640994384
 40
0.7349955201
 40
1.0
 40
1.0
 40
1.0
 40
1.0
 10
52.095451776
 20
211.9989046546
 30
0.0
 10
52.0174874572
 20
212.0425683589
 30
0.0
 10
51.8392071081
 20
212.102523202
 30
0.0
 10
51.5498773286
 20
212.0952395363
 30
0.0
 10
51.2580200496
 20
211.9969508006
 30
0.0
 10
50.8874899288
 20
211.7534402562
 30
0.0
 10
50.5345576647
 20
211.293148612
 30
0.0
 10
50.4179996412
 20
210.8365133411
 30
0.0
 10
50.4179996412
 20
210.6119232114
 30
0.0
  0
SPLINE
  5
3CA
100
AcDbEntity
  8
0
100
AcDbSpline
 62
7
  6
CONTINUOUS
 70
0
 71
3
 72
9
 73
5
 74
0
 42
0.0000001
 43
0.0000001
 44
0.0000000001
 40
0.0
 40
0.0
 40
0.0
 40
0.0
 40
0.4836964036
 40
1.0
 40
1.0
 40
1.0
 40
1.0
 10
49.784684622
 20
168.2340512097
 30
0.0
 10
49.6772394353
 20
168.2961081357
 30
0.0
 10
49.4240906821
 20
168.3756476927
 30
0.0
 10
49.1623926807
 20
168.3484542906
 30
0.0
 10
49.0344659612
 20
168.3141621373
 30
0.0
  0
SPLINE
  5
3CB
100
AcDbEntity
  8
0
100
AcDbSpline
 62
7
  6
CONTINUOUS
 70
0
 71
3
 72
9
 73
5
 74
0
 42
0.0000001
 43
0.0000001
 44
0.0000000001
 40
0.0
 40
0.0
 40
0.0
 40
0.0
 40
0.2394449503
 40
1.0
 40
1.0
 40
1.0
 40
1.0
 10
49.2538814279
 20
168.3463017614
 30
0.0
 10
49.273734699
 20
168.3050188916
 30
0.0
 10
49.3456765039
 20
168.1273612392
 30
0.0
 10
49.37331274
 20
167.9332687046
 30
0.0
 10
49.37331274
 20
167.7877656943
 30
0.0
  0
SPLINE
  5
3CC
100
AcDbEntity
  8
0
100
AcDbSpline
 62
7
  6
CONTINUOUS
 70
0
 71
3
 72
9
 73
5
 74
0
 42
0.0000001
 43
0.0000001
 44
0.0000000001
 40
0.0
 40
0.0
 40
0.0
 40
0.0
 40
0.4836969488
 40
1.0
 40
1.0
 40
1.0
 40
1.0
 10
47.3074919216
 20
173.2680862153
 30
0.0
 10
47.1642348201
 20
173.3508270071
 30
0.0
 10
46.8267120269
 20
173.4568772031
 30
0.0
 10
46.4777883373
 20
173.4206284647
 30
0.0
 10
46.3072234163
 20
173.3749069165
 30
0.0
  0
SPLINE
  5
3CD
100
AcDbEntity
  8
0
100
AcDbSpline
 62
7
  6
CONTINUOUS
 70
0
 71
3
 72
9
 73
5
 74
0
 42
0.0000001
 43
0.0000001
 44
0.0000000001
 40
0.0
 40
0.0
 40
0.0
 40
0.0
 40
0.4804114402
 40
1.0
 40
1.0
 40
1.0
 40
1.0
 10
46.7968082719
 20
173.4234020364
 30
0.0
 10
46.8846150724
 20
173.295037247
 30
0.0
 10
47.0195657899
 20
172.9935421105
 30
0.0
 10
47.0592740793
 20
172.6678126768
 30
0.0
 10
47.0592740793
 20
172.4996063953
 30
0.0
  0
SPLINE
  5
3CE
100
AcDbEntity
  8
0
100
AcDbSpline
 62
7
  6
CONTINUOUS
 70
0
 71
3
 72
10
 73
6
 74
0
 42
0.0000001
 43
0.0000001
 44
0.0000000001
 40
0.0
 40
0.0
 40
0.0
 40
0.0
 40
0.5251866521
 40
0.7667853461
 40
1.0
 40
1.0
 40
1.0
 40
1.0
 10
40.3568382888
 20
149.8996858276
 30
0.0
 10
40.3568382888
 20
149.7022342368
 30
0.0
 10
40.4146543667
 20
149.4050377453
 30
0.0
 10
40.6287663835
 20
149.0909723508
 30
0.0
 10
40.7703741528
 20
148.9769556894
 30
0.0
 10
40.8463004752
 20
148.9331030304
 30
0.0
  0
SPLINE
  5
3CF
100
AcDbEntity
  8
0
100
AcDbSpline
 62
7
  6
CONTINUOUS
 70
0
 71
3
 72
10
 73
6
 74
0
 42
0.0000001
 43
0.0000001
 44
0.0000000001
 40
0.0
 40
0.0
 40
0.0
 40
0.0
 40
0.5251866553
 40
0.7667853489
 40
1.0
 40
1.0
 40
1.0
 40
1.0
 10
42.6708769495
 20
145.1878451266
 30
0.0
 10
42.6708769495
 20
144.9245763375
 30
0.0
 10
42.7479650543
 20
144.5283143473
 30
0.0
 10
43.033447745
 20
144.1095604909
 30
0.0
 10
43.2222581034
 20
143.9575382759
 30
0.0
 10
43.3234932017
 20
143.8990680702
 30
0.0
  0
SPLINE
  5
3D0
100
AcDbEntity
  8
0
100
AcDbSpline
 62
7
  6
CONTINUOUS
 70
0
 71
3
 72
12
 73
8
 74
0
 42
0.0000001
 43
0.0000001
 44
0.0000000001
 40
0.0
 40
0.0
 40
0.0
 40
0.0
 40
0.235004337
 40
0.4894748409
 40
0.6202684187
 40
0.7503747732
 40
1.0
 40
1.0
 40
1.0
 40
1.0
 10
44.3237617071
 20
172.8432211534
 30
0.0
 10
44.0970132223
 20
172.7824390669
 30
0.0
 10
43.6500825639
 20
172.5540801238
 30
0.0
 10
43.211954148
 20
172.1025292355
 30
0.0
 10
42.9411553897
 20
171.6626168788
 30
0.0
 10
42.7403201816
 20
171.1926648634
 30
0.0
 10
42.6708769495
 20
170.810839539
 30
0.0
 10
42.6708769495
 20
170.5614804573
 30
0.0
  0
SPLINE
  5
3D1
100
AcDbEntity
  8
0
100
AcDbSpline
 62
7
  6
CONTINUOUS
 70
0
 71
3
 72
12
 73
8
 74
0
 42
0.0000001
 43
0.0000001
 44
0.0000000001
 40
0.0
 40
0.0
 40
0.0
 40
0.0
 40
0.2350029282
 40
0.4894734153
 40
0.6202672676
 40
0.750374038
 40
1.0
 40
1.0
 40
1.0
 40
1.0
 10
41.5965443604
 20
166.320356558
 30
0.0
 10
41.4264807831
 20
166.2747691606
 30
0.0
 10
41.0912690929
 20
166.1035159904
 30
0.0
 10
40.7626629173
 20
165.7648475188
 30
0.0
 10
40.5595556485
 20
165.4349093086
 30
0.0
 10
40.4089230746
 20
165.0824385324
 30
0.0
 10
40.3568382888
 20
164.7960631259
 30
0.0
 10
40.3568382888
 20
164.6090396425
 30
0.0
  0
SPLINE
  5
3D2
100
AcDbEntity
  8
0
100
AcDbSpline
 62
7
  6
CONTINUOUS
 70
0
 71
3
 72
11
 73
7
 74
0
 42
0.0000001
 43
0.0000001
 44
0.0000000001
 40
0.0
 40
0.0
 40
0.0
 40
0.0
 40
0.2717319313
 40
0.526889505
 40
0.7676260716
 40
1.0
 40
1.0
 40
1.0
 40
1.0
 10
45.4735452035
 20
182.1891624592
 30
0.0
 10
45.4735452035
 20
181.9977728594
 30
0.0
 10
45.5108102645
 20
181.6251011994
 30
0.0
 10
45.6889574099
 20
181.1088328926
 30
0.0
 10
45.9811626569
 20
180.6793499222
 30
0.0
 10
46.2454674058
 20
180.4667097929
 30
0.0
 10
46.3871942107
 20
180.3848508573
 30
0.0
  0
SPLINE
  5
3D3
100
AcDbEntity
  8
0
100
AcDbSpline
 62
7
  6
CONTINUOUS
 70
0
 71
3
 72
11
 73
7
 74
0
 42
0.0000001
 43
0.0000001
 44
0.0000000001
 40
0.0
 40
0.0
 40
0.0
 40
0.0
 40
0.2717319313
 40
0.526889505
 40
0.7676260716
 40
1.0
 40
1.0
 40
1.0
 40
1.0
 10
45.4735452035
 20
191.3825085936
 30
0.0
 10
45.4735452035
 20
191.1911189938
 30
0.0
 10
45.5108102645
 20
190.8184473337
 30
0.0
 10
45.6889574099
 20
190.3021790269
 30
0.0
 10
45.9811626569
 20
189.8726960565
 30
0.0
 10
46.2454674058
 20
189.6600559272
 30
0.0
 10
46.3871942107
 20
189.5781969916
 30
0.0
  0
SPLINE
  5
3D4
100
AcDbEntity
  8
0
100
AcDbSpline
 62
7
  6
CONTINUOUS
 70
0
 71
3
 72
10
 73
6
 74
0
 42
0.0000001
 43
0.0000001
 44
0.0000000001
 40
0.0
 40
0.0
 40
0.0
 40
0.0
 40
0.5251974121
 40
0.7668511279
 40
1.0
 40
1.0
 40
1.0
 40
1.0
 10
50.4179996412
 20
210.6119232114
 30
0.0
 10
50.4179996412
 20
210.4463058752
 30
0.0
 10
50.4659520942
 20
210.1972135392
 30
0.0
 10
50.6434719586
 20
209.9325164108
 30
0.0
 10
50.7610663352
 20
209.8355588656
 30
0.0
 10
50.8242204864
 20
209.7979155615
 30
0.0
  0
SPLINE
  5
3D5
100
AcDbEntity
  8
0
100
AcDbSpline
 62
7
  6
CONTINUOUS
 70
0
 71
3
 72
10
 73
6
 74
0
 42
0.0000001
 43
0.0000001
 44
0.0000000001
 40
0.0
 40
0.0
 40
0.0
 40
0.0
 40
0.5251974121
 40
0.7668511279
 40
1.0
 40
1.0
 40
1.0
 40
1.0
 10
50.4179996412
 20
205.0959155308
 30
0.0
 10
50.4179996412
 20
204.9302981946
 30
0.0
 10
50.4659520942
 20
204.6812058586
 30
0.0
 10
50.6434719586
 20
204.4165087302
 30
0.0
 10
50.7610663352
 20
204.319551185
 30
0.0
 10
50.8242204864
 20
204.2819078809
 30
0.0
  0
SPLINE
  5
3D6
100
AcDbEntity
  8
0
100
AcDbSpline
 62
7
  6
CONTINUOUS
 70
0
 71
3
 72
9
 73
5
 74
0
 42
0.0000001
 43
0.0000001
 44
0.0000000001
 40
0.0
 40
0.0
 40
0.0
 40
0.0
 40
0.254186551
 40
1.0
 40
1.0
 40
1.0
 40
1.0
 10
40.6956252778
 20
149.3732733574
 30
0.0
 10
40.6779427662
 20
149.3685336417
 30
0.0
 10
40.6079715834
 20
149.3514510608
 30
0.0
 10
40.5364177799
 20
149.3407306823
 30
0.0
 10
40.4828517375
 20
149.3367453209
 30
0.0
  0
SPLINE
  5
3D7
100
AcDbEntity
  8
0
100
AcDbSpline
 62
7
  6
CONTINUOUS
 70
0
 71
3
 72
9
 73
5
 74
0
 42
0.0000001
 43
0.0000001
 44
0.0000000001
 40
0.0
 40
0.0
 40
0.0
 40
0.0
 40
0.2574855879
 40
1.0
 40
1.0
 40
1.0
 40
1.0
 10
43.4229276125
 20
144.3125446055
 30
0.0
 10
43.3824519981
 20
144.3016947323
 30
0.0
 10
43.2237463706
 20
144.2656071467
 30
0.0
 10
43.0589457745
 20
144.2546355556
 30
0.0
 10
42.938425542
 20
144.2634318042
 30
0.0
  0
SPLINE
  5
3D8
100
AcDbEntity
  8
0
100
AcDbSpline
 62
7
  6
CONTINUOUS
 70
0
 71
3
 72
9
 73
5
 74
0
 42
0.0000001
 43
0.0000001
 44
0.0000000001
 40
0.0
 40
0.0
 40
0.0
 40
0.0
 40
0.253763825
 40
1.0
 40
1.0
 40
1.0
 40
1.0
 10
46.7758657582
 20
189.6824659326
 30
0.0
 10
46.7446445783
 20
189.680956381
 30
0.0
 10
46.6214937422
 20
189.677922626
 30
0.0
 10
46.4980053606
 20
189.6869220003
 30
0.0
 10
46.4071316779
 20
189.7007417292
 30
0.0
  0
SPLINE
  5
3D9
100
AcDbEntity
  8
0
100
AcDbSpline
 62
7
  6
CONTINUOUS
 70
0
 71
3
 72
9
 73
5
 74
0
 42
0.0000001
 43
0.0000001
 44
0.0000000001
 40
0.0
 40
0.0
 40
0.0
 40
0.0
 40
0.2521248957
 40
1.0
 40
1.0
 40
1.0
 40
1.0
 10
46.4071316779
 20
189.7007417292
 30
0.0
 10
46.3827328836
 20
189.7044522063
 30
0.0
 10
46.2862805609
 20
189.7211905172
 30
0.0
 10
46.1912334877
 20
189.7461218952
 30
0.0
 10
46.1218142886
 20
189.7693617191
 30
0.0
  0
SPLINE
  5
3DA
100
AcDbEntity
  8
0
100
AcDbSpline
 62
7
  6
CONTINUOUS
 70
0
 71
3
 72
9
 73
5
 74
0
 42
0.0000001
 43
0.0000001
 44
0.0000000001
 40
0.0
 40
0.0
 40
0.0
 40
0.0
 40
0.253763825
 40
1.0
 40
1.0
 40
1.0
 40
1.0
 10
46.7758657582
 20
180.4891197983
 30
0.0
 10
46.7446445783
 20
180.4876102467
 30
0.0
 10
46.6214937422
 20
180.4845764916
 30
0.0
 10
46.4980053606
 20
180.493575866
 30
0.0
 10
46.4071316779
 20
180.5073955948
 30
0.0
  0
SPLINE
  5
3DB
100
AcDbEntity
  8
0
100
AcDbSpline
 62
7
  6
CONTINUOUS
 70
0
 71
3
 72
9
 73
5
 74
0
 42
0.0000001
 43
0.0000001
 44
0.0000000001
 40
0.0
 40
0.0
 40
0.0
 40
0.0
 40
0.2521248957
 40
1.0
 40
1.0
 40
1.0
 40
1.0
 10
46.4071316779
 20
180.5073955948
 30
0.0
 10
46.3827328836
 20
180.511106072
 30
0.0
 10
46.286280561
 20
180.5278443829
 30
0.0
 10
46.1912334877
 20
180.5527757609
 30
0.0
 10
46.1218142886
 20
180.5760155848
 30
0.0
  0
SPLINE
  5
3DC
100
AcDbEntity
  8
0
100
AcDbSpline
 62
9
  6
CONTINUOUS
 70
0
 71
3
 72
9
 73
5
 74
0
 42
0.0000001
 43
0.0000001
 44
0.0000000001
 40
0.0
 40
0.0
 40
0.0
 40
0.0
 40
0.2640154733
 40
1.0
 40
1.0
 40
1.0
 40
1.0
 10
53.4146267891
 20
211.8880182501
 30
0.0
 10
53.40805192
 20
211.8862557815
 30
0.0
 10
53.3832642104
 20
211.8791692977
 30
0.0
 10
53.3589228679
 20
211.8704237235
 30
0.0
 10
53.341554878
 20
211.8627800872
 30
0.0
  0
SPLINE
  5
3DD
100
AcDbEntity
  8
0
100
AcDbSpline
 62
9
  6
CONTINUOUS
 70
0
 71
3
 72
10
 73
6
 74
0
 42
0.0000001
 43
0.0000001
 44
0.0000000001
 40
0.0
 40
0.0
 40
0.0
 40
0.0
 40
0.2059881733
 40
0.4581939799
 40
1.0
 40
1.0
 40
1.0
 40
1.0
 10
51.325797737
 20
213.3440472472
 30
0.0
 10
51.2922902491
 20
213.3634002595
 30
0.0
 10
51.2291784651
 20
213.4255031133
 30
0.0
 10
51.1353864669
 20
213.5888750645
 30
0.0
 10
51.100589418
 20
213.7400760284
 30
0.0
 10
51.1005892134
 20
213.8418541948
 30
0.0
  0
SPLINE
  5
3DE
100
AcDbEntity
  8
0
100
AcDbSpline
 62
9
  6
CONTINUOUS
 70
0
 71
3
 72
9
 73
5
 74
0
 42
0.0000001
 43
0.0000001
 44
0.0000000001
 40
0.0
 40
0.0
 40
0.0
 40
0.0
 40
0.2737681231
 40
1.0
 40
1.0
 40
1.0
 40
1.0
 10
51.1005892134
 20
202.9937081701
 30
0.0
 10
51.1005892433
 20
203.0085963975
 30
0.0
 10
51.1026874354
 20
203.06286468
 30
0.0
 10
51.1129912382
 20
203.1175033594
 30
0.0
 10
51.1281189425
 20
203.1539856771
 30
0.0
  0
SPLINE
  5
3DF
100
AcDbEntity
  8
0
100
AcDbSpline
 62
9
  6
CONTINUOUS
 70
0
 71
3
 72
10
 73
6
 74
0
 42
0.0000001
 43
0.0000001
 44
0.0000000001
 40
0.0
 40
0.0
 40
0.0
 40
0.0
 40
0.5307161463
 40
0.7893282112
 40
1.0
 40
1.0
 40
1.0
 40
1.0
 10
48.6212631619
 20
204.9032369678
 30
0.0
 10
48.7180847916
 20
204.9291907428
 30
0.0
 10
48.8706754367
 20
204.9385919069
 30
0.0
 10
49.057547437
 20
204.9111724151
 30
0.0
 10
49.1425908861
 20
204.8816778934
 30
0.0
 10
49.1770475521
 20
204.8617766617
 30
0.0
  0
SPLINE
  5
3E0
100
AcDbEntity
  8
0
100
AcDbSpline
 62
9
  6
CONTINUOUS
 70
0
 71
3
 72
11
 73
7
 74
0
 42
0.0000001
 43
0.0000001
 44
0.0000000001
 40
0.0
 40
0.0
 40
0.0
 40
0.0
 40
0.2717301319
 40
0.5268861869
 40
0.7676201747
 40
1.0
 40
1.0
 40
1.0
 40
1.0
 10
49.1770475521
 20
204.8617766617
 30
0.0
 10
49.1770475521
 20
204.6977295995
 30
0.0
 10
49.2089868247
 20
204.3782978561
 30
0.0
 10
49.361688361
 20
203.9357898906
 30
0.0
 10
49.6121339196
 20
203.5676471166
 30
0.0
 10
49.8386971691
 20
203.3853991327
 30
0.0
 10
49.9601815037
 20
203.3152346493
 30
0.0
  0
SPLINE
  5
3E1
100
AcDbEntity
  8
0
100
AcDbSpline
 62
9
  6
CONTINUOUS
 70
0
 71
3
 72
10
 73
6
 74
0
 42
0.0000001
 43
0.0000001
 44
0.0000000001
 40
0.0
 40
0.0
 40
0.0
 40
0.0
 40
0.2106718718
 40
0.4692840673
 40
1.0
 40
1.0
 40
1.0
 40
1.0
 10
49.1770475521
 20
204.8617766617
 30
0.0
 10
49.2115042992
 20
204.8418753831
 30
0.0
 10
49.2965479693
 20
204.8123808202
 30
0.0
 10
49.4834203457
 20
204.7849613801
 30
0.0
 10
49.6360112926
 20
204.7943626601
 30
0.0
 10
49.7328330273
 20
204.8203166464
 30
0.0
  0
SPLINE
  5
3E2
100
AcDbEntity
  8
0
100
AcDbSpline
 62
9
  6
CONTINUOUS
 70
0
 71
3
 72
9
 73
5
 74
0
 42
0.0000001
 43
0.0000001
 44
0.0000000001
 40
0.0
 40
0.0
 40
0.0
 40
0.0
 40
0.2776224459
 40
1.0
 40
1.0
 40
1.0
 40
1.0
 10
51.3857177849
 20
203.4247188887
 30
0.0
 10
51.3857177849
 20
203.4082255405
 30
0.0
 10
51.3831838414
 20
203.3489996402
 30
0.0
 10
51.3706952574
 20
203.2890727751
 30
0.0
 10
51.351914555
 20
203.2504844091
 30
0.0
  0
SPLINE
  5
3E3
100
AcDbEntity
  8
0
100
AcDbSpline
 62
9
  6
CONTINUOUS
 70
0
 71
3
 72
9
 73
5
 74
0
 42
0.0000001
 43
0.0000001
 44
0.0000000001
 40
0.0
 40
0.0
 40
0.0
 40
0.0
 40
0.2657531224
 40
1.0
 40
1.0
 40
1.0
 40
1.0
 10
51.351914555
 20
203.2504844091
 30
0.0
 10
51.3496799419
 20
203.2458929903
 30
0.0
 10
51.3407333831
 20
203.228895132
 30
0.0
 10
51.329459903
 20
203.213030354
 30
0.0
 10
51.3197557355
 20
203.2027896761
 30
0.0
  0
SPLINE
  5
3E4
100
AcDbEntity
  8
0
100
AcDbSpline
 62
9
  6
CONTINUOUS
 70
0
 71
3
 72
9
 73
5
 74
0
 42
0.0000001
 43
0.0000001
 44
0.0000000001
 40
0.0
 40
0.0
 40
0.0
 40
0.0
 40
0.2636935962
 40
1.0
 40
1.0
 40
1.0
 40
1.0
 10
51.3197557355
 20
203.2027896761
 30
0.0
 10
51.3157722321
 20
203.1985859384
 30
0.0
 10
51.2997893143
 20
203.183523867
 30
0.0
 10
51.2796942429
 20
203.17262804
 30
0.0
 10
51.2640769414
 20
203.1684324154
 30
0.0
  0
SPLINE
  5
3E5
100
AcDbEntity
  8
0
100
AcDbSpline
 62
9
  6
CONTINUOUS
 70
0
 71
3
 72
10
 73
6
 74
0
 42
0.0000001
 43
0.0000001
 44
0.0000000001
 40
0.0
 40
0.0
 40
0.0
 40
0.0
 40
0.2059882213
 40
0.4581941369
 40
1.0
 40
1.0
 40
1.0
 40
1.0
 10
51.1605092612
 20
213.2997401002
 30
0.0
 10
51.1940168275
 20
213.2803870426
 30
0.0
 10
51.2571287398
 20
213.218283998
 30
0.0
 10
51.350920804
 20
213.0549116329
 30
0.0
 10
51.3857177849
 20
212.9037102969
 30
0.0
 10
51.3857177849
 20
212.8019319457
 30
0.0
  0
SPLINE
  5
3E6
100
AcDbEntity
  8
0
100
AcDbSpline
 62
9
  6
CONTINUOUS
 70
0
 71
3
 72
10
 73
6
 74
0
 42
0.0000001
 43
0.0000001
 44
0.0000000001
 40
0.0
 40
0.0
 40
0.0
 40
0.0
 40
0.5307159327
 40
0.7893281282
 40
1.0
 40
1.0
 40
1.0
 40
1.0
 10
49.7328330273
 20
210.5201912497
 30
0.0
 10
49.6360112926
 20
210.4942372634
 30
0.0
 10
49.4834203457
 20
210.4848359834
 30
0.0
 10
49.2965479693
 20
210.5122554235
 30
0.0
 10
49.2115042992
 20
210.5417499863
 30
0.0
 10
49.1770475521
 20
210.5616512649
 30
0.0
  0
SPLINE
  5
3E7
100
AcDbEntity
  8
0
100
AcDbSpline
 62
9
  6
CONTINUOUS
 70
0
 71
3
 72
10
 73
6
 74
0
 42
0.0000001
 43
0.0000001
 44
0.0000000001
 40
0.0
 40
0.0
 40
0.0
 40
0.0
 40
0.5418058631
 40
0.7940117787
 40
1.0
 40
1.0
 40
1.0
 40
1.0
 10
51.5510062607
 20
212.8462390927
 30
0.0
 10
51.5510062607
 20
212.9480174439
 30
0.0
 10
51.5162092798
 20
213.0992187798
 30
0.0
 10
51.4224172156
 20
213.2625911449
 30
0.0
 10
51.3593053033
 20
213.3246941896
 30
0.0
 10
51.325797737
 20
213.3440472472
 30
0.0
  0
SPLINE
  5
3E8
100
AcDbEntity
  8
0
100
AcDbSpline
 62
9
  6
CONTINUOUS
 70
0
 71
3
 72
10
 73
6
 74
0
 42
0.0000001
 43
0.0000001
 44
0.0000000001
 40
0.0
 40
0.0
 40
0.0
 40
0.0
 40
0.3383248612
 40
0.6184170156
 40
1.0
 40
1.0
 40
1.0
 40
1.0
 10
53.2038910183
 20
205.7507667318
 30
0.0
 10
53.2287084035
 20
205.7574192677
 30
0.0
 10
53.2737328269
 20
205.772811781
 30
0.0
 10
53.3399583212
 20
205.8066265291
 30
0.0
 10
53.3786631428
 20
205.8518623148
 30
0.0
 10
53.3786704197
 20
205.8808410413
 30
0.0
  0
SPLINE
  5
3E9
100
AcDbEntity
  8
0
100
AcDbSpline
 62
7
  6
CONTINUOUS
 70
0
 71
3
 72
10
 73
6
 74
0
 42
0.0000001
 43
0.0000001
 44
0.0000000001
 40
0.0
 40
0.0
 40
0.0
 40
0.0
 40
0.5252987418
 40
0.7667489181
 40
1.0
 40
1.0
 40
1.0
 40
1.0
 10
52.5187244044
 20
211.1750424506
 30
0.0
 10
52.5187244044
 20
211.3440629874
 30
0.0
 10
52.4686789455
 20
211.5986212046
 30
0.0
 10
52.2832802014
 20
211.8660587907
 30
0.0
 10
52.1609329504
 20
211.9622321013
 30
0.0
 10
52.095451776
 20
211.9989046546
 30
0.0
  0
SPLINE
  5
3EA
100
AcDbEntity
  8
0
100
AcDbSpline
 62
7
  6
CONTINUOUS
 70
0
 71
3
 72
10
 73
6
 74
0
 42
0.0000001
 43
0.0000001
 44
0.0000000001
 40
0.0
 40
0.0
 40
0.0
 40
0.0
 40
0.5252987418
 40
0.7667489181
 40
1.0
 40
1.0
 40
1.0
 40
1.0
 10
52.5187244044
 20
205.65903477
 30
0.0
 10
52.5187244044
 20
205.8280553068
 30
0.0
 10
52.4686789455
 20
206.082613524
 30
0.0
 10
52.2832802014
 20
206.3500511101
 30
0.0
 10
52.1609329504
 20
206.4462244207
 30
0.0
 10
52.095451776
 20
206.482896974
 30
0.0
  0
SPLINE
  5
3EB
100
AcDbEntity
  8
0
100
AcDbSpline
 62
9
  6
CONTINUOUS
 70
0
 71
3
 72
12
 73
8
 74
0
 42
0.0000001
 43
0.0000001
 44
0.0000000001
 40
0.0
 40
0.0
 40
0.0
 40
0.0
 40
0.2496244368
 40
0.3797308588
 40
0.5105245562
 40
0.764995457
 40
1.0
 40
1.0
 40
1.0
 40
1.0
 10
53.2038900687
 20
205.7508120281
 30
0.0
 10
53.2038900687
 20
205.5014491718
 30
0.0
 10
53.1344581338
 20
205.1196160202
 30
0.0
 10
52.9336227467
 20
204.6496539059
 30
0.0
 10
52.6628229279
 20
204.2097306375
 30
0.0
 10
52.2246873154
 20
203.7581684885
 30
0.0
 10
51.7777469231
 20
203.5298070816
 30
0.0
 10
51.5509940896
 20
203.4690238294
 30
0.0
  0
SPLINE
  5
3EC
100
AcDbEntity
  8
0
100
AcDbSpline
 62
9
  6
CONTINUOUS
 70
0
 71
3
 72
13
 73
9
 74
0
 42
0.0000001
 43
0.0000001
 44
0.0000000001
 40
0.0
 40
0.0
 40
0.0
 40
0.0
 40
0.2499691774
 40
0.3686022071
 40
0.4862467966
 40
0.6061175169
 40
0.7309281859
 40
1.0
 40
1.0
 40
1.0
 40
1.0
 10
51.5509653125
 20
212.8462270599
 30
0.0
 10
51.7548643412
 20
212.9008841325
 30
0.0
 10
52.0798029935
 20
212.9227351176
 30
0.0
 10
52.4739863085
 20
212.7946556493
 30
0.0
 10
52.7297009257
 20
212.6297469616
 30
0.0
 10
52.9380081377
 20
212.4011449754
 30
0.0
 10
53.1472086866
 20
212.0173437182
 30
0.0
 10
53.2038900687
 20
211.6778252378
 30
0.0
 10
53.2038900687
 20
211.4505955333
 30
0.0
  0
SPLINE
  5
3ED
100
AcDbEntity
  8
0
100
AcDbSpline
 62
9
  6
CONTINUOUS
 70
0
 71
3
 72
12
 73
8
 74
0
 42
0.0000001
 43
0.0000001
 44
0.0000000001
 40
0.0
 40
0.0
 40
0.0
 40
0.0
 40
0.2496248105
 40
0.3797314436
 40
0.5105252806
 40
0.7649961701
 40
1.0
 40
1.0
 40
1.0
 40
1.0
 10
49.7328339768
 20
210.5201459535
 30
0.0
 10
49.7328339768
 20
210.7695116343
 30
0.0
 10
49.8022675097
 20
211.1513491288
 30
0.0
 10
50.0031070742
 20
211.6213158188
 30
0.0
 10
50.2739124369
 20
212.0612417685
 30
0.0
 10
50.7120547635
 20
212.5128074035
 30
0.0
 10
51.1590043555
 20
212.7411581999
 30
0.0
 10
51.3857587299
 20
212.8019418652
 30
0.0
  0
SPLINE
  5
3EE
100
AcDbEntity
  8
0
100
AcDbSpline
 62
9
  6
CONTINUOUS
 70
0
 71
3
 72
13
 73
9
 74
0
 42
0.0000001
 43
0.0000001
 44
0.0000000001
 40
0.0
 40
0.0
 40
0.0
 40
0.0
 40
0.2499691774
 40
0.3686022071
 40
0.4862467966
 40
0.6061175169
 40
0.7309281859
 40
1.0
 40
1.0
 40
1.0
 40
1.0
 10
51.3857587331
 20
203.4247309216
 30
0.0
 10
51.1818597044
 20
203.3700738489
 30
0.0
 10
50.8569210521
 20
203.3482228638
 30
0.0
 10
50.462737737
 20
203.4763023321
 30
0.0
 10
50.2070231198
 20
203.6412110199
 30
0.0
 10
49.9987159078
 20
203.8698130061
 30
0.0
 10
49.789515359
 20
204.2536142633
 30
0.0
 10
49.7328339768
 20
204.5931327436
 30
0.0
 10
49.7328339768
 20
204.8203624482
 30
0.0
  0
SPLINE
  5
3EF
100
AcDbEntity
  8
0
100
AcDbSpline
 62
7
  6
CONTINUOUS
 70
0
 71
3
 72
13
 73
9
 74
0
 42
0.0000001
 43
0.0000001
 44
0.0000000001
 40
0.0
 40
0.0
 40
0.0
 40
0.0
 40
0.105406708
 40
0.2160604936
 40
0.3352728992
 40
0.4633956364
 40
0.734517838
 40
1.0
 40
1.0
 40
1.0
 40
1.0
 10
50.8242204864
 20
209.7979155615
 30
0.0
 10
50.9015350436
 20
209.7518318865
 30
0.0
 10
51.0794561708
 20
209.6869521199
 30
0.0
 10
51.3707448387
 20
209.6886264511
 30
0.0
 10
51.6657335382
 20
209.7834352632
 30
0.0
 10
52.0414136698
 20
210.0251109621
 30
0.0
 10
52.400065238
 20
210.4876441851
 30
0.0
 10
52.5187244044
 20
210.948346897
 30
0.0
 10
52.5187244044
 20
211.1750424506
 30
0.0
  0
SPLINE
  5
3F0
100
AcDbEntity
  8
0
100
AcDbSpline
 62
7
  6
CONTINUOUS
 70
0
 71
3
 72
9
 73
5
 74
0
 42
0.0000001
 43
0.0000001
 44
0.0000000001
 40
0.0
 40
0.0
 40
0.0
 40
0.0
 40
0.495102237
 40
1.0
 40
1.0
 40
1.0
 40
1.0
 10
46.3871942107
 20
189.5781969916
 30
0.0
 10
46.4901317875
 20
189.5187420389
 30
0.0
 10
46.712062573
 20
189.4214720667
 30
0.0
 10
46.9495890769
 20
189.3746434619
 30
0.0
 10
47.0702737292
 20
189.3632004167
 30
0.0
  0
SPLINE
  5
3F1
100
AcDbEntity
  8
0
100
AcDbSpline
 62
7
  6
CONTINUOUS
 70
0
 71
3
 72
9
 73
5
 74
0
 42
0.0000001
 43
0.0000001
 44
0.0000000001
 40
0.0
 40
0.0
 40
0.0
 40
0.0
 40
0.2468779439
 40
1.0
 40
1.0
 40
1.0
 40
1.0
 10
47.0702737292
 20
189.3632004167
 30
0.0
 10
47.0973768271
 20
189.3606305623
 30
0.0
 10
47.2073852529
 20
189.3526915365
 30
0.0
 10
47.3180686125
 20
189.3546441171
 30
0.0
 10
47.4008577845
 20
189.3612352174
 30
0.0
  0
SPLINE
  5
3F2
100
AcDbEntity
  8
0
100
AcDbSpline
 62
7
  6
CONTINUOUS
 70
0
 71
3
 72
13
 73
9
 74
0
 42
0.0000001
 43
0.0000001
 44
0.0000000001
 40
0.0
 40
0.0
 40
0.0
 40
0.0
 40
0.105406708
 40
0.2160604936
 40
0.3352728992
 40
0.4633956364
 40
0.734517838
 40
1.0
 40
1.0
 40
1.0
 40
1.0
 10
50.8242204864
 20
204.2819078809
 30
0.0
 10
50.9015350436
 20
204.2358242059
 30
0.0
 10
51.0794561708
 20
204.1709444393
 30
0.0
 10
51.3707448387
 20
204.1726187705
 30
0.0
 10
51.6657335382
 20
204.2674275827
 30
0.0
 10
52.0414136698
 20
204.5091032815
 30
0.0
 10
52.400065238
 20
204.9716365045
 30
0.0
 10
52.5187244044
 20
205.4323392164
 30
0.0
 10
52.5187244044
 20
205.65903477
 30
0.0
  0
SPLINE
  5
3F3
100
AcDbEntity
  8
0
100
AcDbSpline
 62
7
  6
CONTINUOUS
 70
0
 71
3
 72
9
 73
5
 74
0
 42
0.0000001
 43
0.0000001
 44
0.0000000001
 40
0.0
 40
0.0
 40
0.0
 40
0.0
 40
0.2476521192
 40
1.0
 40
1.0
 40
1.0
 40
1.0
 10
35.3289933172
 20
214.2861641316
 30
0.0
 10
36.5780021458
 20
214.5433978376
 30
0.0
 10
41.6084496412
 20
215.6442246527
 30
0.0
 10
46.5847199046
 20
216.9910023824
 30
0.0
 10
50.2868393758
 20
218.1322268362
 30
0.0
  0
SPLINE
  5
3F4
100
AcDbEntity
  8
0
100
AcDbSpline
 62
7
  6
CONTINUOUS
 70
0
 71
3
 72
9
 73
5
 74
0
 42
0.0000001
 43
0.0000001
 44
0.0000000001
 40
0.0
 40
0.0
 40
0.0
 40
0.0
 40
0.2488721835
 40
1.0
 40
1.0
 40
1.0
 40
1.0
 10
50.2868393758
 20
218.1322268362
 30
0.0
 10
50.8889352677
 20
218.3178303967
 30
0.0
 10
53.304005842
 20
219.0772603755
 30
0.0
 10
55.701994934
 20
219.8909547785
 30
0.0
 10
57.4924511919
 20
220.5314895491
 30
0.0
  0
SPLINE
  5
3F5
100
AcDbEntity
  8
0
100
AcDbSpline
 62
7
  6
CONTINUOUS
 70
0
 71
3
 72
9
 73
5
 74
0
 42
0.0000001
 43
0.0000001
 44
0.0000000001
 40
0.0
 40
0.0
 40
0.0
 40
0.0
 40
0.4836969488
 40
1.0
 40
1.0
 40
1.0
 40
1.0
 10
43.3234932017
 20
143.8990680702
 30
0.0
 10
43.4667503032
 20
143.8163272783
 30
0.0
 10
43.8042730965
 20
143.7102770823
 30
0.0
 10
44.1531967861
 20
143.7465258207
 30
0.0
 10
44.3237617071
 20
143.792247369
 30
0.0
  0
SPLINE
  5
3F6
100
AcDbEntity
  8
0
100
AcDbSpline
 62
7
  6
CONTINUOUS
 70
0
 71
3
 72
9
 73
5
 74
0
 42
0.0000001
 43
0.0000001
 44
0.0000000001
 40
0.0
 40
0.0
 40
0.0
 40
0.0
 40
0.495102237
 40
1.0
 40
1.0
 40
1.0
 40
1.0
 10
46.3871942107
 20
180.3848508573
 30
0.0
 10
46.4901317875
 20
180.3253959046
 30
0.0
 10
46.712062573
 20
180.2281259324
 30
0.0
 10
46.9495890769
 20
180.1812973276
 30
0.0
 10
47.0702737292
 20
180.1698542823
 30
0.0
  0
SPLINE
  5
3F7
100
AcDbEntity
  8
0
100
AcDbSpline
 62
7
  6
CONTINUOUS
 70
0
 71
3
 72
9
 73
5
 74
0
 42
0.0000001
 43
0.0000001
 44
0.0000000001
 40
0.0
 40
0.0
 40
0.0
 40
0.0
 40
0.2468779439
 40
1.0
 40
1.0
 40
1.0
 40
1.0
 10
47.0702737292
 20
180.1698542823
 30
0.0
 10
47.0973768271
 20
180.167284428
 30
0.0
 10
47.2073852529
 20
180.1593454022
 30
0.0
 10
47.3180686125
 20
180.1612979828
 30
0.0
 10
47.4008577845
 20
180.1678890831
 30
0.0
  0
SPLINE
  5
3F8
100
AcDbEntity
  8
0
100
AcDbSpline
 62
7
  6
CONTINUOUS
 70
0
 71
3
 72
9
 73
5
 74
0
 42
0.0000001
 43
0.0000001
 44
0.0000000001
 40
0.0
 40
0.0
 40
0.0
 40
0.0
 40
0.4807259375
 40
1.0
 40
1.0
 40
1.0
 40
1.0
 10
49.0345589648
 20
150.8468294126
 30
0.0
 10
49.298359879
 20
150.9175450655
 30
0.0
 10
49.7994447312
 20
151.2458570055
 30
0.0
 10
50.0988118746
 20
151.7523024378
 30
0.0
 10
50.1890430319
 20
152.0331799807
 30
0.0
  0
SPLINE
  5
3F9
100
AcDbEntity
  8
0
100
AcDbSpline
 62
7
  6
CONTINUOUS
 70
0
 71
3
 72
10
 73
6
 74
0
 42
0.0000001
 43
0.0000001
 44
0.0000000001
 40
0.0
 40
0.0
 40
0.0
 40
0.0
 40
0.5251866687
 40
0.7667853796
 40
1.0
 40
1.0
 40
1.0
 40
1.0
 10
50.2741468346
 20
167.2674684578
 30
0.0
 10
50.2741468346
 20
167.4649200537
 30
0.0
 10
50.2163307354
 20
167.7621165435
 30
0.0
 10
50.0022187489
 20
168.0761819633
 30
0.0
 10
49.8606109449
 20
168.1901985779
 30
0.0
 10
49.784684622
 20
168.2340512097
 30
0.0
  0
SPLINE
  5
3FA
100
AcDbEntity
  8
0
100
AcDbSpline
 62
7
  6
CONTINUOUS
 70
0
 71
3
 72
10
 73
6
 74
0
 42
0.0000001
 43
0.0000001
 44
0.0000000001
 40
0.0
 40
0.0
 40
0.0
 40
0.0
 40
0.5251866553
 40
0.7667853489
 40
1.0
 40
1.0
 40
1.0
 40
1.0
 10
47.9601081739
 20
171.9793091588
 30
0.0
 10
47.9601081739
 20
172.2425779479
 30
0.0
 10
47.883020069
 20
172.6388399381
 30
0.0
 10
47.5975373783
 20
173.0575937946
 30
0.0
 10
47.4087270199
 20
173.2096160095
 30
0.0
 10
47.3074919216
 20
173.2680862153
 30
0.0
  0
SPLINE
  5
3FB
100
AcDbEntity
  8
0
100
AcDbSpline
 62
7
  6
CONTINUOUS
 70
0
 71
3
 72
9
 73
5
 74
0
 42
0.0000001
 43
0.0000001
 44
0.0000000001
 40
0.0
 40
0.0
 40
0.0
 40
0.0
 40
0.4836975289
 40
1.0
 40
1.0
 40
1.0
 40
1.0
 10
40.8463004752
 20
148.9331030304
 30
0.0
 10
40.9537409672
 20
148.8710487768
 30
0.0
 10
41.2068765149
 20
148.7915119322
 30
0.0
 10
41.468563488
 20
148.8186942194
 30
0.0
 10
41.5964845584
 20
148.8529828723
 30
0.0
  0
SPLINE
  5
3FC
100
AcDbEntity
  8
0
100
AcDbSpline
 62
9
  6
CONTINUOUS
 70
0
 71
3
 72
9
 73
5
 74
0
 42
0.0000001
 43
0.0000001
 44
0.0000000001
 40
0.0
 40
0.0
 40
0.0
 40
0.0
 40
0.2183951083
 40
1.0
 40
1.0
 40
1.0
 40
1.0
 10
50.9743656113
 20
203.133807076
 30
0.0
 10
50.9677168257
 20
203.1217072673
 30
0.0
 10
50.9424888584
 20
203.063436198
 30
0.0
 10
50.9353008369
 20
202.9988115131
 30
0.0
 10
50.9353007376
 20
202.9494010231
 30
0.0
  0
SPLINE
  5
3FD
100
AcDbEntity
  8
0
100
AcDbSpline
 62
7
  6
CONTINUOUS
 70
0
 71
3
 72
19
 73
15
 74
0
 42
0.0000001
 43
0.0000001
 44
0.0000000001
 40
0.0
 40
0.0
 40
0.0
 40
0.0
 40
0.1231507723
 40
0.1802809552
 40
0.2351450437
 40
0.2889876465
 40
0.3432973895
 40
0.3994507753
 40
0.458434273
 40
0.5207049908
 40
0.5861910554
 40
0.7239759355
 40
0.864848076
 40
1.0
 40
1.0
 40
1.0
 40
1.0
 10
51.2658776891
 20
192.6495329783
 30
0.0
 10
51.2658776891
 20
193.0812427263
 30
0.0
 10
51.1581683534
 20
193.7263014923
 30
0.0
 10
50.7607197555
 20
194.4555118151
 30
0.0
 10
50.3648493878
 20
194.8897817884
 30
0.0
 10
49.8793382486
 20
195.2033136657
 30
0.0
 10
49.3252702285
 20
195.3824624491
 30
0.0
 10
48.7268450786
 20
195.4207774668
 30
0.0
 10
48.1084753645
 20
195.3190492365
 30
0.0
 10
47.4934321374
 20
195.0831089938
 30
0.0
 10
46.6955171309
 20
194.595640786
 30
0.0
 10
45.8391068765
 20
193.7151470902
 30
0.0
 10
45.1617522891
 20
192.4116893231
 30
0.0
 10
44.9849156101
 20
191.4396416401
 30
0.0
 10
44.9849156101
 20
190.9658613953
 30
0.0
  0
SPLINE
  5
3FE
100
AcDbEntity
  8
0
100
AcDbSpline
 62
7
  6
CONTINUOUS
 70
0
 71
3
 72
19
 73
15
 74
0
 42
0.0000001
 43
0.0000001
 44
0.0000000001
 40
0.0
 40
0.0
 40
0.0
 40
0.0
 40
0.1231507723
 40
0.1802809552
 40
0.2351450437
 40
0.2889876465
 40
0.3432973895
 40
0.3994507753
 40
0.458434273
 40
0.5207049908
 40
0.5861910554
 40
0.7239759355
 40
0.864848076
 40
1.0
 40
1.0
 40
1.0
 40
1.0
 10
44.9849156101
 20
190.9658613953
 30
0.0
 10
44.9849156101
 20
190.5341516472
 30
0.0
 10
45.0926249459
 20
189.8890928813
 30
0.0
 10
45.4900735438
 20
189.1598825585
 30
0.0
 10
45.8859439115
 20
188.7256125852
 30
0.0
 10
46.3714550507
 20
188.4120807078
 30
0.0
 10
46.9255230708
 20
188.2329319245
 30
0.0
 10
47.5239482206
 20
188.1946169068
 30
0.0
 10
48.1423179347
 20
188.2963451371
 30
0.0
 10
48.7573611619
 20
188.5322853798
 30
0.0
 10
49.5552761684
 20
189.0197535875
 30
0.0
 10
50.4116864228
 20
189.9002472834
 30
0.0
 10
51.0890410102
 20
191.2037050504
 30
0.0
 10
51.2658776891
 20
192.1757527335
 30
0.0
 10
51.2658776891
 20
192.6495329783
 30
0.0
  0
SPLINE
  5
3FF
100
AcDbEntity
  8
0
100
AcDbSpline
 62
7
  6
CONTINUOUS
 70
0
 71
3
 72
19
 73
15
 74
0
 42
0.0000001
 43
0.0000001
 44
0.0000000001
 40
0.0
 40
0.0
 40
0.0
 40
0.0
 40
0.1231507723
 40
0.1802809552
 40
0.2351450437
 40
0.2889876465
 40
0.3432973895
 40
0.3994507753
 40
0.458434273
 40
0.5207049908
 40
0.5861910554
 40
0.7239759355
 40
0.864848076
 40
1.0
 40
1.0
 40
1.0
 40
1.0
 10
51.2658776892
 20
183.456186844
 30
0.0
 10
51.2658776892
 20
183.887896592
 30
0.0
 10
51.1581683534
 20
184.532955358
 30
0.0
 10
50.7607197555
 20
185.2621656808
 30
0.0
 10
50.3648493878
 20
185.6964356541
 30
0.0
 10
49.8793382486
 20
186.0099675314
 30
0.0
 10
49.3252702285
 20
186.1891163148
 30
0.0
 10
48.7268450786
 20
186.2274313325
 30
0.0
 10
48.1084753646
 20
186.1257031022
 30
0.0
 10
47.4934321374
 20
185.8897628595
 30
0.0
 10
46.6955171309
 20
185.4022946517
 30
0.0
 10
45.8391068765
 20
184.5218009559
 30
0.0
 10
45.1617522891
 20
183.2183431888
 30
0.0
 10
44.9849156101
 20
182.2462955057
 30
0.0
 10
44.9849156101
 20
181.772515261
 30
0.0
  0
SPLINE
  5
400
100
AcDbEntity
  8
0
100
AcDbSpline
 62
7
  6
CONTINUOUS
 70
0
 71
3
 72
19
 73
15
 74
0
 42
0.0000001
 43
0.0000001
 44
0.0000000001
 40
0.0
 40
0.0
 40
0.0
 40
0.0
 40
0.1231507723
 40
0.1802809552
 40
0.2351450437
 40
0.2889876465
 40
0.3432973895
 40
0.3994507753
 40
0.458434273
 40
0.5207049908
 40
0.5861910554
 40
0.7239759355
 40
0.864848076
 40
1.0
 40
1.0
 40
1.0
 40
1.0
 10
44.9849156101
 20
181.772515261
 30
0.0
 10
44.9849156101
 20
181.3408055129
 30
0.0
 10
45.0926249459
 20
180.695746747
 30
0.0
 10
45.4900735438
 20
179.9665364242
 30
0.0
 10
45.8859439115
 20
179.5322664509
 30
0.0
 10
46.3714550507
 20
179.2187345735
 30
0.0
 10
46.9255230708
 20
179.0395857902
 30
0.0
 10
47.5239482206
 20
179.0012707725
 30
0.0
 10
48.1423179347
 20
179.1029990028
 30
0.0
 10
48.7573611619
 20
179.3389392455
 30
0.0
 10
49.5552761684
 20
179.8264074532
 30
0.0
 10
50.4116864228
 20
180.7069011491
 30
0.0
 10
51.0890410102
 20
182.0103589161
 30
0.0
 10
51.2658776892
 20
182.9824065992
 30
0.0
 10
51.2658776892
 20
183.456186844
 30
0.0
  0
SPLINE
  5
401
100
AcDbEntity
  8
0
100
AcDbSpline
 62
9
  6
CONTINUOUS
 70
0
 71
3
 72
14
 73
10
 74
0
 42
0.0000001
 43
0.0000001
 44
0.0000000001
 40
0.0
 40
0.0
 40
0.0
 40
0.0
 40
0.2686401244
 40
0.3932507862
 40
0.5129295626
 40
0.6303857022
 40
0.7488282745
 40
0.8713762505
 40
1.0
 40
1.0
 40
1.0
 40
1.0
 10
48.6212631619
 20
204.9032682448
 30
0.0
 10
48.6212631619
 20
204.5851564718
 30
0.0
 10
48.7006307298
 20
204.1098493802
 30
0.0
 10
48.9934779604
 20
203.5725354243
 30
0.0
 10
49.2851589624
 20
203.2525201499
 30
0.0
 10
49.6429161241
 20
203.0215713017
 30
0.0
 10
50.0512313436
 20
202.8894609194
 30
0.0
 10
50.4920350392
 20
202.8613091708
 30
0.0
 10
50.7881628931
 20
202.9099593254
 30
0.0
 10
50.935279543
 20
202.9493953417
 30
0.0
  0
SPLINE
  5
402
100
AcDbEntity
  8
0
100
AcDbSpline
 62
9
  6
CONTINUOUS
 70
0
 71
3
 72
9
 73
5
 74
0
 42
0.0000001
 43
0.0000001
 44
0.0000000001
 40
0.0
 40
0.0
 40
0.0
 40
0.0
 40
0.2426567861
 40
1.0
 40
1.0
 40
1.0
 40
1.0
 10
51.4615872199
 20
203.1220680696
 30
0.0
 10
51.5330090402
 20
203.15375416
 30
0.0
 10
51.821506273
 20
203.2973373389
 30
0.0
 10
52.0845443944
 20
203.4902784393
 30
0.0
 10
52.2644116802
 20
203.6549507996
 30
0.0
  0
SPLINE
  5
403
100
AcDbEntity
  8
0
100
AcDbSpline
 62
9
  6
CONTINUOUS
 70
0
 71
3
 72
14
 73
10
 74
0
 42
0.0000001
 43
0.0000001
 44
0.0000000001
 40
0.0
 40
0.0
 40
0.0
 40
0.0
 40
0.2686401244
 40
0.3932507862
 40
0.5129295626
 40
0.6303857022
 40
0.7488282745
 40
0.8713762505
 40
1.0
 40
1.0
 40
1.0
 40
1.0
 10
53.4146267891
 20
211.8879869732
 30
0.0
 10
53.4146267891
 20
212.2060987461
 30
0.0
 10
53.3352592212
 20
212.6814058378
 30
0.0
 10
53.0424119906
 20
213.2187197936
 30
0.0
 10
52.7507309886
 20
213.538735068
 30
0.0
 10
52.3929738269
 20
213.7696839163
 30
0.0
 10
51.9846586074
 20
213.9017942985
 30
0.0
 10
51.5438549118
 20
213.9299460471
 30
0.0
 10
51.2477270578
 20
213.8812958925
 30
0.0
 10
51.100610408
 20
213.8418598762
 30
0.0
  0
SPLINE
  5
404
100
AcDbEntity
  8
0
100
AcDbSpline
 62
9
  6
CONTINUOUS
 70
0
 71
3
 72
12
 73
8
 74
0
 42
0.0000001
 43
0.0000001
 44
0.0000000001
 40
0.0
 40
0.0
 40
0.0
 40
0.0
 40
0.2350037566
 40
0.4894740552
 40
0.6202676914
 40
0.7503741514
 40
1.0
 40
1.0
 40
1.0
 40
1.0
 10
50.9353288543
 20
213.7975545848
 30
0.0
 10
50.6178815288
 20
213.712459812
 30
0.0
 10
49.9921738761
 20
213.3927699766
 30
0.0
 10
49.3787900065
 20
212.760601574
 30
0.0
 10
48.9996660119
 20
212.1447273517
 30
0.0
 10
48.7184926776
 20
211.4867947975
 30
0.0
 10
48.6212631619
 20
210.9522389856
 30
0.0
 10
48.6212631619
 20
210.603135148
 30
0.0
  0
SPLINE
  5
405
100
AcDbEntity
  8
0
100
AcDbSpline
 62
9
  6
CONTINUOUS
 70
0
 71
3
 72
9
 73
5
 74
0
 42
0.0000001
 43
0.0000001
 44
0.0000000001
 40
0.0
 40
0.0
 40
0.0
 40
0.0
 40
0.7517461144
 40
1.0
 40
1.0
 40
1.0
 40
1.0
 10
30.4923797304
 20
213.9978013983
 30
0.0
 10
30.5734747235
 20
214.0173857952
 30
0.0
 10
30.681622003
 20
214.0425765028
 30
0.0
 10
30.7908210022
 20
214.0624131476
 30
0.0
 10
30.8179462883
 20
214.0672342534
 30
0.0
  0
SPLINE
  5
406
100
AcDbEntity
  8
0
100
AcDbSpline
 62
9
  6
CONTINUOUS
 70
0
 71
3
 72
9
 73
5
 74
0
 42
0.0000001
 43
0.0000001
 44
0.0000000001
 40
0.0
 40
0.0
 40
0.0
 40
0.0
 40
0.4837019322
 40
1.0
 40
1.0
 40
1.0
 40
1.0
 10
52.5261254945
 20
213.2158719504
 30
0.0
 10
52.3542139719
 20
213.315161157
 30
0.0
 10
51.9491826713
 20
213.4424161737
 30
0.0
 10
51.5304743693
 20
213.3989127638
 30
0.0
 10
51.325797737
 20
213.3440472472
 30
0.0
  0
SPLINE
  5
407
100
AcDbEntity
  8
0
100
AcDbSpline
 62
9
  6
CONTINUOUS
 70
0
 71
3
 72
10
 73
6
 74
0
 42
0.0000001
 43
0.0000001
 44
0.0000000001
 40
0.0
 40
0.0
 40
0.0
 40
0.0
 40
0.3815829844
 40
0.6616751388
 40
1.0
 40
1.0
 40
1.0
 40
1.0
 10
53.3786704197
 20
211.5807156446
 30
0.0
 10
53.3786631428
 20
211.5517369181
 30
0.0
 10
53.3399583212
 20
211.5065011324
 30
0.0
 10
53.2737328269
 20
211.4726863843
 30
0.0
 10
53.2287084035
 20
211.457293871
 30
0.0
 10
53.2038910183
 20
211.450641335
 30
0.0
  0
SPLINE
  5
408
100
AcDbEntity
  8
0
100
AcDbSpline
 62
7
  6
CONTINUOUS
 70
0
 71
3
 72
9
 73
5
 74
0
 42
0.0000001
 43
0.0000001
 44
0.0000000001
 40
0.0
 40
0.0
 40
0.0
 40
0.0
 40
0.2536432331
 40
1.0
 40
1.0
 40
1.0
 40
1.0
 10
49.8890184485
 20
184.4505628199
 30
0.0
 10
49.8767012558
 20
184.4769805653
 30
0.0
 10
49.8259066396
 20
184.5800727505
 30
0.0
 10
49.7659873487
 20
184.678708315
 30
0.0
 10
49.7163579035
 20
184.748660684
 30
0.0
  0
SPLINE
  5
409
100
AcDbEntity
  8
0
100
AcDbSpline
 62
7
  6
CONTINUOUS
 70
0
 71
3
 72
9
 73
5
 74
0
 42
0.0000001
 43
0.0000001
 44
0.0000000001
 40
0.0
 40
0.0
 40
0.0
 40
0.0
 40
0.5049166383
 40
1.0
 40
1.0
 40
1.0
 40
1.0
 10
49.7163579035
 20
184.748660684
 30
0.0
 10
49.6460714535
 20
184.8477289622
 30
0.0
 10
49.4866342686
 20
185.030555749
 30
0.0
 10
49.2911096659
 20
185.174504531
 30
0.0
 10
49.1879735177
 20
185.2340741751
 30
0.0
  0
SPLINE
  5
40A
100
AcDbEntity
  8
0
100
AcDbSpline
 62
7
  6
CONTINUOUS
 70
0
 71
3
 72
9
 73
5
 74
0
 42
0.0000001
 43
0.0000001
 44
0.0000000001
 40
0.0
 40
0.0
 40
0.0
 40
0.0
 40
0.2536432331
 40
1.0
 40
1.0
 40
1.0
 40
1.0
 10
49.8890184485
 20
193.6439089542
 30
0.0
 10
49.8767012558
 20
193.6703266997
 30
0.0
 10
49.8259066396
 20
193.7734188848
 30
0.0
 10
49.7659873487
 20
193.8720544493
 30
0.0
 10
49.7163579035
 20
193.9420068183
 30
0.0
  0
SPLINE
  5
40B
100
AcDbEntity
  8
0
100
AcDbSpline
 62
7
  6
CONTINUOUS
 70
0
 71
3
 72
9
 73
5
 74
0
 42
0.0000001
 43
0.0000001
 44
0.0000000001
 40
0.0
 40
0.0
 40
0.0
 40
0.0
 40
0.5049166383
 40
1.0
 40
1.0
 40
1.0
 40
1.0
 10
49.7163579035
 20
193.9420068183
 30
0.0
 10
49.6460714535
 20
194.0410750965
 30
0.0
 10
49.4866342686
 20
194.2239018833
 30
0.0
 10
49.2911096659
 20
194.3678506653
 30
0.0
 10
49.1879735177
 20
194.4274203094
 30
0.0
  0
SPLINE
  5
40C
100
AcDbEntity
  8
0
100
AcDbSpline
 62
9
  6
CONTINUOUS
 70
0
 71
3
 72
10
 73
6
 74
0
 42
0.0000001
 43
0.0000001
 44
0.0000000001
 40
0.0
 40
0.0
 40
0.0
 40
0.0
 40
0.5418060106
 40
0.7940118232
 40
1.0
 40
1.0
 40
1.0
 40
1.0
 10
50.9353007376
 20
213.7975470479
 30
0.0
 10
50.9353009422
 20
213.6957688832
 30
0.0
 10
50.9700979904
 20
213.5445679201
 30
0.0
 10
51.0638899877
 20
213.3811959683
 30
0.0
 10
51.1270017728
 20
213.3190931129
 30
0.0
 10
51.1605092613
 20
213.2997401002
 30
0.0
  0
SPLINE
  5
40D
100
AcDbEntity
  8
0
100
AcDbSpline
 62
9
  6
CONTINUOUS
 70
0
 71
3
 72
11
 73
7
 74
0
 42
0.0000001
 43
0.0000001
 44
0.0000000001
 40
0.0
 40
0.0
 40
0.0
 40
0.0
 40
0.191637835
 40
0.4154424181
 40
0.6860755667
 40
1.0
 40
1.0
 40
1.0
 40
1.0
 10
51.4293654171
 20
203.2127395623
 30
0.0
 10
51.4479722325
 20
203.2177383269
 30
0.0
 10
51.4854495345
 20
203.2405080912
 30
0.0
 10
51.5235428125
 20
203.2997663107
 30
0.0
 10
51.5464364985
 20
203.3784916523
 30
0.0
 10
51.5510062607
 20
203.437465195
 30
0.0
 10
51.5510062607
 20
203.4690260357
 30
0.0
  0
SPLINE
  5
40E
100
AcDbEntity
  8
0
100
AcDbSpline
 62
9
  6
CONTINUOUS
 70
0
 71
3
 72
10
 73
6
 74
0
 42
0.0000001
 43
0.0000001
 44
0.0000000001
 40
0.0
 40
0.0
 40
0.0
 40
0.0
 40
0.2106717876
 40
0.4692838504
 40
1.0
 40
1.0
 40
1.0
 40
1.0
 10
49.1770475521
 20
210.5616512649
 30
0.0
 10
49.1425908863
 20
210.5815524966
 30
0.0
 10
49.0575474378
 20
210.6110470181
 30
0.0
 10
48.8706754376
 20
210.6384665102
 30
0.0
 10
48.7180847922
 20
210.6290653462
 30
0.0
 10
48.6212631619
 20
210.603111571
 30
0.0
  0
SPLINE
  5
40F
100
AcDbEntity
  8
0
100
AcDbSpline
 62
9
  6
CONTINUOUS
 70
0
 71
3
 72
12
 73
8
 74
0
 42
0.0000001
 43
0.0000001
 44
0.0000000001
 40
0.0
 40
0.0
 40
0.0
 40
0.0
 40
0.2350014377
 40
0.4894747453
 40
0.6202702362
 40
0.7503777914
 40
1.0
 40
1.0
 40
1.0
 40
1.0
 10
51.1605092613
 20
213.2997401002
 30
0.0
 10
50.8884139614
 20
213.226802369
 30
0.0
 10
50.3520938483
 20
212.9527784623
 30
0.0
 10
49.8263325113
 20
212.4109174249
 30
0.0
 10
49.501371888
 20
211.8830141676
 30
0.0
 10
49.2603739488
 20
211.3190683214
 30
0.0
 10
49.1770475521
 20
210.8608790674
 30
0.0
 10
49.1770475521
 20
210.5616512649
 30
0.0
  0
SPLINE
  5
410
100
AcDbEntity
  8
0
100
AcDbSpline
 62
7
  6
CONTINUOUS
 70
0
 71
3
 72
10
 73
6
 74
0
 42
0.0000001
 43
0.0000001
 44
0.0000000001
 40
0.0
 40
0.0
 40
0.0
 40
0.0
 40
0.2307777507
 40
0.4701171682
 40
1.0
 40
1.0
 40
1.0
 40
1.0
 10
-19.5893407545
 20
178.4422323278
 30
0.0
 10
-19.4293734683
 20
178.4851679093
 30
0.0
 10
-19.0919232933
 20
178.5343908711
 30
0.0
 10
-18.371906233
 20
178.4762626909
 30
0.0
 10
-17.8473302111
 20
178.2600019622
 30
0.0
 10
-17.5180153529
 20
178.0697986698
 30
0.0
  0
SPLINE
  5
411
100
AcDbEntity
  8
0
100
AcDbSpline
 62
7
  6
CONTINUOUS
 70
0
 71
3
 72
15
 73
11
 74
0
 42
0.0000001
 43
0.0000001
 44
0.0000000001
 40
0.0
 40
0.0
 40
0.0
 40
0.0
 40
0.2646694599
 40
0.4021382152
 40
0.5367260625
 40
0.6646701152
 40
0.7837860162
 40
0.8943550023
 40
0.9475380985
 40
1.0
 40
1.0
 40
1.0
 40
1.0
 10
-14.5069434042
 20
263.3555644905
 30
0.0
 10
-14.5069434042
 20
263.612955243
 30
0.0
 10
-14.4050142465
 20
264.008388788
 30
0.0
 10
-14.1277646713
 20
264.4529598445
 30
0.0
 10
-13.8553949372
 20
264.7354422259
 30
0.0
 10
-13.5411173922
 20
264.9394690842
 30
0.0
 10
-13.2066699597
 20
265.0498288344
 30
0.0
 10
-12.9261160365
 20
265.0536863641
 30
0.0
 10
-12.7215051681
 20
265.0012148995
 30
0.0
 10
-12.6275769015
 20
264.9579157051
 30
0.0
 10
-12.583395998
 20
264.9324009948
 30
0.0
  0
ELLIPSE
  5
412
100
AcDbEntity
  8
0
100
AcDbEllipse
 62
7
  6
CONTINUOUS
 10
-25.3893670898
 20
245.0998404115
 30
0.0
 11
-25.8221462885
 21
94.5376798824
 31
0.0
 40
0.524226928
 41
-2.0447371702
 42
-1.9160265673
  0
ELLIPSE
  5
413
100
AcDbEntity
  8
0
100
AcDbEllipse
 62
7
  6
CONTINUOUS
 10
-15.835135807
 20
171.1662336197
 30
0.0
 11
-2.1079303093
 21
7.7173616231
 31
0.0
 40
0.524226928
 41
-0.1662512392
 42
-0.0024822769
  0
ELLIPSE
  5
414
100
AcDbEntity
  8
0
100
AcDbEllipse
 62
7
  6
CONTINUOUS
 10
3.8110498616
 20
253.0906043761
 30
0.0
 11
1.6258488036
 21
2.5439986443
 31
0.0
 40
0.7366131053
 41
-1.6365204847
 42
-0.9445486019
  0
ELLIPSE
  5
415
100
AcDbEntity
  8
0
100
AcDbEllipse
 62
7
  6
CONTINUOUS
 10
15.5929873848
 20
248.0872220479
 30
0.0
 11
18.2630757319
 21
-10.3657320623
 31
0.0
 40
0.0861292999
 41
4.677581917
 42
7.714454569
  0
ENDSEC
  0
SECTION
  2
OBJECTS
  0
DICTIONARY
  5
C
100
AcDbDictionary
280
0
281
1
  3
ACAD_GROUP
350
D
  3
ACAD_MLINESTYLE
350
17
  3
ACAD_LAYOUT
350
1A
  3
ACAD_PLOTSETTINGS
350
19
  3
ACAD_PLOTSTYLENAME
350
E
  0
DICTIONARY
  5
D
102
{ACAD_REACTORS
330
C
102
}
100
AcDbDictionary
280
0
281
1
  0
ACDBDICTIONARYWDFLT
  5
E
102
{ACAD_REACTORS
330
C
102
}
100
AcDbDictionary
281
1
  3
Normal
350
F
100
AcDbDictionaryWithDefault
340
F
  0
DICTIONARY
  5
17
102
{ACAD_REACTORS
330
C
102
}
100
AcDbDictionary
280
0
281
1
  3
Standard
350
18
  0
DICTIONARY
  5
19
102
{ACAD_REACTORS
330
C
102
}
100
AcDbDictionary
281
1
  0
DICTIONARY
  5
1A
102
{ACAD_REACTORS
330
C
102
}
100
AcDbDictionary
281
1
  3
Model
350
416
  3
Layout1
350
417
  0
ACDBPLACEHOLDER
  5
F
102
{ACAD_REACTORS
330
E
102
}
  0
MLINESTYLE
  5
18
102
{ACAD_REACTORS
330
17
102
}
100
AcDbMlineStyle
  2
STANDARD
 70
0
  3

 62
256
 51
90.0
 52
90.0
 71
2
 49
0.5
 62
256
  6
BYLAYER
 49
-0.5
 62
256
  6
BYLAYER
  0
LAYOUT
  5
416
102
{ACAD_REACTORS
330
1A
102
}
100
AcDbPlotSettings
  1

  2
none_device
  4
ANSI_C_(22.00_x_17.00_Inches)
  6

 40
0.0
 41
0.0
 42
0.0
 43
0.0
 44
558.8
 45
431.8
 46
0.0
 47
0.0
 48
0.0
 49
0.0
140
0.0
141
0.0
142
1.0
143
1.0
 70
1024
 72
1
 73
0
 74
0
  7

 75
0
147
1.0
148
0.0
149
0.0
100
AcDbLayout
  1
Model
 70
0
 71
0
 10
0.0
 20
0.0
 11
558.8
 21
431.8
 12
0.0
 22
0.0
 32
0.0
 14
0.0
 24
0.0
 34
0.0
 15
0.0
 25
0.0
 35
0.0
146
0.0
 13
0.0
 23
0.0
 33
0.0
 16
1.0
 26
0.0
 36
0.0
 17
0.0
 27
1.0
 37
0.0
 76
0
330
216
345
0
346
0
  0
LAYOUT
  5
417
102
{ACAD_REACTORS
330
1A
102
}
100
AcDbPlotSettings
  1

  2
none_device
  4
ANSI_C_(22.00_x_17.00_Inches)
  6

 40
0.0
 41
0.0
 42
0.0
 43
0.0
 44
558.8
 45
431.8
 46
0.0
 47
0.0
 48
0.0
 49
0.0
140
0.0
141
0.0
142
1.0
143
1.0
 70
0
 72
1
 73
0
 74
0
  7

 75
0
147
1.0
148
0.0
149
0.0
100
AcDbLayout
  1
Layout1
 70
0
 71
1
 10
0.0
 20
0.0
 11
558.8
 21
431.8
 12
0.0
 22
0.0
 32
0.0
 14
0.0
 24
0.0
 34
0.0
 15
0.0
 25
0.0
 35
0.0
146
0.0
 13
0.0
 23
0.0
 33
0.0
 16
1.0
 26
0.0
 36
0.0
 17
0.0
 27
1.0
 37
0.0
 76
0
330
217
345
0
346
0
  0
ENDSEC
  0
EOF
