999
DXF file: C:\Users\sesa63760\Dev\_Creo\CAD\MCADPD0004577_3D-CAD\drw0001_1.dxf
999
Pro/ENGINEER 2019471 by Parametric Technology Corporation
  0
SECTION
  2
HEADER
  9
$ACADVER
  1
AC1024
  9
$DWGCODEPAGE
  3
ANSI_1252
  9
$EXTMAX
 10
132.3949673704
 20
187.2443109953
 30
0.0
  9
$EXTMIN
 10
0.0
 20
0.0
 30
0.0
  9
$LIMMIN
 10
0.0
 20
0.0
  9
$LIMMAX
 10
132.3949673704
 20
187.2443109953
  9
$VIEWCTR
 10
66.1974836852
 20
93.6221554976
  9
$VIEWSIZE
 40
187.2443109953
  9
$CLAYER
  8
0
  9
$LTSCALE
 40
12.2055550871
  9
$CELTYPE
  6
BYLAYER
  9
$DIMSCALE
 40
1.0
  9
$DIMASZ
 40
1.5761305639
  9
$DIMEXO
 40
1.0
  9
$DIMDLI
 40
8.4329289693
  9
$DIMEXE
 40
1.0
  9
$DIMCEN
 40
1.9972726506
  9
$DIMLFAC
 40
1.0
  9
$DIMBLK
  1
_FILLED
  9
$DIMALT
 70
0
  9
$DIMALTF
 40
0.0393700787
  9
$DIMTXT
 40
2.2065827895
  9
$DIMTOL
 70
1
  9
$DIMLIM
 70
0
  9
$DIMTFAC
 40
1.0
  9
$DIMTP
 40
0.01
  9
$DIMTM
 40
0.01
  9
$DIMGAP
 40
0.625
  9
$DIMDSEP
 70
46
  9
$AUNITS
 70
0
  9
$PDMODE
 70
3
  9
$PDSIZE
 40
0.3125
  9
$HANDSEED
  5
4A3
  9
$TILEMODE
 70
1
  9
$MEASUREMENT
 70
1
  9
$INSUNITS
 70
4
  0
ENDSEC
  0
SECTION
  2
CLASSES
  0
CLASS
  1
ACDBDICTIONARYWDFLT
  2
AcDbDictionaryWithDefault
  3
AutoCAD 2000
 90
0
 91
1
280
0
281
0
  0
CLASS
  1
ACDBPLACEHOLDER
  2
AcDbPlaceHolder
  3
AutoCAD 2000
 90
0
 91
1
280
0
281
0
  0
CLASS
  1
LAYOUT
  2
AcDbLayout
  3
AutoCAD 2000
 90
0
 91
0
280
0
281
0
  0
ENDSEC
  0
SECTION
  2
TABLES
  0
TABLE
  2
VPORT
  5
8
100
AcDbSymbolTable
 70
2
  0
VPORT
  5
1F4
100
AcDbSymbolTableRecord
100
AcDbViewportTableRecord
  2
*ACTIVE
 70
0
 10
0.0
 20
0.0
 11
1.0
 21
1.0
 12
66.1974836852
 22
93.6221554976
 13
0.0
 23
0.0
 14
1.0
 24
1.0
 15
0.0
 25
0.0
 16
0.0
 26
0.0
 36
1.0
 17
0.0
 27
0.0
 37
0.0
 40
187.2443109953
 41
0.7070707071
 42
50.0
 43
0.0
 44
0.0
 50
0.0
 51
0.0
 71
0
 72
100
 73
1
 74
1
 75
0
 76
0
 77
0
 78
0
  0
ENDTAB
  0
TABLE
  2
LTYPE
  5
5
100
AcDbSymbolTable
 70
6
  0
LTYPE
  5
14
100
AcDbSymbolTableRecord
100
AcDbLinetypeTableRecord
  2
BYBLOCK
 70
0
  3

 72
65
 73
0
 40
0.0
  0
LTYPE
  5
15
100
AcDbSymbolTableRecord
100
AcDbLinetypeTableRecord
  2
BYLAYER
 70
0
  3

 72
65
 73
0
 40
0.0
  0
LTYPE
  5
16
100
AcDbSymbolTableRecord
100
AcDbLinetypeTableRecord
  2
CONTINUOUS
 70
64
  3
Solid line
 72
65
 73
0
 40
0.0
  0
LTYPE
  5
1F5
100
AcDbSymbolTableRecord
100
AcDbLinetypeTableRecord
  2
CENTER
 70
64
  3
____ _ ____ _ ____ _ ____ _ ____ _ ____ _ ____
 72
65
 73
4
 40
0.6
 49
0.375
 74
0
 49
-0.075
 74
0
 49
0.075
 74
0
 49
-0.075
 74
0
  0
LTYPE
  5
1F6
100
AcDbSymbolTableRecord
100
AcDbLinetypeTableRecord
  2
HIDDEN
 70
64
  3
- - - - - - - - - - - - - - - - - - - -
 72
65
 73
2
 40
0.2
 49
0.1
 74
0
 49
-0.1
 74
0
  0
LTYPE
  5
1F7
100
AcDbSymbolTableRecord
100
AcDbLinetypeTableRecord
  2
PHANTOM
 70
64
  3
_____ _ _ _____ _ _ _____ _ _ _____
 72
65
 73
6
 40
0.8
 49
0.45
 74
0
 49
-0.05
 74
0
 49
0.1
 74
0
 49
-0.05
 74
0
 49
0.1
 74
0
 49
-0.05
 74
0
  0
LTYPE
  5
1F8
100
AcDbSymbolTableRecord
100
AcDbLinetypeTableRecord
  2
DOT
 70
64
  3
. . . . . . . . . . . . . . . . . . . .
 72
65
 73
2
 40
0.2
 49
0.1
 74
0
 49
-0.1
 74
0
  0
LTYPE
  5
1F9
100
AcDbSymbolTableRecord
100
AcDbLinetypeTableRecord
  2
DASHED
 70
64
  3
- - - - - - - - - - - - - - - - - - - -
 72
65
 73
2
 40
0.2
 49
0.1
 74
0
 49
-0.1
 74
0
  0
ENDTAB
  0
TABLE
  2
LAYER
  5
2
100
AcDbSymbolTable
 70
36
  0
LAYER
  5
10
100
AcDbSymbolTableRecord
100
AcDbLayerTableRecord
  2
0
 70
0
 62
7
  6
CONTINUOUS
370
-3
390
F
  0
LAYER
  5
1FA
100
AcDbSymbolTableRecord
100
AcDbLayerTableRecord
  2
DEFAULT_1
 70
0
 62
7
  6
CENTER
370
-3
390
F
  0
LAYER
  5
1FB
100
AcDbSymbolTableRecord
100
AcDbLayerTableRecord
  2
DEFAULT_2
 70
0
 62
7
  6
HIDDEN
370
-3
390
F
  0
LAYER
  5
1FC
100
AcDbSymbolTableRecord
100
AcDbLayerTableRecord
  2
DEFAULT_3
 70
0
 62
7
  6
PHANTOM
370
-3
390
F
  0
LAYER
  5
1FD
100
AcDbSymbolTableRecord
100
AcDbLayerTableRecord
  2
00_COMPONENTS
 70
0
 62
7
  6
CONTINUOUS
370
-3
390
F
  0
LAYER
  5
1FE
100
AcDbSymbolTableRecord
100
AcDbLayerTableRecord
  2
01_1_DEFAULT_DATUMS
 70
0
 62
7
  6
CONTINUOUS
370
-3
390
F
  0
LAYER
  5
1FF
100
AcDbSymbolTableRecord
100
AcDbLayerTableRecord
  2
01_PLANES
 70
0
 62
7
  6
CONTINUOUS
370
-3
390
F
  0
LAYER
  5
200
100
AcDbSymbolTableRecord
100
AcDbLayerTableRecord
  2
02_COORD_SYS
 70
0
 62
7
  6
CONTINUOUS
370
-3
390
F
  0
LAYER
  5
201
100
AcDbSymbolTableRecord
100
AcDbLayerTableRecord
  2
03_AXES
 70
0
 62
7
  6
CONTINUOUS
370
-3
390
F
  0
LAYER
  5
202
100
AcDbSymbolTableRecord
100
AcDbLayerTableRecord
  2
04_POINTS
 70
0
 62
7
  6
CONTINUOUS
370
-3
390
F
  0
LAYER
  5
203
100
AcDbSymbolTableRecord
100
AcDbLayerTableRecord
  2
05_CURVES
 70
0
 62
7
  6
CONTINUOUS
370
-3
390
F
  0
LAYER
  5
204
100
AcDbSymbolTableRecord
100
AcDbLayerTableRecord
  2
06_SURFS
 70
0
 62
7
  6
CONTINUOUS
370
-3
390
F
  0
LAYER
  5
205
100
AcDbSymbolTableRecord
100
AcDbLayerTableRecord
  2
07_COSMETICS
 70
0
 62
7
  6
CONTINUOUS
370
-3
390
F
  0
LAYER
  5
206
100
AcDbSymbolTableRecord
100
AcDbLayerTableRecord
  2
10_NOTES
 70
0
 62
7
  6
CONTINUOUS
370
-3
390
F
  0
LAYER
  5
207
100
AcDbSymbolTableRecord
100
AcDbLayerTableRecord
  2
11_NOTES_PUB
 70
0
 62
7
  6
CONTINUOUS
370
-3
390
F
  0
LAYER
  5
208
100
AcDbSymbolTableRecord
100
AcDbLayerTableRecord
  2
13_REF_GTOL
 70
0
 62
7
  6
CONTINUOUS
370
-3
390
F
  0
LAYER
  5
209
100
AcDbSymbolTableRecord
100
AcDbLayerTableRecord
  2
16_MISC
 70
0
 62
7
  6
CONTINUOUS
370
-3
390
F
  0
LAYER
  5
20A
100
AcDbSymbolTableRecord
100
AcDbLayerTableRecord
  2
17_NO_PRINT
 70
0
 62
7
  6
CONTINUOUS
370
-3
390
F
  0
LAYER
  5
20B
100
AcDbSymbolTableRecord
100
AcDbLayerTableRecord
  2
18_DATUM_CAMS_JOINTS
 70
0
 62
7
  6
CONTINUOUS
370
-3
390
F
  0
LAYER
  5
20C
100
AcDbSymbolTableRecord
100
AcDbLayerTableRecord
  2
19_DATUM_FUNCTIONAL
 70
0
 62
7
  6
CONTINUOUS
370
-3
390
F
  0
LAYER
  5
20D
100
AcDbSymbolTableRecord
100
AcDbLayerTableRecord
  2
20_DATUM_KINEMATIC_SCHEME
 70
0
 62
7
  6
CONTINUOUS
370
-3
390
F
  0
ENDTAB
  0
TABLE
  2
STYLE
  5
3
100
AcDbSymbolTable
 70
1
  0
STYLE
  5
11
100
AcDbSymbolTableRecord
100
AcDbTextStyleTableRecord
  2
STANDARD
 70
0
 40
0.0
 41
1.0
 50
0.0
 71
0
 42
0.2
  3
ARIAL.TTF
  4

  0
STYLE
  5
20E
100
AcDbSymbolTableRecord
100
AcDbTextStyleTableRecord
  2
TEXTSTYLE_1
 70
0
 40
0.0
 41
0.8
 50
0.0
 71
0
 42
0.2
  3
gdt
  4

  0
ENDTAB
  0
TABLE
  2
VIEW
  5
6
100
AcDbSymbolTable
 70
0
  0
ENDTAB
  0
TABLE
  2
UCS
  5
7
100
AcDbSymbolTable
 70
0
  0
ENDTAB
  0
TABLE
  2
APPID
  5
9
100
AcDbSymbolTable
 70
1
  0
APPID
  5
20F
100
AcDbSymbolTableRecord
100
AcDbRegAppTableRecord
  2
ACAD
 70
0
  0
ENDTAB
  0
TABLE
  2
BLOCK_RECORD
  5
1
100
AcDbSymbolTable
 70
0
  0
BLOCK_RECORD
  5
210
100
AcDbSymbolTableRecord
100
AcDbBlockTableRecord
  2
*Model_Space
  0
BLOCK_RECORD
  5
211
100
AcDbSymbolTableRecord
100
AcDbBlockTableRecord
  2
*Paper_Space
  0
BLOCK_RECORD
  5
212
100
AcDbSymbolTableRecord
100
AcDbBlockTableRecord
  2
_FILLED
  0
ENDTAB
  0
TABLE
  2
DIMSTYLE
  5
A
100
AcDbSymbolTable
 70
1
100
AcDbDimStyleTable
 71
0
  0
DIMSTYLE
105
213
100
AcDbSymbolTableRecord
100
AcDbDimStyleTableRecord
  2
STANDARD
 70
0
  3

  4

 40
1.0
 41
1.5761305639
 42
1.0
 43
0.38
 44
1.0
 45
0.0
 46
0.0
 47
0.01
 48
0.01
140
2.2065827895
141
0.09
142
0.0
143
25.4
144
1.0
145
0.0
146
1.0
147
0.625
 71
1
 72
0
 73
0
 74
0
 75
0
 76
0
 77
1
 78
8
 79
2
170
0
171
1
172
0
173
0
174
0
175
0
176
0
177
0
178
0
270
2
179
2
271
2
272
2
273
2
274
2
275
0
280
0
281
0
282
0
283
1
284
8
285
0
286
0
287
3
288
0
340
11
278
46
341
212
342
212
343
212
344
212
  0
ENDTAB
  0
ENDSEC
  0
SECTION
  2
BLOCKS
  0
BLOCK
  5
20
100
AcDbEntity
  8
0
100
AcDbBlockBegin
  2
*Model_Space
 70
0
 10
0.0
 20
0.0
 30
0.0
  3
*Model_Space
  1

  0
ENDBLK
  5
21
100
AcDbEntity
  8
0
100
AcDbBlockEnd
  0
BLOCK
  5
1C
100
AcDbEntity
  8
0
100
AcDbBlockBegin
  2
*Paper_Space
 70
0
 10
0.0
 20
0.0
 30
0.0
  3
*Paper_Space
  1

  0
ENDBLK
  5
1D
100
AcDbEntity
  8
0
100
AcDbBlockEnd
  0
BLOCK
  5
214
100
AcDbEntity
  8
0
100
AcDbBlockBegin
  2
_FILLED
 70
64
 10
0.0
 20
0.0
  3
_FILLED
  1

  0
SOLID
  5
215
100
AcDbEntity
  8
0
  6
BYBLOCK
 62
0
100
AcDbTrace
 10
0.0
 20
0.0
 11
-1.0
 21
0.25
 12
-1.0
 22
-0.25
 13
-1.0
 23
-0.25
  0
ENDBLK
  5
216
100
AcDbEntity
  8
0
  6
BYBLOCK
 62
0
100
AcDbBlockEnd
  0
ENDSEC
  0
SECTION
  2
ENTITIES
  0
LINE
  5
217
100
AcDbEntity
  8
0
100
AcDbLine
 62
7
  6
BYLAYER
 10
15.3593394552
 20
77.5800728414
 11
15.3593394552
 21
78.7833066045
  0
LINE
  5
218
100
AcDbEntity
  8
0
100
AcDbLine
 62
7
  6
BYLAYER
 10
15.3593394552
 20
80.7674074781
 11
15.3593394552
 21
122.4877057835
  0
LINE
  5
219
100
AcDbEntity
  8
0
100
AcDbLine
 62
7
  6
BYLAYER
 10
15.4300504278
 20
80.7265834027
 11
15.4300504278
 21
78.7424825291
  0
LINE
  5
21A
100
AcDbEntity
  8
0
100
AcDbLine
 62
7
  6
BYLAYER
 10
16.9856918231
 20
121.5487520481
 11
16.9856918231
 21
111.9956737677
  0
LINE
  5
21B
100
AcDbEntity
  8
0
100
AcDbLine
 62
7
  6
BYLAYER
 10
16.9856918231
 20
86.1971725963
 11
16.9856918231
 21
76.641119106
  0
LINE
  5
21C
100
AcDbEntity
  8
0
100
AcDbLine
 62
7
  6
BYLAYER
 10
17.1271137681
 20
102.3639225463
 11
17.1271137681
 21
95.6686027259
  0
LINE
  5
21D
100
AcDbEntity
  8
0
100
AcDbLine
 62
7
  6
BYLAYER
 10
17.4806656867
 20
102.1598038687
 11
17.4806656867
 21
95.8727248028
  0
LINE
  5
21E
100
AcDbEntity
  8
0
100
AcDbLine
 62
7
  6
BYLAYER
 10
17.7281570345
 20
106.3740656025
 11
17.7281570345
 21
103.4999770942
  0
LINE
  5
21F
100
AcDbEntity
  8
0
100
AcDbLine
 62
7
  6
BYLAYER
 10
18.2302084721
 20
77.1503547189
 11
18.2302084721
 21
80.6613151126
  0
LINE
  5
220
100
AcDbEntity
  8
0
100
AcDbLine
 62
7
  6
BYLAYER
 10
18.2302084721
 20
115.1175313914
 11
18.2302084721
 21
118.628491785
  0
LINE
  5
221
100
AcDbEntity
  8
0
100
AcDbLine
 62
7
  6
BYLAYER
 10
50.5448422768
 20
144.0296728851
 11
55.4521270253
 21
146.8628781437
  0
LINE
  5
222
100
AcDbEntity
  8
0
100
AcDbLine
 62
7
  6
BYLAYER
 10
27.4366931394
 20
128.1571003155
 11
31.6612654591
 21
130.5961437223
  0
LINE
  5
223
100
AcDbEntity
  8
0
100
AcDbLine
 62
7
  6
BYLAYER
 10
26.6022904669
 20
128.6388320248
 11
15.3593394552
 21
122.4877057835
  0
LINE
  5
224
100
AcDbEntity
  8
0
100
AcDbLine
 62
7
  6
BYLAYER
 10
18.7605407657
 20
118.3223225168
 11
18.7605407658
 21
114.8113621231
  0
LINE
  5
225
100
AcDbEntity
  8
0
100
AcDbLine
 62
7
  6
BYLAYER
 10
18.760540766
 20
80.3551345467
 11
18.760540766
 21
76.844174153
  0
LINE
  5
226
100
AcDbEntity
  8
0
100
AcDbLine
 62
7
  6
BYLAYER
 10
20.1676590905
 20
123.2896368334
 11
20.1676590905
 21
119.7470699197
  0
LINE
  5
227
100
AcDbEntity
  8
0
100
AcDbLine
 62
7
  6
BYLAYER
 10
20.1676590905
 20
115.6237602418
 11
20.1676590905
 21
113.8327724601
  0
LINE
  5
228
100
AcDbEntity
  8
0
100
AcDbLine
 62
7
  6
BYLAYER
 10
20.1676590905
 20
84.360104498
 11
20.1676590905
 21
81.7798960716
  0
LINE
  5
229
100
AcDbEntity
  8
0
100
AcDbLine
 62
7
  6
BYLAYER
 10
20.2030410725
 20
102.0711344534
 11
20.2030410725
 21
104.9452229617
  0
LINE
  5
22A
100
AcDbEntity
  8
0
100
AcDbLine
 62
7
  6
BYLAYER
 10
20.9455062839
 20
119.2626038228
 11
20.9455062839
 21
109.7095255424
  0
LINE
  5
22B
100
AcDbEntity
  8
0
100
AcDbLine
 62
7
  6
BYLAYER
 10
20.9455062839
 20
74.3549708807
 11
20.9455062839
 21
83.911024371
  0
LINE
  5
22C
100
AcDbEntity
  8
0
100
AcDbLine
 62
7
  6
BYLAYER
 10
22.3667703355
 20
120.0401910056
 11
22.3667703355
 21
120.4043677015
  0
LINE
  5
22D
100
AcDbEntity
  8
0
100
AcDbLine
 62
7
  6
BYLAYER
 10
23.1021909456
 20
118.0174695215
 11
23.1021909456
 21
108.4643912411
  0
LINE
  5
22E
100
AcDbEntity
  8
0
100
AcDbLine
 62
7
  6
BYLAYER
 10
23.1021909456
 20
82.6658900697
 11
23.1021909456
 21
73.1098365794
  0
LINE
  5
22F
100
AcDbEntity
  8
0
100
AcDbLine
 62
7
  6
BYLAYER
 10
28.9923345347
 20
127.2589706555
 11
33.2169068544
 21
129.6980140624
  0
LINE
  5
230
100
AcDbEntity
  8
0
100
AcDbLine
 62
7
  6
BYLAYER
 10
37.2088480251
 20
130.7779625373
 11
50.2928496324
 21
138.331969296
  0
LINE
  5
231
100
AcDbEntity
  8
0
100
AcDbLine
 62
7
  6
BYLAYER
 10
33.2762006501
 20
128.425812239
 11
37.2795589977
 21
130.7371384618
  0
LINE
  5
232
100
AcDbEntity
  8
0
100
AcDbLine
 62
7
  6
BYLAYER
 10
33.3206685315
 20
127.4717137691
 11
30.972275979
 21
126.11587679
  0
LINE
  5
233
100
AcDbEntity
  8
0
100
AcDbLine
 62
7
  6
BYLAYER
 10
18.2302084722
 20
118.6284889606
 11
21.8364380419
 21
120.7105341454
  0
LINE
  5
234
100
AcDbEntity
  8
0
100
AcDbLine
 62
7
  6
BYLAYER
 10
18.7605407657
 20
118.3223225168
 11
22.3667703355
 21
120.4043677015
  0
LINE
  5
235
100
AcDbEntity
  8
0
100
AcDbLine
 62
7
  6
BYLAYER
 10
32.9521489955
 20
124.9728224302
 11
37.1767213152
 21
127.4118658371
  0
LINE
  5
236
100
AcDbEntity
  8
0
100
AcDbLine
 62
7
  6
BYLAYER
 10
16.9856918231
 20
121.5487520481
 11
20.1676590905
 21
123.2896368334
  0
LINE
  5
237
100
AcDbEntity
  8
0
100
AcDbLine
 62
7
  6
BYLAYER
 10
24.1274735514
 20
121.0034886081
 11
20.9455062839
 21
119.2626038228
  0
LINE
  5
238
100
AcDbEntity
  8
0
100
AcDbLine
 62
7
  6
BYLAYER
 10
24.770989742
 20
73.3741262703
 11
24.7639023357
 21
76.8891689493
  0
LINE
  5
239
100
AcDbEntity
  8
0
100
AcDbLine
 62
7
  6
BYLAYER
 10
24.7709895828
 20
111.3413955613
 11
24.7639023299
 21
114.8564381521
  0
LINE
  5
23A
100
AcDbEntity
  8
0
100
AcDbLine
 62
7
  6
BYLAYER
 10
25.294234623
 20
76.5829820284
 11
25.3013220294
 21
73.0679393494
  0
LINE
  5
23B
100
AcDbEntity
  8
0
100
AcDbLine
 62
7
  6
BYLAYER
 10
25.2942346288
 20
114.5502625893
 11
25.3013218817
 21
111.0352199985
  0
LINE
  5
23C
100
AcDbEntity
  8
0
100
AcDbLine
 62
7
  6
BYLAYER
 10
23.5971677532
 20
90.0522690527
 11
23.5971677532
 21
87.1158355609
  0
LINE
  5
23D
100
AcDbEntity
  8
0
100
AcDbLine
 62
7
  6
BYLAYER
 10
26.2841582131
 20
119.7583543068
 11
26.2841582131
 21
115.7341518047
  0
LINE
  5
23E
100
AcDbEntity
  8
0
100
AcDbLine
 62
7
  6
BYLAYER
 10
26.2841582131
 20
111.6026586833
 11
26.2841582131
 21
110.3014899335
  0
LINE
  5
23F
100
AcDbEntity
  8
0
100
AcDbLine
 62
7
  6
BYLAYER
 10
26.2841582131
 20
80.8288219714
 11
26.2841582131
 21
77.7668854397
  0
LINE
  5
240
100
AcDbEntity
  8
0
100
AcDbLine
 62
7
  6
BYLAYER
 10
26.5670285988
 20
85.4012243919
 11
26.5670285988
 21
88.3376578837
  0
LINE
  5
241
100
AcDbEntity
  8
0
100
AcDbLine
 62
7
  6
BYLAYER
 10
27.0620054064
 20
115.7313212962
 11
27.0620054064
 21
106.1782430158
  0
LINE
  5
242
100
AcDbEntity
  8
0
100
AcDbLine
 62
7
  6
BYLAYER
 10
27.0620054064
 20
70.8236883541
 11
27.0620054064
 21
80.3797418444
  0
LINE
  5
243
100
AcDbEntity
  8
0
100
AcDbLine
 62
7
  6
BYLAYER
 10
18.7605407657
 20
114.8113649475
 11
20.9455062839
 21
116.0728478476
  0
LINE
  5
244
100
AcDbEntity
  8
0
100
AcDbLine
 62
7
  6
BYLAYER
 10
35.1088336572
 20
123.7276881289
 11
39.3334059769
 21
126.1667315358
  0
LINE
  5
245
100
AcDbEntity
  8
0
100
AcDbLine
 62
7
  6
BYLAYER
 10
16.9856918231
 20
111.9956737677
 11
20.1676590905
 21
113.8327724601
  0
LINE
  5
246
100
AcDbEntity
  8
0
100
AcDbLine
 62
7
  6
BYLAYER
 10
39.4371676541
 20
123.9404312425
 11
37.0887751015
 21
122.5845942634
  0
LINE
  5
247
100
AcDbEntity
  8
0
100
AcDbLine
 62
7
  6
BYLAYER
 10
24.7639023299
 20
114.8564369006
 11
28.3701318997
 21
116.9384820853
  0
LINE
  5
248
100
AcDbEntity
  8
0
100
AcDbLine
 62
7
  6
BYLAYER
 10
25.2942346288
 20
114.5502625893
 11
27.0620054064
 21
115.5708794313
  0
LINE
  5
249
100
AcDbEntity
  8
0
100
AcDbLine
 62
7
  6
BYLAYER
 10
23.1021909456
 20
118.0174695215
 11
26.2841582131
 21
119.7583543068
  0
LINE
  5
24A
100
AcDbEntity
  8
0
100
AcDbLine
 62
7
  6
BYLAYER
 10
15.3593394552
 20
77.5800728414
 11
16.9856918231
 21
76.641119106
  0
LINE
  5
24B
100
AcDbEntity
  8
0
100
AcDbLine
 62
7
  6
BYLAYER
 10
20.9455062839
 20
74.3549708807
 11
23.1021909456
 21
73.1098365794
  0
LINE
  5
24C
100
AcDbEntity
  8
0
100
AcDbLine
 62
7
  6
BYLAYER
 10
27.0620054064
 20
70.8236883541
 11
29.2186900681
 21
69.5785540528
  0
LINE
  5
24D
100
AcDbEntity
  8
0
100
AcDbLine
 62
7
  6
BYLAYER
 10
33.1785045289
 20
67.2924058275
 11
35.3351891906
 21
66.0472715262
  0
LINE
  5
24E
100
AcDbEntity
  8
0
100
AcDbLine
 62
7
  6
BYLAYER
 10
39.2950036515
 20
63.7611233009
 11
41.4516883132
 21
62.5159889996
  0
LINE
  5
24F
100
AcDbEntity
  8
0
100
AcDbLine
 62
7
  6
BYLAYER
 10
45.411502774
 20
60.2298407743
 11
48.954122497
 21
58.1845545941
  0
LINE
  5
250
100
AcDbEntity
  8
0
100
AcDbLine
 62
7
  6
BYLAYER
 10
52.9139369578
 20
55.8984063688
 11
55.0706216195
 21
54.6532720675
  0
LINE
  5
251
100
AcDbEntity
  8
0
100
AcDbLine
 62
7
  6
BYLAYER
 10
59.0304360803
 20
52.3671238422
 11
61.187120742
 21
51.1219895409
  0
LINE
  5
252
100
AcDbEntity
  8
0
100
AcDbLine
 62
7
  6
BYLAYER
 10
65.1469352028
 20
48.8358413156
 11
67.3036198645
 21
47.5907070143
  0
LINE
  5
253
100
AcDbEntity
  8
0
100
AcDbLine
 62
7
  6
BYLAYER
 10
71.2634343254
 20
45.304558789
 11
73.4201189871
 21
44.0594244877
  0
LINE
  5
254
100
AcDbEntity
  8
0
100
AcDbLine
 62
7
  6
BYLAYER
 10
77.3799334479
 20
41.7732762624
 11
78.9992147185
 21
40.8384049346
  0
LINE
  5
255
100
AcDbEntity
  8
0
100
AcDbLine
 62
7
  6
BYLAYER
 10
78.9992147185
 20
42.0416386977
 11
78.928503746
 21
42.0824627731
  0
LINE
  5
256
100
AcDbEntity
  8
0
100
AcDbLine
 62
7
  6
BYLAYER
 10
15.3593394552
 20
78.7833066045
 11
15.4300504278
 21
78.7424825291
  0
LINE
  5
257
100
AcDbEntity
  8
0
100
AcDbLine
 62
7
  6
BYLAYER
 10
25.3013220294
 20
73.0679393494
 11
24.770989742
 21
73.3741262703
  0
LINE
  5
258
100
AcDbEntity
  8
0
100
AcDbLine
 62
7
  6
BYLAYER
 10
31.417837782
 20
69.5366472223
 11
30.8875054946
 21
69.8428341458
  0
LINE
  5
259
100
AcDbEntity
  8
0
100
AcDbLine
 62
7
  6
BYLAYER
 10
68.9299919007
 20
47.8794833041
 11
68.3996596068
 21
48.18566387
  0
LINE
  5
25A
100
AcDbEntity
  8
0
100
AcDbLine
 62
7
  6
BYLAYER
 10
50.580480925
 20
58.4733387404
 11
50.0501486312
 21
58.7795193063
  0
LINE
  5
25B
100
AcDbEntity
  8
0
100
AcDbLine
 62
7
  6
BYLAYER
 10
37.1100406608
 20
66.2503251141
 11
36.579708367
 21
66.55650568
  0
LINE
  5
25C
100
AcDbEntity
  8
0
100
AcDbLine
 62
7
  6
BYLAYER
 10
18.760540766
 20
76.844174153
 11
18.2302084721
 21
77.1503547189
  0
LINE
  5
25D
100
AcDbEntity
  8
0
100
AcDbLine
 62
7
  6
BYLAYER
 10
57.121259285
 20
54.6971055764
 11
56.5909269974
 21
55.0032923505
  0
LINE
  5
25E
100
AcDbEntity
  8
0
100
AcDbLine
 62
7
  6
BYLAYER
 10
63.2377746534
 20
51.1658136708
 11
62.7074423658
 21
51.4720004463
  0
LINE
  5
25F
100
AcDbEntity
  8
0
100
AcDbLine
 62
7
  6
BYLAYER
 10
30.8875054946
 20
69.8428341458
 11
30.8804166209
 21
73.357877668
  0
LINE
  5
260
100
AcDbEntity
  8
0
100
AcDbLine
 62
7
  6
BYLAYER
 10
31.4107489083
 20
73.0516907445
 11
31.417837782
 21
69.5366472223
  0
LINE
  5
261
100
AcDbEntity
  8
0
100
AcDbLine
 62
7
  6
BYLAYER
 10
28.7237132605
 20
87.0925235824
 11
28.7237132605
 21
84.7246665727
  0
LINE
  5
262
100
AcDbEntity
  8
0
100
AcDbLine
 62
7
  6
BYLAYER
 10
29.2186900681
 20
114.4861869949
 11
29.2186900681
 21
104.9331087145
  0
LINE
  5
263
100
AcDbEntity
  8
0
100
AcDbLine
 62
7
  6
BYLAYER
 10
29.2186900681
 20
79.1346075431
 11
29.2186900681
 21
69.5785540528
  0
LINE
  5
264
100
AcDbEntity
  8
0
100
AcDbLine
 62
7
  6
BYLAYER
 10
29.2894010406
 20
88.6468617481
 11
29.2894010406
 21
89.5041892861
  0
LINE
  5
265
100
AcDbEntity
  8
0
100
AcDbLine
 62
7
  6
BYLAYER
 10
29.2894010406
 20
94.4848540306
 11
29.2894010406
 21
95.3421815686
  0
LINE
  5
266
100
AcDbEntity
  8
0
100
AcDbLine
 62
7
  6
BYLAYER
 10
29.7136668757
 20
99.911626167
 11
29.7136668757
 21
96.3190155316
  0
LINE
  5
267
100
AcDbEntity
  8
0
100
AcDbLine
 62
7
  6
BYLAYER
 10
30.4914875734
 20
88.8101800034
 11
30.4914875734
 21
93.7908447479
  0
LINE
  5
268
100
AcDbEntity
  8
0
100
AcDbLine
 62
7
  6
BYLAYER
 10
30.9228280383
 20
107.7897974264
 11
30.9228280384
 21
111.30075782
  0
LINE
  5
269
100
AcDbEntity
  8
0
100
AcDbLine
 62
7
  6
BYLAYER
 10
31.4531603322
 20
110.9945822601
 11
31.4531603321
 21
107.4836218665
  0
LINE
  5
26A
100
AcDbEntity
  8
0
100
AcDbLine
 62
7
  6
BYLAYER
 10
31.4814411886
 20
83.1325276301
 11
31.4814411886
 21
85.5003846398
  0
LINE
  5
26B
100
AcDbEntity
  8
0
100
AcDbLine
 62
7
  6
BYLAYER
 10
32.110768844
 20
93.4245499021
 11
32.110768844
 21
87.3007817736
  0
LINE
  5
26C
100
AcDbEntity
  8
0
100
AcDbLine
 62
7
  6
BYLAYER
 10
32.4006573356
 20
116.2270717802
 11
32.4006573356
 21
112.153976618
  0
LINE
  5
26D
100
AcDbEntity
  8
0
100
AcDbLine
 62
7
  6
BYLAYER
 10
32.4006573356
 20
108.0306575027
 11
32.4006573356
 21
106.7702074069
  0
LINE
  5
26E
100
AcDbEntity
  8
0
100
AcDbLine
 62
7
  6
BYLAYER
 10
32.4006573356
 20
77.2975394448
 11
32.4006573356
 21
74.2355854049
  0
LINE
  5
26F
100
AcDbEntity
  8
0
100
AcDbLine
 62
7
  6
BYLAYER
 10
32.6835277213
 20
94.6044043626
 11
32.6835277213
 21
98.197014998
  0
LINE
  5
270
100
AcDbEntity
  8
0
100
AcDbLine
 62
7
  6
BYLAYER
 10
33.1785045289
 20
112.2000387696
 11
33.1785045289
 21
102.6469604892
  0
LINE
  5
271
100
AcDbEntity
  8
0
100
AcDbLine
 62
7
  6
BYLAYER
 10
33.1785045289
 20
67.2924058275
 11
33.1785045289
 21
76.8484593178
  0
LINE
  5
272
100
AcDbEntity
  8
0
100
AcDbLine
 62
7
  6
BYLAYER
 10
39.0686481181
 20
121.4415399036
 11
43.2932204377
 21
123.8805833105
  0
LINE
  5
273
100
AcDbEntity
  8
0
100
AcDbLine
 62
7
  6
BYLAYER
 10
25.3013218817
 20
111.03522125
 11
27.0620054064
 21
112.0517462891
  0
LINE
  5
274
100
AcDbEntity
  8
0
100
AcDbLine
 62
7
  6
BYLAYER
 10
41.2253327798
 20
120.1964056023
 11
45.4499050994
 21
122.6354490092
  0
LINE
  5
275
100
AcDbEntity
  8
0
100
AcDbLine
 62
7
  6
BYLAYER
 10
23.1021909456
 20
108.4643912411
 11
26.2841582131
 21
110.3014899335
  0
LINE
  5
276
100
AcDbEntity
  8
0
100
AcDbLine
 62
7
  6
BYLAYER
 10
30.2439726739
 20
117.4722060815
 11
27.0620054064
 21
115.7313212962
  0
LINE
  5
277
100
AcDbEntity
  8
0
100
AcDbLine
 62
7
  6
BYLAYER
 10
29.2186900681
 20
114.4861869949
 11
32.4006573356
 21
116.2270717802
  0
LINE
  5
278
100
AcDbEntity
  8
0
100
AcDbLine
 62
7
  6
BYLAYER
 10
78.9992147185
 20
44.0257395713
 11
78.928503746
 21
44.0665636468
  0
LINE
  5
279
100
AcDbEntity
  8
0
100
AcDbLine
 62
7
  6
BYLAYER
 10
15.3593394552
 20
80.7674074781
 11
15.4300504278
 21
80.7265834027
  0
LINE
  5
27A
100
AcDbEntity
  8
0
100
AcDbLine
 62
7
  6
BYLAYER
 10
44.6336555806
 20
64.4493015992
 11
45.411502774
 21
64.0002214723
  0
LINE
  5
27B
100
AcDbEntity
  8
0
100
AcDbLine
 62
7
  6
BYLAYER
 10
52.7825026464
 20
59.7446689852
 11
52.9139369578
 21
59.6687870668
  0
LINE
  5
27C
100
AcDbEntity
  8
0
100
AcDbLine
 62
7
  6
BYLAYER
 10
71.1320136221
 20
49.1508135489
 11
71.2634343254
 21
49.074939487
  0
LINE
  5
27D
100
AcDbEntity
  8
0
100
AcDbLine
 62
7
  6
BYLAYER
 10
76.6020862545
 20
45.9927370873
 11
77.3799334479
 21
45.5436569604
  0
LINE
  5
27E
100
AcDbEntity
  8
0
100
AcDbLine
 62
7
  6
BYLAYER
 10
24.7639023357
 20
76.8891689493
 11
25.294234623
 21
76.5829820284
  0
LINE
  5
27F
100
AcDbEntity
  8
0
100
AcDbLine
 62
7
  6
BYLAYER
 10
30.8804166209
 20
73.357877668
 11
31.4107489083
 21
73.0516907445
  0
LINE
  5
280
100
AcDbEntity
  8
0
100
AcDbLine
 62
7
  6
BYLAYER
 10
18.2302084721
 20
80.6613151126
 11
18.760540766
 21
80.3551345467
  0
LINE
  5
281
100
AcDbEntity
  8
0
100
AcDbLine
 62
7
  6
BYLAYER
 10
36.5797184753
 20
70.0674602377
 11
37.1100507692
 21
69.7612796718
  0
LINE
  5
282
100
AcDbEntity
  8
0
100
AcDbLine
 62
7
  6
BYLAYER
 10
50.0501587395
 20
62.290473864
 11
50.5804910334
 21
61.9842932981
  0
LINE
  5
283
100
AcDbEntity
  8
0
100
AcDbLine
 62
7
  6
BYLAYER
 10
68.3997241115
 20
51.696587021
 11
68.9300564054
 21
51.3904064551
  0
LINE
  5
284
100
AcDbEntity
  8
0
100
AcDbLine
 62
7
  6
BYLAYER
 10
56.5839219181
 20
58.5182877193
 11
57.1142542057
 21
58.2121009452
  0
LINE
  5
285
100
AcDbEntity
  8
0
100
AcDbLine
 62
7
  6
BYLAYER
 10
62.7004358533
 20
54.9869966387
 11
63.2307681409
 21
54.6808098632
  0
LINE
  5
286
100
AcDbEntity
  8
0
100
AcDbLine
 62
7
  6
BYLAYER
 10
46.0337593321
 20
65.580916016
 11
48.3318659388
 21
64.2541335638
  0
LINE
  5
287
100
AcDbEntity
  8
0
100
AcDbLine
 62
7
  6
BYLAYER
 10
33.2169068544
 20
129.6980140624
 11
33.3206685315
 21
127.4717137691
  0
LINE
  5
288
100
AcDbEntity
  8
0
100
AcDbLine
 62
7
  6
BYLAYER
 10
34.1331053075
 20
90.1649021997
 11
34.1331053075
 21
87.5031043199
  0
LINE
  5
289
100
AcDbEntity
  8
0
100
AcDbLine
 62
7
  6
BYLAYER
 10
35.2927361114
 20
91.5874818037
 11
35.2927361114
 21
91.1332352071
  0
LINE
  5
28A
100
AcDbEntity
  8
0
100
AcDbLine
 62
7
  6
BYLAYER
 10
35.3351891906
 20
110.9549044683
 11
35.3351891906
 21
101.4018261879
  0
LINE
  5
28B
100
AcDbEntity
  8
0
100
AcDbLine
 62
7
  6
BYLAYER
 10
35.3351891906
 20
75.6032951822
 11
35.3351891906
 21
66.0472715262
  0
LINE
  5
28C
100
AcDbEntity
  8
0
100
AcDbLine
 62
7
  6
BYLAYER
 10
35.5473247578
 20
86.6832738321
 11
35.5473247578
 21
89.345071712
  0
LINE
  5
28D
100
AcDbEntity
  8
0
100
AcDbLine
 62
7
  6
BYLAYER
 10
35.8301659982
 20
82.9897039995
 11
35.8301659982
 21
80.0532705077
  0
LINE
  5
28E
100
AcDbEntity
  8
0
100
AcDbLine
 62
7
  6
BYLAYER
 10
36.077654402
 20
95.7802180227
 11
36.077654402
 21
92.9061295144
  0
LINE
  5
28F
100
AcDbEntity
  8
0
100
AcDbLine
 62
7
  6
BYLAYER
 10
36.5443503532
 20
104.5443630229
 11
36.5443503533
 21
108.0553234165
  0
LINE
  5
290
100
AcDbEntity
  8
0
100
AcDbLine
 62
7
  6
BYLAYER
 10
36.579708367
 20
66.55650568
 11
36.5797184753
 21
70.0674602377
  0
LINE
  5
291
100
AcDbEntity
  8
0
100
AcDbLine
 62
7
  6
BYLAYER
 10
37.0746826471
 20
107.7491478566
 11
37.074682647
 21
104.238187463
  0
LINE
  5
292
100
AcDbEntity
  8
0
100
AcDbLine
 62
7
  6
BYLAYER
 10
37.1100507692
 20
69.7612796718
 11
37.1100406608
 21
66.2503251141
  0
LINE
  5
293
100
AcDbEntity
  8
0
100
AcDbLine
 62
7
  6
BYLAYER
 10
37.2088480251
 20
130.6963137065
 11
37.2088480251
 21
130.7779625373
  0
LINE
  5
294
100
AcDbEntity
  8
0
100
AcDbLine
 62
7
  6
BYLAYER
 10
45.5536667766
 20
120.4091487159
 11
43.205274224
 21
119.0533117368
  0
LINE
  5
295
100
AcDbEntity
  8
0
100
AcDbLine
 62
7
  6
BYLAYER
 10
30.9228280384
 20
111.3007565685
 11
34.5290576082
 21
113.3828017533
  0
LINE
  5
296
100
AcDbEntity
  8
0
100
AcDbLine
 62
7
  6
BYLAYER
 10
17.7281570345
 20
103.4999770942
 11
20.210133553
 21
104.9329383517
  0
LINE
  5
297
100
AcDbEntity
  8
0
100
AcDbLine
 62
7
  6
BYLAYER
 10
31.4531603323
 20
110.9945822601
 11
33.1785045289
 21
111.9907042505
  0
LINE
  5
298
100
AcDbEntity
  8
0
100
AcDbLine
 62
7
  6
BYLAYER
 10
45.1851472406
 20
117.910257377
 11
49.4097195603
 21
120.3493007839
  0
LINE
  5
299
100
AcDbEntity
  8
0
100
AcDbLine
 62
7
  6
BYLAYER
 10
47.3418319023
 20
116.6651230757
 11
51.566404222
 21
119.1041664826
  0
LINE
  5
29A
100
AcDbEntity
  8
0
100
AcDbLine
 62
7
  6
BYLAYER
 10
31.4531603321
 20
107.483623118
 11
33.1785045289
 21
108.4797451085
  0
LINE
  5
29B
100
AcDbEntity
  8
0
100
AcDbLine
 62
7
  6
BYLAYER
 10
36.3604717964
 20
113.9409235549
 11
33.1785045289
 21
112.2000387696
  0
LINE
  5
29C
100
AcDbEntity
  8
0
100
AcDbLine
 62
7
  6
BYLAYER
 10
35.3351891906
 20
110.9549044683
 11
38.5171564581
 21
112.6957892536
  0
LINE
  5
29D
100
AcDbEntity
  8
0
100
AcDbLine
 62
7
  6
BYLAYER
 10
48.3318659388
 20
67.0465718304
 11
46.0337593321
 21
68.3733542826
  0
LINE
  5
29E
100
AcDbEntity
  8
0
100
AcDbLine
 62
7
  6
BYLAYER
 10
77.3799334479
 20
51.3292939515
 11
73.4201189871
 21
53.6154421769
  0
LINE
  5
29F
100
AcDbEntity
  8
0
100
AcDbLine
 62
7
  6
BYLAYER
 10
71.2634343254
 20
54.8606122794
 11
67.3036198645
 21
57.1467605047
  0
LINE
  5
2A0
100
AcDbEntity
  8
0
100
AcDbLine
 62
7
  6
BYLAYER
 10
65.1469352028
 20
58.391894806
 11
61.187120742
 21
60.6780430313
  0
LINE
  5
2A1
100
AcDbEntity
  8
0
100
AcDbLine
 62
7
  6
BYLAYER
 10
59.0304360803
 20
61.9231773326
 11
55.0706216195
 21
64.2093255579
  0
LINE
  5
2A2
100
AcDbEntity
  8
0
100
AcDbLine
 62
7
  6
BYLAYER
 10
52.9139369578
 20
65.4544598592
 11
48.954122497
 21
67.7406080845
  0
LINE
  5
2A3
100
AcDbEntity
  8
0
100
AcDbLine
 62
7
  6
BYLAYER
 10
45.411502774
 20
69.7858942646
 11
41.4516883132
 21
72.0720424899
  0
LINE
  5
2A4
100
AcDbEntity
  8
0
100
AcDbLine
 62
7
  6
BYLAYER
 10
33.1785045289
 20
76.8484593178
 11
29.2186900681
 21
79.1346075431
  0
LINE
  5
2A5
100
AcDbEntity
  8
0
100
AcDbLine
 62
7
  6
BYLAYER
 10
27.0620054064
 20
80.3797418444
 11
23.1021909456
 21
82.6658900697
  0
LINE
  5
2A6
100
AcDbEntity
  8
0
100
AcDbLine
 62
7
  6
BYLAYER
 10
20.9455062839
 20
83.911024371
 11
16.9856918231
 21
86.1971725963
  0
LINE
  5
2A7
100
AcDbEntity
  8
0
100
AcDbLine
 62
7
  6
BYLAYER
 10
39.2950036515
 20
73.3171708244
 11
35.3351891906
 21
75.6032951822
  0
LINE
  5
2A8
100
AcDbEntity
  8
0
100
AcDbLine
 62
7
  6
BYLAYER
 10
75.75358108
 20
54.7177549383
 11
77.3092224754
 21
53.8196252784
  0
LINE
  5
2A9
100
AcDbEntity
  8
0
100
AcDbLine
 62
7
  6
BYLAYER
 10
43.7851504062
 20
73.1743552514
 11
45.3407918015
 21
72.2762255915
  0
LINE
  5
2AA
100
AcDbEntity
  8
0
100
AcDbLine
 62
7
  6
BYLAYER
 10
34.4899572832
 20
86.5833743149
 11
34.1331053075
 21
87.5031043199
  0
LINE
  5
2AB
100
AcDbEntity
  8
0
100
AcDbLine
 62
7
  6
BYLAYER
 10
35.1921472663
 20
90.2604859962
 11
35.5473247578
 21
89.345071712
  0
LINE
  5
2AC
100
AcDbEntity
  8
0
100
AcDbLine
 62
7
  6
BYLAYER
 10
39.3334059769
 20
126.1667315358
 11
39.4371676541
 21
123.9404312425
  0
LINE
  5
2AD
100
AcDbEntity
  8
0
100
AcDbLine
 62
7
  6
BYLAYER
 10
38.5171564581
 20
112.6957892536
 11
38.5171564581
 21
109.1943155018
  0
LINE
  5
2AE
100
AcDbEntity
  8
0
100
AcDbLine
 62
7
  6
BYLAYER
 10
38.5171564581
 20
105.0709963864
 11
38.5171564581
 21
103.2389248803
  0
LINE
  5
2AF
100
AcDbEntity
  8
0
100
AcDbLine
 62
7
  6
BYLAYER
 10
38.5171564581
 20
73.7662462629
 11
38.5171564581
 21
71.1860339016
  0
LINE
  5
2B0
100
AcDbEntity
  8
0
100
AcDbLine
 62
7
  6
BYLAYER
 10
38.5525384401
 20
91.4772868736
 11
38.5525384401
 21
94.3513753819
  0
LINE
  5
2B1
100
AcDbEntity
  8
0
100
AcDbLine
 62
7
  6
BYLAYER
 10
38.8000268439
 20
78.3386593387
 11
38.8000268439
 21
81.2750928305
  0
LINE
  5
2B2
100
AcDbEntity
  8
0
100
AcDbLine
 62
7
  6
BYLAYER
 10
39.047488752
 20
88.7040823938
 11
39.047488752
 21
89.4197233972
  0
LINE
  5
2B3
100
AcDbEntity
  8
0
100
AcDbLine
 62
7
  6
BYLAYER
 10
39.2950036515
 20
108.668756243
 11
39.2950036515
 21
99.1156779626
  0
LINE
  5
2B4
100
AcDbEntity
  8
0
100
AcDbLine
 62
7
  6
BYLAYER
 10
39.2950036515
 20
63.7611233009
 11
39.2950036515
 21
73.3171708244
  0
LINE
  5
2B5
100
AcDbEntity
  8
0
100
AcDbLine
 62
7
  6
BYLAYER
 10
39.8606914316
 20
82.8264631041
 11
39.8606914316
 21
88.9502312326
  0
LINE
  5
2B6
100
AcDbEntity
  8
0
100
AcDbLine
 62
7
  6
BYLAYER
 10
40.6809122169
 20
109.4270001005
 11
40.6809122169
 21
109.8311930413
  0
LINE
  5
2B7
100
AcDbEntity
  8
0
100
AcDbLine
 62
7
  6
BYLAYER
 10
41.4516883132
 20
107.4236219417
 11
41.4516883132
 21
97.8705436613
  0
LINE
  5
2B8
100
AcDbEntity
  8
0
100
AcDbLine
 62
7
  6
BYLAYER
 10
41.4516883132
 20
72.0720424899
 11
41.4516883132
 21
62.5159889996
  0
LINE
  5
2B9
100
AcDbEntity
  8
0
100
AcDbLine
 62
7
  6
BYLAYER
 10
34.1331053075
 20
90.1649021997
 11
34.4866083146
 21
90.6678198848
  0
LINE
  5
2BA
100
AcDbEntity
  8
0
100
AcDbLine
 62
7
  6
BYLAYER
 10
29.2186900681
 20
104.9331087145
 11
32.4006573356
 21
106.7702074069
  0
LINE
  5
2BB
100
AcDbEntity
  8
0
100
AcDbLine
 62
7
  6
BYLAYER
 10
51.6701658991
 20
116.8778661893
 11
49.3217733466
 21
115.5220292101
  0
LINE
  5
2BC
100
AcDbEntity
  8
0
100
AcDbLine
 62
7
  6
BYLAYER
 10
36.5443503533
 20
108.055322165
 11
40.1505799231
 21
110.1373673497
  0
LINE
  5
2BD
100
AcDbEntity
  8
0
100
AcDbLine
 62
7
  6
BYLAYER
 10
37.0746826471
 20
107.7491478566
 11
40.6809122169
 21
109.8311930413
  0
LINE
  5
2BE
100
AcDbEntity
  8
0
100
AcDbLine
 62
7
  6
BYLAYER
 10
17.1271137681
 20
95.6686027259
 11
17.4806656867
 21
95.8727248028
  0
LINE
  5
2BF
100
AcDbEntity
  8
0
100
AcDbLine
 62
7
  6
BYLAYER
 10
51.3016463631
 20
114.3789748504
 11
55.5262186828
 21
116.8180182573
  0
LINE
  5
2C0
100
AcDbEntity
  8
0
100
AcDbLine
 62
7
  6
BYLAYER
 10
37.074682647
 20
104.2381887145
 11
39.2950036515
 21
105.5200839922
  0
LINE
  5
2C1
100
AcDbEntity
  8
0
100
AcDbLine
 62
7
  6
BYLAYER
 10
42.4769709189
 20
110.4096410283
 11
39.2950036515
 21
108.668756243
  0
LINE
  5
2C2
100
AcDbEntity
  8
0
100
AcDbLine
 62
7
  6
BYLAYER
 10
41.4516883132
 20
107.4236219417
 11
44.6336555806
 21
109.164506727
  0
LINE
  5
2C3
100
AcDbEntity
  8
0
100
AcDbLine
 62
7
  6
BYLAYER
 10
90.2409791157
 20
48.5522722995
 11
90.1702687547
 21
48.5926414061
  0
LINE
  5
2C4
100
AcDbEntity
  8
0
100
AcDbLine
 62
7
  6
BYLAYER
 10
23.5971677532
 20
87.1158355609
 11
26.5670285988
 21
85.4012243919
  0
LINE
  5
2C5
100
AcDbEntity
  8
0
100
AcDbLine
 62
7
  6
BYLAYER
 10
35.8301659982
 20
80.0532705077
 11
38.8000268439
 21
78.3386593387
  0
LINE
  5
2C6
100
AcDbEntity
  8
0
100
AcDbLine
 62
7
  6
BYLAYER
 10
55.5655984271
 20
68.6592710491
 11
58.5354592727
 21
66.9446598801
  0
LINE
  5
2C7
100
AcDbEntity
  8
0
100
AcDbLine
 62
7
  6
BYLAYER
 10
67.7985966721
 20
61.5967059959
 11
70.7684575178
 21
59.8820948269
  0
LINE
  5
2C8
100
AcDbEntity
  8
0
100
AcDbLine
 62
7
  6
BYLAYER
 10
77.3092224754
 20
56.2691325298
 11
75.75358108
 21
57.1672621897
  0
LINE
  5
2C9
100
AcDbEntity
  8
0
100
AcDbLine
 62
7
  6
BYLAYER
 10
45.3407918015
 20
74.7257328429
 11
43.7851504062
 21
75.6238625028
  0
LINE
  5
2CA
100
AcDbEntity
  8
0
100
AcDbLine
 62
7
  6
BYLAYER
 10
28.7237132605
 20
84.7246665727
 11
31.4814411886
 21
83.1325276301
  0
LINE
  5
2CB
100
AcDbEntity
  8
0
100
AcDbLine
 62
7
  6
BYLAYER
 10
60.6921439344
 20
66.2681020609
 11
63.4498718625
 21
64.6759631182
  0
LINE
  5
2CC
100
AcDbEntity
  8
0
100
AcDbLine
 62
7
  6
BYLAYER
 10
70.7684575178
 20
62.8185283186
 11
67.7985966721
 21
64.5331394876
  0
LINE
  5
2CD
100
AcDbEntity
  8
0
100
AcDbLine
 62
7
  6
BYLAYER
 10
63.4498718625
 20
67.0438201279
 11
60.6921439344
 21
68.6359590705
  0
LINE
  5
2CE
100
AcDbEntity
  8
0
100
AcDbLine
 62
7
  6
BYLAYER
 10
58.5354592727
 20
69.8810933718
 11
55.5655984271
 21
71.5957045408
  0
LINE
  5
2CF
100
AcDbEntity
  8
0
100
AcDbLine
 62
7
  6
BYLAYER
 10
38.8000268439
 20
81.2750928305
 11
35.8301659982
 21
82.9897039995
  0
LINE
  5
2D0
100
AcDbEntity
  8
0
100
AcDbLine
 62
7
  6
BYLAYER
 10
31.4814411886
 20
85.5003846398
 11
28.7237132605
 21
87.0925235824
  0
LINE
  5
2D1
100
AcDbEntity
  8
0
100
AcDbLine
 62
7
  6
BYLAYER
 10
26.5670285988
 20
88.3376578837
 11
23.5971677532
 21
90.0522690527
  0
LINE
  5
2D2
100
AcDbEntity
  8
0
100
AcDbLine
 62
7
  6
BYLAYER
 10
45.4499050994
 20
122.6354490092
 11
45.5536667766
 21
120.4091487159
  0
LINE
  5
2D3
100
AcDbEntity
  8
0
100
AcDbLine
 62
7
  6
BYLAYER
 10
43.7851504062
 20
94.07384192
 11
43.7851504062
 21
91.6243346686
  0
LINE
  5
2D4
100
AcDbEntity
  8
0
100
AcDbLine
 62
7
  6
BYLAYER
 10
43.7851504062
 20
75.6238625028
 11
43.7851504062
 21
73.1743552514
  0
LINE
  5
2D5
100
AcDbEntity
  8
0
100
AcDbLine
 62
7
  6
BYLAYER
 10
44.6336555806
 20
109.164506727
 11
44.6336555806
 21
99.7076423537
  0
LINE
  5
2D6
100
AcDbEntity
  8
0
100
AcDbLine
 62
7
  6
BYLAYER
 10
44.6336555806
 20
70.2349743916
 11
44.6336555806
 21
64.4493015992
  0
LINE
  5
2D7
100
AcDbEntity
  8
0
100
AcDbLine
 62
7
  6
BYLAYER
 10
45.3407918015
 20
72.2762255915
 11
45.3407918015
 21
74.7257328429
  0
LINE
  5
2D8
100
AcDbEntity
  8
0
100
AcDbLine
 62
7
  6
BYLAYER
 10
45.3407918015
 20
90.7262050087
 11
45.3407918015
 21
93.1757122601
  0
LINE
  5
2D9
100
AcDbEntity
  8
0
100
AcDbLine
 62
7
  6
BYLAYER
 10
45.411502774
 20
105.1374737164
 11
45.411502774
 21
95.584395436
  0
LINE
  5
2DA
100
AcDbEntity
  8
0
100
AcDbLine
 62
7
  6
BYLAYER
 10
45.411502774
 20
60.2298407743
 11
45.411502774
 21
69.7858942646
  0
LINE
  5
2DB
100
AcDbEntity
  8
0
100
AcDbLine
 62
7
  6
BYLAYER
 10
46.0337593321
 20
99.0708699567
 11
46.0337593321
 21
96.2784316901
  0
LINE
  5
2DC
100
AcDbEntity
  8
0
100
AcDbLine
 62
7
  6
BYLAYER
 10
46.0337593321
 20
68.3733542826
 11
46.0337593321
 21
65.580916016
  0
LINE
  5
2DD
100
AcDbEntity
  8
0
100
AcDbLine
 62
7
  6
BYLAYER
 10
35.5473247578
 20
86.6832738321
 11
35.1921472663
 21
86.1779739105
  0
LINE
  5
2DE
100
AcDbEntity
  8
0
100
AcDbLine
 62
7
  6
BYLAYER
 10
38.6923112605
 20
88.1987824722
 11
39.047488752
 21
88.7040823938
  0
LINE
  5
2DF
100
AcDbEntity
  8
0
100
AcDbLine
 62
7
  6
BYLAYER
 10
77.3206406812
 20
125.5629157336
 11
78.8304421523
 21
126.4350349027
  0
LINE
  5
2E0
100
AcDbEntity
  8
0
100
AcDbLine
 62
7
  6
BYLAYER
 10
53.4583310248
 20
113.1338405491
 11
57.6829033445
 21
115.572883956
  0
LINE
  5
2E1
100
AcDbEntity
  8
0
100
AcDbLine
 62
7
  6
BYLAYER
 10
35.3351891906
 20
101.4018261879
 11
38.5171564581
 21
103.2389248803
  0
LINE
  5
2E2
100
AcDbEntity
  8
0
100
AcDbLine
 62
7
  6
BYLAYER
 10
57.7866650216
 20
113.3465836627
 11
55.4382724691
 21
111.9907466835
  0
LINE
  5
2E3
100
AcDbEntity
  8
0
100
AcDbLine
 62
7
  6
BYLAYER
 10
79.8004908245
 20
125.4193234275
 11
79.3147946301
 21
125.1389082843
  0
LINE
  5
2E4
100
AcDbEntity
  8
0
100
AcDbLine
 62
7
  6
BYLAYER
 10
29.7136668757
 20
96.3190155316
 11
32.6835277213
 21
98.0336552553
  0
LINE
  5
2E5
100
AcDbEntity
  8
0
100
AcDbLine
 62
7
  6
BYLAYER
 10
57.4181454856
 20
110.8476923238
 11
61.6427178053
 21
113.2867357307
  0
LINE
  5
2E6
100
AcDbEntity
  8
0
100
AcDbLine
 62
7
  6
BYLAYER
 10
79.1756847996
 20
125.8179578647
 11
77.2836321292
 21
124.7261303605
  0
LINE
  5
2E7
100
AcDbEntity
  8
0
100
AcDbLine
 62
7
  6
BYLAYER
 10
48.5934700415
 20
106.8783585017
 11
45.411502774
 21
105.1374737164
  0
LINE
  5
2E8
100
AcDbEntity
  8
0
100
AcDbLine
 62
7
  6
BYLAYER
 10
17.1271137681
 20
95.6686027259
 11
29.2894010406
 21
88.6468617481
  0
LINE
  5
2E9
100
AcDbEntity
  8
0
100
AcDbLine
 62
7
  6
BYLAYER
 10
52.5179555117
 20
75.2361529621
 11
64.6802427842
 21
68.2144119844
  0
LINE
  5
2EA
100
AcDbEntity
  8
0
100
AcDbLine
 62
7
  6
BYLAYER
 10
32.110768844
 20
87.3007817736
 11
39.8606914316
 21
82.8264631041
  0
LINE
  5
2EB
100
AcDbEntity
  8
0
100
AcDbLine
 62
7
  6
BYLAYER
 10
17.4806656867
 20
95.8727248028
 11
29.2894010406
 21
89.0551025026
  0
LINE
  5
2EC
100
AcDbEntity
  8
0
100
AcDbLine
 62
7
  6
BYLAYER
 10
52.8715074303
 20
75.4402750391
 11
64.6802427842
 21
68.6226527389
  0
LINE
  5
2ED
100
AcDbEntity
  8
0
100
AcDbLine
 62
7
  6
BYLAYER
 10
64.6802427842
 20
69.0687643124
 11
71.8291221055
 21
64.9414502842
  0
LINE
  5
2EE
100
AcDbEntity
  8
0
100
AcDbLine
 62
7
  6
BYLAYER
 10
29.2894010406
 20
89.5041892861
 11
30.4914875734
 21
88.8101800034
  0
LINE
  5
2EF
100
AcDbEntity
  8
0
100
AcDbLine
 62
7
  6
BYLAYER
 10
34.4899572832
 20
86.5833743149
 11
35.1921472663
 21
86.1779739105
  0
LINE
  5
2F0
100
AcDbEntity
  8
0
100
AcDbLine
 62
7
  6
BYLAYER
 10
66.3065459462
 20
68.2144738457
 11
67.0120848979
 21
67.8071399571
  0
LINE
  5
2F1
100
AcDbEntity
  8
0
100
AcDbLine
 62
7
  6
BYLAYER
 10
29.6429529592
 20
89.708311363
 11
30.4914875734
 21
89.2184207579
  0
LINE
  5
2F2
100
AcDbEntity
  8
0
100
AcDbLine
 62
7
  6
BYLAYER
 10
37.8058321858
 20
87.6869765948
 11
39.8606914316
 21
86.5006298949
  0
LINE
  5
2F3
100
AcDbEntity
  8
0
100
AcDbLine
 62
7
  6
BYLAYER
 10
70.1207551785
 20
69.601920867
 11
71.8291221055
 21
68.615617075
  0
LINE
  5
2F4
100
AcDbEntity
  8
0
100
AcDbLine
 62
7
  6
BYLAYER
 10
67.0120848979
 20
71.8896520427
 11
66.3098949149
 21
72.2950524471
  0
LINE
  5
2F5
100
AcDbEntity
  8
0
100
AcDbLine
 62
7
  6
BYLAYER
 10
35.1921472663
 20
90.2604859962
 11
34.4866083146
 21
90.6678198848
  0
LINE
  5
2F6
100
AcDbEntity
  8
0
100
AcDbLine
 62
7
  6
BYLAYER
 10
51.566404222
 20
119.1041664826
 11
51.6701658991
 21
116.8778661893
  0
LINE
  5
2F7
100
AcDbEntity
  8
0
100
AcDbLine
 62
7
  6
BYLAYER
 10
50.0572522568
 20
96.7428196354
 11
50.050196137
 21
100.2578443356
  0
LINE
  5
2F8
100
AcDbEntity
  8
0
100
AcDbLine
 62
7
  6
BYLAYER
 10
50.5805284296
 20
99.9516624562
 11
50.5875845494
 21
96.4366377561
  0
LINE
  5
2F9
100
AcDbEntity
  8
0
100
AcDbLine
 62
7
  6
BYLAYER
 10
48.3318659388
 20
64.2541335638
 11
48.3318659388
 21
67.0465718304
  0
LINE
  5
2FA
100
AcDbEntity
  8
0
100
AcDbLine
 62
7
  6
BYLAYER
 10
48.3318659388
 20
94.9516492379
 11
48.3318659388
 21
97.7440875045
  0
LINE
  5
2FB
100
AcDbEntity
  8
0
100
AcDbLine
 62
7
  6
BYLAYER
 10
48.954122497
 20
103.0921875363
 11
48.954122497
 21
93.5391092559
  0
LINE
  5
2FC
100
AcDbEntity
  8
0
100
AcDbLine
 62
7
  6
BYLAYER
 10
48.954122497
 20
67.7406080845
 11
48.954122497
 21
58.1845545941
  0
LINE
  5
2FD
100
AcDbEntity
  8
0
100
AcDbLine
 62
7
  6
BYLAYER
 10
49.6965877084
 20
87.9175010907
 11
49.6965877084
 21
85.0434125824
  0
LINE
  5
2FE
100
AcDbEntity
  8
0
100
AcDbLine
 62
7
  6
BYLAYER
 10
50.0501486312
 20
58.7795193063
 11
50.0501587395
 21
62.290473864
  0
LINE
  5
2FF
100
AcDbEntity
  8
0
100
AcDbLine
 62
7
  6
BYLAYER
 10
50.5804910334
 20
61.9842932981
 11
50.580480925
 21
58.4733387404
  0
LINE
  5
300
100
AcDbEntity
  8
0
100
AcDbLine
 62
7
  6
BYLAYER
 10
52.1360897644
 20
104.8330723215
 11
52.1360897644
 21
101.4621287228
  0
LINE
  5
301
100
AcDbEntity
  8
0
100
AcDbLine
 62
7
  6
BYLAYER
 10
52.1360897644
 20
97.3306619937
 11
52.1360897644
 21
95.3762079483
  0
LINE
  5
302
100
AcDbEntity
  8
0
100
AcDbLine
 62
7
  6
BYLAYER
 10
52.1360897644
 20
65.9035399861
 11
52.1360897644
 21
63.494779514
  0
LINE
  5
303
100
AcDbEntity
  8
0
100
AcDbLine
 62
7
  6
BYLAYER
 10
52.1714717464
 20
83.6145699415
 11
52.1714717464
 21
86.4886584498
  0
LINE
  5
304
100
AcDbEntity
  8
0
100
AcDbLine
 62
7
  6
BYLAYER
 10
52.5179555117
 20
81.9314727826
 11
52.5179555117
 21
75.2361529621
  0
LINE
  5
305
100
AcDbEntity
  8
0
100
AcDbLine
 62
7
  6
BYLAYER
 10
52.8715074303
 20
81.727354105
 11
52.8715074303
 21
75.4402750391
  0
LINE
  5
306
100
AcDbEntity
  8
0
100
AcDbLine
 62
7
  6
BYLAYER
 10
52.9139369578
 20
100.806039311
 11
52.9139369578
 21
91.2529610305
  0
LINE
  5
307
100
AcDbEntity
  8
0
100
AcDbLine
 62
7
  6
BYLAYER
 10
52.9139369578
 20
55.8984063688
 11
52.9139369578
 21
65.4544598592
  0
LINE
  5
308
100
AcDbEntity
  8
0
100
AcDbLine
 62
7
  6
BYLAYER
 10
50.5448422768
 20
144.0296728851
 11
50.2928496324
 21
138.331969296
  0
LINE
  5
309
100
AcDbEntity
  8
0
100
AcDbLine
 62
7
  6
BYLAYER
 10
41.4516883132
 20
97.8705436613
 11
44.6336555806
 21
99.7076423537
  0
LINE
  5
30A
100
AcDbEntity
  8
0
100
AcDbLine
 62
7
  6
BYLAYER
 10
60.9536941114
 20
108.8064885512
 11
65.178266431
 21
111.2455319581
  0
LINE
  5
30B
100
AcDbEntity
  8
0
100
AcDbLine
 62
7
  6
BYLAYER
 10
23.5971677532
 20
87.1158355609
 11
26.1402301088
 21
88.5840645323
  0
LINE
  5
30C
100
AcDbEntity
  8
0
100
AcDbLine
 62
7
  6
BYLAYER
 10
29.2894010406
 20
89.5041892861
 11
29.6429529592
 21
89.708311363
  0
LINE
  5
30D
100
AcDbEntity
  8
0
100
AcDbLine
 62
7
  6
BYLAYER
 10
36.077654402
 20
92.9061295144
 11
38.5596309206
 21
94.3390907719
  0
LINE
  5
30E
100
AcDbEntity
  8
0
100
AcDbLine
 62
7
  6
BYLAYER
 10
48.954122497
 20
103.0921875363
 11
52.1360897644
 21
104.8330723215
  0
LINE
  5
30F
100
AcDbEntity
  8
0
100
AcDbLine
 62
7
  6
BYLAYER
 10
71.8291221055
 20
69.9221150287
 11
64.6802427842
 21
74.0494290569
  0
LINE
  5
310
100
AcDbEntity
  8
0
100
AcDbLine
 62
7
  6
BYLAYER
 10
30.4914875734
 20
93.7908447479
 11
29.2894010406
 21
94.4848540306
  0
LINE
  5
311
100
AcDbEntity
  8
0
100
AcDbLine
 62
7
  6
BYLAYER
 10
39.8606914316
 20
88.9502312326
 11
32.110768844
 21
93.4245499021
  0
LINE
  5
312
100
AcDbEntity
  8
0
100
AcDbLine
 62
7
  6
BYLAYER
 10
64.6802427842
 20
74.9097318048
 11
52.5179555117
 21
81.9314727826
  0
LINE
  5
313
100
AcDbEntity
  8
0
100
AcDbLine
 62
7
  6
BYLAYER
 10
29.2894010406
 20
95.3421815686
 11
17.1271137681
 21
102.3639225463
  0
LINE
  5
314
100
AcDbEntity
  8
0
100
AcDbLine
 62
7
  6
BYLAYER
 10
29.7136668757
 20
96.3190155316
 11
32.6835277213
 21
94.6044043626
  0
LINE
  5
315
100
AcDbEntity
  8
0
100
AcDbLine
 62
7
  6
BYLAYER
 10
61.6820975496
 20
77.8624510198
 11
64.6519583952
 21
76.1478398508
  0
LINE
  5
316
100
AcDbEntity
  8
0
100
AcDbLine
 62
7
  6
BYLAYER
 10
17.7281570345
 20
103.4999770942
 11
20.2030410725
 21
102.0711344534
  0
LINE
  5
317
100
AcDbEntity
  8
0
100
AcDbLine
 62
7
  6
BYLAYER
 10
36.077654402
 20
92.9061295144
 11
38.5525384401
 21
91.4772868736
  0
LINE
  5
318
100
AcDbEntity
  8
0
100
AcDbLine
 62
7
  6
BYLAYER
 10
49.6965877084
 20
85.0434125824
 11
52.1714717464
 21
83.6145699415
  0
LINE
  5
319
100
AcDbEntity
  8
0
100
AcDbLine
 62
7
  6
BYLAYER
 10
68.0460850759
 20
74.4495650026
 11
70.520969114
 21
73.0207223617
  0
LINE
  5
31A
100
AcDbEntity
  8
0
100
AcDbLine
 62
7
  6
BYLAYER
 10
86.9187776953
 20
65.1730731624
 11
86.8480667228
 21
65.2138972378
  0
LINE
  5
31B
100
AcDbEntity
  8
0
100
AcDbLine
 62
7
  6
BYLAYER
 10
100.8487232884
 20
57.7835873099
 11
100.7780123159
 21
57.8244113854
  0
LINE
  5
31C
100
AcDbEntity
  8
0
100
AcDbLine
 62
7
  6
BYLAYER
 10
54.1878233613
 20
101.5029947701
 11
54.1867579993
 21
102.033707641
  0
LINE
  5
31D
100
AcDbEntity
  8
0
100
AcDbLine
 62
7
  6
BYLAYER
 10
56.5909269974
 20
55.0032923505
 11
56.5839219181
 21
58.5182877193
  0
LINE
  5
31E
100
AcDbEntity
  8
0
100
AcDbLine
 62
7
  6
BYLAYER
 10
56.5980334373
 20
92.9665590205
 11
56.5909787288
 21
96.4815829096
  0
LINE
  5
31F
100
AcDbEntity
  8
0
100
AcDbLine
 62
7
  6
BYLAYER
 10
57.1142542057
 20
58.2121009452
 11
57.121259285
 21
54.6971055764
  0
LINE
  5
320
100
AcDbEntity
  8
0
100
AcDbLine
 62
7
  6
BYLAYER
 10
57.1213110214
 20
96.1754010328
 11
57.1283657298
 21
92.6603771437
  0
LINE
  5
321
100
AcDbEntity
  8
0
100
AcDbLine
 62
7
  6
BYLAYER
 10
55.0706216195
 20
99.5609050097
 11
55.0706216195
 21
90.0078267293
  0
LINE
  5
322
100
AcDbEntity
  8
0
100
AcDbLine
 62
7
  6
BYLAYER
 10
55.0706216195
 20
64.2093255579
 11
55.0706216195
 21
54.6532720675
  0
LINE
  5
323
100
AcDbEntity
  8
0
100
AcDbLine
 62
7
  6
BYLAYER
 10
55.5655984271
 20
71.5957045408
 11
55.5655984271
 21
68.6592710491
  0
LINE
  5
324
100
AcDbEntity
  8
0
100
AcDbLine
 62
7
  6
BYLAYER
 10
18.2302084721
 20
77.3972675876
 11
16.9856918231
 21
76.641119106
  0
LINE
  5
325
100
AcDbEntity
  8
0
100
AcDbLine
 62
7
  6
BYLAYER
 10
15.4300504278
 20
78.8242586488
 11
15.3593394552
 21
78.7833066045
  0
LINE
  5
326
100
AcDbEntity
  8
0
100
AcDbLine
 62
7
  6
BYLAYER
 10
50.050196137
 20
100.2578446641
 11
53.6564257068
 21
102.3398898489
  0
LINE
  5
327
100
AcDbEntity
  8
0
100
AcDbLine
 62
7
  6
BYLAYER
 10
65.2820281082
 20
109.0192316648
 11
62.9336355556
 21
107.6633946856
  0
LINE
  5
328
100
AcDbEntity
  8
0
100
AcDbLine
 62
7
  6
BYLAYER
 10
35.6861308276
 20
91.3603603966
 11
34.4866083146
 21
90.6678198848
  0
LINE
  5
329
100
AcDbEntity
  8
0
100
AcDbLine
 62
7
  6
BYLAYER
 10
50.5805284295
 20
99.9516624562
 11
54.1867579993
 21
102.033707641
  0
LINE
  5
32A
100
AcDbEntity
  8
0
100
AcDbLine
 62
7
  6
BYLAYER
 10
18.2302084721
 20
80.6613151126
 11
20.9455062839
 21
82.2289836774
  0
LINE
  5
32B
100
AcDbEntity
  8
0
100
AcDbLine
 62
7
  6
BYLAYER
 10
36.3916697793
 20
90.953026508
 11
35.1921472663
 21
90.2604859962
  0
LINE
  5
32C
100
AcDbEntity
  8
0
100
AcDbLine
 62
7
  6
BYLAYER
 10
46.0337593321
 20
96.2784316901
 11
48.3318659388
 21
97.6052362382
  0
LINE
  5
32D
100
AcDbEntity
  8
0
100
AcDbLine
 62
7
  6
BYLAYER
 10
18.760540766
 20
80.3551345467
 11
20.9455062839
 21
81.6166174466
  0
LINE
  5
32E
100
AcDbEntity
  8
0
100
AcDbLine
 62
7
  6
BYLAYER
 10
64.9135085722
 20
106.5203403259
 11
69.1380808919
 21
108.9593837328
  0
LINE
  5
32F
100
AcDbEntity
  8
0
100
AcDbLine
 62
7
  6
BYLAYER
 10
37.3620433624
 20
90.3927937328
 11
35.5473247578
 21
89.345071712
  0
LINE
  5
330
100
AcDbEntity
  8
0
100
AcDbLine
 62
7
  6
BYLAYER
 10
32.110768844
 20
87.3007817736
 11
34.1331053075
 21
88.4683713057
  0
LINE
  5
331
100
AcDbEntity
  8
0
100
AcDbLine
 62
7
  6
BYLAYER
 10
28.7237132605
 20
84.7246665727
 11
30.7743668992
 21
85.9086049359
  0
LINE
  5
332
100
AcDbEntity
  8
0
100
AcDbLine
 62
7
  6
BYLAYER
 10
50.5875845494
 20
96.4366374275
 11
52.9139369578
 21
97.7797495995
  0
LINE
  5
333
100
AcDbEntity
  8
0
100
AcDbLine
 62
7
  6
BYLAYER
 10
67.0701932339
 20
105.2752060246
 11
71.2947655536
 21
107.7142494315
  0
LINE
  5
334
100
AcDbEntity
  8
0
100
AcDbLine
 62
7
  6
BYLAYER
 10
43.7851504062
 20
91.6243346686
 11
45.3407918015
 21
92.5224792858
  0
LINE
  5
335
100
AcDbEntity
  8
0
100
AcDbLine
 62
7
  6
BYLAYER
 10
39.047488752
 20
88.7040823938
 11
35.5473247578
 21
86.6832738321
  0
LINE
  5
336
100
AcDbEntity
  8
0
100
AcDbLine
 62
7
  6
BYLAYER
 10
18.760540766
 20
76.844174153
 11
20.9455062839
 21
78.1056570529
  0
LINE
  5
337
100
AcDbEntity
  8
0
100
AcDbLine
 62
7
  6
BYLAYER
 10
38.6923112605
 20
88.1987824722
 11
35.1921472663
 21
86.1779739105
  0
LINE
  5
338
100
AcDbEntity
  8
0
100
AcDbLine
 62
7
  6
BYLAYER
 10
56.0959042253
 20
102.5469240962
 11
52.9139369578
 21
100.806039311
  0
LINE
  5
339
100
AcDbEntity
  8
0
100
AcDbLine
 62
7
  6
BYLAYER
 10
55.0706216195
 20
99.5609050097
 11
58.252588887
 21
101.3017897949
  0
LINE
  5
33A
100
AcDbEntity
  8
0
100
AcDbLine
 62
7
  6
BYLAYER
 10
70.520969114
 20
75.89481087
 11
68.0460850759
 21
77.3236535109
  0
LINE
  5
33B
100
AcDbEntity
  8
0
100
AcDbLine
 62
7
  6
BYLAYER
 10
52.1714717464
 20
86.4886584498
 11
49.6965877084
 21
87.9175010907
  0
LINE
  5
33C
100
AcDbEntity
  8
0
100
AcDbLine
 62
7
  6
BYLAYER
 10
38.5525384401
 20
94.3513753819
 11
36.077654402
 21
95.7802180227
  0
LINE
  5
33D
100
AcDbEntity
  8
0
100
AcDbLine
 62
7
  6
BYLAYER
 10
20.2030410725
 20
104.9452229617
 11
17.7281570345
 21
106.3740656025
  0
LINE
  5
33E
100
AcDbEntity
  8
0
100
AcDbLine
 62
7
  6
BYLAYER
 10
43.7851504062
 20
91.6243346686
 11
45.3407918015
 21
90.7262050087
  0
LINE
  5
33F
100
AcDbEntity
  8
0
100
AcDbLine
 62
7
  6
BYLAYER
 10
75.75358108
 20
73.1677701568
 11
77.3092224754
 21
72.2696404968
  0
LINE
  5
340
100
AcDbEntity
  8
0
100
AcDbLine
 62
7
  6
BYLAYER
 10
64.6519583952
 20
79.7404504862
 11
61.6820975496
 21
81.4550616551
  0
LINE
  5
341
100
AcDbEntity
  8
0
100
AcDbLine
 62
7
  6
BYLAYER
 10
32.6835277213
 20
98.197014998
 11
29.7136668757
 21
99.911626167
  0
LINE
  5
342
100
AcDbEntity
  8
0
100
AcDbLine
 62
7
  6
BYLAYER
 10
77.3092224754
 20
74.7191477482
 11
75.75358108
 21
75.6172774081
  0
LINE
  5
343
100
AcDbEntity
  8
0
100
AcDbLine
 62
7
  6
BYLAYER
 10
45.3407918015
 20
93.1757122601
 11
43.7851504062
 21
94.07384192
  0
LINE
  5
344
100
AcDbEntity
  8
0
100
AcDbLine
 62
7
  6
BYLAYER
 10
16.9856918231
 20
111.9956737677
 11
20.9455062839
 21
109.7095255424
  0
LINE
  5
345
100
AcDbEntity
  8
0
100
AcDbLine
 62
7
  6
BYLAYER
 10
23.1021909456
 20
108.4643912411
 11
27.0620054064
 21
106.1782430158
  0
LINE
  5
346
100
AcDbEntity
  8
0
100
AcDbLine
 62
7
  6
BYLAYER
 10
29.2186900681
 20
104.9331087145
 11
33.1785045289
 21
102.6469604892
  0
LINE
  5
347
100
AcDbEntity
  8
0
100
AcDbLine
 62
7
  6
BYLAYER
 10
35.3351891906
 20
101.4018261879
 11
39.2950036515
 21
99.1156779626
  0
LINE
  5
348
100
AcDbEntity
  8
0
100
AcDbLine
 62
7
  6
BYLAYER
 10
41.4516883132
 20
97.8705436613
 11
45.411502774
 21
95.584395436
  0
LINE
  5
349
100
AcDbEntity
  8
0
100
AcDbLine
 62
7
  6
BYLAYER
 10
48.954122497
 20
93.5391092559
 11
52.9139369578
 21
91.2529610305
  0
LINE
  5
34A
100
AcDbEntity
  8
0
100
AcDbLine
 62
7
  6
BYLAYER
 10
55.0706216195
 20
90.0078267293
 11
59.0304360803
 21
87.7216785039
  0
LINE
  5
34B
100
AcDbEntity
  8
0
100
AcDbLine
 62
7
  6
BYLAYER
 10
61.187120742
 20
86.4765442027
 11
65.1469352028
 21
84.1903959773
  0
LINE
  5
34C
100
AcDbEntity
  8
0
100
AcDbLine
 62
7
  6
BYLAYER
 10
67.3036198645
 20
82.9452616761
 11
71.2634343254
 21
80.6591134507
  0
LINE
  5
34D
100
AcDbEntity
  8
0
100
AcDbLine
 62
7
  6
BYLAYER
 10
73.4201189871
 20
79.4139791495
 11
77.3799334479
 21
77.1278309241
  0
LINE
  5
34E
100
AcDbEntity
  8
0
100
AcDbLine
 62
7
  6
BYLAYER
 10
66.3065459462
 20
68.2144738457
 11
65.9530429391
 21
69.1255724091
  0
LINE
  5
34F
100
AcDbEntity
  8
0
100
AcDbLine
 62
7
  6
BYLAYER
 10
57.6829033445
 20
115.572883956
 11
57.7866650216
 21
113.3465836627
  0
LINE
  5
350
100
AcDbEntity
  8
0
100
AcDbLine
 62
7
  6
BYLAYER
 10
60.7276492266
 20
98.2033183613
 11
60.7275405912
 21
98.2574462175
  0
LINE
  5
351
100
AcDbEntity
  8
0
100
AcDbLine
 62
7
  6
BYLAYER
 10
62.7074423658
 20
51.4720004463
 11
62.7004358533
 21
54.9869966387
  0
LINE
  5
352
100
AcDbEntity
  8
0
100
AcDbLine
 62
7
  6
BYLAYER
 10
58.252588887
 20
101.3017897949
 11
58.252588887
 21
97.4409085832
  0
LINE
  5
353
100
AcDbEntity
  8
0
100
AcDbLine
 62
7
  6
BYLAYER
 10
58.252588887
 20
93.3094434838
 11
58.252588887
 21
91.8449254217
  0
LINE
  5
354
100
AcDbEntity
  8
0
100
AcDbLine
 62
7
  6
BYLAYER
 10
58.252588887
 20
62.3722574595
 11
58.252588887
 21
59.4816888452
  0
LINE
  5
355
100
AcDbEntity
  8
0
100
AcDbLine
 62
7
  6
BYLAYER
 10
58.5354592727
 20
66.9446598801
 11
58.5354592727
 21
69.8810933718
  0
LINE
  5
356
100
AcDbEntity
  8
0
100
AcDbLine
 62
7
  6
BYLAYER
 10
59.0304360803
 20
97.2747567844
 11
59.0304360803
 21
87.7216785039
  0
LINE
  5
357
100
AcDbEntity
  8
0
100
AcDbLine
 62
7
  6
BYLAYER
 10
59.0304360803
 20
52.3671238422
 11
59.0304360803
 21
61.9231773326
  0
LINE
  5
358
100
AcDbEntity
  8
0
100
AcDbLine
 62
7
  6
BYLAYER
 10
60.6921439344
 20
68.6359590705
 11
60.6921439344
 21
66.2681020609
  0
LINE
  5
359
100
AcDbEntity
  8
0
100
AcDbLine
 62
7
  6
BYLAYER
 10
61.187120742
 20
96.0296224831
 11
61.187120742
 21
86.4765442027
  0
LINE
  5
35A
100
AcDbEntity
  8
0
100
AcDbLine
 62
7
  6
BYLAYER
 10
61.187120742
 20
60.6780430313
 11
61.187120742
 21
51.1219895409
  0
LINE
  5
35B
100
AcDbEntity
  8
0
100
AcDbLine
 62
7
  6
BYLAYER
 10
61.6820975496
 20
81.4550616551
 11
61.6820975496
 21
77.8624510198
  0
LINE
  5
35C
100
AcDbEntity
  8
0
100
AcDbLine
 62
7
  6
BYLAYER
 10
62.7498772582
 20
89.4148555055
 11
62.7498989992
 21
92.925803347
  0
LINE
  5
35D
100
AcDbEntity
  8
0
100
AcDbLine
 62
7
  6
BYLAYER
 10
24.769480075
 20
74.1228548823
 11
23.1021909456
 21
73.1098365794
  0
LINE
  5
35E
100
AcDbEntity
  8
0
100
AcDbLine
 62
7
  6
BYLAYER
 10
48.954122497
 20
93.5391092559
 11
52.1360897644
 21
95.3762079483
  0
LINE
  5
35F
100
AcDbEntity
  8
0
100
AcDbLine
 62
7
  6
BYLAYER
 10
71.3985272307
 20
105.4879491381
 11
69.0501346782
 21
104.132112159
  0
LINE
  5
360
100
AcDbEntity
  8
0
100
AcDbLine
 62
7
  6
BYLAYER
 10
56.5909787288
 20
96.4815832375
 11
60.1972082986
 21
98.5636284223
  0
LINE
  5
361
100
AcDbEntity
  8
0
100
AcDbLine
 62
7
  6
BYLAYER
 10
57.1213110214
 20
96.1754010328
 11
60.7275405912
 21
98.2574462175
  0
LINE
  5
362
100
AcDbEntity
  8
0
100
AcDbLine
 62
7
  6
BYLAYER
 10
24.7639023357
 20
76.8891705389
 11
27.0620054064
 21
78.2159730455
  0
LINE
  5
363
100
AcDbEntity
  8
0
100
AcDbLine
 62
7
  6
BYLAYER
 10
71.0300076947
 20
102.9890577993
 11
75.2545800144
 21
105.4281012062
  0
LINE
  5
364
100
AcDbEntity
  8
0
100
AcDbLine
 62
7
  6
BYLAYER
 10
25.294234623
 20
76.5829820284
 11
27.0620054064
 21
77.6035988738
  0
LINE
  5
365
100
AcDbEntity
  8
0
100
AcDbLine
 62
7
  6
BYLAYER
 10
62.2124033478
 20
99.0156415696
 11
59.0304360803
 21
97.2747567844
  0
LINE
  5
366
100
AcDbEntity
  8
0
100
AcDbLine
 62
7
  6
BYLAYER
 10
61.187120742
 20
96.0296224831
 11
64.3690880095
 21
97.7705072683
  0
LINE
  5
367
100
AcDbEntity
  8
0
100
AcDbLine
 62
7
  6
BYLAYER
 10
46.0337593321
 20
96.2784316901
 11
48.3318659388
 21
94.9516492379
  0
LINE
  5
368
100
AcDbEntity
  8
0
100
AcDbLine
 62
7
  6
BYLAYER
 10
86.9187776953
 20
74.8894519262
 11
86.8480667228
 21
74.9302760017
  0
LINE
  5
369
100
AcDbEntity
  8
0
100
AcDbLine
 62
7
  6
BYLAYER
 10
20.1676590905
 20
113.8327724601
 11
20.9455062839
 21
113.3836923332
  0
LINE
  5
36A
100
AcDbEntity
  8
0
100
AcDbLine
 62
7
  6
BYLAYER
 10
26.2841582131
 20
110.3014899335
 11
27.0620054064
 21
109.8524098066
  0
LINE
  5
36B
100
AcDbEntity
  8
0
100
AcDbLine
 62
7
  6
BYLAYER
 10
32.4006573356
 20
106.7702074069
 11
33.1785045289
 21
106.32112728
  0
LINE
  5
36C
100
AcDbEntity
  8
0
100
AcDbLine
 62
7
  6
BYLAYER
 10
38.5171564581
 20
103.2389248803
 11
39.2950036515
 21
102.7898447534
  0
LINE
  5
36D
100
AcDbEntity
  8
0
100
AcDbLine
 62
7
  6
BYLAYER
 10
44.6336555806
 20
99.7076423537
 11
45.411502774
 21
99.2585622268
  0
LINE
  5
36E
100
AcDbEntity
  8
0
100
AcDbLine
 62
7
  6
BYLAYER
 10
52.1360897644
 20
95.3762079483
 11
52.9139369578
 21
94.9271278213
  0
LINE
  5
36F
100
AcDbEntity
  8
0
100
AcDbLine
 62
7
  6
BYLAYER
 10
58.252588887
 20
91.8449254217
 11
59.0304360803
 21
91.3958452947
  0
LINE
  5
370
100
AcDbEntity
  8
0
100
AcDbLine
 62
7
  6
BYLAYER
 10
64.3690880095
 20
88.3136428951
 11
65.1469352028
 21
87.8645627681
  0
LINE
  5
371
100
AcDbEntity
  8
0
100
AcDbLine
 62
7
  6
BYLAYER
 10
70.485587132
 20
84.7823603685
 11
71.2634343254
 21
84.3332802415
  0
LINE
  5
372
100
AcDbEntity
  8
0
100
AcDbLine
 62
7
  6
BYLAYER
 10
76.6020862545
 20
81.2510778419
 11
77.3799334479
 21
80.8019977149
  0
LINE
  5
373
100
AcDbEntity
  8
0
100
AcDbLine
 62
7
  6
BYLAYER
 10
57.1283657298
 20
92.6603771437
 11
56.5980334373
 21
92.9665590205
  0
LINE
  5
374
100
AcDbEntity
  8
0
100
AcDbLine
 62
7
  6
BYLAYER
 10
68.9017318672
 20
85.8631552778
 11
68.3713995734
 21
86.1693361386
  0
LINE
  5
375
100
AcDbEntity
  8
0
100
AcDbLine
 62
7
  6
BYLAYER
 10
63.280209552
 20
89.1086741012
 11
62.7498772582
 21
89.4148555055
  0
LINE
  5
376
100
AcDbEntity
  8
0
100
AcDbLine
 62
7
  6
BYLAYER
 10
50.5875845494
 20
96.4366377561
 11
50.0572522568
 21
96.7428196354
  0
LINE
  5
377
100
AcDbEntity
  8
0
100
AcDbLine
 62
7
  6
BYLAYER
 10
25.3013218817
 20
111.0352199985
 11
24.7709895828
 21
111.3413955613
  0
LINE
  5
378
100
AcDbEntity
  8
0
100
AcDbLine
 62
7
  6
BYLAYER
 10
31.4531603321
 20
107.4836218665
 11
30.9228280383
 21
107.7897974264
  0
LINE
  5
379
100
AcDbEntity
  8
0
100
AcDbLine
 62
7
  6
BYLAYER
 10
37.074682647
 20
104.238187463
 11
36.5443503532
 21
104.5443630229
  0
LINE
  5
37A
100
AcDbEntity
  8
0
100
AcDbLine
 62
7
  6
BYLAYER
 10
18.7605407658
 20
114.8113621231
 11
18.2302084721
 21
115.1175313914
  0
LINE
  5
37B
100
AcDbEntity
  8
0
100
AcDbLine
 62
7
  6
BYLAYER
 10
48.3318659388
 20
97.7440875045
 11
46.0337593321
 21
99.0708699567
  0
LINE
  5
37C
100
AcDbEntity
  8
0
100
AcDbLine
 62
7
  6
BYLAYER
 10
109.3762724364
 20
62.7069407176
 11
114.1847016582
 21
59.9308556154
  0
LINE
  5
37D
100
AcDbEntity
  8
0
100
AcDbLine
 62
7
  6
BYLAYER
 10
67.0120848979
 20
71.8896520427
 11
67.3672623894
 21
70.9742377586
  0
LINE
  5
37E
100
AcDbEntity
  8
0
100
AcDbLine
 62
7
  6
BYLAYER
 10
65.178266431
 20
111.2455319581
 11
65.2820281082
 21
109.0192316648
  0
LINE
  5
37F
100
AcDbEntity
  8
0
100
AcDbLine
 62
7
  6
BYLAYER
 10
63.2307681409
 20
54.6808098632
 11
63.2377746534
 21
51.1658136708
  0
LINE
  5
380
100
AcDbEntity
  8
0
100
AcDbLine
 62
7
  6
BYLAYER
 10
63.2802312931
 20
92.6196219428
 11
63.280209552
 21
89.1086741012
  0
LINE
  5
381
100
AcDbEntity
  8
0
100
AcDbLine
 62
7
  6
BYLAYER
 10
63.4498718625
 20
64.6759631182
 11
63.4498718625
 21
67.0438201279
  0
LINE
  5
382
100
AcDbEntity
  8
0
100
AcDbLine
 62
7
  6
BYLAYER
 10
64.3690880095
 20
97.7705072683
 11
64.3690880095
 21
93.8606371873
  0
LINE
  5
383
100
AcDbEntity
  8
0
100
AcDbLine
 62
7
  6
BYLAYER
 10
64.3690880095
 20
89.7373344095
 11
64.3690880095
 21
88.3136428951
  0
LINE
  5
384
100
AcDbEntity
  8
0
100
AcDbLine
 62
7
  6
BYLAYER
 10
64.3690880095
 20
58.8409749329
 11
64.3690880095
 21
55.9503892129
  0
LINE
  5
385
100
AcDbEntity
  8
0
100
AcDbLine
 62
7
  6
BYLAYER
 10
64.6519583952
 20
76.1478398508
 11
64.6519583952
 21
79.7404504862
  0
LINE
  5
386
100
AcDbEntity
  8
0
100
AcDbLine
 62
7
  6
BYLAYER
 10
64.6802427842
 20
68.2144119844
 11
64.6802427842
 21
69.0687643124
  0
LINE
  5
387
100
AcDbEntity
  8
0
100
AcDbLine
 62
7
  6
BYLAYER
 10
64.6802427842
 20
74.0494290569
 11
64.6802427842
 21
74.9097318048
  0
LINE
  5
388
100
AcDbEntity
  8
0
100
AcDbLine
 62
7
  6
BYLAYER
 10
65.0373302515
 20
73.8432691755
 11
65.0373302515
 21
69.2708451856
  0
LINE
  5
389
100
AcDbEntity
  8
0
100
AcDbLine
 62
7
  6
BYLAYER
 10
65.1469352028
 20
93.7434742578
 11
65.1469352028
 21
84.1903959773
  0
LINE
  5
38A
100
AcDbEntity
  8
0
100
AcDbLine
 62
7
  6
BYLAYER
 10
65.1469352028
 20
48.8358413156
 11
65.1469352028
 21
58.391894806
  0
LINE
  5
38B
100
AcDbEntity
  8
0
100
AcDbLine
 62
7
  6
BYLAYER
 10
65.9530429391
 20
71.7873702889
 11
65.9530429391
 21
69.1255724091
  0
LINE
  5
38C
100
AcDbEntity
  8
0
100
AcDbLine
 62
7
  6
BYLAYER
 10
67.3036198645
 20
92.4983399565
 11
67.3036198645
 21
82.9452616761
  0
LINE
  5
38D
100
AcDbEntity
  8
0
100
AcDbLine
 62
7
  6
BYLAYER
 10
67.3036198645
 20
57.1467605047
 11
67.3036198645
 21
47.5907070143
  0
LINE
  5
38E
100
AcDbEntity
  8
0
100
AcDbLine
 62
7
  6
BYLAYER
 10
67.3672623894
 20
68.3124398787
 11
67.3672623894
 21
70.9742377586
  0
LINE
  5
38F
100
AcDbEntity
  8
0
100
AcDbLine
 62
7
  6
BYLAYER
 10
67.7985966721
 20
64.5331394876
 11
67.7985966721
 21
61.5967059959
  0
LINE
  5
390
100
AcDbEntity
  8
0
100
AcDbLine
 62
7
  6
BYLAYER
 10
57.1283657298
 20
92.6603768158
 11
59.0304360803
 21
93.7585310896
  0
LINE
  5
391
100
AcDbEntity
  8
0
100
AcDbLine
 62
7
  6
BYLAYER
 10
73.1866923564
 20
101.743923498
 11
77.4112646761
 21
104.1829669049
  0
LINE
  5
392
100
AcDbEntity
  8
0
100
AcDbLine
 62
7
  6
BYLAYER
 10
35.8301659982
 20
80.0532705077
 11
38.3732283538
 21
81.5214994791
  0
LINE
  5
393
100
AcDbEntity
  8
0
100
AcDbLine
 62
7
  6
BYLAYER
 10
25.3013220293
 20
73.0679377598
 11
27.0620054064
 21
74.0844627137
  0
LINE
  5
394
100
AcDbEntity
  8
0
100
AcDbLine
 62
7
  6
BYLAYER
 10
55.0706216195
 20
90.0078267293
 11
58.252588887
 21
91.8449254217
  0
LINE
  5
395
100
AcDbEntity
  8
0
100
AcDbLine
 62
7
  6
BYLAYER
 10
77.5150263532
 20
101.9566666115
 11
75.1666338007
 21
100.6008296324
  0
LINE
  5
396
100
AcDbEntity
  8
0
100
AcDbLine
 62
7
  6
BYLAYER
 10
62.7498989992
 20
92.9258035566
 11
66.356128569
 21
95.0078487413
  0
LINE
  5
397
100
AcDbEntity
  8
0
100
AcDbLine
 62
7
  6
BYLAYER
 10
49.6965877084
 20
85.0434125824
 11
52.1785642269
 21
86.4763738399
  0
LINE
  5
398
100
AcDbEntity
  8
0
100
AcDbLine
 62
7
  6
BYLAYER
 10
63.2802367284
 20
92.6196188047
 11
65.1469352028
 21
93.6973512383
  0
LINE
  5
399
100
AcDbEntity
  8
0
100
AcDbLine
 62
7
  6
BYLAYER
 10
30.8804166209
 20
73.3578792583
 11
33.1785045289
 21
74.6846730107
  0
LINE
  5
39A
100
AcDbEntity
  8
0
100
AcDbLine
 62
7
  6
BYLAYER
 10
77.1465068172
 20
99.4577752727
 11
81.3710791369
 21
101.8968186796
  0
LINE
  5
39B
100
AcDbEntity
  8
0
100
AcDbLine
 62
7
  6
BYLAYER
 10
31.4107489083
 20
73.0516907445
 11
33.1785045289
 21
74.0722988358
  0
LINE
  5
39C
100
AcDbEntity
  8
0
100
AcDbLine
 62
7
  6
BYLAYER
 10
68.3289024703
 20
95.484359043
 11
65.1469352028
 21
93.7434742578
  0
LINE
  5
39D
100
AcDbEntity
  8
0
100
AcDbLine
 62
7
  6
BYLAYER
 10
56.5909787288
 20
96.4815829096
 11
57.1213110214
 21
96.1754010328
  0
LINE
  5
39E
100
AcDbEntity
  8
0
100
AcDbLine
 62
7
  6
BYLAYER
 10
50.050196137
 20
100.2578443356
 11
50.5805284296
 21
99.9516624562
  0
LINE
  5
39F
100
AcDbEntity
  8
0
100
AcDbLine
 62
7
  6
BYLAYER
 10
62.7498989992
 20
92.925803347
 11
63.2802312931
 21
92.6196219428
  0
LINE
  5
3A0
100
AcDbEntity
  8
0
100
AcDbLine
 62
7
  6
BYLAYER
 10
68.3714213144
 20
89.6802839801
 11
68.9017536083
 21
89.3741031193
  0
LINE
  5
3A1
100
AcDbEntity
  8
0
100
AcDbLine
 62
7
  6
BYLAYER
 10
24.7639023299
 20
114.8564381521
 11
25.2942346288
 21
114.5502625893
  0
LINE
  5
3A2
100
AcDbEntity
  8
0
100
AcDbLine
 62
7
  6
BYLAYER
 10
30.9228280384
 20
111.30075782
 11
31.4531603322
 21
110.9945822601
  0
LINE
  5
3A3
100
AcDbEntity
  8
0
100
AcDbLine
 62
7
  6
BYLAYER
 10
36.5443503533
 20
108.0553234165
 11
37.0746826471
 21
107.7491478566
  0
LINE
  5
3A4
100
AcDbEntity
  8
0
100
AcDbLine
 62
7
  6
BYLAYER
 10
18.2302084721
 20
118.628491785
 11
18.7605407657
 21
118.3223225168
  0
LINE
  5
3A5
100
AcDbEntity
  8
0
100
AcDbLine
 62
7
  6
BYLAYER
 10
15.3593394552
 20
122.4877057835
 11
16.9856918231
 21
121.5487520481
  0
LINE
  5
3A6
100
AcDbEntity
  8
0
100
AcDbLine
 62
7
  6
BYLAYER
 10
20.9455062839
 20
119.2626038228
 11
23.1021909456
 21
118.0174695215
  0
LINE
  5
3A7
100
AcDbEntity
  8
0
100
AcDbLine
 62
7
  6
BYLAYER
 10
27.0620054064
 20
115.7313212962
 11
29.2186900681
 21
114.4861869949
  0
LINE
  5
3A8
100
AcDbEntity
  8
0
100
AcDbLine
 62
7
  6
BYLAYER
 10
33.1785045289
 20
112.2000387696
 11
35.3351891906
 21
110.9549044683
  0
LINE
  5
3A9
100
AcDbEntity
  8
0
100
AcDbLine
 62
7
  6
BYLAYER
 10
39.2950036515
 20
108.668756243
 11
41.4516883132
 21
107.4236219417
  0
LINE
  5
3AA
100
AcDbEntity
  8
0
100
AcDbLine
 62
7
  6
BYLAYER
 10
45.411502774
 20
105.1374737164
 11
48.954122497
 21
103.0921875363
  0
LINE
  5
3AB
100
AcDbEntity
  8
0
100
AcDbLine
 62
7
  6
BYLAYER
 10
52.9139369578
 20
100.806039311
 11
55.0706216195
 21
99.5609050097
  0
LINE
  5
3AC
100
AcDbEntity
  8
0
100
AcDbLine
 62
7
  6
BYLAYER
 10
59.0304360803
 20
97.2747567844
 11
61.187120742
 21
96.0296224831
  0
LINE
  5
3AD
100
AcDbEntity
  8
0
100
AcDbLine
 62
7
  6
BYLAYER
 10
65.1469352028
 20
93.7434742578
 11
67.3036198645
 21
92.4983399565
  0
LINE
  5
3AE
100
AcDbEntity
  8
0
100
AcDbLine
 62
7
  6
BYLAYER
 10
71.2634343254
 20
90.2121917312
 11
73.4201189871
 21
88.9670574299
  0
LINE
  5
3AF
100
AcDbEntity
  8
0
100
AcDbLine
 62
7
  6
BYLAYER
 10
77.3799334479
 20
86.6809092046
 11
78.9992147185
 21
85.7460378767
  0
LINE
  5
3B0
100
AcDbEntity
  8
0
100
AcDbLine
 62
7
  6
BYLAYER
 10
60.7275405912
 20
98.2574462175
 11
60.1972082986
 21
98.5636280943
  0
LINE
  5
3B1
100
AcDbEntity
  8
0
100
AcDbLine
 62
7
  6
BYLAYER
 10
54.1867579993
 20
102.033707641
 11
53.6564257068
 21
102.3398895203
  0
LINE
  5
3B2
100
AcDbEntity
  8
0
100
AcDbLine
 62
7
  6
BYLAYER
 10
72.5079831781
 20
91.4561483041
 11
71.9776508842
 21
91.7623291649
  0
LINE
  5
3B3
100
AcDbEntity
  8
0
100
AcDbLine
 62
7
  6
BYLAYER
 10
66.8864608629
 20
94.7016671275
 11
66.356128569
 21
95.0078485317
  0
LINE
  5
3B4
100
AcDbEntity
  8
0
100
AcDbLine
 62
7
  6
BYLAYER
 10
28.8072158327
 20
116.686142645
 11
28.3701318997
 21
116.9384833368
  0
LINE
  5
3B5
100
AcDbEntity
  8
0
100
AcDbLine
 62
7
  6
BYLAYER
 10
34.9238005454
 20
113.1549069456
 11
34.5290576082
 21
113.3828030048
  0
LINE
  5
3B6
100
AcDbEntity
  8
0
100
AcDbLine
 62
7
  6
BYLAYER
 10
40.6809122169
 20
109.8311930413
 11
40.1505799231
 21
110.1373686012
  0
LINE
  5
3B7
100
AcDbEntity
  8
0
100
AcDbLine
 62
7
  6
BYLAYER
 10
22.3667703355
 20
120.4043677015
 11
21.8364380419
 21
120.7105369698
  0
LINE
  5
3B8
100
AcDbEntity
  8
0
100
AcDbLine
 62
7
  6
BYLAYER
 10
71.2947655536
 20
107.7142494315
 11
71.3985272307
 21
105.4879491381
  0
LINE
  5
3B9
100
AcDbEntity
  8
0
100
AcDbLine
 62
7
  6
BYLAYER
 10
68.0460850759
 20
77.3236535109
 11
68.0460850759
 21
74.4495650026
  0
LINE
  5
3BA
100
AcDbEntity
  8
0
100
AcDbLine
 62
7
  6
BYLAYER
 10
68.3713995734
 20
86.1693361386
 11
68.3714213144
 21
89.6802839801
  0
LINE
  5
3BB
100
AcDbEntity
  8
0
100
AcDbLine
 62
7
  6
BYLAYER
 10
68.3996596068
 20
48.18566387
 11
68.3997241115
 21
51.696587021
  0
LINE
  5
3BC
100
AcDbEntity
  8
0
100
AcDbLine
 62
7
  6
BYLAYER
 10
68.9017536083
 20
89.3741031193
 11
68.9017318672
 21
85.8631552778
  0
LINE
  5
3BD
100
AcDbEntity
  8
0
100
AcDbLine
 62
7
  6
BYLAYER
 10
68.9300564054
 20
51.3904064551
 11
68.9299919007
 21
47.8794833041
  0
LINE
  5
3BE
100
AcDbEntity
  8
0
100
AcDbLine
 62
7
  6
BYLAYER
 10
70.485587132
 20
94.2392247417
 11
70.485587132
 21
90.9008909717
  0
LINE
  5
3BF
100
AcDbEntity
  8
0
100
AcDbLine
 62
7
  6
BYLAYER
 10
70.485587132
 20
86.7775890091
 11
70.485587132
 21
84.7823603685
  0
LINE
  5
3C0
100
AcDbEntity
  8
0
100
AcDbLine
 62
7
  6
BYLAYER
 10
70.485587132
 20
55.3096924063
 11
70.485587132
 21
52.9008534089
  0
LINE
  5
3C1
100
AcDbEntity
  8
0
100
AcDbLine
 62
7
  6
BYLAYER
 10
70.520969114
 20
73.0207223617
 11
70.520969114
 21
75.89481087
  0
LINE
  5
3C2
100
AcDbEntity
  8
0
100
AcDbLine
 62
7
  6
BYLAYER
 10
70.7684575178
 20
59.8820948269
 11
70.7684575178
 21
62.8185283186
  0
LINE
  5
3C3
100
AcDbEntity
  8
0
100
AcDbLine
 62
7
  6
BYLAYER
 10
70.8674263836
 20
70.3332484404
 11
70.8674263836
 21
70.4773377518
  0
LINE
  5
3C4
100
AcDbEntity
  8
0
100
AcDbLine
 62
7
  6
BYLAYER
 10
71.2634343254
 20
90.2121917312
 11
71.2634343254
 21
80.6591134507
  0
LINE
  5
3C5
100
AcDbEntity
  8
0
100
AcDbLine
 62
7
  6
BYLAYER
 10
71.2634343254
 20
45.304558789
 11
71.2634343254
 21
54.8606122794
  0
LINE
  5
3C6
100
AcDbEntity
  8
0
100
AcDbLine
 62
7
  6
BYLAYER
 10
71.8291221055
 20
64.9414502842
 11
71.8291221055
 21
69.9221150287
  0
LINE
  5
3C7
100
AcDbEntity
  8
0
100
AcDbLine
 62
7
  6
BYLAYER
 10
72.5079796914
 20
90.8930944276
 11
72.5079831781
 21
91.4561483041
  0
LINE
  5
3C8
100
AcDbEntity
  8
0
100
AcDbLine
 62
7
  6
BYLAYER
 10
30.8859954761
 20
70.5915822463
 11
29.2186900681
 21
69.5785540528
  0
LINE
  5
3C9
100
AcDbEntity
  8
0
100
AcDbLine
 62
7
  6
BYLAYER
 10
63.280209552
 20
89.1086738916
 11
65.1469352028
 21
90.1864220153
  0
LINE
  5
3CA
100
AcDbEntity
  8
0
100
AcDbLine
 62
7
  6
BYLAYER
 10
79.3031914789
 20
98.2126409714
 11
83.5277637986
 21
100.6516843783
  0
LINE
  5
3CB
100
AcDbEntity
  8
0
100
AcDbLine
 62
7
  6
BYLAYER
 10
31.417837782
 20
69.536645632
 11
33.1785045289
 21
70.5531609845
  0
LINE
  5
3CC
100
AcDbEntity
  8
0
100
AcDbLine
 62
7
  6
BYLAYER
 10
61.187120742
 20
86.4765442027
 11
64.3690880095
 21
88.3136428951
  0
LINE
  5
3CD
100
AcDbEntity
  8
0
100
AcDbLine
 62
7
  6
BYLAYER
 10
68.3714213144
 20
89.6802840539
 11
71.9776508842
 21
91.7623292386
  0
LINE
  5
3CE
100
AcDbEntity
  8
0
100
AcDbLine
 62
7
  6
BYLAYER
 10
83.6315254757
 20
98.4253840849
 11
81.2831329232
 21
97.0695471058
  0
LINE
  5
3CF
100
AcDbEntity
  8
0
100
AcDbLine
 62
7
  6
BYLAYER
 10
68.9017590435
 20
89.3740999813
 11
72.5079886133
 21
91.456145166
  0
LINE
  5
3D0
100
AcDbEntity
  8
0
100
AcDbLine
 62
7
  6
BYLAYER
 10
36.5797184753
 20
70.0674602377
 11
39.2950036515
 21
71.6351215074
  0
LINE
  5
3D1
100
AcDbEntity
  8
0
100
AcDbLine
 62
7
  6
BYLAYER
 10
67.3036198645
 20
92.4983399565
 11
70.485587132
 21
94.2392247417
  0
LINE
  5
3D2
100
AcDbEntity
  8
0
100
AcDbLine
 62
7
  6
BYLAYER
 10
74.4454015928
 20
91.9530765164
 11
71.2634343254
 21
90.2121917312
  0
LINE
  5
3D3
100
AcDbEntity
  8
0
100
AcDbLine
 62
7
  6
BYLAYER
 10
20.1676590905
 20
123.2896368334
 11
24.1274735514
 21
121.0034886081
  0
LINE
  5
3D4
100
AcDbEntity
  8
0
100
AcDbLine
 62
7
  6
BYLAYER
 10
26.2841582131
 20
119.7583543068
 11
30.2439726739
 21
117.4722060815
  0
LINE
  5
3D5
100
AcDbEntity
  8
0
100
AcDbLine
 62
7
  6
BYLAYER
 10
32.4006573356
 20
116.2270717802
 11
36.3604717964
 21
113.9409235549
  0
LINE
  5
3D6
100
AcDbEntity
  8
0
100
AcDbLine
 62
7
  6
BYLAYER
 10
38.5171564581
 20
112.6957892536
 11
42.4769709189
 21
110.4096410283
  0
LINE
  5
3D7
100
AcDbEntity
  8
0
100
AcDbLine
 62
7
  6
BYLAYER
 10
44.6336555806
 20
109.164506727
 11
48.5934700415
 21
106.8783585017
  0
LINE
  5
3D8
100
AcDbEntity
  8
0
100
AcDbLine
 62
7
  6
BYLAYER
 10
52.1360897644
 20
104.8330723215
 11
56.0959042253
 21
102.5469240962
  0
LINE
  5
3D9
100
AcDbEntity
  8
0
100
AcDbLine
 62
7
  6
BYLAYER
 10
58.252588887
 20
101.3017897949
 11
62.2124033478
 21
99.0156415696
  0
LINE
  5
3DA
100
AcDbEntity
  8
0
100
AcDbLine
 62
7
  6
BYLAYER
 10
64.3690880095
 20
97.7705072683
 11
68.3289024703
 21
95.484359043
  0
LINE
  5
3DB
100
AcDbEntity
  8
0
100
AcDbLine
 62
7
  6
BYLAYER
 10
70.485587132
 20
94.2392247417
 11
74.4454015928
 21
91.9530765164
  0
LINE
  5
3DC
100
AcDbEntity
  8
0
100
AcDbLine
 62
7
  6
BYLAYER
 10
76.6020862545
 20
90.7079422151
 11
80.5619007153
 21
88.4217939898
  0
LINE
  5
3DD
100
AcDbEntity
  8
0
100
AcDbLine
 62
7
  6
BYLAYER
 10
73.4201189871
 20
88.9670574299
 11
73.4201189871
 21
79.4139791495
  0
LINE
  5
3DE
100
AcDbEntity
  8
0
100
AcDbLine
 62
7
  6
BYLAYER
 10
73.4201189871
 20
53.6154421769
 11
73.4201189871
 21
44.0594244877
  0
LINE
  5
3DF
100
AcDbEntity
  8
0
100
AcDbLine
 62
7
  6
BYLAYER
 10
75.75358108
 20
75.6172774081
 11
75.75358108
 21
73.1677701568
  0
LINE
  5
3E0
100
AcDbEntity
  8
0
100
AcDbLine
 62
7
  6
BYLAYER
 10
75.75358108
 20
57.1672621897
 11
75.75358108
 21
54.7177549383
  0
LINE
  5
3E1
100
AcDbEntity
  8
0
100
AcDbLine
 62
7
  6
BYLAYER
 10
76.6020862545
 20
90.7079422151
 11
76.6020862545
 21
81.2510778419
  0
LINE
  5
3E2
100
AcDbEntity
  8
0
100
AcDbLine
 62
7
  6
BYLAYER
 10
76.6020862545
 20
51.7783740785
 11
76.6020862545
 21
45.9927370873
  0
LINE
  5
3E3
100
AcDbEntity
  8
0
100
AcDbLine
 62
7
  6
BYLAYER
 10
77.3092224754
 20
53.8196252784
 11
77.3092224754
 21
56.2691325298
  0
LINE
  5
3E4
100
AcDbEntity
  8
0
100
AcDbLine
 62
7
  6
BYLAYER
 10
77.3092224754
 20
72.2696404968
 11
77.3092224754
 21
74.7191477482
  0
LINE
  5
3E5
100
AcDbEntity
  8
0
100
AcDbLine
 62
7
  6
BYLAYER
 10
77.3799334479
 20
86.6809092046
 11
77.3799334479
 21
77.1278309241
  0
LINE
  5
3E6
100
AcDbEntity
  8
0
100
AcDbLine
 62
7
  6
BYLAYER
 10
77.3799334479
 20
41.7732762624
 11
77.3799334479
 21
51.3292939515
  0
LINE
  5
3E7
100
AcDbEntity
  8
0
100
AcDbLine
 62
7
  6
BYLAYER
 10
77.2836321292
 20
124.7261303605
 11
77.3206406812
 21
125.5629157336
  0
LINE
  5
3E8
100
AcDbEntity
  8
0
100
AcDbLine
 62
7
  6
BYLAYER
 10
36.5797090779
 20
66.8034219753
 11
35.3351891906
 21
66.0472715262
  0
LINE
  5
3E9
100
AcDbEntity
  8
0
100
AcDbLine
 62
7
  6
BYLAYER
 10
109.1405783129
 20
107.1920817803
 11
110.6503797839
 21
108.0642009493
  0
LINE
  5
3EA
100
AcDbEntity
  8
0
100
AcDbLine
 62
7
  6
BYLAYER
 10
37.1100532963
 20
69.7612782128
 11
39.2950036515
 21
71.0227523586
  0
LINE
  5
3EB
100
AcDbEntity
  8
0
100
AcDbLine
 62
7
  6
BYLAYER
 10
43.7851504062
 20
73.1743552514
 11
45.3407918015
 21
74.0724998686
  0
LINE
  5
3EC
100
AcDbEntity
  8
0
100
AcDbLine
 62
7
  6
BYLAYER
 10
83.2630059397
 20
95.9264927461
 11
87.4875782594
 21
98.365536153
  0
LINE
  5
3ED
100
AcDbEntity
  8
0
100
AcDbLine
 62
7
  6
BYLAYER
 10
68.9017318672
 20
85.8631552041
 11
71.2634343254
 21
87.2266766149
  0
LINE
  5
3EE
100
AcDbEntity
  8
0
100
AcDbLine
 62
7
  6
BYLAYER
 10
85.4196906014
 20
94.6813584448
 11
89.6442629211
 21
97.1204018517
  0
LINE
  5
3EF
100
AcDbEntity
  8
0
100
AcDbLine
 62
7
  6
BYLAYER
 10
52.5179555117
 20
75.2361529621
 11
52.8715074303
 21
75.4402750391
  0
LINE
  5
3F0
100
AcDbEntity
  8
0
100
AcDbLine
 62
7
  6
BYLAYER
 10
37.1100406608
 20
66.2503251141
 11
39.2950036515
 21
67.5118065549
  0
LINE
  5
3F1
100
AcDbEntity
  8
0
100
AcDbLine
 62
7
  6
BYLAYER
 10
67.3036198645
 20
82.9452616761
 11
70.485587132
 21
84.7823603685
  0
LINE
  5
3F2
100
AcDbEntity
  8
0
100
AcDbLine
 62
7
  6
BYLAYER
 10
89.7480245983
 20
94.8941015583
 11
87.3996320457
 21
93.5382645792
  0
LINE
  5
3F3
100
AcDbEntity
  8
0
100
AcDbLine
 62
7
  6
BYLAYER
 10
110.9956224313
 20
107.4471239112
 11
109.1035697608
 21
106.3552964072
  0
LINE
  5
3F4
100
AcDbEntity
  8
0
100
AcDbLine
 62
7
  6
BYLAYER
 10
73.4201189871
 20
88.9670574299
 11
76.6020862545
 21
90.7079422151
  0
LINE
  5
3F5
100
AcDbEntity
  8
0
100
AcDbLine
 62
7
  6
BYLAYER
 10
116.6171388582
 20
73.5826785835
 11
119.0920022885
 21
72.1538478403
  0
LINE
  5
3F6
100
AcDbEntity
  8
0
100
AcDbLine
 62
7
  6
BYLAYER
 10
26.6022904669
 20
128.6388320248
 11
90.2421657302
 21
91.897164118
  0
LINE
  5
3F7
100
AcDbEntity
  8
0
100
AcDbLine
 62
7
  6
BYLAYER
 10
77.4112646761
 20
104.1829669049
 11
77.5150263532
 21
101.9566666115
  0
LINE
  5
3F8
100
AcDbEntity
  8
0
100
AcDbLine
 62
7
  6
BYLAYER
 10
78.928503746
 20
44.0665636468
 11
78.928503746
 21
42.0824627731
  0
LINE
  5
3F9
100
AcDbEntity
  8
0
100
AcDbLine
 62
7
  6
BYLAYER
 10
78.9992147185
 20
40.8384049346
 11
78.9992147185
 21
42.0416386977
  0
LINE
  5
3FA
100
AcDbEntity
  8
0
100
AcDbLine
 62
7
  6
BYLAYER
 10
78.9992147185
 20
44.0257395713
 11
78.9992147185
 21
85.7460378767
  0
LINE
  5
3FB
100
AcDbEntity
  8
0
100
AcDbLine
 62
7
  6
BYLAYER
 10
79.1756847996
 20
125.8179578647
 11
79.1756847996
 21
126.1653403181
  0
LINE
  5
3FC
100
AcDbEntity
  8
0
100
AcDbLine
 62
7
  6
BYLAYER
 10
79.7063185557
 20
84.9325036148
 11
79.7063185557
 21
70.7253615567
  0
LINE
  5
3FD
100
AcDbEntity
  8
0
100
AcDbLine
 62
7
  6
BYLAYER
 10
79.7063185557
 20
56.6815199821
 11
79.7063185557
 21
44.4339837252
  0
LINE
  5
3FE
100
AcDbEntity
  8
0
100
AcDbLine
 62
7
  6
BYLAYER
 10
80.2197904466
 20
123.889126204
 11
80.1827818946
 21
123.052340831
  0
LINE
  5
3FF
100
AcDbEntity
  8
0
100
AcDbLine
 62
7
  6
BYLAYER
 10
65.9530429391
 20
71.7873702889
 11
66.3098949149
 21
72.2950524471
  0
LINE
  5
400
100
AcDbEntity
  8
0
100
AcDbLine
 62
7
  6
BYLAYER
 10
67.3672623894
 20
68.3124398787
 11
67.0120848979
 21
67.8071399571
  0
LINE
  5
401
100
AcDbEntity
  8
0
100
AcDbLine
 62
7
  6
BYLAYER
 10
44.6336555806
 20
64.4493015992
 11
41.4516883132
 21
62.5159889996
  0
LINE
  5
402
100
AcDbEntity
  8
0
100
AcDbLine
 62
7
  6
BYLAYER
 10
111.6229470154
 20
107.0417823209
 11
111.1362262926
 21
106.7607756376
  0
LINE
  5
403
100
AcDbEntity
  8
0
100
AcDbLine
 62
7
  6
BYLAYER
 10
61.6820975496
 20
77.8624510198
 11
64.6519583952
 21
79.5770907434
  0
LINE
  5
404
100
AcDbEntity
  8
0
100
AcDbLine
 62
7
  6
BYLAYER
 10
114.1847175401
 20
107.2880049783
 11
119.0920022885
 21
110.1212102368
  0
LINE
  5
405
100
AcDbEntity
  8
0
100
AcDbLine
 62
7
  6
BYLAYER
 10
89.3795050623
 20
92.3952102195
 11
93.604077382
 21
94.8342536264
  0
LINE
  5
406
100
AcDbEntity
  8
0
100
AcDbLine
 62
7
  6
BYLAYER
 10
46.0337593321
 20
65.580916016
 11
48.3318659388
 21
66.907720564
  0
LINE
  5
407
100
AcDbEntity
  8
0
100
AcDbLine
 62
7
  6
BYLAYER
 10
90.2421657302
 20
91.0969903383
 11
95.1597187773
 21
93.9361239664
  0
LINE
  5
408
100
AcDbEntity
  8
0
100
AcDbLine
 62
7
  6
BYLAYER
 10
90.2421657302
 20
91.0153415075
 11
79.7063185557
 21
84.9325036148
  0
LINE
  5
409
100
AcDbEntity
  8
0
100
AcDbLine
 62
7
  6
BYLAYER
 10
80.5619007153
 20
88.4217939898
 11
77.3799334479
 21
86.6809092046
  0
LINE
  5
40A
100
AcDbEntity
  8
0
100
AcDbLine
 62
7
  6
BYLAYER
 10
78.9992147185
 20
85.7460378767
 11
90.2421657302
 21
91.897164118
  0
LINE
  5
40B
100
AcDbEntity
  8
0
100
AcDbLine
 62
7
  6
BYLAYER
 10
59.7665380382
 20
112.2035293029
 11
57.7866650216
 21
113.3465836627
  0
LINE
  5
40C
100
AcDbEntity
  8
0
100
AcDbLine
 62
7
  6
BYLAYER
 10
53.6500389156
 20
115.7348118295
 11
51.6701658991
 21
116.8778661893
  0
LINE
  5
40D
100
AcDbEntity
  8
0
100
AcDbLine
 62
7
  6
BYLAYER
 10
47.5335397931
 20
119.2660943561
 11
45.5536667766
 21
120.4091487159
  0
LINE
  5
40E
100
AcDbEntity
  8
0
100
AcDbLine
 62
7
  6
BYLAYER
 10
41.4170406706
 20
122.7973768827
 11
39.4371676541
 21
123.9404312425
  0
LINE
  5
40F
100
AcDbEntity
  8
0
100
AcDbLine
 62
7
  6
BYLAYER
 10
35.3005415481
 20
126.3286594093
 11
33.3206685315
 21
127.4717137691
  0
LINE
  5
410
100
AcDbEntity
  8
0
100
AcDbLine
 62
7
  6
BYLAYER
 10
65.2820281082
 20
109.0192316647
 11
67.2619011247
 21
107.876177305
  0
LINE
  5
411
100
AcDbEntity
  8
0
100
AcDbLine
 62
7
  6
BYLAYER
 10
71.3985272307
 20
105.4879491381
 11
73.3784002472
 21
104.3448947784
  0
LINE
  5
412
100
AcDbEntity
  8
0
100
AcDbLine
 62
7
  6
BYLAYER
 10
77.5150263532
 20
101.9566666115
 11
79.4948993698
 21
100.8136122518
  0
LINE
  5
413
100
AcDbEntity
  8
0
100
AcDbLine
 62
7
  6
BYLAYER
 10
83.6315254757
 20
98.4253840849
 11
85.6113984923
 21
97.2823297252
  0
LINE
  5
414
100
AcDbEntity
  8
0
100
AcDbLine
 62
7
  6
BYLAYER
 10
89.7480245983
 20
94.8941015583
 11
91.7278976148
 21
93.7510471986
  0
LINE
  5
415
100
AcDbEntity
  8
0
100
AcDbLine
 62
7
  6
BYLAYER
 10
31.6612654591
 20
130.5961437223
 11
33.2169068544
 21
129.6980140624
  0
LINE
  5
416
100
AcDbEntity
  8
0
100
AcDbLine
 62
7
  6
BYLAYER
 10
37.1767213152
 20
127.4118658371
 11
39.3334059769
 21
126.1667315358
  0
LINE
  5
417
100
AcDbEntity
  8
0
100
AcDbLine
 62
7
  6
BYLAYER
 10
43.2932204377
 20
123.8805833105
 11
45.4499050994
 21
122.6354490092
  0
LINE
  5
418
100
AcDbEntity
  8
0
100
AcDbLine
 62
7
  6
BYLAYER
 10
49.4097195603
 20
120.3493007839
 11
51.566404222
 21
119.1041664826
  0
LINE
  5
419
100
AcDbEntity
  8
0
100
AcDbLine
 62
7
  6
BYLAYER
 10
55.5262186828
 20
116.8180182573
 11
57.6829033445
 21
115.572883956
  0
LINE
  5
41A
100
AcDbEntity
  8
0
100
AcDbLine
 62
7
  6
BYLAYER
 10
61.6427178053
 20
113.2867357307
 11
65.178266431
 21
111.2455319581
  0
LINE
  5
41B
100
AcDbEntity
  8
0
100
AcDbLine
 62
7
  6
BYLAYER
 10
69.1380808919
 20
108.9593837328
 11
71.2947655536
 21
107.7142494315
  0
LINE
  5
41C
100
AcDbEntity
  8
0
100
AcDbLine
 62
7
  6
BYLAYER
 10
75.2545800144
 20
105.4281012062
 11
77.4112646761
 21
104.1829669049
  0
LINE
  5
41D
100
AcDbEntity
  8
0
100
AcDbLine
 62
7
  6
BYLAYER
 10
81.3710791369
 20
101.8968186796
 11
83.5277637986
 21
100.6516843783
  0
LINE
  5
41E
100
AcDbEntity
  8
0
100
AcDbLine
 62
7
  6
BYLAYER
 10
87.4875782594
 20
98.365536153
 11
89.6442629211
 21
97.1204018517
  0
LINE
  5
41F
100
AcDbEntity
  8
0
100
AcDbLine
 62
7
  6
BYLAYER
 10
93.604077382
 20
94.8342536264
 11
95.1597187773
 21
93.9361239664
  0
LINE
  5
420
100
AcDbEntity
  8
0
100
AcDbLine
 62
7
  6
BYLAYER
 10
83.5277637986
 20
100.6516843783
 11
83.6315254757
 21
98.4253840849
  0
LINE
  5
421
100
AcDbEntity
  8
0
100
AcDbLine
 62
7
  6
BYLAYER
 10
85.0803077185
 20
69.3892975114
 11
85.0803077185
 21
64.220837211
  0
LINE
  5
422
100
AcDbEntity
  8
0
100
AcDbLine
 62
7
  6
BYLAYER
 10
86.9187776953
 20
74.8894519262
 11
86.9187776953
 21
70.5619891154
  0
LINE
  5
423
100
AcDbEntity
  8
0
100
AcDbLine
 62
7
  6
BYLAYER
 10
86.9187776953
 20
65.1730731624
 11
86.9187776953
 21
60.8456103516
  0
LINE
  5
424
100
AcDbEntity
  8
0
100
AcDbLine
 62
7
  6
BYLAYER
 10
70.5122488921
 20
69.8279485188
 11
70.8674263836
 21
70.3332484404
  0
LINE
  5
425
100
AcDbEntity
  8
0
100
AcDbLine
 62
7
  6
BYLAYER
 10
117.3920445415
 20
101.3823561312
 11
115.977631799
 21
100.5632861686
  0
LINE
  5
426
100
AcDbEntity
  8
0
100
AcDbLine
 62
7
  6
BYLAYER
 10
73.4201189871
 20
79.4139791495
 11
76.6020862545
 21
81.2510778419
  0
LINE
  5
427
100
AcDbEntity
  8
0
100
AcDbLine
 62
7
  6
BYLAYER
 10
55.5655984271
 20
68.6592710491
 11
58.1086607827
 21
70.1275000205
  0
LINE
  5
428
100
AcDbEntity
  8
0
100
AcDbLine
 62
7
  6
BYLAYER
 10
95.3005381962
 20
90.9147164255
 11
100.7780123159
 21
94.0771187059
  0
LINE
  5
429
100
AcDbEntity
  8
0
100
AcDbLine
 62
7
  6
BYLAYER
 10
100.8487232884
 20
94.0362946305
 11
113.9327248956
 21
101.5903013891
  0
LINE
  5
42A
100
AcDbEntity
  8
0
100
AcDbLine
 62
7
  6
BYLAYER
 10
68.0460850759
 20
74.4495650026
 11
70.5280615945
 21
75.8825262601
  0
LINE
  5
42B
100
AcDbEntity
  8
0
100
AcDbLine
 62
7
  6
BYLAYER
 10
67.0144320668
 20
72.7018147334
 11
66.3098949149
 21
72.2950524471
  0
LINE
  5
42C
100
AcDbEntity
  8
0
100
AcDbLine
 62
7
  6
BYLAYER
 10
50.0501587395
 20
62.290473864
 11
52.9139369578
 21
63.9438671198
  0
LINE
  5
42D
100
AcDbEntity
  8
0
100
AcDbLine
 62
7
  6
BYLAYER
 10
67.7166220499
 20
72.296414329
 11
67.0120848979
 21
71.8896520427
  0
LINE
  5
42E
100
AcDbEntity
  8
0
100
AcDbLine
 62
7
  6
BYLAYER
 10
50.5804935605
 20
61.9842918391
 11
52.9139369578
 21
63.3314979709
  0
LINE
  5
42F
100
AcDbEntity
  8
0
100
AcDbLine
 62
7
  6
BYLAYER
 10
68.6869956329
 20
71.7361815538
 11
67.3672623894
 21
70.9742377586
  0
LINE
  5
430
100
AcDbEntity
  8
0
100
AcDbLine
 62
7
  6
BYLAYER
 10
65.0373302515
 20
69.2708451856
 11
65.9530429391
 21
69.798208937
  0
LINE
  5
431
100
AcDbEntity
  8
0
100
AcDbLine
 62
7
  6
BYLAYER
 10
64.6802427842
 20
69.0687643124
 11
65.0373302515
 21
69.2708451856
  0
LINE
  5
432
100
AcDbEntity
  8
0
100
AcDbLine
 62
7
  6
BYLAYER
 10
100.8487232884
 20
94.0362946305
 11
100.7780123159
 21
94.0771187059
  0
LINE
  5
433
100
AcDbEntity
  8
0
100
AcDbLine
 62
7
  6
BYLAYER
 10
37.2088480251
 20
130.7779625373
 11
37.2795589977
 21
130.7371384618
  0
LINE
  5
434
100
AcDbEntity
  8
0
100
AcDbLine
 62
7
  6
BYLAYER
 10
89.6442629211
 20
97.1204018517
 11
89.7480245983
 21
94.8941015583
  0
LINE
  5
435
100
AcDbEntity
  8
0
100
AcDbLine
 62
7
  6
BYLAYER
 10
90.2411769166
 20
48.5523868534
 11
90.2419679266
 21
47.6693226041
  0
LINE
  5
436
100
AcDbEntity
  8
0
100
AcDbLine
 62
7
  6
BYLAYER
 10
90.2421657302
 20
91.897164118
 11
90.2421657302
 21
91.0153415075
  0
LINE
  5
437
100
AcDbEntity
  8
0
100
AcDbLine
 62
7
  6
BYLAYER
 10
50.0501488355
 20
58.8504827297
 11
48.954122497
 21
58.1845545941
  0
LINE
  5
438
100
AcDbEntity
  8
0
100
AcDbLine
 62
7
  6
BYLAYER
 10
60.6921439344
 20
66.2681020609
 11
62.7427975731
 21
67.452040424
  0
LINE
  5
439
100
AcDbEntity
  8
0
100
AcDbLine
 62
7
  6
BYLAYER
 10
119.0920022885
 20
99.7516295393
 11
117.790931228
 21
99.0004602962
  0
LINE
  5
43A
100
AcDbEntity
  8
0
100
AcDbLine
 62
7
  6
BYLAYER
 10
116.5393574362
 20
97.8696169352
 11
116.6171388582
 21
97.9145237922
  0
LINE
  5
43B
100
AcDbEntity
  8
0
100
AcDbLine
 62
7
  6
BYLAYER
 10
75.75358108
 20
73.1677701568
 11
77.3092224754
 21
74.0659147739
  0
LINE
  5
43C
100
AcDbEntity
  8
0
100
AcDbLine
 62
7
  6
BYLAYER
 10
70.8674263836
 20
70.3332484404
 11
67.3672623894
 21
68.3124398787
  0
LINE
  5
43D
100
AcDbEntity
  8
0
100
AcDbLine
 62
7
  6
BYLAYER
 10
50.580480925
 20
58.4733387404
 11
52.9139369578
 21
59.8205521673
  0
LINE
  5
43E
100
AcDbEntity
  8
0
100
AcDbLine
 62
7
  6
BYLAYER
 10
70.5122488921
 20
69.8279485188
 11
67.0120848979
 21
67.8071399571
  0
LINE
  5
43F
100
AcDbEntity
  8
0
100
AcDbLine
 62
7
  6
BYLAYER
 10
56.5839219181
 20
58.5182892723
 11
59.0304360803
 21
59.930776451
  0
LINE
  5
440
100
AcDbEntity
  8
0
100
AcDbLine
 62
7
  6
BYLAYER
 10
95.1597187773
 20
93.9361239664
 11
95.3005381962
 21
90.9147164255
  0
LINE
  5
441
100
AcDbEntity
  8
0
100
AcDbLine
 62
7
  6
BYLAYER
 10
95.3005223144
 20
54.6619999356
 11
95.211878684
 21
52.6577147214
  0
LINE
  5
442
100
AcDbEntity
  8
0
100
AcDbLine
 62
7
  6
BYLAYER
 10
86.9187776953
 20
70.5619891154
 11
85.0803077185
 21
69.3892975114
  0
LINE
  5
443
100
AcDbEntity
  8
0
100
AcDbLine
 62
7
  6
BYLAYER
 10
56.5897850599
 20
55.5762915625
 11
55.0706216195
 21
54.6532720675
  0
LINE
  5
444
100
AcDbEntity
  8
0
100
AcDbLine
 62
7
  6
BYLAYER
 10
57.1142542057
 20
58.2121009452
 11
59.0304360803
 21
59.3184024626
  0
LINE
  5
445
100
AcDbEntity
  8
0
100
AcDbLine
 62
7
  6
BYLAYER
 10
79.7063185557
 20
70.8070103875
 11
86.8480667228
 21
74.9302760017
  0
LINE
  5
446
100
AcDbEntity
  8
0
100
AcDbLine
 62
7
  6
BYLAYER
 10
79.7063185557
 20
70.7253615567
 11
86.9187776953
 21
74.8894519262
  0
LINE
  5
447
100
AcDbEntity
  8
0
100
AcDbLine
 62
7
  6
BYLAYER
 10
67.7985966721
 20
61.5967059959
 11
70.3416590277
 21
63.0649349673
  0
LINE
  5
448
100
AcDbEntity
  8
0
100
AcDbLine
 62
7
  6
BYLAYER
 10
57.121259285
 20
54.6971040234
 11
59.0304360803
 21
55.7993611806
  0
LINE
  5
449
100
AcDbEntity
  8
0
100
AcDbLine
 62
7
  6
BYLAYER
 10
116.5180646998
 20
97.9717229902
 11
116.6171388582
 21
97.9145237922
  0
LINE
  5
44A
100
AcDbEntity
  8
0
100
AcDbLine
 62
7
  6
BYLAYER
 10
116.0999503078
 20
99.9767264996
 11
117.790931228
 21
99.0004602962
  0
LINE
  5
44B
100
AcDbEntity
  8
0
100
AcDbLine
 62
7
  6
BYLAYER
 10
50.2928496324
 20
138.331969296
 11
113.9327248956
 21
101.5903013891
  0
LINE
  5
44C
100
AcDbEntity
  8
0
100
AcDbLine
 62
7
  6
BYLAYER
 10
100.7780123159
 20
57.8244113854
 11
100.7780123159
 21
94.0771187059
  0
LINE
  5
44D
100
AcDbEntity
  8
0
100
AcDbLine
 62
7
  6
BYLAYER
 10
100.8487232884
 20
57.7835873099
 11
100.8487232884
 21
94.0362946305
  0
LINE
  5
44E
100
AcDbEntity
  8
0
100
AcDbLine
 62
7
  6
BYLAYER
 10
62.7063001569
 20
52.0450187417
 11
61.187120742
 21
51.1219895409
  0
LINE
  5
44F
100
AcDbEntity
  8
0
100
AcDbLine
 62
7
  6
BYLAYER
 10
62.7004358533
 20
54.986998192
 11
65.1469352028
 21
56.3994768187
  0
LINE
  5
450
100
AcDbEntity
  8
0
100
AcDbLine
 62
7
  6
BYLAYER
 10
63.2307681409
 20
54.6808098632
 11
65.1469352028
 21
55.7871028286
  0
LINE
  5
451
100
AcDbEntity
  8
0
100
AcDbLine
 62
7
  6
BYLAYER
 10
63.2377746533
 20
51.1658121175
 11
65.1469352028
 21
52.2680598951
  0
LINE
  5
452
100
AcDbEntity
  8
0
100
AcDbLine
 62
7
  6
BYLAYER
 10
86.8480667228
 20
65.2138972378
 11
85.0803077185
 21
64.298286051
  0
LINE
  5
453
100
AcDbEntity
  8
0
100
AcDbLine
 62
7
  6
BYLAYER
 10
85.0803077185
 20
64.220837211
 11
86.9187776953
 21
65.1730731624
  0
LINE
  5
454
100
AcDbEntity
  8
0
100
AcDbLine
 62
7
  6
BYLAYER
 10
50.5448422768
 20
144.0296728851
 11
114.1847175401
 21
107.2880049783
  0
LINE
  5
455
100
AcDbEntity
  8
0
100
AcDbLine
 62
7
  6
BYLAYER
 10
68.3996609109
 20
48.2566440861
 11
67.3036198645
 21
47.5907070143
  0
LINE
  5
456
100
AcDbEntity
  8
0
100
AcDbLine
 62
7
  6
BYLAYER
 10
68.3997241115
 20
51.696587021
 11
71.2634343254
 21
53.3499410146
  0
LINE
  5
457
100
AcDbEntity
  8
0
100
AcDbLine
 62
7
  6
BYLAYER
 10
68.9300725315
 20
51.3903971443
 11
71.2634343254
 21
52.7375561626
  0
LINE
  5
458
100
AcDbEntity
  8
0
100
AcDbLine
 62
7
  6
BYLAYER
 10
75.75358108
 20
54.7177549383
 11
77.3092224754
 21
55.6158995555
  0
LINE
  5
459
100
AcDbEntity
  8
0
100
AcDbLine
 62
7
  6
BYLAYER
 10
86.9187776953
 20
60.8456103516
 11
79.7063185557
 21
56.6815199821
  0
LINE
  5
45A
100
AcDbEntity
  8
0
100
AcDbLine
 62
7
  6
BYLAYER
 10
55.4521270253
 20
146.8628781437
 11
119.0920022885
 21
110.1212102368
  0
LINE
  5
45B
100
AcDbEntity
  8
0
100
AcDbLine
 62
7
  6
BYLAYER
 10
112.0230590363
 20
64.2350545519
 11
112.0397123041
 21
63.877743684
  0
LINE
  5
45C
100
AcDbEntity
  8
0
100
AcDbLine
 62
7
  6
BYLAYER
 10
110.9956224313
 20
107.4471239112
 11
110.9956224313
 21
107.7945063646
  0
LINE
  5
45D
100
AcDbEntity
  8
0
100
AcDbLine
 62
7
  6
BYLAYER
 10
109.1035697608
 20
106.3552964072
 11
109.1405783129
 21
107.1920817803
  0
LINE
  5
45E
100
AcDbEntity
  8
0
100
AcDbLine
 62
7
  6
BYLAYER
 10
112.0397280782
 20
105.5182922507
 11
112.0027195262
 21
104.6815068776
  0
LINE
  5
45F
100
AcDbEntity
  8
0
100
AcDbLine
 62
7
  6
BYLAYER
 10
68.9299919007
 20
47.8794833041
 11
71.2634343254
 21
49.2266888744
  0
LINE
  5
460
100
AcDbEntity
  8
0
100
AcDbLine
 62
7
  6
BYLAYER
 10
116.6171388582
 20
70.7249933018
 11
119.0920022885
 21
72.1538478403
  0
LINE
  5
461
100
AcDbEntity
  8
0
100
AcDbLine
 62
7
  6
BYLAYER
 10
114.1847016582
 20
59.9308556154
 11
113.9327090138
 21
65.3375848993
  0
LINE
  5
462
100
AcDbEntity
  8
0
100
AcDbLine
 62
7
  6
BYLAYER
 10
116.6171388582
 20
97.9145237922
 11
116.6171388582
 21
70.7249933018
  0
LINE
  5
463
100
AcDbEntity
  8
0
100
AcDbLine
 62
7
  6
BYLAYER
 10
113.9327248956
 20
101.5903013891
 11
114.1847175401
 21
107.2880049783
  0
LINE
  5
464
100
AcDbEntity
  8
0
100
AcDbLine
 62
7
  6
BYLAYER
 10
95.211878684
 20
52.6577147214
 11
93.4924019594
 21
50.5145402081
  0
LINE
  5
465
100
AcDbEntity
  8
0
100
AcDbLine
 62
7
  6
BYLAYER
 10
76.6020862545
 20
45.9927370873
 11
73.4201189871
 21
44.0594244877
  0
LINE
  5
466
100
AcDbEntity
  8
0
100
AcDbLine
 62
7
  6
BYLAYER
 10
95.3005223144
 20
54.6619999356
 11
100.7780123159
 21
57.8244113854
  0
LINE
  5
467
100
AcDbEntity
  8
0
100
AcDbLine
 62
7
  6
BYLAYER
 10
113.9327090138
 20
65.3375848993
 11
100.8487232884
 21
57.7835873099
  0
LINE
  5
468
100
AcDbEntity
  8
0
100
AcDbLine
 62
7
  6
BYLAYER
 10
78.9992147185
 20
44.0257395713
 11
79.7063185557
 21
44.4339837252
  0
LINE
  5
469
100
AcDbEntity
  8
0
100
AcDbLine
 62
7
  6
BYLAYER
 10
115.977631799
 20
100.5632861686
 11
116.5393574362
 21
97.8696169352
  0
LINE
  5
46A
100
AcDbEntity
  8
0
100
AcDbLine
 62
7
  6
BYLAYER
 10
119.0920022885
 20
110.1212102368
 11
119.0920022885
 21
99.7516295393
  0
LINE
  5
46B
100
AcDbEntity
  8
0
100
AcDbLine
 62
7
  6
BYLAYER
 10
119.0920022885
 20
72.1538478403
 11
119.0920022885
 21
62.7640700433
  0
LINE
  5
46C
100
AcDbEntity
  8
0
100
AcDbLine
 62
7
  6
BYLAYER
 10
90.2419679266
 20
47.6693226041
 11
78.9992147185
 21
40.8384049346
  0
LINE
  5
46D
100
AcDbEntity
  8
0
100
AcDbLine
 62
7
  6
BYLAYER
 10
78.9992147185
 20
42.0416386977
 11
90.2411769166
 21
48.5523868534
  0
LINE
  5
46E
100
AcDbEntity
  8
0
100
AcDbLine
 62
7
  6
BYLAYER
 10
93.4924019594
 20
50.5145402081
 11
78.928503746
 21
42.0824627731
  0
LINE
  5
46F
100
AcDbEntity
  8
0
100
AcDbLine
 62
7
  6
BYLAYER
 10
119.0920022885
 20
62.7640700433
 11
114.1847016582
 21
59.9308556154
  0
LINE
  5
470
100
AcDbEntity
  8
0
100
AcDbLine
 62
7
  6
BYLAYER
 10
117.790931228
 20
99.0004602962
 11
117.3920445415
 21
101.3823561312
  0
ARC
  5
471
100
AcDbEntity
  8
0
100
AcDbCircle
 62
7
  6
BYLAYER
 10
113.99253746
 20
107.371585111
 40
2.892861599
100
AcDbArc
 50
224.0851275712
 51
226.899884838
  0
ARC
  5
472
100
AcDbEntity
  8
0
100
AcDbCircle
 62
7
  6
BYLAYER
 10
82.1684127917
 20
125.7382654486
 40
2.8869762147
100
AcDbArc
 50
224.083838313
 51
226.9044590296
  0
SPLINE
  5
473
100
AcDbEntity
  8
0
100
AcDbSpline
 62
7
  6
BYLAYER
 70
0
 71
3
 72
17
 73
13
 74
0
 42
0.0000001
 43
0.0000001
 44
0.0000000001
 40
0.0
 40
0.0
 40
0.0
 40
0.0
 40
0.0445311507
 40
0.0903612976
 40
0.1905748627
 40
0.2468781999
 40
0.3074004688
 40
0.4395548195
 40
0.5823188525
 40
0.7284238253
 40
0.8699744638
 40
1.0
 40
1.0
 40
1.0
 40
1.0
 10
109.6189135482
 20
108.162088278
 30
0.0
 10
109.6718617844
 20
108.1926860871
 30
0.0
 10
109.7874727876
 20
108.2416694288
 30
0.0
 10
110.0478902155
 20
108.2839071335
 30
0.0
 10
110.3295301537
 20
108.2338794343
 30
0.0
 10
110.6030214329
 20
108.1144652488
 30
0.0
 10
110.8954116339
 20
107.9350887607
 30
0.0
 10
111.2395941194
 20
107.622874582
 30
0.0
 10
111.5866409295
 20
107.156685456
 30
0.0
 10
111.8522642076
 20
106.6250907078
 30
0.0
 10
112.0149343451
 20
106.0719918537
 30
0.0
 10
112.0476675748
 20
105.6966762115
 30
0.0
 10
112.0397280782
 20
105.5182922507
 30
0.0
  0
SPLINE
  5
474
100
AcDbEntity
  8
0
100
AcDbSpline
 62
7
  6
BYLAYER
 70
0
 71
3
 72
9
 73
5
 74
0
 42
0.0000001
 43
0.0000001
 44
0.0000000001
 40
0.0
 40
0.0
 40
0.0
 40
0.0
 40
0.5021075727
 40
1.0
 40
1.0
 40
1.0
 40
1.0
 10
87.1169318439
 20
120.1071523152
 30
0.0
 10
86.9319694281
 20
120.3070498458
 30
0.0
 10
86.6144028582
 20
120.7536396996
 30
0.0
 10
86.4038177316
 20
121.2598509437
 30
0.0
 10
86.3342158285
 20
121.5207831533
 30
0.0
  0
SPLINE
  5
475
100
AcDbEntity
  8
0
100
AcDbSpline
 62
7
  6
BYLAYER
 70
0
 71
3
 72
17
 73
13
 74
0
 42
0.0000001
 43
0.0000001
 44
0.0000000001
 40
0.0
 40
0.0
 40
0.0
 40
0.0
 40
0.0445291771
 40
0.0903578652
 40
0.1905696231
 40
0.2468672443
 40
0.3073807663
 40
0.4395201007
 40
0.5822705901
 40
0.7283762101
 40
0.8699539541
 40
1.0
 40
1.0
 40
1.0
 40
1.0
 10
84.851545338
 20
122.0315637362
 30
0.0
 10
84.9044824308
 20
122.0621567746
 30
0.0
 10
85.0200680793
 20
122.1111376415
 30
0.0
 10
85.2804362562
 20
122.1533833981
 30
0.0
 10
85.5620228119
 20
122.1033896849
 30
0.0
 10
85.8354685056
 20
121.9840409575
 30
0.0
 10
86.1278010019
 20
121.8047476208
 30
0.0
 10
86.4719340242
 20
121.4926640664
 30
0.0
 10
86.8189834393
 20
121.0266324452
 30
0.0
 10
87.0846476417
 20
120.4951475426
 30
0.0
 10
87.2474989698
 20
119.9421088871
 30
0.0
 10
87.2801561461
 20
119.5667819173
 30
0.0
 10
87.2722666097
 20
119.3883948066
 30
0.0
  0
SPLINE
  5
476
100
AcDbEntity
  8
0
100
AcDbSpline
 62
7
  6
BYLAYER
 70
0
 71
3
 72
17
 73
13
 74
0
 42
0.0000001
 43
0.0000001
 44
0.0000000001
 40
0.0
 40
0.0
 40
0.0
 40
0.0
 40
0.0445311507
 40
0.0903612976
 40
0.1905748627
 40
0.2468781999
 40
0.3074004688
 40
0.4395548195
 40
0.5823188525
 40
0.7284238253
 40
0.8699744638
 40
1.0
 40
1.0
 40
1.0
 40
1.0
 10
77.7989759165
 20
126.5329222314
 30
0.0
 10
77.8519241528
 20
126.5635200405
 30
0.0
 10
77.9675351559
 20
126.6125033822
 30
0.0
 10
78.2279525839
 20
126.6547410869
 30
0.0
 10
78.5095925221
 20
126.6047133877
 30
0.0
 10
78.7830838013
 20
126.4852992022
 30
0.0
 10
79.0754740023
 20
126.3059227141
 30
0.0
 10
79.4196564878
 20
125.9937085354
 30
0.0
 10
79.7667032979
 20
125.5275194094
 30
0.0
 10
80.032326576
 20
124.9959246611
 30
0.0
 10
80.1949967135
 20
124.4428258071
 30
0.0
 10
80.2277299432
 20
124.0675101648
 30
0.0
 10
80.2197904465
 20
123.889126204
 30
0.0
  0
SPLINE
  5
477
100
AcDbEntity
  8
0
100
AcDbSpline
 62
7
  6
BYLAYER
 70
0
 71
3
 72
9
 73
5
 74
0
 42
0.0000001
 43
0.0000001
 44
0.0000000001
 40
0.0
 40
0.0
 40
0.0
 40
0.0
 40
0.5021075727
 40
1.0
 40
1.0
 40
1.0
 40
1.0
 10
55.2969942123
 20
138.4779862686
 30
0.0
 10
55.1120317964
 20
138.6778837992
 30
0.0
 10
54.7944652266
 20
139.124473653
 30
0.0
 10
54.5838801
 20
139.6306848971
 30
0.0
 10
54.5142781968
 20
139.8916171067
 30
0.0
  0
SPLINE
  5
478
100
AcDbEntity
  8
0
100
AcDbSpline
 62
7
  6
BYLAYER
 70
0
 71
3
 72
17
 73
13
 74
0
 42
0.0000001
 43
0.0000001
 44
0.0000000001
 40
0.0
 40
0.0
 40
0.0
 40
0.0
 40
0.0445291771
 40
0.0903578652
 40
0.1905696231
 40
0.2468672443
 40
0.3073807663
 40
0.4395201007
 40
0.5822705901
 40
0.72837621
 40
0.8699539541
 40
1.0
 40
1.0
 40
1.0
 40
1.0
 10
53.0316077064
 20
140.4023976896
 30
0.0
 10
53.0845447992
 20
140.432990728
 30
0.0
 10
53.2001304477
 20
140.4819715949
 30
0.0
 10
53.4604986246
 20
140.5242173515
 30
0.0
 10
53.7420851803
 20
140.4742236383
 30
0.0
 10
54.015530874
 20
140.3548749109
 30
0.0
 10
54.3078633703
 20
140.1755815742
 30
0.0
 10
54.6519963926
 20
139.8634980198
 30
0.0
 10
54.9990458077
 20
139.3974663986
 30
0.0
 10
55.2647100101
 20
138.865981496
 30
0.0
 10
55.4275613381
 20
138.3129428405
 30
0.0
 10
55.4602185146
 20
137.9376158707
 30
0.0
 10
55.4523289782
 20
137.75922876
 30
0.0
  0
SPLINE
  5
479
100
AcDbEntity
  8
0
100
AcDbSpline
 62
7
  6
BYLAYER
 70
0
 71
3
 72
16
 73
12
 74
0
 42
0.0000001
 43
0.0000001
 44
0.0000000001
 40
0.0
 40
0.0
 40
0.0
 40
0.0
 40
0.0445420619
 40
0.090384011
 40
0.1906247658
 40
0.3071803517
 40
0.4393579217
 40
0.5821497169
 40
0.7282976137
 40
0.8699163243
 40
1.0
 40
1.0
 40
1.0
 40
1.0
 10
71.6409737509
 20
129.5066162273
 30
0.0
 10
71.6874551006
 20
129.5334784074
 30
0.0
 10
71.7889346937
 20
129.576484761
 30
0.0
 10
72.0176167346
 20
129.6135865743
 30
0.0
 10
72.3378703321
 20
129.556553583
 30
0.0
 10
72.7112451037
 20
129.3527478007
 30
0.0
 10
73.063718855
 20
129.0335808424
 30
0.0
 10
73.3684903861
 20
128.62419636
 30
0.0
 10
73.60174387
 20
128.1575787024
 30
0.0
 10
73.7447385935
 20
127.6719701554
 30
0.0
 10
73.7734125092
 20
127.3424175567
 30
0.0
 10
73.7664851114
 20
127.1857849716
 30
0.0
  0
SPLINE
  5
47A
100
AcDbEntity
  8
0
100
AcDbSpline
 62
7
  6
BYLAYER
 70
0
 71
3
 72
16
 73
12
 74
0
 42
0.0000001
 43
0.0000001
 44
0.0000000001
 40
0.0
 40
0.0
 40
0.0
 40
0.0
 40
0.0445424154
 40
0.090386212
 40
0.190625176
 40
0.307178619
 40
0.4393531706
 40
0.5821462465
 40
0.7282855877
 40
0.8699258109
 40
1.0
 40
1.0
 40
1.0
 40
1.0
 10
65.6666262321
 20
132.7735268789
 30
0.0
 10
65.7053685096
 20
132.7958983917
 30
0.0
 10
65.7898977669
 20
132.8318273522
 30
0.0
 10
65.9804963486
 20
132.8626307968
 30
0.0
 10
66.2473518258
 20
132.8151630617
 30
0.0
 10
66.5584950907
 20
132.6453092798
 30
0.0
 10
66.8522272121
 20
132.3793594136
 30
0.0
 10
67.1061761086
 20
132.0382034909
 30
0.0
 10
67.3006101319
 20
131.6493700619
 30
0.0
 10
67.4197137091
 20
131.2446791288
 30
0.0
 10
67.4436464964
 20
130.9700480279
 30
0.0
 10
67.4378741382
 20
130.8395315765
 30
0.0
  0
SPLINE
  5
47B
100
AcDbEntity
  8
0
100
AcDbSpline
 62
7
  6
BYLAYER
 70
0
 71
3
 72
16
 73
12
 74
0
 42
0.0000001
 43
0.0000001
 44
0.0000000001
 40
0.0
 40
0.0
 40
0.0
 40
0.0
 40
0.0445420619
 40
0.090384011
 40
0.1906247658
 40
0.3071803517
 40
0.4393579217
 40
0.5821497169
 40
0.7282976137
 40
0.8699163243
 40
1.0
 40
1.0
 40
1.0
 40
1.0
 10
103.4609113825
 20
111.1357822739
 30
0.0
 10
103.5073927323
 20
111.162644454
 30
0.0
 10
103.6088723253
 20
111.2056508075
 30
0.0
 10
103.8375543662
 20
111.2427526209
 30
0.0
 10
104.1578079637
 20
111.1857196296
 30
0.0
 10
104.5311827353
 20
110.9819138473
 30
0.0
 10
104.8836564866
 20
110.662746889
 30
0.0
 10
105.1884280176
 20
110.2533624066
 30
0.0
 10
105.4216815016
 20
109.786744749
 30
0.0
 10
105.5646762251
 20
109.3011362021
 30
0.0
 10
105.5933501409
 20
108.9715836033
 30
0.0
 10
105.586422743
 20
108.8149510183
 30
0.0
  0
SPLINE
  5
47C
100
AcDbEntity
  8
0
100
AcDbSpline
 62
7
  6
BYLAYER
 70
0
 71
3
 72
16
 73
12
 74
0
 42
0.0000001
 43
0.0000001
 44
0.0000000001
 40
0.0
 40
0.0
 40
0.0
 40
0.0
 40
0.0445424154
 40
0.090386212
 40
0.1906251761
 40
0.307178619
 40
0.4393531706
 40
0.5821462465
 40
0.7282855877
 40
0.8699258109
 40
1.0
 40
1.0
 40
1.0
 40
1.0
 10
97.4865638637
 20
114.4026929255
 30
0.0
 10
97.5253061412
 20
114.4250644383
 30
0.0
 10
97.6098353985
 20
114.4609933988
 30
0.0
 10
97.8004339802
 20
114.4917968434
 30
0.0
 10
98.0672894574
 20
114.4443291083
 30
0.0
 10
98.3784327223
 20
114.2744753264
 30
0.0
 10
98.6721648437
 20
114.0085254602
 30
0.0
 10
98.9261137402
 20
113.6673695375
 30
0.0
 10
99.1205477635
 20
113.2785361085
 30
0.0
 10
99.2396513408
 20
112.8738451754
 30
0.0
 10
99.263584128
 20
112.5992140745
 30
0.0
 10
99.2578117698
 20
112.4686976231
 30
0.0
  0
SPLINE
  5
47D
100
AcDbEntity
  8
0
100
AcDbSpline
 62
7
  6
BYLAYER
 70
0
 71
3
 72
16
 73
12
 74
0
 42
0.0000001
 43
0.0000001
 44
0.0000000001
 40
0.0
 40
0.0
 40
0.0
 40
0.0
 40
0.0445420619
 40
0.090384011
 40
0.1906247658
 40
0.3071803517
 40
0.4393579217
 40
0.5821497169
 40
0.7282976137
 40
0.8699163243
 40
1.0
 40
1.0
 40
1.0
 40
1.0
 10
59.4079755058
 20
136.5691812805
 30
0.0
 10
59.4544568556
 20
136.5960434606
 30
0.0
 10
59.5559364486
 20
136.6390498142
 30
0.0
 10
59.7846184896
 20
136.6761516275
 30
0.0
 10
60.104872087
 20
136.6191186362
 30
0.0
 10
60.4782468587
 20
136.4153128539
 30
0.0
 10
60.83072061
 20
136.0961458956
 30
0.0
 10
61.135492141
 20
135.6867614131
 30
0.0
 10
61.3687456249
 20
135.2201437556
 30
0.0
 10
61.5117403485
 20
134.7345352086
 30
0.0
 10
61.5404142642
 20
134.4049826098
 30
0.0
 10
61.5334868663
 20
134.2483500248
 30
0.0
  0
SPLINE
  5
47E
100
AcDbEntity
  8
0
100
AcDbSpline
 62
7
  6
BYLAYER
 70
0
 71
3
 72
16
 73
12
 74
0
 42
0.0000001
 43
0.0000001
 44
0.0000000001
 40
0.0
 40
0.0
 40
0.0
 40
0.0
 40
0.0445420619
 40
0.090384011
 40
0.1906247658
 40
0.3071803517
 40
0.4393579217
 40
0.5821497169
 40
0.7282976137
 40
0.8699163243
 40
1.0
 40
1.0
 40
1.0
 40
1.0
 10
91.2279131374
 20
118.1983473271
 30
0.0
 10
91.2743944872
 20
118.2252095072
 30
0.0
 10
91.3758740802
 20
118.2682158607
 30
0.0
 10
91.6045561212
 20
118.3053176741
 30
0.0
 10
91.9248097186
 20
118.2482846828
 30
0.0
 10
92.2981844902
 20
118.0444789005
 30
0.0
 10
92.6506582415
 20
117.7253119423
 30
0.0
 10
92.9554297725
 20
117.3159274599
 30
0.0
 10
93.1886832565
 20
116.8493098024
 30
0.0
 10
93.3316779801
 20
116.3637012555
 30
0.0
 10
93.3603518958
 20
116.0341486567
 30
0.0
 10
93.353424498
 20
115.8775160717
 30
0.0
  0
SPLINE
  5
47F
100
AcDbEntity
  8
0
100
AcDbSpline
 62
7
  6
BYLAYER
 70
0
 71
3
 72
11
 73
7
 74
0
 42
0.0000001
 43
0.0000001
 44
0.0000000001
 40
0.0
 40
0.0
 40
0.0
 40
0.0
 40
0.2859661956
 40
0.5450070839
 40
0.7800061572
 40
1.0
 40
1.0
 40
1.0
 40
1.0
 10
112.0027195263
 20
104.6815068777
 30
0.0
 10
111.998010236
 20
104.5743497372
 30
0.0
 10
111.972564098
 20
104.370187062
 30
0.0
 10
111.8779844632
 20
104.09076449
 30
0.0
 10
111.730102147
 20
103.863535114
 30
0.0
 10
111.5958286579
 20
103.7527862015
 30
0.0
 10
111.5243845202
 20
103.7114999394
 30
0.0
  0
SPLINE
  5
480
100
AcDbEntity
  8
0
100
AcDbSpline
 62
7
  6
BYLAYER
 70
0
 71
3
 72
11
 73
7
 74
0
 42
0.0000001
 43
0.0000001
 44
0.0000000001
 40
0.0
 40
0.0
 40
0.0
 40
0.0
 40
0.2562332467
 40
0.518282821
 40
0.7706984729
 40
1.0
 40
1.0
 40
1.0
 40
1.0
 10
111.9145749732
 20
105.3589450203
 30
0.0
 10
111.7760940782
 20
105.5018020411
 30
0.0
 10
111.5238993369
 20
105.8187059022
 30
0.0
 10
111.2345073363
 20
106.3456575764
 30
0.0
 10
111.0462092424
 20
106.8946131527
 30
0.0
 10
110.9956224313
 20
107.2690758424
 30
0.0
 10
110.9956224313
 20
107.4471239112
 30
0.0
  0
SPLINE
  5
481
100
AcDbEntity
  8
0
100
AcDbSpline
 62
7
  6
BYLAYER
 70
0
 71
3
 72
11
 73
7
 74
0
 42
0.0000001
 43
0.0000001
 44
0.0000000001
 40
0.0
 40
0.0
 40
0.0
 40
0.0
 40
0.2859825214
 40
0.5450348522
 40
0.7800161247
 40
1.0
 40
1.0
 40
1.0
 40
1.0
 10
87.2722666097
 20
119.3883948066
 30
0.0
 10
87.2675292858
 20
119.2812810944
 30
0.0
 10
87.2421128555
 20
119.0772047269
 30
0.0
 10
87.1475936337
 20
118.7978857504
 30
0.0
 10
86.9996845239
 20
118.5708251103
 30
0.0
 10
86.8654795198
 20
118.4601452279
 30
0.0
 10
86.7940717407
 20
118.4188777381
 30
0.0
  0
SPLINE
  5
482
100
AcDbEntity
  8
0
100
AcDbSpline
 62
7
  6
BYLAYER
 70
0
 71
3
 72
11
 73
7
 74
0
 42
0.0000001
 43
0.0000001
 44
0.0000000001
 40
0.0
 40
0.0
 40
0.0
 40
0.0
 40
0.2859661956
 40
0.5450070839
 40
0.7800061572
 40
1.0
 40
1.0
 40
1.0
 40
1.0
 10
80.1827818946
 20
123.052340831
 30
0.0
 10
80.1780726043
 20
122.9451836905
 30
0.0
 10
80.1526264664
 20
122.7410210154
 30
0.0
 10
80.0580468316
 20
122.4615984434
 30
0.0
 10
79.9101645153
 20
122.2343690674
 30
0.0
 10
79.7758910263
 20
122.1236201549
 30
0.0
 10
79.7044468886
 20
122.0823338928
 30
0.0
  0
SPLINE
  5
483
100
AcDbEntity
  8
0
100
AcDbSpline
 62
7
  6
BYLAYER
 70
0
 71
3
 72
11
 73
7
 74
0
 42
0.0000001
 43
0.0000001
 44
0.0000000001
 40
0.0
 40
0.0
 40
0.0
 40
0.0
 40
0.2859825214
 40
0.5450348522
 40
0.7800161247
 40
1.0
 40
1.0
 40
1.0
 40
1.0
 10
93.353424498
 20
115.8775160717
 30
0.0
 10
93.3492648965
 20
115.7834650074
 30
0.0
 10
93.3269480308
 20
115.6042760017
 30
0.0
 10
93.2439555434
 20
115.3590203151
 30
0.0
 10
93.1140841299
 20
115.159649997
 30
0.0
 10
92.9962455898
 20
115.0624676613
 30
0.0
 10
92.9335460764
 20
115.0262327922
 30
0.0
  0
SPLINE
  5
484
100
AcDbEntity
  8
0
100
AcDbSpline
 62
7
  6
BYLAYER
 70
0
 71
3
 72
11
 73
7
 74
0
 42
0.0000001
 43
0.0000001
 44
0.0000000001
 40
0.0
 40
0.0
 40
0.0
 40
0.0
 40
0.2562390248
 40
0.5182853703
 40
0.7706998453
 40
1.0
 40
1.0
 40
1.0
 40
1.0
 10
80.0946326218
 20
123.7297666383
 30
0.0
 10
79.9561501935
 20
123.8726291747
 30
0.0
 10
79.7039673678
 20
124.1895459837
 30
0.0
 10
79.4145658159
 20
124.716494316
 30
0.0
 10
79.2262719238
 20
125.2654490099
 30
0.0
 10
79.1756847996
 20
125.6399103773
 30
0.0
 10
79.1756847996
 20
125.8179578647
 30
0.0
  0
SPLINE
  5
485
100
AcDbEntity
  8
0
100
AcDbSpline
 62
7
  6
BYLAYER
 70
0
 71
3
 72
11
 73
7
 74
0
 42
0.0000001
 43
0.0000001
 44
0.0000000001
 40
0.0
 40
0.0
 40
0.0
 40
0.0
 40
0.2859825214
 40
0.5450348522
 40
0.7800161247
 40
1.0
 40
1.0
 40
1.0
 40
1.0
 10
55.4523289782
 20
137.75922876
 30
0.0
 10
55.4475916543
 20
137.6521150478
 30
0.0
 10
55.4221752239
 20
137.4480386803
 30
0.0
 10
55.3276560021
 20
137.1687197038
 30
0.0
 10
55.1797468923
 20
136.9416590637
 30
0.0
 10
55.0455418882
 20
136.8309791813
 30
0.0
 10
54.9741341091
 20
136.7897116915
 30
0.0
  0
SPLINE
  5
486
100
AcDbEntity
  8
0
100
AcDbSpline
 62
7
  6
BYLAYER
 70
0
 71
3
 72
11
 73
7
 74
0
 42
0.0000001
 43
0.0000001
 44
0.0000000001
 40
0.0
 40
0.0
 40
0.0
 40
0.0
 40
0.2859825214
 40
0.5450348522
 40
0.7800161247
 40
1.0
 40
1.0
 40
1.0
 40
1.0
 10
73.7664851114
 20
127.1857849716
 30
0.0
 10
73.7623255099
 20
127.0917339073
 30
0.0
 10
73.7400086442
 20
126.9125449018
 30
0.0
 10
73.6570161567
 20
126.6672892152
 30
0.0
 10
73.5271447433
 20
126.4679188972
 30
0.0
 10
73.4093062032
 20
126.3707365615
 30
0.0
 10
73.3466066898
 20
126.3345016924
 30
0.0
  0
SPLINE
  5
487
100
AcDbEntity
  8
0
100
AcDbSpline
 62
7
  6
BYLAYER
 70
0
 71
3
 72
11
 73
7
 74
0
 42
0.0000001
 43
0.0000001
 44
0.0000000001
 40
0.0
 40
0.0
 40
0.0
 40
0.0
 40
0.2858842151
 40
0.5450471448
 40
0.7800478421
 40
1.0
 40
1.0
 40
1.0
 40
1.0
 10
67.4378741382
 20
130.8395315765
 30
0.0
 10
67.434409021
 20
130.7611832157
 30
0.0
 10
67.4157541378
 20
130.6118675415
 30
0.0
 10
67.3466677667
 20
130.4074596524
 30
0.0
 10
67.2384294801
 20
130.2412846679
 30
0.0
 10
67.1402082403
 20
130.1603288806
 30
0.0
 10
67.0879559636
 20
130.1301560939
 30
0.0
  0
SPLINE
  5
488
100
AcDbEntity
  8
0
100
AcDbSpline
 62
7
  6
BYLAYER
 70
0
 71
3
 72
11
 73
7
 74
0
 42
0.0000001
 43
0.0000001
 44
0.0000000001
 40
0.0
 40
0.0
 40
0.0
 40
0.0
 40
0.2859825214
 40
0.5450348522
 40
0.7800161247
 40
1.0
 40
1.0
 40
1.0
 40
1.0
 10
61.5334868663
 20
134.2483500248
 30
0.0
 10
61.5293272648
 20
134.1542989605
 30
0.0
 10
61.5070103992
 20
133.975109955
 30
0.0
 10
61.4240179117
 20
133.7298542684
 30
0.0
 10
61.2941464982
 20
133.5304839504
 30
0.0
 10
61.1763079581
 20
133.4333016147
 30
0.0
 10
61.1136084448
 20
133.3970667456
 30
0.0
  0
SPLINE
  5
489
100
AcDbEntity
  8
0
100
AcDbSpline
 62
7
  6
BYLAYER
 70
0
 71
3
 72
11
 73
7
 74
0
 42
0.0000001
 43
0.0000001
 44
0.0000000001
 40
0.0
 40
0.0
 40
0.0
 40
0.0
 40
0.2937872754
 40
0.5537528912
 40
0.7847840276
 40
1.0
 40
1.0
 40
1.0
 40
1.0
 10
112.0397123041
 20
63.877743684
 30
0.0
 10
112.0444289334
 20
63.77714745
 30
0.0
 10
112.0383384924
 20
63.5861666132
 30
0.0
 10
111.973195269
 20
63.3225552548
 30
0.0
 10
111.8518335828
 20
63.1087641295
 30
0.0
 10
111.7327347818
 20
63.006707392
 30
0.0
 10
111.6688614438
 20
62.9697923758
 30
0.0
  0
SPLINE
  5
48A
100
AcDbEntity
  8
0
100
AcDbSpline
 62
7
  6
BYLAYER
 70
0
 71
3
 72
11
 73
7
 74
0
 42
0.0000001
 43
0.0000001
 44
0.0000000001
 40
0.0
 40
0.0
 40
0.0
 40
0.0
 40
0.2859825214
 40
0.5450348522
 40
0.7800161247
 40
1.0
 40
1.0
 40
1.0
 40
1.0
 10
105.586422743
 20
108.8149510183
 30
0.0
 10
105.5822631415
 20
108.720899954
 30
0.0
 10
105.5599462759
 20
108.5417109484
 30
0.0
 10
105.4769537884
 20
108.2964552618
 30
0.0
 10
105.3470823749
 20
108.0970849438
 30
0.0
 10
105.2292438348
 20
107.9999026081
 30
0.0
 10
105.1665443214
 20
107.963667739
 30
0.0
  0
SPLINE
  5
48B
100
AcDbEntity
  8
0
100
AcDbSpline
 62
7
  6
BYLAYER
 70
0
 71
3
 72
11
 73
7
 74
0
 42
0.0000001
 43
0.0000001
 44
0.0000000001
 40
0.0
 40
0.0
 40
0.0
 40
0.0
 40
0.2858842151
 40
0.5450471448
 40
0.7800478421
 40
1.0
 40
1.0
 40
1.0
 40
1.0
 10
99.2578117698
 20
112.4686976231
 30
0.0
 10
99.2543466526
 20
112.3903492624
 30
0.0
 10
99.2356917694
 20
112.2410335881
 30
0.0
 10
99.1666053983
 20
112.036625699
 30
0.0
 10
99.0583671117
 20
111.8704507145
 30
0.0
 10
98.9601458719
 20
111.7894949272
 30
0.0
 10
98.9078935952
 20
111.7593221405
 30
0.0
  0
SPLINE
  5
48C
100
AcDbEntity
  8
0
100
AcDbSpline
 62
7
  6
BYLAYER
 70
0
 71
3
 72
17
 73
13
 74
0
 42
0.0000001
 43
0.0000001
 44
0.0000000001
 40
0.0
 40
0.0
 40
0.0
 40
0.0
 40
0.044529177
 40
0.0903578653
 40
0.1905696236
 40
0.2468672453
 40
0.3073807677
 40
0.4395201032
 40
0.5822705932
 40
0.7283762131
 40
0.8699539562
 40
1.0
 40
1.0
 40
1.0
 40
1.0
 10
86.7940717407
 20
118.4188777381
 30
0.0
 10
86.7411346469
 20
118.388284699
 30
0.0
 10
86.6255489958
 20
118.3393038312
 30
0.0
 10
86.3651808125
 20
118.2970580757
 30
0.0
 10
86.0835942502
 20
118.3470517936
 30
0.0
 10
85.810148551
 20
118.4664005281
 30
0.0
 10
85.5178160493
 20
118.6456938741
 30
0.0
 10
85.1736830227
 20
118.9577774422
 30
0.0
 10
84.8266336067
 20
119.4238090805
 30
0.0
 10
84.5609694111
 20
119.9552939986
 30
0.0
 10
84.3981180891
 20
120.5083326654
 30
0.0
 10
84.3654609363
 20
120.8836596395
 30
0.0
 10
84.3733504727
 20
121.062046751
 30
0.0
  0
SPLINE
  5
48D
100
AcDbEntity
  8
0
100
AcDbSpline
 62
7
  6
BYLAYER
 70
0
 71
3
 72
16
 73
12
 74
0
 42
0.0000001
 43
0.0000001
 44
0.0000000001
 40
0.0
 40
0.0
 40
0.0
 40
0.0
 40
0.0445420619
 40
0.090384011
 40
0.1906247664
 40
0.3071803531
 40
0.4393579241
 40
0.5821497201
 40
0.7282976167
 40
0.8699163263
 40
1.0
 40
1.0
 40
1.0
 40
1.0
 10
105.1665443214
 20
107.963667739
 30
0.0
 10
105.1200629708
 20
107.9368055583
 30
0.0
 10
105.0185833755
 20
107.893799204
 30
0.0
 10
104.7899013289
 20
107.8566973916
 30
0.0
 10
104.4696477239
 20
107.9137303883
 30
0.0
 10
104.0962729452
 20
108.1175361815
 30
0.0
 10
103.7437991896
 20
108.4367031537
 30
0.0
 10
103.4390276578
 20
108.846087651
 30
0.0
 10
103.2057741797
 20
109.3127053221
 30
0.0
 10
103.0627794615
 20
109.7983138788
 30
0.0
 10
103.0341055663
 20
110.1278664813
 30
0.0
 10
103.0410329641
 20
110.284499067
 30
0.0
  0
SPLINE
  5
48E
100
AcDbEntity
  8
0
100
AcDbSpline
 62
7
  6
BYLAYER
 70
0
 71
3
 72
11
 73
7
 74
0
 42
0.0000001
 43
0.0000001
 44
0.0000000001
 40
0.0
 40
0.0
 40
0.0
 40
0.0
 40
0.2859825196
 40
0.5450348487
 40
0.7800161223
 40
1.0
 40
1.0
 40
1.0
 40
1.0
 10
52.553412841
 20
139.4328807044
 30
0.0
 10
52.5581501646
 20
139.539994408
 30
0.0
 10
52.5835666026
 20
139.7440707589
 30
0.0
 10
52.6780858326
 20
140.023389708
 30
0.0
 10
52.8259949351
 20
140.2504503292
 30
0.0
 10
52.9601999316
 20
140.3611302025
 30
0.0
 10
53.0316077064
 20
140.4023976896
 30
0.0
  0
SPLINE
  5
48F
100
AcDbEntity
  8
0
100
AcDbSpline
 62
7
  6
BYLAYER
 70
0
 71
3
 72
16
 73
12
 74
0
 42
0.0000001
 43
0.0000001
 44
0.0000000001
 40
0.0
 40
0.0
 40
0.0
 40
0.0
 40
0.0445420619
 40
0.090384011
 40
0.1906247664
 40
0.3071803531
 40
0.4393579241
 40
0.5821497201
 40
0.7282976167
 40
0.8699163263
 40
1.0
 40
1.0
 40
1.0
 40
1.0
 10
73.3466066898
 20
126.3345016924
 30
0.0
 10
73.3001253391
 20
126.3076395117
 30
0.0
 10
73.1986457439
 20
126.2646331574
 30
0.0
 10
72.9699636973
 20
126.227531345
 30
0.0
 10
72.6497100923
 20
126.2845643417
 30
0.0
 10
72.2763353136
 20
126.4883701349
 30
0.0
 10
71.923861558
 20
126.8075371071
 30
0.0
 10
71.6190900262
 20
127.2169216044
 30
0.0
 10
71.3858365481
 20
127.6835392755
 30
0.0
 10
71.2428418299
 20
128.1691478322
 30
0.0
 10
71.2141679346
 20
128.4987004347
 30
0.0
 10
71.2210953325
 20
128.6553330204
 30
0.0
  0
SPLINE
  5
490
100
AcDbEntity
  8
0
100
AcDbSpline
 62
7
  6
BYLAYER
 70
0
 71
3
 72
11
 73
7
 74
0
 42
0.0000001
 43
0.0000001
 44
0.0000000001
 40
0.0
 40
0.0
 40
0.0
 40
0.0
 40
0.2859669955
 40
0.5450104418
 40
0.7800077401
 40
1.0
 40
1.0
 40
1.0
 40
1.0
 10
109.1405783128
 20
107.1920817802
 30
0.0
 10
109.1452876156
 20
107.2992392136
 30
0.0
 10
109.1707357144
 20
107.5034027907
 30
0.0
 10
109.2653134232
 20
107.7828265869
 30
0.0
 10
109.4131967911
 20
108.0100552342
 30
0.0
 10
109.5474699236
 20
108.1208023251
 30
0.0
 10
109.6189135482
 20
108.162088278
 30
0.0
  0
SPLINE
  5
491
100
AcDbEntity
  8
0
100
AcDbSpline
 62
7
  6
BYLAYER
 70
0
 71
3
 72
11
 73
7
 74
0
 42
0.0000001
 43
0.0000001
 44
0.0000000001
 40
0.0
 40
0.0
 40
0.0
 40
0.0
 40
0.2859825196
 40
0.5450348488
 40
0.7800161223
 40
1.0
 40
1.0
 40
1.0
 40
1.0
 10
71.2210953325
 20
128.6553330204
 30
0.0
 10
71.2252549337
 20
128.7493840773
 30
0.0
 10
71.247571806
 20
128.9285730684
 30
0.0
 10
71.3305643006
 20
129.1738287311
 30
0.0
 10
71.4604357077
 20
129.3731990327
 30
0.0
 10
71.5782742413
 20
129.4703813606
 30
0.0
 10
71.6409737509
 20
129.5066162273
 30
0.0
  0
SPLINE
  5
492
100
AcDbEntity
  8
0
100
AcDbSpline
 62
7
  6
BYLAYER
 70
0
 71
3
 72
11
 73
7
 74
0
 42
0.0000001
 43
0.0000001
 44
0.0000000001
 40
0.0
 40
0.0
 40
0.0
 40
0.0
 40
0.2859825196
 40
0.5450348488
 40
0.7800161223
 40
1.0
 40
1.0
 40
1.0
 40
1.0
 10
103.0410329641
 20
110.284499067
 30
0.0
 10
103.0451925653
 20
110.3785501239
 30
0.0
 10
103.0675094377
 20
110.557739115
 30
0.0
 10
103.1505019322
 20
110.8029947777
 30
0.0
 10
103.2803733394
 20
111.0023650793
 30
0.0
 10
103.3982118729
 20
111.0995474072
 30
0.0
 10
103.4609113825
 20
111.1357822739
 30
0.0
  0
SPLINE
  5
493
100
AcDbEntity
  8
0
100
AcDbSpline
 62
7
  6
BYLAYER
 70
0
 71
3
 72
11
 73
7
 74
0
 42
0.0000001
 43
0.0000001
 44
0.0000000001
 40
0.0
 40
0.0
 40
0.0
 40
0.0
 40
0.2858842151
 40
0.5450471448
 40
0.7800478421
 40
1.0
 40
1.0
 40
1.0
 40
1.0
 10
97.1366456891
 20
113.6933174427
 30
0.0
 10
97.1401108063
 20
113.7716658035
 30
0.0
 10
97.1587656895
 20
113.9209814778
 30
0.0
 10
97.2278520606
 20
114.125389367
 30
0.0
 10
97.3360903472
 20
114.2915643514
 30
0.0
 10
97.434311587
 20
114.3725201387
 30
0.0
 10
97.4865638637
 20
114.4026929255
 30
0.0
  0
SPLINE
  5
494
100
AcDbEntity
  8
0
100
AcDbSpline
 62
7
  6
BYLAYER
 70
0
 71
3
 72
11
 73
7
 74
0
 42
0.0000001
 43
0.0000001
 44
0.0000000001
 40
0.0
 40
0.0
 40
0.0
 40
0.0
 40
0.2858842151
 40
0.5450471448
 40
0.7800478421
 40
1.0
 40
1.0
 40
1.0
 40
1.0
 10
65.3167080574
 20
132.0641513962
 30
0.0
 10
65.3201731746
 20
132.142499757
 30
0.0
 10
65.3388280579
 20
132.2918154312
 30
0.0
 10
65.407914429
 20
132.4962233204
 30
0.0
 10
65.5161527156
 20
132.6623983049
 30
0.0
 10
65.6143739554
 20
132.7433540922
 30
0.0
 10
65.6666262321
 20
132.7735268789
 30
0.0
  0
SPLINE
  5
495
100
AcDbEntity
  8
0
100
AcDbSpline
 62
7
  6
BYLAYER
 70
0
 71
3
 72
16
 73
12
 74
0
 42
0.0000001
 43
0.0000001
 44
0.0000000001
 40
0.0
 40
0.0
 40
0.0
 40
0.0
 40
0.0445424154
 40
0.090386212
 40
0.190625176
 40
0.307178619
 40
0.4393531706
 40
0.5821462465
 40
0.7282855877
 40
0.8699258109
 40
1.0
 40
1.0
 40
1.0
 40
1.0
 10
98.9078935952
 20
111.7593221405
 30
0.0
 10
98.8691513177
 20
111.7369506276
 30
0.0
 10
98.7846220604
 20
111.7010216672
 30
0.0
 10
98.5940234787
 20
111.6702182226
 30
0.0
 10
98.3271680015
 20
111.7176859577
 30
0.0
 10
98.0160247366
 20
111.8875397396
 30
0.0
 10
97.7222926152
 20
112.1534896057
 30
0.0
 10
97.4683437188
 20
112.4946455284
 30
0.0
 10
97.2739096955
 20
112.8834789573
 30
0.0
 10
97.1548061182
 20
113.2881698905
 30
0.0
 10
97.1308733309
 20
113.5628009914
 30
0.0
 10
97.1366456891
 20
113.6933174427
 30
0.0
  0
SPLINE
  5
496
100
AcDbEntity
  8
0
100
AcDbSpline
 62
7
  6
BYLAYER
 70
0
 71
3
 72
17
 73
13
 74
0
 42
0.0000001
 43
0.0000001
 44
0.0000000001
 40
0.0
 40
0.0
 40
0.0
 40
0.0
 40
0.0445309084
 40
0.0903607045
 40
0.1905735598
 40
0.2468765598
 40
0.3073982184
 40
0.4395515642
 40
0.5823150652
 40
0.7284202985
 40
0.8699725265
 40
1.0
 40
1.0
 40
1.0
 40
1.0
 10
79.7044468886
 20
122.0823338928
 30
0.0
 10
79.6514989398
 20
122.0517362405
 30
0.0
 10
79.5358882494
 20
122.0027543793
 30
0.0
 10
79.2754731981
 20
121.9605145543
 30
0.0
 10
78.9938345868
 20
122.0105411976
 30
0.0
 10
78.7203455511
 20
122.129954576
 30
0.0
 10
78.4279560037
 20
122.3093269833
 30
0.0
 10
78.083774747
 20
122.6215384329
 30
0.0
 10
77.7367268526
 20
123.0877244286
 30
0.0
 10
77.4711000671
 20
123.6193196274
 30
0.0
 10
77.3084271919
 20
124.1724231932
 30
0.0
 10
77.2756925143
 20
124.5477437258
 30
0.0
 10
77.2836321293
 20
124.7261303606
 30
0.0
  0
SPLINE
  5
497
100
AcDbEntity
  8
0
100
AcDbSpline
 62
7
  6
BYLAYER
 70
0
 71
3
 72
11
 73
7
 74
0
 42
0.0000001
 43
0.0000001
 44
0.0000000001
 40
0.0
 40
0.0
 40
0.0
 40
0.0
 40
0.2859825196
 40
0.5450348488
 40
0.7800161223
 40
1.0
 40
1.0
 40
1.0
 40
1.0
 10
58.9880970875
 20
135.7178980735
 30
0.0
 10
58.9922566886
 20
135.8119491304
 30
0.0
 10
59.014573561
 20
135.9911381215
 30
0.0
 10
59.0975660555
 20
136.2363937843
 30
0.0
 10
59.2274374627
 20
136.4357640859
 30
0.0
 10
59.3452759962
 20
136.5329464138
 30
0.0
 10
59.4079755058
 20
136.5691812805
 30
0.0
  0
SPLINE
  5
498
100
AcDbEntity
  8
0
100
AcDbSpline
 62
7
  6
BYLAYER
 70
0
 71
3
 72
11
 73
7
 74
0
 42
0.0000001
 43
0.0000001
 44
0.0000000001
 40
0.0
 40
0.0
 40
0.0
 40
0.0
 40
0.2859825196
 40
0.5450348488
 40
0.7800161223
 40
1.0
 40
1.0
 40
1.0
 40
1.0
 10
84.3733504727
 20
121.062046751
 30
0.0
 10
84.3780877963
 20
121.1691604546
 30
0.0
 10
84.4035042343
 20
121.3732368055
 30
0.0
 10
84.4980234642
 20
121.6525557546
 30
0.0
 10
84.6459325667
 20
121.8796163758
 30
0.0
 10
84.7801375632
 20
121.9902962491
 30
0.0
 10
84.851545338
 20
122.0315637362
 30
0.0
  0
SPLINE
  5
499
100
AcDbEntity
  8
0
100
AcDbSpline
 62
7
  6
BYLAYER
 70
0
 71
3
 72
17
 73
13
 74
0
 42
0.0000001
 43
0.0000001
 44
0.0000000001
 40
0.0
 40
0.0
 40
0.0
 40
0.0
 40
0.044529177
 40
0.0903578653
 40
0.1905696236
 40
0.2468672453
 40
0.3073807677
 40
0.4395201032
 40
0.5822705932
 40
0.7283762131
 40
0.8699539561
 40
1.0
 40
1.0
 40
1.0
 40
1.0
 10
54.9741341091
 20
136.7897116915
 30
0.0
 10
54.9211970153
 20
136.7591186524
 30
0.0
 10
54.8056113642
 20
136.7101377846
 30
0.0
 10
54.5452431809
 20
136.6678920291
 30
0.0
 10
54.2636566186
 20
136.7178857471
 30
0.0
 10
53.9902109194
 20
136.8372344815
 30
0.0
 10
53.6978784176
 20
137.0165278275
 30
0.0
 10
53.3537453911
 20
137.3286113956
 30
0.0
 10
53.0066959751
 20
137.7946430339
 30
0.0
 10
52.7410317794
 20
138.3261279521
 30
0.0
 10
52.5781804575
 20
138.8791666188
 30
0.0
 10
52.5455233046
 20
139.2544935929
 30
0.0
 10
52.553412841
 20
139.4328807044
 30
0.0
  0
SPLINE
  5
49A
100
AcDbEntity
  8
0
100
AcDbSpline
 62
7
  6
BYLAYER
 70
0
 71
3
 72
11
 73
7
 74
0
 42
0.0000001
 43
0.0000001
 44
0.0000000001
 40
0.0
 40
0.0
 40
0.0
 40
0.0
 40
0.2859669955
 40
0.5450104418
 40
0.7800077401
 40
1.0
 40
1.0
 40
1.0
 40
1.0
 10
77.3206406812
 20
125.5629157336
 30
0.0
 10
77.325349984
 20
125.670073167
 30
0.0
 10
77.3507980828
 20
125.8742367441
 30
0.0
 10
77.4453757916
 20
126.1536605403
 30
0.0
 10
77.5932591595
 20
126.3808891876
 30
0.0
 10
77.727532292
 20
126.4916362785
 30
0.0
 10
77.7989759165
 20
126.5329222314
 30
0.0
  0
SPLINE
  5
49B
100
AcDbEntity
  8
0
100
AcDbSpline
 62
7
  6
BYLAYER
 70
0
 71
3
 72
16
 73
12
 74
0
 42
0.0000001
 43
0.0000001
 44
0.0000000001
 40
0.0
 40
0.0
 40
0.0
 40
0.0
 40
0.0445420619
 40
0.090384011
 40
0.1906247664
 40
0.3071803531
 40
0.4393579241
 40
0.5821497201
 40
0.7282976167
 40
0.8699163263
 40
1.0
 40
1.0
 40
1.0
 40
1.0
 10
61.1136084448
 20
133.3970667456
 30
0.0
 10
61.0671270941
 20
133.3702045649
 30
0.0
 10
60.9656474988
 20
133.3271982106
 30
0.0
 10
60.7369654523
 20
133.2900963982
 30
0.0
 10
60.4167118473
 20
133.3471293949
 30
0.0
 10
60.0433370686
 20
133.5509351881
 30
0.0
 10
59.690863313
 20
133.8701021603
 30
0.0
 10
59.3860917812
 20
134.2794866575
 30
0.0
 10
59.1528383031
 20
134.7461043286
 30
0.0
 10
59.0098435849
 20
135.2317128853
 30
0.0
 10
58.9811696896
 20
135.5612654878
 30
0.0
 10
58.9880970875
 20
135.7178980735
 30
0.0
  0
SPLINE
  5
49C
100
AcDbEntity
  8
0
100
AcDbSpline
 62
7
  6
BYLAYER
 70
0
 71
3
 72
16
 73
12
 74
0
 42
0.0000001
 43
0.0000001
 44
0.0000000001
 40
0.0
 40
0.0
 40
0.0
 40
0.0
 40
0.0445424154
 40
0.090386212
 40
0.190625176
 40
0.307178619
 40
0.4393531706
 40
0.5821462465
 40
0.7282855877
 40
0.8699258109
 40
1.0
 40
1.0
 40
1.0
 40
1.0
 10
67.0879559636
 20
130.1301560939
 30
0.0
 10
67.0492136861
 20
130.1077845811
 30
0.0
 10
66.9646844288
 20
130.0718556206
 30
0.0
 10
66.7740858471
 20
130.041052176
 30
0.0
 10
66.5072303699
 20
130.0885199111
 30
0.0
 10
66.196087105
 20
130.258373693
 30
0.0
 10
65.9023549836
 20
130.5243235591
 30
0.0
 10
65.6484060872
 20
130.8654794818
 30
0.0
 10
65.4539720638
 20
131.2543129108
 30
0.0
 10
65.3348684865
 20
131.6590038439
 30
0.0
 10
65.3109356993
 20
131.9336349448
 30
0.0
 10
65.3167080574
 20
132.0641513962
 30
0.0
  0
SPLINE
  5
49D
100
AcDbEntity
  8
0
100
AcDbSpline
 62
7
  6
BYLAYER
 70
0
 71
3
 72
12
 73
8
 74
0
 42
0.0000001
 43
0.0000001
 44
0.0000000001
 40
0.0
 40
0.0
 40
0.0
 40
0.0
 40
0.0992834816
 40
0.2025240081
 40
0.4300903165
 40
0.695775326
 40
1.0
 40
1.0
 40
1.0
 40
1.0
 10
111.6688614438
 20
62.9697923758
 30
0.0
 10
111.6290599129
 20
62.946789442
 30
0.0
 10
111.5422254596
 20
62.9090363256
 30
0.0
 10
111.3455622172
 20
62.8703000376
 30
0.0
 10
111.0649606108
 20
62.8992131482
 30
0.0
 10
110.719855976
 20
63.0388223726
 30
0.0
 10
110.4990057494
 20
63.1864331455
 30
0.0
 10
110.3883612666
 20
63.2736125697
 30
0.0
  0
SPLINE
  5
49E
100
AcDbEntity
  8
0
100
AcDbSpline
 62
7
  6
BYLAYER
 70
0
 71
3
 72
11
 73
7
 74
0
 42
0.0000001
 43
0.0000001
 44
0.0000000001
 40
0.0
 40
0.0
 40
0.0
 40
0.0
 40
0.2859825196
 40
0.5450348488
 40
0.7800161223
 40
1.0
 40
1.0
 40
1.0
 40
1.0
 10
90.8080347191
 20
117.3470641204
 30
0.0
 10
90.8121943203
 20
117.4411151772
 30
0.0
 10
90.8345111927
 20
117.6203041683
 30
0.0
 10
90.9175036872
 20
117.865559831
 30
0.0
 10
91.0473750943
 20
118.0649301326
 30
0.0
 10
91.1652136279
 20
118.1621124604
 30
0.0
 10
91.2279131374
 20
118.1983473271
 30
0.0
  0
SPLINE
  5
49F
100
AcDbEntity
  8
0
100
AcDbSpline
 62
7
  6
BYLAYER
 70
0
 71
3
 72
17
 73
13
 74
0
 42
0.0000001
 43
0.0000001
 44
0.0000000001
 40
0.0
 40
0.0
 40
0.0
 40
0.0
 40
0.0445309084
 40
0.0903607045
 40
0.1905735598
 40
0.2468765598
 40
0.3073982184
 40
0.4395515642
 40
0.5823150652
 40
0.7284202985
 40
0.8699725265
 40
1.0
 40
1.0
 40
1.0
 40
1.0
 10
111.5243845202
 20
103.7114999394
 30
0.0
 10
111.4714365714
 20
103.6809022871
 30
0.0
 10
111.355825881
 20
103.6319204259
 30
0.0
 10
111.0954108297
 20
103.5896806009
 30
0.0
 10
110.8137722184
 20
103.6397072442
 30
0.0
 10
110.5402831827
 20
103.7591206226
 30
0.0
 10
110.2478936353
 20
103.9384930299
 30
0.0
 10
109.9037123786
 20
104.2507044796
 30
0.0
 10
109.5566644842
 20
104.7168904753
 30
0.0
 10
109.2910376987
 20
105.2484856741
 30
0.0
 10
109.1283648235
 20
105.8015892398
 30
0.0
 10
109.0956301459
 20
106.1769097725
 30
0.0
 10
109.1035697609
 20
106.3552964072
 30
0.0
  0
SPLINE
  5
4A0
100
AcDbEntity
  8
0
100
AcDbSpline
 62
7
  6
BYLAYER
 70
0
 71
3
 72
16
 73
12
 74
0
 42
0.0000001
 43
0.0000001
 44
0.0000000001
 40
0.0
 40
0.0
 40
0.0
 40
0.0
 40
0.0445420619
 40
0.090384011
 40
0.1906247664
 40
0.3071803531
 40
0.4393579241
 40
0.5821497201
 40
0.7282976167
 40
0.8699163263
 40
1.0
 40
1.0
 40
1.0
 40
1.0
 10
92.9335460764
 20
115.0262327922
 30
0.0
 10
92.8870647257
 20
114.9993706115
 30
0.0
 10
92.7855851304
 20
114.9563642572
 30
0.0
 10
92.5569030839
 20
114.9192624448
 30
0.0
 10
92.2366494788
 20
114.9762954415
 30
0.0
 10
91.8632747001
 20
115.1801012347
 30
0.0
 10
91.5108009445
 20
115.499268207
 30
0.0
 10
91.2060294127
 20
115.9086527043
 30
0.0
 10
90.9727759346
 20
116.3752703754
 30
0.0
 10
90.8297812164
 20
116.8608789321
 30
0.0
 10
90.8011073213
 20
117.1904315347
 30
0.0
 10
90.8080347191
 20
117.3470641204
 30
0.0
  0
ENDSEC
  0
SECTION
  2
OBJECTS
  0
DICTIONARY
  5
C
100
AcDbDictionary
280
0
281
1
  3
ACAD_GROUP
350
D
  3
ACAD_MLINESTYLE
350
17
  3
ACAD_LAYOUT
350
1A
  3
ACAD_PLOTSETTINGS
350
19
  3
ACAD_PLOTSTYLENAME
350
E
  0
DICTIONARY
  5
D
102
{ACAD_REACTORS
330
C
102
}
100
AcDbDictionary
280
0
281
1
  0
ACDBDICTIONARYWDFLT
  5
E
102
{ACAD_REACTORS
330
C
102
}
100
AcDbDictionary
281
1
  3
Normal
350
F
100
AcDbDictionaryWithDefault
340
F
  0
DICTIONARY
  5
17
102
{ACAD_REACTORS
330
C
102
}
100
AcDbDictionary
280
0
281
1
  3
Standard
350
18
  0
DICTIONARY
  5
19
102
{ACAD_REACTORS
330
C
102
}
100
AcDbDictionary
281
1
  0
DICTIONARY
  5
1A
102
{ACAD_REACTORS
330
C
102
}
100
AcDbDictionary
281
1
  3
Model
350
4A1
  3
Layout1
350
4A2
  0
ACDBPLACEHOLDER
  5
F
102
{ACAD_REACTORS
330
E
102
}
  0
MLINESTYLE
  5
18
102
{ACAD_REACTORS
330
17
102
}
100
AcDbMlineStyle
  2
STANDARD
 70
0
  3

 62
256
 51
90.0
 52
90.0
 71
2
 49
0.5
 62
256
  6
BYLAYER
 49
-0.5
 62
256
  6
BYLAYER
  0
LAYOUT
  5
4A1
102
{ACAD_REACTORS
330
1A
102
}
100
AcDbPlotSettings
  1

  2
none_device
  4

  6

 40
0.0
 41
0.0
 42
0.0
 43
0.0
 44
210.0
 45
297.0
 46
0.0
 47
0.0
 48
0.0
 49
0.0
140
0.0
141
0.0
142
1.0
143
1.0
 70
1024
 72
1
 73
0
 74
0
  7

 75
0
147
1.0
148
0.0
149
0.0
100
AcDbLayout
  1
Model
 70
0
 71
0
 10
0.0
 20
0.0
 11
210.0
 21
297.0
 12
0.0
 22
0.0
 32
0.0
 14
0.0
 24
0.0
 34
0.0
 15
0.0
 25
0.0
 35
0.0
146
0.0
 13
0.0
 23
0.0
 33
0.0
 16
1.0
 26
0.0
 36
0.0
 17
0.0
 27
1.0
 37
0.0
 76
0
330
210
345
0
346
0
  0
LAYOUT
  5
4A2
102
{ACAD_REACTORS
330
1A
102
}
100
AcDbPlotSettings
  1

  2
none_device
  4

  6

 40
0.0
 41
0.0
 42
0.0
 43
0.0
 44
210.0
 45
297.0
 46
0.0
 47
0.0
 48
0.0
 49
0.0
140
0.0
141
0.0
142
1.0
143
1.0
 70
0
 72
1
 73
0
 74
0
  7

 75
0
147
1.0
148
0.0
149
0.0
100
AcDbLayout
  1
Layout1
 70
0
 71
1
 10
0.0
 20
0.0
 11
210.0
 21
297.0
 12
0.0
 22
0.0
 32
0.0
 14
0.0
 24
0.0
 34
0.0
 15
0.0
 25
0.0
 35
0.0
146
0.0
 13
0.0
 23
0.0
 33
0.0
 16
1.0
 26
0.0
 36
0.0
 17
0.0
 27
1.0
 37
0.0
 76
0
330
211
345
0
346
0
  0
ENDSEC
  0
EOF
