999
DXF file: Y:\001_SCHNEIDER_PARIS\78_2020_429_Grey Project M580\TRAVAIL LUCAS SANTANA G3\CAD3D\2D-Views\BMENOC0301_2D-Views\BMENOC0301_2D-TOP.dxf
999
Pro/ENGINEER 2018260 by Parametric Technology Corporation
  0
SECTION
  2
HEADER
  9
$ACADVER
  1
AC1027
  9
$DWGCODEPAGE
  3
ANSI_1252
  9
$EXTMAX
 10
558.8
 20
431.8
 30
0.0
  9
$EXTMIN
 10
0.0
 20
0.0
 30
0.0
  9
$LIMMIN
 10
0.0
 20
0.0
  9
$LIMMAX
 10
558.8
 20
431.8
  9
$VIEWCTR
 10
279.4
 20
215.9
  9
$VIEWSIZE
 40
431.8
  9
$CLAYER
  8
0
  9
$LTSCALE
 40
30.734
  9
$CELTYPE
  6
BYLAYER
  9
$DIMSCALE
 40
1.0
  9
$DIMASZ
 40
3.5
  9
$DIMEXO
 40
1.0
  9
$DIMDLI
 40
21.2344
  9
$DIMEXE
 40
3.0
  9
$DIMCEN
 40
5.0292
  9
$DIMLFAC
 40
1.0
  9
$DIMBLK
  1
_FILLED
  9
$DIMALT
 70
0
  9
$DIMALTF
 40
0.0393700787
  9
$DIMTXT
 40
4.0
  9
$DIMTOL
 70
1
  9
$DIMLIM
 70
0
  9
$DIMTFAC
 40
1.0
  9
$DIMTP
 40
0.0001
  9
$DIMTM
 40
0.0001
  9
$DIMGAP
 40
0.625
  9
$DIMDSEP
 70
46
  9
$AUNITS
 70
0
  9
$PDMODE
 70
0
  9
$PDSIZE
 40
0.01
  9
$HANDSEED
  5
2C7
  9
$TILEMODE
 70
1
  9
$MEASUREMENT
 70
1
  9
$INSUNITS
 70
4
  0
ENDSEC
  0
SECTION
  2
CLASSES
  0
CLASS
  1
ACDBDICTIONARYWDFLT
  2
AcDbDictionaryWithDefault
  3
AutoCAD 2000
 90
0
 91
1
280
0
281
0
  0
CLASS
  1
ACDBPLACEHOLDER
  2
AcDbPlaceHolder
  3
AutoCAD 2000
 90
0
 91
1
280
0
281
0
  0
CLASS
  1
LAYOUT
  2
AcDbLayout
  3
AutoCAD 2000
 90
0
 91
0
280
0
281
0
  0
ENDSEC
  0
SECTION
  2
TABLES
  0
TABLE
  2
VPORT
  5
8
100
AcDbSymbolTable
 70
2
  0
VPORT
  5
1F4
100
AcDbSymbolTableRecord
100
AcDbViewportTableRecord
  2
*ACTIVE
 70
0
 10
0.0
 20
0.0
 11
1.0
 21
1.0
 12
279.4
 22
215.9
 13
0.0
 23
0.0
 14
1.0
 24
1.0
 15
0.0
 25
0.0
 16
0.0
 26
0.0
 36
1.0
 17
0.0
 27
0.0
 37
0.0
 40
431.8
 41
1.2941176471
 42
50.0
 43
0.0
 44
0.0
 50
0.0
 51
0.0
 71
0
 72
100
 73
1
 74
1
 75
0
 76
0
 77
0
 78
0
  0
ENDTAB
  0
TABLE
  2
LTYPE
  5
5
100
AcDbSymbolTable
 70
6
  0
LTYPE
  5
14
100
AcDbSymbolTableRecord
100
AcDbLinetypeTableRecord
  2
BYBLOCK
 70
0
  3

 72
65
 73
0
 40
0.0
  0
LTYPE
  5
15
100
AcDbSymbolTableRecord
100
AcDbLinetypeTableRecord
  2
BYLAYER
 70
0
  3

 72
65
 73
0
 40
0.0
  0
LTYPE
  5
16
100
AcDbSymbolTableRecord
100
AcDbLinetypeTableRecord
  2
CONTINUOUS
 70
64
  3
Solid line
 72
65
 73
0
 40
0.0
  0
LTYPE
  5
1F5
100
AcDbSymbolTableRecord
100
AcDbLinetypeTableRecord
  2
CENTER
 70
64
  3
____ _ ____ _ ____ _ ____ _ ____ _ ____ _ ____
 72
65
 73
4
 40
0.6
 49
0.375
 74
0
 49
-0.075
 74
0
 49
0.075
 74
0
 49
-0.075
 74
0
  0
LTYPE
  5
1F6
100
AcDbSymbolTableRecord
100
AcDbLinetypeTableRecord
  2
HIDDEN
 70
64
  3
- - - - - - - - - - - - - - - - - - - -
 72
65
 73
2
 40
0.2
 49
0.1
 74
0
 49
-0.1
 74
0
  0
LTYPE
  5
1F7
100
AcDbSymbolTableRecord
100
AcDbLinetypeTableRecord
  2
PHANTOM
 70
64
  3
_____ _ _ _____ _ _ _____ _ _ _____
 72
65
 73
6
 40
0.8
 49
0.45
 74
0
 49
-0.05
 74
0
 49
0.1
 74
0
 49
-0.05
 74
0
 49
0.1
 74
0
 49
-0.05
 74
0
  0
LTYPE
  5
1F8
100
AcDbSymbolTableRecord
100
AcDbLinetypeTableRecord
  2
DOT
 70
64
  3
. . . . . . . . . . . . . . . . . . . .
 72
65
 73
2
 40
0.2
 49
0.1
 74
0
 49
-0.1
 74
0
  0
LTYPE
  5
1F9
100
AcDbSymbolTableRecord
100
AcDbLinetypeTableRecord
  2
DASHED
 70
64
  3
- - - - - - - - - - - - - - - - - - - -
 72
65
 73
2
 40
0.2
 49
0.1
 74
0
 49
-0.1
 74
0
  0
ENDTAB
  0
TABLE
  2
LAYER
  5
2
100
AcDbSymbolTable
 70
36
  0
LAYER
  5
10
100
AcDbSymbolTableRecord
100
AcDbLayerTableRecord
  2
0
 70
0
 62
7
  6
CONTINUOUS
370
-3
390
F
  0
LAYER
  5
1FA
100
AcDbSymbolTableRecord
100
AcDbLayerTableRecord
  2
DEFAULT_1
 70
0
 62
7
  6
CENTER
370
-3
390
F
  0
LAYER
  5
1FB
100
AcDbSymbolTableRecord
100
AcDbLayerTableRecord
  2
DEFAULT_2
 70
0
 62
8
  6
HIDDEN
370
-3
390
F
  0
LAYER
  5
1FC
100
AcDbSymbolTableRecord
100
AcDbLayerTableRecord
  2
DEFAULT_3
 70
0
 62
7
  6
PHANTOM
370
-3
390
F
  0
LAYER
  5
1FD
100
AcDbSymbolTableRecord
100
AcDbLayerTableRecord
  2
01_ALL_DTM_PLN
 70
0
 62
7
  6
CONTINUOUS
370
-3
390
F
  0
LAYER
  5
1FE
100
AcDbSymbolTableRecord
100
AcDbLayerTableRecord
  2
01__ASM_ALL_DTM_PLN
 70
0
 62
7
  6
CONTINUOUS
370
-3
390
F
  0
LAYER
  5
1FF
100
AcDbSymbolTableRecord
100
AcDbLayerTableRecord
  2
01__ASM_DEF_DTM_PLN
 70
0
 62
7
  6
CONTINUOUS
370
-3
390
F
  0
LAYER
  5
200
100
AcDbSymbolTableRecord
100
AcDbLayerTableRecord
  2
01___PRT_ALL_DTM_PLN
 70
0
 62
7
  6
CONTINUOUS
370
-3
390
F
  0
LAYER
  5
201
100
AcDbSymbolTableRecord
100
AcDbLayerTableRecord
  2
01___PRT_DEF_DTM_PLN
 70
0
 62
7
  6
CONTINUOUS
370
-3
390
F
  0
LAYER
  5
202
100
AcDbSymbolTableRecord
100
AcDbLayerTableRecord
  2
02_ALL_AXES
 70
0
 62
7
  6
CONTINUOUS
370
-3
390
F
  0
LAYER
  5
203
100
AcDbSymbolTableRecord
100
AcDbLayerTableRecord
  2
02__ASM_ALL_AXES
 70
0
 62
7
  6
CONTINUOUS
370
-3
390
F
  0
LAYER
  5
204
100
AcDbSymbolTableRecord
100
AcDbLayerTableRecord
  2
02___PRT_ALL_AXES
 70
0
 62
7
  6
CONTINUOUS
370
-3
390
F
  0
LAYER
  5
205
100
AcDbSymbolTableRecord
100
AcDbLayerTableRecord
  2
03_ALL_CURVES
 70
0
 62
7
  6
CONTINUOUS
370
-3
390
F
  0
LAYER
  5
206
100
AcDbSymbolTableRecord
100
AcDbLayerTableRecord
  2
03__ASM_ALL_CURVES
 70
0
 62
7
  6
CONTINUOUS
370
-3
390
F
  0
LAYER
  5
207
100
AcDbSymbolTableRecord
100
AcDbLayerTableRecord
  2
03___PRT_ALL_CURVES
 70
0
 62
7
  6
CONTINUOUS
370
-3
390
F
  0
LAYER
  5
208
100
AcDbSymbolTableRecord
100
AcDbLayerTableRecord
  2
04_ALL_DTM_PNT
 70
0
 62
7
  6
CONTINUOUS
370
-3
390
F
  0
LAYER
  5
209
100
AcDbSymbolTableRecord
100
AcDbLayerTableRecord
  2
04__ASM_ALL_DTM_PNT
 70
0
 62
7
  6
CONTINUOUS
370
-3
390
F
  0
LAYER
  5
20A
100
AcDbSymbolTableRecord
100
AcDbLayerTableRecord
  2
04___PRT_ALL_DTM_PNT
 70
0
 62
7
  6
CONTINUOUS
370
-3
390
F
  0
LAYER
  5
20B
100
AcDbSymbolTableRecord
100
AcDbLayerTableRecord
  2
05_ALL_DTM_CSYS
 70
0
 62
7
  6
CONTINUOUS
370
-3
390
F
  0
LAYER
  5
20C
100
AcDbSymbolTableRecord
100
AcDbLayerTableRecord
  2
05__ASM_ALL_DTM_CSYS
 70
0
 62
7
  6
CONTINUOUS
370
-3
390
F
  0
LAYER
  5
20D
100
AcDbSymbolTableRecord
100
AcDbLayerTableRecord
  2
05__ASM_DEF_DTM_CSYS
 70
0
 62
7
  6
CONTINUOUS
370
-3
390
F
  0
LAYER
  5
20E
100
AcDbSymbolTableRecord
100
AcDbLayerTableRecord
  2
05___PRT_ALL_DTM_CSYS
 70
0
 62
7
  6
CONTINUOUS
370
-3
390
F
  0
LAYER
  5
20F
100
AcDbSymbolTableRecord
100
AcDbLayerTableRecord
  2
05___PRT_DEF_DTM_CSYS
 70
0
 62
7
  6
CONTINUOUS
370
-3
390
F
  0
LAYER
  5
210
100
AcDbSymbolTableRecord
100
AcDbLayerTableRecord
  2
06_ALL_SURFS
 70
0
 62
7
  6
CONTINUOUS
370
-3
390
F
  0
LAYER
  5
211
100
AcDbSymbolTableRecord
100
AcDbLayerTableRecord
  2
06__ASM_ALL_SURFS
 70
0
 62
7
  6
CONTINUOUS
370
-3
390
F
  0
LAYER
  5
212
100
AcDbSymbolTableRecord
100
AcDbLayerTableRecord
  2
06___PRT_ALL_SURFS
 70
0
 62
7
  6
CONTINUOUS
370
-3
390
F
  0
LAYER
  5
213
100
AcDbSymbolTableRecord
100
AcDbLayerTableRecord
  2
07__ASM_ALL_SKELETONS
 70
0
 62
7
  6
CONTINUOUS
370
-3
390
F
  0
ENDTAB
  0
TABLE
  2
STYLE
  5
3
100
AcDbSymbolTable
 70
1
  0
STYLE
  5
11
100
AcDbSymbolTableRecord
100
AcDbTextStyleTableRecord
  2
STANDARD
 70
0
 40
0.0
 41
0.6
 50
0.0
 71
0
 42
0.2
  3
txt
  4

  0
STYLE
  5
214
100
AcDbSymbolTableRecord
100
AcDbTextStyleTableRecord
  2
TEXTSTYLE_1
 70
0
 40
0.0
 41
0.8
 50
0.0
 71
0
 42
0.2
  3
gdt
  4

  0
ENDTAB
  0
TABLE
  2
VIEW
  5
6
100
AcDbSymbolTable
 70
0
  0
ENDTAB
  0
TABLE
  2
UCS
  5
7
100
AcDbSymbolTable
 70
0
  0
ENDTAB
  0
TABLE
  2
APPID
  5
9
100
AcDbSymbolTable
 70
1
  0
APPID
  5
215
100
AcDbSymbolTableRecord
100
AcDbRegAppTableRecord
  2
ACAD
 70
0
  0
ENDTAB
  0
TABLE
  2
BLOCK_RECORD
  5
1
100
AcDbSymbolTable
 70
0
  0
BLOCK_RECORD
  5
216
100
AcDbSymbolTableRecord
100
AcDbBlockTableRecord
  2
*Model_Space
  0
BLOCK_RECORD
  5
217
100
AcDbSymbolTableRecord
100
AcDbBlockTableRecord
  2
*Paper_Space
  0
BLOCK_RECORD
  5
218
100
AcDbSymbolTableRecord
100
AcDbBlockTableRecord
  2
_FILLED
  0
ENDTAB
  0
TABLE
  2
DIMSTYLE
  5
A
100
AcDbSymbolTable
 70
1
100
AcDbDimStyleTable
 71
0
  0
DIMSTYLE
105
219
100
AcDbSymbolTableRecord
100
AcDbDimStyleTableRecord
  2
STANDARD
 70
0
  3

  4

 40
1.0
 41
3.5
 42
1.0
 43
0.38
 44
3.0
 45
0.0
 46
0.0
 47
0.0001
 48
0.0001
140
4.0
141
0.09
142
0.0
143
25.4
144
1.0
145
0.0
146
1.0
147
0.625
 71
1.0
 72
0.0
 73
0
 74
0
 75
0
 76
0
 77
1
 78
8
 79
2
170
0
171
3
172
0
173
0
174
0
175
0
176
0
177
0
178
0
270
2
179
4
271
4
272
4
273
2
274
2
275
0
280
0
281
0
282
0
283
1
284
8
285
0
286
0
287
3
288
0
340
11
278
46
341
218
342
218
343
218
344
218
  0
ENDTAB
  0
ENDSEC
  0
SECTION
  2
BLOCKS
  0
BLOCK
  5
20
100
AcDbEntity
  8
0
100
AcDbBlockBegin
  2
*Model_Space
 70
0
 10
0.0
 20
0.0
 30
0.0
  3
*Model_Space
  1

  0
ENDBLK
  5
21
100
AcDbEntity
  8
0
100
AcDbBlockEnd
  0
BLOCK
  5
1C
100
AcDbEntity
  8
0
100
AcDbBlockBegin
  2
*Paper_Space
 70
0
 10
0.0
 20
0.0
 30
0.0
  3
*Paper_Space
  1

  0
ENDBLK
  5
1D
100
AcDbEntity
  8
0
100
AcDbBlockEnd
  0
BLOCK
  5
21A
100
AcDbEntity
  8
0
100
AcDbBlockBegin
  2
_FILLED
 70
64
 10
0.0
 20
0.0
  3
_FILLED
  1

  0
SOLID
  5
21B
100
AcDbEntity
  8
0
  6
BYBLOCK
 62
0
100
AcDbTrace
 10
0.0
 20
0.0
 11
-1.0
 21
0.2857142857
 12
-1.0
 22
-0.2857142857
 13
-1.0
 23
-0.2857142857
  0
ENDBLK
  5
21C
100
AcDbEntity
  8
0
  6
BYBLOCK
 62
0
100
AcDbBlockEnd
  0
ENDSEC
  0
SECTION
  2
ENTITIES
  0
LINE
  5
21D
100
AcDbEntity
  8
0
100
AcDbLine
 62
7
  6
CONTINUOUS
 10
121.4024771892
 20
35.4548243579
 11
119.6498771892
 21
35.4548243579
  0
LINE
  5
21E
100
AcDbEntity
  8
0
100
AcDbLine
 62
7
  6
CONTINUOUS
 10
125.1288771892
 20
35.4548243579
 11
126.8814771892
 21
35.4548243579
  0
LINE
  5
21F
100
AcDbEntity
  8
0
100
AcDbLine
 62
7
  6
CONTINUOUS
 10
119.6498771892
 20
35.9890882527
 11
121.4024771892
 21
35.9890882527
  0
LINE
  5
220
100
AcDbEntity
  8
0
100
AcDbLine
 62
7
  6
CONTINUOUS
 10
125.1288771892
 20
35.9890882527
 11
126.8814771892
 21
35.9890882527
  0
LINE
  5
221
100
AcDbEntity
  8
0
100
AcDbLine
 62
7
  6
CONTINUOUS
 10
107.2656771892
 20
36.0832243579
 11
139.2656771892
 21
36.0832243579
  0
LINE
  5
222
100
AcDbEntity
  8
0
100
AcDbLine
 62
7
  6
CONTINUOUS
 10
122.3522515721
 20
36.9878793616
 11
139.2656771892
 21
36.9878793616
  0
LINE
  5
223
100
AcDbEntity
  8
0
100
AcDbLine
 62
7
  6
CONTINUOUS
 10
107.5656771892
 20
37.1808951934
 11
122.3488824682
 21
37.1808951934
  0
LINE
  5
224
100
AcDbEntity
  8
0
100
AcDbLine
 62
7
  6
CONTINUOUS
 10
139.2656771892
 20
38.1832243579
 11
122.3313867476
 21
38.1832243579
  0
LINE
  5
225
100
AcDbEntity
  8
0
100
AcDbLine
 62
7
  6
CONTINUOUS
 10
107.5656771892
 20
38.4166104876
 11
121.8656771892
 21
38.4166104876
  0
LINE
  5
226
100
AcDbEntity
  8
0
100
AcDbLine
 62
7
  6
CONTINUOUS
 10
107.2656771892
 20
38.4262730104
 11
107.5656771892
 21
38.4262730104
  0
LINE
  5
227
100
AcDbEntity
  8
0
100
AcDbLine
 62
7
  6
CONTINUOUS
 10
122.3191682021
 20
38.8832243579
 11
121.8656771892
 21
38.8832243579
  0
LINE
  5
228
100
AcDbEntity
  8
0
100
AcDbLine
 62
7
  6
CONTINUOUS
 10
122.3156771892
 20
39.0832243579
 11
107.2656771892
 21
39.0832243579
  0
LINE
  5
229
100
AcDbEntity
  8
0
100
AcDbLine
 62
7
  6
CONTINUOUS
 10
125.0156771892
 20
130.7665930249
 11
124.7556771892
 21
130.5065930249
  0
LINE
  5
22A
100
AcDbEntity
  8
0
100
AcDbLine
 62
7
  6
CONTINUOUS
 10
129.173447
 20
122.0832243579
 11
132.3788700802
 21
123.3611197675
  0
LINE
  5
22B
100
AcDbEntity
  8
0
100
AcDbLine
 62
7
  6
CONTINUOUS
 10
132.4087858905
 20
123.1577385058
 11
129.7135164471
 21
122.0832243579
  0
LINE
  5
22C
100
AcDbEntity
  8
0
100
AcDbLine
 62
7
  6
CONTINUOUS
 10
107.2656771892
 20
55.0832243579
 11
139.2656771892
 21
55.0832243579
  0
LINE
  5
22D
100
AcDbEntity
  8
0
100
AcDbLine
 62
7
  6
CONTINUOUS
 10
119.2656771891
 20
120.0832243579
 11
119.2342604651
 21
120.0518076339
  0
LINE
  5
22E
100
AcDbEntity
  8
0
100
AcDbLine
 62
7
  6
CONTINUOUS
 10
122.6656771892
 20
140.3665930249
 11
121.5156771892
 21
137.9665930249
  0
LINE
  5
22F
100
AcDbEntity
  8
0
100
AcDbLine
 62
7
  6
CONTINUOUS
 10
119.2342604651
 20
117.0832243579
 11
119.2656771892
 21
117.114641082
  0
LINE
  5
230
100
AcDbEntity
  8
0
100
AcDbLine
 62
7
  6
CONTINUOUS
 10
107.2656771892
 20
36.0832243579
 11
107.2656771892
 21
128.0832243579
  0
LINE
  5
231
100
AcDbEntity
  8
0
100
AcDbLine
 62
7
  6
CONTINUOUS
 10
107.5656771892
 20
36.2852795405
 11
107.5656771892
 21
39.0832243579
  0
LINE
  5
232
100
AcDbEntity
  8
0
100
AcDbLine
 62
7
  6
CONTINUOUS
 10
107.9156771892
 20
36.0832243579
 11
107.9156771892
 21
34.5832243579
  0
LINE
  5
233
100
AcDbEntity
  8
0
100
AcDbLine
 62
9
  6
CONTINUOUS
 10
108.2394379818
 20
35.3092908454
 11
108.2394379818
 21
36.0832243579
  0
LINE
  5
234
100
AcDbEntity
  8
0
100
AcDbLine
 62
7
  6
CONTINUOUS
 10
120.1598101396
 20
108.0832243579
 11
120.2697885849
 21
108.1942287333
  0
LINE
  5
235
100
AcDbEntity
  8
0
100
AcDbLine
 62
7
  6
CONTINUOUS
 10
118.7718442828
 20
108.1977620873
 11
118.6573064626
 21
108.0832243579
  0
LINE
  5
236
100
AcDbEntity
  8
0
100
AcDbLine
 62
7
  6
CONTINUOUS
 10
109.1248813141
 20
122.7172154529
 11
109.1304107384
 21
122.0832243579
  0
LINE
  5
237
100
AcDbEntity
  8
0
100
AcDbLine
 62
7
  6
CONTINUOUS
 10
109.3063344882
 20
122.0832243579
 11
109.2542317685
 21
128.0536046702
  0
LINE
  5
238
100
AcDbEntity
  8
0
100
AcDbLine
 62
9
  6
CONTINUOUS
 10
112.6747250541
 20
36.0832243579
 11
112.6747250541
 21
35.2466810793
  0
LINE
  5
239
100
AcDbEntity
  8
0
100
AcDbLine
 62
7
  6
CONTINUOUS
 10
121.2357649887
 20
114.8353609571
 11
121.2427947622
 21
114.8510942599
  0
LINE
  5
23A
100
AcDbEntity
  8
0
100
AcDbLine
 62
7
  6
CONTINUOUS
 10
112.1344441939
 20
123.5832243579
 11
111.740745208
 21
128.0832243579
  0
LINE
  5
23B
100
AcDbEntity
  8
0
100
AcDbLine
 62
7
  6
CONTINUOUS
 10
111.990745208
 20
128.0832243579
 11
112.3844441939
 21
123.5832243579
  0
LINE
  5
23C
100
AcDbEntity
  8
0
100
AcDbLine
 62
7
  6
CONTINUOUS
 10
112.7831083377
 20
123.0405509274
 11
112.7656771892
 21
123.239789867
  0
LINE
  5
23D
100
AcDbEntity
  8
0
100
AcDbLine
 62
7
  6
CONTINUOUS
 10
113.0302942819
 20
120.0518076339
 11
113.0302942819
 21
122.0832243579
  0
LINE
  5
23E
100
AcDbEntity
  8
0
100
AcDbLine
 62
7
  6
CONTINUOUS
 10
113.1156771892
 20
36.0832243579
 11
113.1156771892
 21
35.2710520306
  0
LINE
  5
23F
100
AcDbEntity
  8
0
100
AcDbLine
 62
7
  6
CONTINUOUS
 10
115.2656771892
 20
122.0832243579
 11
115.2656771892
 21
122.7020191434
  0
LINE
  5
240
100
AcDbEntity
  8
0
100
AcDbLine
 62
9
  6
CONTINUOUS
 10
116.599802908
 20
122.8532243579
 11
116.599802908
 21
122.3854553578
  0
LINE
  5
241
100
AcDbEntity
  8
0
100
AcDbLine
 62
9
  6
CONTINUOUS
 10
116.599802908
 20
122.170147659
 11
116.599802908
 21
122.0832243579
  0
LINE
  5
242
100
AcDbEntity
  8
0
100
AcDbLine
 62
7
  6
CONTINUOUS
 10
118.6573064626
 20
117.0832243579
 11
118.6573064626
 21
108.0832243579
  0
LINE
  5
243
100
AcDbEntity
  8
0
100
AcDbLine
 62
9
  6
CONTINUOUS
 10
118.7718442828
 20
108.1977620873
 11
118.7718298711
 21
117.0641540825
  0
LINE
  5
244
100
AcDbEntity
  8
0
100
AcDbLine
 62
7
  6
CONTINUOUS
 10
119.2342604651
 20
120.0518076339
 11
119.2342604651
 21
117.0832243579
  0
LINE
  5
245
100
AcDbEntity
  8
0
100
AcDbLine
 62
7
  6
CONTINUOUS
 10
119.2656771892
 20
117.114641082
 11
119.2656771892
 21
122.0832243579
  0
LINE
  5
246
100
AcDbEntity
  8
0
100
AcDbLine
 62
7
  6
CONTINUOUS
 10
119.5156771892
 20
117.0665930249
 11
119.5156771892
 21
115.5271851558
  0
LINE
  5
247
100
AcDbEntity
  8
0
100
AcDbLine
 62
7
  6
CONTINUOUS
 10
119.6498771892
 20
36.0832243579
 11
119.6498771892
 21
35.4548243579
  0
LINE
  5
248
100
AcDbEntity
  8
0
100
AcDbLine
 62
9
  6
CONTINUOUS
 10
119.999802908
 20
122.0832243579
 11
119.999802908
 21
122.8532243579
  0
LINE
  5
249
100
AcDbEntity
  8
0
100
AcDbLine
 62
7
  6
CONTINUOUS
 10
137.9140339416
 20
123.5832243579
 11
137.4064684635
 21
122.7172181493
  0
LINE
  5
24A
100
AcDbEntity
  8
0
100
AcDbLine
 62
7
  6
CONTINUOUS
 10
122.3156771892
 20
39.0832243579
 11
122.3522515721
 21
36.9878793616
  0
LINE
  5
24B
100
AcDbEntity
  8
0
100
AcDbLine
 62
7
  6
CONTINUOUS
 10
120.1598101396
 20
108.0832243579
 11
120.2697886042
 21
85.5756627096
  0
LINE
  5
24C
100
AcDbEntity
  8
0
100
AcDbLine
 62
9
  6
CONTINUOUS
 10
120.2697885849
 20
108.1942287333
 11
120.2697885985
 21
85.5756638799
  0
LINE
  5
24D
100
AcDbEntity
  8
0
100
AcDbLine
 62
7
  6
CONTINUOUS
 10
121.2656771892
 20
117.114641082
 11
121.2656771892
 21
122.0832243579
  0
LINE
  5
24E
100
AcDbEntity
  8
0
100
AcDbLine
 62
7
  6
CONTINUOUS
 10
121.4024771892
 20
35.4548243579
 11
121.4024771892
 21
36.0832243579
  0
LINE
  5
24F
100
AcDbEntity
  8
0
100
AcDbLine
 62
7
  6
CONTINUOUS
 10
121.5156771892
 20
137.9665930249
 11
121.5156771892
 21
130.7665930249
  0
LINE
  5
250
100
AcDbEntity
  8
0
100
AcDbLine
 62
7
  6
CONTINUOUS
 10
121.7756771892
 20
122.0832243579
 11
121.7756771892
 21
130.5065930249
  0
LINE
  5
251
100
AcDbEntity
  8
0
100
AcDbLine
 62
7
  6
CONTINUOUS
 10
121.8656771892
 20
37.6472028516
 11
121.8656771892
 21
39.0832243579
  0
LINE
  5
252
100
AcDbEntity
  8
0
100
AcDbLine
 62
7
  6
CONTINUOUS
 10
122.0406771892
 20
117.0892167939
 11
122.0406771892
 21
122.0832243579
  0
LINE
  5
253
100
AcDbEntity
  8
0
100
AcDbLine
 62
7
  6
CONTINUOUS
 10
122.6656771892
 20
116.0665930249
 11
122.6656771892
 21
114.6067750502
  0
LINE
  5
254
100
AcDbEntity
  8
0
100
AcDbLine
 62
7
  6
CONTINUOUS
 10
123.8656771892
 20
114.6067750502
 11
123.8656771892
 21
116.0665930249
  0
LINE
  5
255
100
AcDbEntity
  8
0
100
AcDbLine
 62
7
  6
CONTINUOUS
 10
124.4906771892
 20
122.0832243579
 11
124.4906771892
 21
117.0892167939
  0
LINE
  5
256
100
AcDbEntity
  8
0
100
AcDbLine
 62
7
  6
CONTINUOUS
 10
124.7556771892
 20
130.5065930249
 11
124.7556771892
 21
122.0832243579
  0
LINE
  5
257
100
AcDbEntity
  8
0
100
AcDbLine
 62
7
  6
CONTINUOUS
 10
125.0156771892
 20
137.9665930249
 11
125.0156771892
 21
130.7665930249
  0
LINE
  5
258
100
AcDbEntity
  8
0
100
AcDbLine
 62
7
  6
CONTINUOUS
 10
125.1288771892
 20
36.0832243579
 11
125.1288771892
 21
35.4548243579
  0
LINE
  5
259
100
AcDbEntity
  8
0
100
AcDbLine
 62
7
  6
CONTINUOUS
 10
125.2656771892
 20
117.114641082
 11
125.2656771892
 21
122.0832243579
  0
LINE
  5
25A
100
AcDbEntity
  8
0
100
AcDbLine
 62
9
  6
CONTINUOUS
 10
126.2615657934
 20
108.1942287333
 11
126.2615657798
 21
85.575663878
  0
LINE
  5
25B
100
AcDbEntity
  8
0
100
AcDbLine
 62
9
  6
CONTINUOUS
 10
126.5315514704
 20
122.8532243579
 11
126.5315514704
 21
122.0832243579
  0
LINE
  5
25C
100
AcDbEntity
  8
0
100
AcDbLine
 62
7
  6
CONTINUOUS
 10
126.8814771892
 20
35.4548243579
 11
126.8814771892
 21
36.0832243579
  0
LINE
  5
25D
100
AcDbEntity
  8
0
100
AcDbLine
 62
7
  6
CONTINUOUS
 10
127.0156771892
 20
115.5271851558
 11
127.0156771892
 21
117.0665930249
  0
LINE
  5
25E
100
AcDbEntity
  8
0
100
AcDbLine
 62
7
  6
CONTINUOUS
 10
127.2656771892
 20
117.114641082
 11
127.2656771892
 21
122.0832243579
  0
LINE
  5
25F
100
AcDbEntity
  8
0
100
AcDbLine
 62
7
  6
CONTINUOUS
 10
127.2970939132
 20
120.0518076339
 11
127.2970939132
 21
117.0832243579
  0
LINE
  5
260
100
AcDbEntity
  8
0
100
AcDbLine
 62
7
  6
CONTINUOUS
 10
126.3715442388
 20
108.0832243579
 11
126.2615657798
 21
85.575663878
  0
LINE
  5
261
100
AcDbEntity
  8
0
100
AcDbLine
 62
9
  6
CONTINUOUS
 10
127.7595244802
 20
117.0641540794
 11
127.7595100956
 21
108.1977620874
  0
LINE
  5
262
100
AcDbEntity
  8
0
100
AcDbLine
 62
7
  6
CONTINUOUS
 10
127.8740479158
 20
108.0832243579
 11
127.8740479158
 21
117.0832243579
  0
LINE
  5
263
100
AcDbEntity
  8
0
100
AcDbLine
 62
9
  6
CONTINUOUS
 10
129.9315514703
 20
122.0832243579
 11
129.9315514703
 21
122.1701476589
  0
LINE
  5
264
100
AcDbEntity
  8
0
100
AcDbLine
 62
9
  6
CONTINUOUS
 10
129.9315514703
 20
122.3854553578
 11
129.9315514703
 21
122.8532243579
  0
LINE
  5
265
100
AcDbEntity
  8
0
100
AcDbLine
 62
7
  6
CONTINUOUS
 10
133.7656771892
 20
123.239789867
 11
133.7482460406
 21
123.0405509274
  0
LINE
  5
266
100
AcDbEntity
  8
0
100
AcDbLine
 62
7
  6
CONTINUOUS
 10
134.1469101845
 20
123.5832243579
 11
134.5406091703
 21
128.0832243579
  0
LINE
  5
267
100
AcDbEntity
  8
0
100
AcDbLine
 62
7
  6
CONTINUOUS
 10
108.6173204367
 20
123.5832243579
 11
109.1248813141
 21
122.717212781
  0
LINE
  5
268
100
AcDbEntity
  8
0
100
AcDbLine
 62
7
  6
CONTINUOUS
 10
131.2656771892
 20
122.7020191434
 11
131.2656771892
 21
122.0832243579
  0
LINE
  5
269
100
AcDbEntity
  8
0
100
AcDbLine
 62
7
  6
CONTINUOUS
 10
133.4156771892
 20
36.0832243579
 11
133.4156771892
 21
35.2710520306
  0
LINE
  5
26A
100
AcDbEntity
  8
0
100
AcDbLine
 62
7
  6
CONTINUOUS
 10
133.5010600964
 20
122.0832243579
 11
133.5010600964
 21
120.0518076339
  0
LINE
  5
26B
100
AcDbEntity
  8
0
100
AcDbLine
 62
9
  6
CONTINUOUS
 10
133.8566293305
 20
36.0832243579
 11
133.8566293305
 21
35.2466810785
  0
LINE
  5
26C
100
AcDbEntity
  8
0
100
AcDbLine
 62
7
  6
CONTINUOUS
 10
134.3969101845
 20
123.5832243579
 11
134.7906091703
 21
128.0832243579
  0
LINE
  5
26D
100
AcDbEntity
  8
0
100
AcDbLine
 62
9
  6
CONTINUOUS
 10
138.29191644
 20
36.0832243579
 11
138.29191644
 21
35.3092908476
  0
LINE
  5
26E
100
AcDbEntity
  8
0
100
AcDbLine
 62
7
  6
CONTINUOUS
 10
137.2771226098
 20
128.0536046702
 11
137.2327658762
 21
122.9708264427
  0
LINE
  5
26F
100
AcDbEntity
  8
0
100
AcDbLine
 62
7
  6
CONTINUOUS
 10
137.2258283644
 20
122.1758663305
 11
137.2250198901
 21
122.0832243579
  0
LINE
  5
270
100
AcDbEntity
  8
0
100
AcDbLine
 62
7
  6
CONTINUOUS
 10
137.4064763961
 20
122.7172154238
 11
137.4009436399
 21
122.0832243579
  0
LINE
  5
271
100
AcDbEntity
  8
0
100
AcDbLine
 62
7
  6
CONTINUOUS
 10
125.2885596161
 20
114.8510942599
 11
125.2955893896
 21
114.8353609571
  0
LINE
  5
272
100
AcDbEntity
  8
0
100
AcDbLine
 62
7
  6
CONTINUOUS
 10
138.6156771892
 20
34.5832243579
 11
138.6156771892
 21
36.0832243579
  0
LINE
  5
273
100
AcDbEntity
  8
0
100
AcDbLine
 62
7
  6
CONTINUOUS
 10
138.9656771892
 20
36.2852795405
 11
138.9656771892
 21
36.9878793616
  0
LINE
  5
274
100
AcDbEntity
  8
0
100
AcDbLine
 62
7
  6
CONTINUOUS
 10
139.2656771892
 20
36.0832243579
 11
139.2656771892
 21
128.0832243579
  0
LINE
  5
275
100
AcDbEntity
  8
0
100
AcDbLine
 62
7
  6
CONTINUOUS
 10
127.8740479158
 20
108.0832243579
 11
127.7595100956
 21
108.1977620874
  0
LINE
  5
276
100
AcDbEntity
  8
0
100
AcDbLine
 62
7
  6
CONTINUOUS
 10
126.3715442388
 20
108.0832243579
 11
126.2615657934
 21
108.1942287333
  0
LINE
  5
277
100
AcDbEntity
  8
0
100
AcDbLine
 62
7
  6
CONTINUOUS
 10
118.6573064626
 20
108.0832243579
 11
120.1598101396
 21
108.0832243579
  0
LINE
  5
278
100
AcDbEntity
  8
0
100
AcDbLine
 62
7
  6
CONTINUOUS
 10
126.3715442388
 20
108.0832243579
 11
127.8740479158
 21
108.0832243579
  0
LINE
  5
279
100
AcDbEntity
  8
0
100
AcDbLine
 62
7
  6
CONTINUOUS
 10
127.2656771892
 20
117.114641082
 11
127.2970939132
 21
117.0832243579
  0
LINE
  5
27A
100
AcDbEntity
  8
0
100
AcDbLine
 62
7
  6
CONTINUOUS
 10
127.2656771892
 20
120.0832243579
 11
127.2970939132
 21
120.0518076339
  0
LINE
  5
27B
100
AcDbEntity
  8
0
100
AcDbLine
 62
7
  6
CONTINUOUS
 10
123.8656771892
 20
140.3665930249
 11
125.0156771892
 21
137.9665930249
  0
LINE
  5
27C
100
AcDbEntity
  8
0
100
AcDbLine
 62
7
  6
CONTINUOUS
 10
127.8740479158
 20
117.0832243579
 11
127.7595338297
 21
117.0641556384
  0
LINE
  5
27D
100
AcDbEntity
  8
0
100
AcDbLine
 62
7
  6
CONTINUOUS
 10
124.4906771892
 20
117.0892167939
 11
125.2656771892
 21
117.1113386251
  0
LINE
  5
27E
100
AcDbEntity
  8
0
100
AcDbLine
 62
7
  6
CONTINUOUS
 10
119.5156771892
 20
115.5271851558
 11
122.6656771892
 21
115.5271851558
  0
LINE
  5
27F
100
AcDbEntity
  8
0
100
AcDbLine
 62
7
  6
CONTINUOUS
 10
123.8656771892
 20
115.5271851558
 11
127.0156771892
 21
115.5271851558
  0
LINE
  5
280
100
AcDbEntity
  8
0
100
AcDbLine
 62
7
  6
CONTINUOUS
 10
122.6656771892
 20
116.0665930249
 11
123.8656771892
 21
116.0665930249
  0
LINE
  5
281
100
AcDbEntity
  8
0
100
AcDbLine
 62
7
  6
CONTINUOUS
 10
127.0156771892
 20
117.0665930249
 11
119.5156771892
 21
117.0665930249
  0
LINE
  5
282
100
AcDbEntity
  8
0
100
AcDbLine
 62
7
  6
CONTINUOUS
 10
118.6573064626
 20
117.0832243579
 11
119.2342604651
 21
117.0832243579
  0
LINE
  5
283
100
AcDbEntity
  8
0
100
AcDbLine
 62
7
  6
CONTINUOUS
 10
127.2970939132
 20
117.0832243579
 11
127.8740479158
 21
117.0832243579
  0
LINE
  5
284
100
AcDbEntity
  8
0
100
AcDbLine
 62
7
  6
CONTINUOUS
 10
119.2656771892
 20
117.114641082
 11
121.2656771892
 21
117.114641082
  0
LINE
  5
285
100
AcDbEntity
  8
0
100
AcDbLine
 62
7
  6
CONTINUOUS
 10
125.2656771892
 20
117.114641082
 11
127.2656771892
 21
117.114641082
  0
LINE
  5
286
100
AcDbEntity
  8
0
100
AcDbLine
 62
7
  6
CONTINUOUS
 10
121.2656771892
 20
117.1113386251
 11
122.0406771892
 21
117.0892167939
  0
LINE
  5
287
100
AcDbEntity
  8
0
100
AcDbLine
 62
7
  6
CONTINUOUS
 10
118.7718205291
 20
117.0641556416
 11
118.6573064626
 21
117.0832243579
  0
LINE
  5
288
100
AcDbEntity
  8
0
100
AcDbLine
 62
7
  6
CONTINUOUS
 10
116.8178379313
 20
122.0832243579
 11
114.1225684878
 21
123.1577385058
  0
LINE
  5
289
100
AcDbEntity
  8
0
100
AcDbLine
 62
7
  6
CONTINUOUS
 10
114.1524842981
 20
123.3611197675
 11
117.3579073783
 21
122.0832243579
  0
LINE
  5
28A
100
AcDbEntity
  8
0
100
AcDbLine
 62
7
  6
CONTINUOUS
 10
121.5156771892
 20
130.7665930249
 11
121.7756771892
 21
130.5065930249
  0
LINE
  5
28B
100
AcDbEntity
  8
0
100
AcDbLine
 62
7
  6
CONTINUOUS
 10
119.2656771891
 20
120.0832243579
 11
113.0302942819
 21
120.0518076339
  0
LINE
  5
28C
100
AcDbEntity
  8
0
100
AcDbLine
 62
7
  6
CONTINUOUS
 10
119.2342604651
 20
120.0518076339
 11
113.0302942819
 21
120.0518076339
  0
LINE
  5
28D
100
AcDbEntity
  8
0
100
AcDbLine
 62
7
  6
CONTINUOUS
 10
127.2970939132
 20
120.0518076339
 11
133.5010600964
 21
120.0518076339
  0
LINE
  5
28E
100
AcDbEntity
  8
0
100
AcDbLine
 62
7
  6
CONTINUOUS
 10
133.5010600964
 20
120.0518076339
 11
127.2656771891
 21
120.0832243579
  0
LINE
  5
28F
100
AcDbEntity
  8
0
100
AcDbLine
 62
7
  6
CONTINUOUS
 10
114.1225684878
 20
123.1577385058
 11
112.7831083377
 21
123.0405509274
  0
LINE
  5
290
100
AcDbEntity
  8
0
100
AcDbLine
 62
7
  6
CONTINUOUS
 10
112.7656771892
 20
123.239789867
 11
114.1524842981
 21
123.3611197675
  0
LINE
  5
291
100
AcDbEntity
  8
0
100
AcDbLine
 62
7
  6
CONTINUOUS
 10
109.1304107384
 20
122.0832243579
 11
122.0406771892
 21
122.0832243579
  0
LINE
  5
292
100
AcDbEntity
  8
0
100
AcDbLine
 62
7
  6
CONTINUOUS
 10
124.4906771892
 20
122.0832243579
 11
137.4009436399
 21
122.0832243579
  0
LINE
  5
293
100
AcDbEntity
  8
0
100
AcDbLine
 62
9
  6
CONTINUOUS
 10
137.4053070722
 20
122.5832241689
 11
137.3156771892
 21
122.5832241629
  0
LINE
  5
294
100
AcDbEntity
  8
0
100
AcDbLine
 62
9
  6
CONTINUOUS
 10
109.3019710543
 20
122.5832243579
 11
109.1260499324
 21
122.5832243579
  0
LINE
  5
295
100
AcDbEntity
  8
0
100
AcDbLine
 62
7
  6
CONTINUOUS
 10
139.2656771892
 20
122.7171989541
 11
137.4064730642
 21
122.717212781
  0
LINE
  5
296
100
AcDbEntity
  8
0
100
AcDbLine
 62
7
  6
CONTINUOUS
 10
109.1248813141
 20
122.717212781
 11
107.2656771892
 21
122.7171989541
  0
LINE
  5
297
100
AcDbEntity
  8
0
100
AcDbLine
 62
7
  6
CONTINUOUS
 10
131.1048850137
 20
122.8532243579
 11
124.7556771892
 21
122.8532243579
  0
LINE
  5
298
100
AcDbEntity
  8
0
100
AcDbLine
 62
7
  6
CONTINUOUS
 10
121.7756771892
 20
122.8532243579
 11
115.4264693646
 21
122.8532243579
  0
LINE
  5
299
100
AcDbEntity
  8
0
100
AcDbLine
 62
7
  6
CONTINUOUS
 10
136.3156771892
 20
123.5832243579
 11
132.9156771892
 21
123.5832243579
  0
LINE
  5
29A
100
AcDbEntity
  8
0
100
AcDbLine
 62
7
  6
CONTINUOUS
 10
113.7656771892
 20
123.5832243579
 11
110.3656771892
 21
123.5832243579
  0
LINE
  5
29B
100
AcDbEntity
  8
0
100
AcDbLine
 62
7
  6
CONTINUOUS
 10
107.2656771892
 20
123.5832243579
 11
108.6173204367
 21
123.5832243579
  0
LINE
  5
29C
100
AcDbEntity
  8
0
100
AcDbLine
 62
7
  6
CONTINUOUS
 10
137.9140339416
 20
123.5832243579
 11
139.2656771892
 21
123.5832243579
  0
LINE
  5
29D
100
AcDbEntity
  8
0
100
AcDbLine
 62
7
  6
CONTINUOUS
 10
133.7482460406
 20
123.0405509274
 11
132.4087858905
 21
123.1577385058
  0
LINE
  5
29E
100
AcDbEntity
  8
0
100
AcDbLine
 62
7
  6
CONTINUOUS
 10
132.3788700802
 20
123.3611197675
 11
133.7656771892
 21
123.239789867
  0
LINE
  5
29F
100
AcDbEntity
  8
0
100
AcDbLine
 62
7
  6
CONTINUOUS
 10
107.2656771892
 20
127.3645988749
 11
109.260244631
 21
127.3645988749
  0
LINE
  5
2A0
100
AcDbEntity
  8
0
100
AcDbLine
 62
7
  6
CONTINUOUS
 10
137.2711097473
 20
127.3645988749
 11
139.2656771892
 21
127.3645988749
  0
LINE
  5
2A1
100
AcDbEntity
  8
0
100
AcDbLine
 62
7
  6
CONTINUOUS
 10
137.2771226098
 20
128.0536046702
 11
134.7880177834
 21
128.0536046702
  0
LINE
  5
2A2
100
AcDbEntity
  8
0
100
AcDbLine
 62
7
  6
CONTINUOUS
 10
111.7433365949
 20
128.0536046702
 11
109.2542317685
 21
128.0536046702
  0
LINE
  5
2A3
100
AcDbEntity
  8
0
100
AcDbLine
 62
7
  6
CONTINUOUS
 10
139.2656771892
 20
128.0832243579
 11
134.5406091703
 21
128.0832243579
  0
LINE
  5
2A4
100
AcDbEntity
  8
0
100
AcDbLine
 62
7
  6
CONTINUOUS
 10
107.2656771892
 20
128.0832243579
 11
111.990745208
 21
128.0832243579
  0
LINE
  5
2A5
100
AcDbEntity
  8
0
100
AcDbLine
 62
7
  6
CONTINUOUS
 10
124.7556771892
 20
130.5065930249
 11
121.7756771892
 21
130.5065930249
  0
LINE
  5
2A6
100
AcDbEntity
  8
0
100
AcDbLine
 62
7
  6
CONTINUOUS
 10
121.5156771892
 20
130.7665930249
 11
125.0156771892
 21
130.7665930249
  0
LINE
  5
2A7
100
AcDbEntity
  8
0
100
AcDbLine
 62
7
  6
CONTINUOUS
 10
125.0156771892
 20
137.9665930249
 11
121.5156771892
 21
137.9665930249
  0
LINE
  5
2A8
100
AcDbEntity
  8
0
100
AcDbLine
 62
7
  6
CONTINUOUS
 10
123.8656771892
 20
140.3665930249
 11
122.6656771892
 21
140.3665930249
  0
ARC
  5
2A9
100
AcDbEntity
  8
0
100
AcDbCircle
 62
7
  6
CONTINUOUS
 10
138.6156771892
 20
54.5832243579
 40
20.0
100
AcDbArc
 50
254.9299378552
 51
270.0
  0
ARC
  5
2AA
100
AcDbEntity
  8
0
100
AcDbCircle
 62
7
  6
CONTINUOUS
 10
107.9156771892
 20
54.5832243579
 40
20.0
100
AcDbArc
 50
270.0
 51
285.0700621448
  0
ARC
  5
2AB
100
AcDbEntity
  8
0
100
AcDbCircle
 62
7
  6
CONTINUOUS
 10
123.2656771892
 20
122.3665930249
 40
7.8
100
AcDbArc
 50
285.0846092029
 51
298.7356537449
  0
ARC
  5
2AC
100
AcDbEntity
  8
0
100
AcDbCircle
 62
7
  6
CONTINUOUS
 10
123.2656771892
 20
122.3665930249
 40
7.8
100
AcDbArc
 50
241.2643462551
 51
254.9153907971
  0
ARC
  5
2AD
100
AcDbEntity
  8
0
100
AcDbCircle
 62
7
  6
CONTINUOUS
 10
123.2656771892
 20
122.3665930249
 40
7.7829798278
100
AcDbArc
 50
274.4213927223
 51
285.0647839879
  0
ARC
  5
2AE
100
AcDbEntity
  8
0
100
AcDbCircle
 62
7
  6
CONTINUOUS
 10
123.2656771892
 20
122.3665930249
 40
7.7829798278
100
AcDbArc
 50
254.9352160121
 51
265.5786072777
  0
ARC
  5
2AF
100
AcDbEntity
  8
0
100
AcDbCircle
 62
7
  6
CONTINUOUS
 10
133.4417283212
 20
31.7410682866
 40
3.5300798708
100
AcDbArc
 50
83.2502515602
 51
90.4228327748
  0
ARC
  5
2B0
100
AcDbEntity
  8
0
100
AcDbCircle
 62
7
  6
CONTINUOUS
 10
113.0896247226
 20
31.7410924268
 40
3.5300557411
100
AcDbArc
 50
89.5771426735
 51
96.7497728786
  0
ARC
  5
2B1
100
AcDbEntity
  8
0
100
AcDbCircle
 62
7
  6
CONTINUOUS
 10
113.7656771892
 20
122.5832243579
 40
1.0
100
AcDbArc
 50
38.2993946494
 51
90.0
  0
ARC
  5
2B2
100
AcDbEntity
  8
0
100
AcDbCircle
 62
7
  6
CONTINUOUS
 10
113.7656771892
 20
122.5832243579
 40
1.0
100
AcDbArc
 50
329.808783737
 51
20.3332425935
  0
ARC
  5
2B3
100
AcDbEntity
  8
0
100
AcDbCircle
 62
7
  6
CONTINUOUS
 10
110.3656771892
 20
122.5832243579
 40
1.0
100
AcDbArc
 50
90.0
 51
210.191216263
  0
ARC
  5
2B4
100
AcDbEntity
  8
0
100
AcDbCircle
 62
7
  6
CONTINUOUS
 10
136.3156771892
 20
122.5832243579
 40
1.0
100
AcDbArc
 50
329.808783737
 51
90.0
  0
ARC
  5
2B5
100
AcDbEntity
  8
0
100
AcDbCircle
 62
7
  6
CONTINUOUS
 10
132.9156771892
 20
122.5832243579
 40
1.0
100
AcDbArc
 50
90.0
 51
133.7708646681
  0
ARC
  5
2B6
100
AcDbEntity
  8
0
100
AcDbCircle
 62
7
  6
CONTINUOUS
 10
132.9156771892
 20
122.5832243579
 40
1.0
100
AcDbArc
 50
155.4357693147
 51
210.191216263
  0
SPLINE
  5
2B7
100
AcDbEntity
  8
0
100
AcDbSpline
 62
7
  6
CONTINUOUS
 70
0
 71
3
 72
13
 73
9
 74
0
 42
0.0000001
 43
0.0000001
 44
0.0000000001
 40
0.0
 40
0.0
 40
0.0
 40
0.0
 40
0.3118539946
 40
0.5859272298
 40
0.7048929633
 40
0.8123167486
 40
0.9097932402
 40
1.0
 40
1.0
 40
1.0
 40
1.0
 10
138.2919164186
 20
35.3092908465
 30
0.0
 10
138.3369986417
 20
35.3116077346
 30
0.0
 10
138.4233466273
 20
35.2994752156
 30
0.0
 10
138.51493558
 20
35.2497415193
 30
0.0
 10
138.567328007
 20
35.1992118972
 30
0.0
 10
138.5946075955
 20
35.1606969065
 30
0.0
 10
138.6115454079
 20
35.1210990322
 30
0.0
 10
138.6156771892
 20
35.0938362054
 30
0.0
 10
138.6156771892
 20
35.0807785301
 30
0.0
  0
SPLINE
  5
2B8
100
AcDbEntity
  8
0
100
AcDbSpline
 62
7
  6
CONTINUOUS
 70
0
 71
3
 72
13
 73
9
 74
0
 42
0.0000001
 43
0.0000001
 44
0.0000000001
 40
0.0
 40
0.0
 40
0.0
 40
0.0
 40
0.1298789009
 40
0.2589616925
 40
0.3869454631
 40
0.5135305353
 40
0.7612828855
 40
1.0
 40
1.0
 40
1.0
 40
1.0
 10
138.29191644
 20
35.3092908476
 30
0.0
 10
138.0999080939
 20
35.2994230591
 30
0.0
 10
137.7171587112
 20
35.2779944133
 30
0.0
 10
137.1453844047
 20
35.2437381323
 30
0.0
 10
136.5783574811
 20
35.2116885396
 30
0.0
 10
135.8355222969
 20
35.177817691
 30
0.0
 10
134.9278079664
 20
35.1625658396
 30
0.0
 10
134.207521633
 20
35.2048524151
 30
0.0
 10
133.8566293305
 20
35.2466810785
 30
0.0
  0
SPLINE
  5
2B9
100
AcDbEntity
  8
0
100
AcDbSpline
 62
7
  6
CONTINUOUS
 70
0
 71
3
 72
13
 73
9
 74
0
 42
0.0000001
 43
0.0000001
 44
0.0000000001
 40
0.0
 40
0.0
 40
0.0
 40
0.0
 40
0.3118541035
 40
0.585927322
 40
0.7048930266
 40
0.8123167873
 40
0.9097932562
 40
1.0
 40
1.0
 40
1.0
 40
1.0
 10
108.2394379598
 20
35.3092908466
 30
0.0
 10
108.1943556966
 20
35.3116077368
 30
0.0
 10
108.1080076488
 20
35.2994751941
 30
0.0
 10
108.0164186572
 20
35.2497414264
 30
0.0
 10
107.9640262416
 20
35.1992117498
 30
0.0
 10
107.9367466767
 20
35.1606967238
 30
0.0
 10
107.9198089049
 20
35.1210988157
 30
0.0
 10
107.915677165
 20
35.093835972
 30
0.0
 10
107.9156771892
 20
35.080778292
 30
0.0
  0
SPLINE
  5
2BA
100
AcDbEntity
  8
0
100
AcDbSpline
 62
7
  6
CONTINUOUS
 70
0
 71
3
 72
13
 73
9
 74
0
 42
0.0000001
 43
0.0000001
 44
0.0000000001
 40
0.0
 40
0.0
 40
0.0
 40
0.0
 40
0.2387170672
 40
0.4864694103
 40
0.6130544875
 40
0.7410382661
 40
0.87012108
 40
1.0
 40
1.0
 40
1.0
 40
1.0
 10
112.6747250541
 20
35.2466810793
 30
0.0
 10
112.3238328229
 20
35.2048524244
 30
0.0
 10
111.6035465745
 20
35.1625656403
 30
0.0
 10
110.6958323433
 20
35.1778179727
 30
0.0
 10
109.9529971042
 20
35.211687744
 30
0.0
 10
109.3859701816
 20
35.2437382843
 30
0.0
 10
108.814195798
 20
35.2779944229
 30
0.0
 10
108.4314463551
 20
35.2994230548
 30
0.0
 10
108.2394379818
 20
35.3092908454
 30
0.0
  0
SPLINE
  5
2BB
100
AcDbEntity
  8
0
100
AcDbSpline
 62
7
  6
CONTINUOUS
 70
0
 71
3
 72
9
 73
5
 74
0
 42
0.0000001
 43
0.0000001
 44
0.0000000001
 40
0.0
 40
0.0
 40
0.0
 40
0.0
 40
0.5
 40
1.0
 40
1.0
 40
1.0
 40
1.0
 10
138.9656771892
 20
36.2852795405
 30
0.0
 10
133.7323445307
 20
36.282534806
 30
0.0
 10
123.2656771892
 20
36.2839073266
 30
0.0
 10
112.7990098478
 20
36.282534806
 30
0.0
 10
107.5656771892
 20
36.2852795405
 30
0.0
  0
SPLINE
  5
2BC
100
AcDbEntity
  8
0
100
AcDbSpline
 62
7
  6
CONTINUOUS
 70
0
 71
3
 72
12
 73
8
 74
0
 42
0.0000001
 43
0.0000001
 44
0.0000000001
 40
0.0
 40
0.0
 40
0.0
 40
0.0
 40
0.3293231331
 40
0.6000816157
 40
0.8167021876
 40
0.9107959707
 40
1.0
 40
1.0
 40
1.0
 40
1.0
 10
122.3247999047
 20
38.3653327829
 30
0.0
 10
122.2574488565
 20
38.3855258878
 30
0.0
 10
122.1368989392
 20
38.4311921045
 30
0.0
 10
121.9879134195
 20
38.5241744251
 30
0.0
 10
121.9034331723
 20
38.6193949891
 30
0.0
 10
121.8709686996
 20
38.6991955211
 30
0.0
 10
121.8656771892
 20
38.7384970689
 30
0.0
 10
121.8656771892
 20
38.7575428233
 30
0.0
  0
SPLINE
  5
2BD
100
AcDbEntity
  8
0
100
AcDbSpline
 62
7
  6
CONTINUOUS
 70
0
 71
3
 72
13
 73
9
 74
0
 42
0.0000001
 43
0.0000001
 44
0.0000000001
 40
0.0
 40
0.0
 40
0.0
 40
0.0
 40
0.3303144401
 40
0.6015078003
 40
0.7159484098
 40
0.8183258967
 40
0.9116732403
 40
1.0
 40
1.0
 40
1.0
 40
1.0
 10
122.3440004442
 20
37.2494021533
 30
0.0
 10
122.2740073787
 20
37.2693608689
 30
0.0
 10
122.1488322087
 20
37.3147608955
 30
0.0
 10
122.0124341817
 20
37.3975606457
 30
0.0
 10
121.9351773568
 20
37.4730212313
 30
0.0
 10
121.8954595937
 20
37.5292127614
 30
0.0
 10
121.8712095728
 20
37.5875322279
 30
0.0
 10
121.8656771892
 20
37.6277405014
 30
0.0
 10
121.8656771892
 20
37.6472028516
 30
0.0
  0
LINE
  5
2BE
100
AcDbEntity
  8
0
100
AcDbLine
 62
7
  6
CONTINUOUS
 10
107.2656771892
 20
37.5353077523
 11
107.5656771913
 21
37.5352228582
  0
SPLINE
  5
2BF
100
AcDbEntity
  8
0
100
AcDbSpline
 62
7
  6
CONTINUOUS
 70
0
 71
3
 72
29
 73
25
 74
0
 42
0.0000001
 43
0.0000001
 44
0.0000000001
 40
0.0
 40
0.0
 40
0.0
 40
0.0
 40
0.0052849866
 40
0.0146716613
 40
0.0283144507
 40
0.0461632675
 40
0.0680631898
 40
0.0938313564
 40
0.1560225729
 40
0.2305624104
 40
0.3147936723
 40
0.4056941235
 40
0.4999913593
 40
0.5942885235
 40
0.6851893756
 40
0.769423
 40
0.8439668719
 40
0.9061622977
 40
0.9319325829
 40
0.9538339124
 40
0.9716838936
 40
0.9853273564
 40
0.9947147039
 40
1.0
 40
1.0
 40
1.0
 40
1.0
 10
127.7599139749
 20
108.1973582985
 30
0.0
 10
127.7486821417
 20
108.2085966985
 30
0.0
 10
127.7056026976
 20
108.224883388
 30
0.0
 10
127.6241649525
 20
108.2456198808
 30
0.0
 10
127.5022864964
 20
108.2658381872
 30
0.0
 10
127.3432594265
 20
108.2860200425
 30
0.0
 10
127.1471414187
 20
108.3054220305
 30
0.0
 10
126.8179354744
 20
108.3317500071
 30
0.0
 10
126.3301346634
 20
108.3599414032
 30
0.0
 10
125.666353048
 20
108.386525498
 30
0.0
 10
124.9159737696
 20
108.4063084891
 30
0.0
 10
124.1060374162
 20
108.4185199871
 30
0.0
 10
123.2657563313
 20
108.42264352
 30
0.0
 10
122.4254740339
 20
108.418521423
 30
0.0
 10
121.6155295675
 20
108.4063112831
 30
0.0
 10
120.8651298072
 20
108.3865299077
 30
0.0
 10
120.2013162404
 20
108.3599465132
 30
0.0
 10
119.7134842977
 20
108.3317539718
 30
0.0
 10
119.3842550143
 20
108.3054262331
 30
0.0
 10
119.1881229068
 20
108.2860232388
 30
0.0
 10
119.0290861379
 20
108.265840925
 30
0.0
 10
118.9072000144
 20
108.2456214952
 30
0.0
 10
118.825757745
 20
108.2248844378
 30
0.0
 10
118.7826742575
 20
108.2085987321
 30
0.0
 10
118.7714417728
 20
108.1973596679
 30
0.0
  0
SPLINE
  5
2C0
100
AcDbEntity
  8
0
100
AcDbSpline
 62
7
  6
CONTINUOUS
 70
0
 71
3
 72
11
 73
7
 74
0
 42
0.0000001
 43
0.0000001
 44
0.0000000001
 40
0.0
 40
0.0
 40
0.0
 40
0.0
 40
0.0962256097
 40
0.2974771091
 40
0.6005003914
 40
1.0
 40
1.0
 40
1.0
 40
1.0
 10
127.7595338297
 20
117.0641556384
 30
0.0
 10
127.7365943874
 20
117.0603335622
 30
0.0
 10
127.6644319267
 20
117.0585118469
 30
0.0
 10
127.519640146
 20
117.0525653398
 30
0.0
 10
127.3011245493
 20
117.0488256051
 30
0.0
 10
127.1314006344
 20
117.0460454324
 30
0.0
 10
127.0348587595
 20
117.0447540204
 30
0.0
  0
SPLINE
  5
2C1
100
AcDbEntity
  8
0
100
AcDbSpline
 62
7
  6
CONTINUOUS
 70
0
 71
3
 72
11
 73
7
 74
0
 42
0.0000001
 43
0.0000001
 44
0.0000000001
 40
0.0
 40
0.0
 40
0.0
 40
0.0
 40
0.3994993363
 40
0.7025228152
 40
0.9037744467
 40
1.0
 40
1.0
 40
1.0
 40
1.0
 10
119.4965102309
 20
117.0447538244
 30
0.0
 10
119.3999664732
 20
117.0460452452
 30
0.0
 10
119.2302391516
 20
117.0488254487
 30
0.0
 10
119.011719128
 20
117.052565186
 30
0.0
 10
118.8669243625
 20
117.0585118133
 30
0.0
 10
118.7947604203
 20
117.0603334865
 30
0.0
 10
118.7718205291
 20
117.0641556416
 30
0.0
  0
ELLIPSE
  5
2C2
100
AcDbEntity
  8
0
100
AcDbEllipse
 62
7
  6
CONTINUOUS
 10
123.2656771892
 20
108.1859235409
 30
0.0
 11
3.0
 21
-0.0
 31
0.0
 40
0.0528966634
 41
0.0523598776
 42
3.089232776
  0
ELLIPSE
  5
2C3
100
AcDbEntity
  8
0
100
AcDbEllipse
 62
7
  6
CONTINUOUS
 10
123.2656771892
 20
87.2596507109
 30
0.0
 11
0.0
 21
-32.176426353
 31
0.0
 40
0.09323596
 41
-1.518436326
 42
0.0000000003
  0
ELLIPSE
  5
2C4
100
AcDbEntity
  8
0
100
AcDbEllipse
 62
7
  6
CONTINUOUS
 10
123.2656771892
 20
87.2596507109
 30
0.0
 11
0.0
 21
32.176426353
 31
0.0
 40
0.09323596
 41
-3.1415926515
 42
-1.6231563277
  0
ENDSEC
  0
SECTION
  2
OBJECTS
  0
DICTIONARY
  5
C
100
AcDbDictionary
280
0
281
1
  3
ACAD_GROUP
350
D
  3
ACAD_MLINESTYLE
350
17
  3
ACAD_LAYOUT
350
1A
  3
ACAD_PLOTSETTINGS
350
19
  3
ACAD_PLOTSTYLENAME
350
E
  0
DICTIONARY
  5
D
102
{ACAD_REACTORS
330
C
102
}
100
AcDbDictionary
280
0
281
1
  0
ACDBDICTIONARYWDFLT
  5
E
102
{ACAD_REACTORS
330
C
102
}
100
AcDbDictionary
281
1
  3
Normal
350
F
100
AcDbDictionaryWithDefault
340
F
  0
DICTIONARY
  5
17
102
{ACAD_REACTORS
330
C
102
}
100
AcDbDictionary
280
0
281
1
  3
Standard
350
18
  0
DICTIONARY
  5
19
102
{ACAD_REACTORS
330
C
102
}
100
AcDbDictionary
281
1
  0
DICTIONARY
  5
1A
102
{ACAD_REACTORS
330
C
102
}
100
AcDbDictionary
281
1
  3
Model
350
2C5
  3
Layout1
350
2C6
  0
ACDBPLACEHOLDER
  5
F
102
{ACAD_REACTORS
330
E
102
}
  0
MLINESTYLE
  5
18
102
{ACAD_REACTORS
330
17
102
}
100
AcDbMlineStyle
  2
STANDARD
 70
0
  3

 62
256
 51
90.0
 52
90.0
 71
2
 49
0.5
 62
256
  6
BYLAYER
 49
-0.5
 62
256
  6
BYLAYER
  0
LAYOUT
  5
2C5
102
{ACAD_REACTORS
330
1A
102
}
100
AcDbPlotSettings
  1

  2
none_device
  4
ANSI_C_(22.00_x_17.00_Inches)
  6

 40
0.0
 41
0.0
 42
0.0
 43
0.0
 44
558.8
 45
431.8
 46
0.0
 47
0.0
 48
0.0
 49
0.0
140
0.0
141
0.0
142
1.0
143
1.0
 70
1024
 72
1
 73
0
 74
0
  7

 75
0
147
1.0
148
0.0
149
0.0
100
AcDbLayout
  1
Model
 70
0
 71
0
 10
0.0
 20
0.0
 11
558.8
 21
431.8
 12
0.0
 22
0.0
 32
0.0
 14
0.0
 24
0.0
 34
0.0
 15
0.0
 25
0.0
 35
0.0
146
0.0
 13
0.0
 23
0.0
 33
0.0
 16
1.0
 26
0.0
 36
0.0
 17
0.0
 27
1.0
 37
0.0
 76
0
330
216
345
0
346
0
  0
LAYOUT
  5
2C6
102
{ACAD_REACTORS
330
1A
102
}
100
AcDbPlotSettings
  1

  2
none_device
  4
ANSI_C_(22.00_x_17.00_Inches)
  6

 40
0.0
 41
0.0
 42
0.0
 43
0.0
 44
558.8
 45
431.8
 46
0.0
 47
0.0
 48
0.0
 49
0.0
140
0.0
141
0.0
142
1.0
143
1.0
 70
0
 72
1
 73
0
 74
0
  7

 75
0
147
1.0
148
0.0
149
0.0
100
AcDbLayout
  1
Layout1
 70
0
 71
1
 10
0.0
 20
0.0
 11
558.8
 21
431.8
 12
0.0
 22
0.0
 32
0.0
 14
0.0
 24
0.0
 34
0.0
 15
0.0
 25
0.0
 35
0.0
146
0.0
 13
0.0
 23
0.0
 33
0.0
 16
1.0
 26
0.0
 36
0.0
 17
0.0
 27
1.0
 37
0.0
 76
0
330
217
345
0
346
0
  0
ENDSEC
  0
EOF
