999
DXF file: C:\Users\sesa63760\Dev\_Creo\CAD\MCADID0000946_3D-CAD\drw0001_5.dxf
999
Pro/ENGINEER 2019471 by Parametric Technology Corporation
  0
SECTION
  2
HEADER
  9
$ACADVER
  1
AC1024
  9
$DWGCODEPAGE
  3
ANSI_1252
  9
$EXTMAX
 10
232.0775511102
 20
328.2239651416
 30
0.0
  9
$EXTMIN
 10
0.0
 20
0.0
 30
0.0
  9
$LIMMIN
 10
0.0
 20
0.0
  9
$LIMMAX
 10
232.0775511102
 20
328.2239651416
  9
$VIEWCTR
 10
116.0387755551
 20
164.1119825708
  9
$VIEWSIZE
 40
328.2239651416
  9
$CLAYER
  8
0
  9
$LTSCALE
 40
21.39533995
  9
$CELTYPE
  6
BYLAYER
  9
$DIMSCALE
 40
1.0
  9
$DIMASZ
 40
2.7628279894
  9
$DIMEXO
 40
1.0
  9
$DIMDLI
 40
14.7822348745
  9
$DIMEXE
 40
1.0
  9
$DIMCEN
 40
3.5010556282
  9
$DIMLFAC
 40
1.0
  9
$DIMBLK
  1
_FILLED
  9
$DIMALT
 70
0
  9
$DIMALTF
 40
0.0393700787
  9
$DIMTXT
 40
3.8679591852
  9
$DIMTOL
 70
1
  9
$DIMLIM
 70
0
  9
$DIMTFAC
 40
1.0
  9
$DIMTP
 40
0.01
  9
$DIMTM
 40
0.01
  9
$DIMGAP
 40
0.625
  9
$DIMDSEP
 70
46
  9
$AUNITS
 70
0
  9
$PDMODE
 70
3
  9
$PDSIZE
 40
0.3125
  9
$HANDSEED
  5
3A0
  9
$TILEMODE
 70
1
  9
$MEASUREMENT
 70
1
  9
$INSUNITS
 70
4
  0
ENDSEC
  0
SECTION
  2
CLASSES
  0
CLASS
  1
ACDBDICTIONARYWDFLT
  2
AcDbDictionaryWithDefault
  3
AutoCAD 2000
 90
0
 91
1
280
0
281
0
  0
CLASS
  1
ACDBPLACEHOLDER
  2
AcDbPlaceHolder
  3
AutoCAD 2000
 90
0
 91
1
280
0
281
0
  0
CLASS
  1
LAYOUT
  2
AcDbLayout
  3
AutoCAD 2000
 90
0
 91
0
280
0
281
0
  0
ENDSEC
  0
SECTION
  2
TABLES
  0
TABLE
  2
VPORT
  5
8
100
AcDbSymbolTable
 70
2
  0
VPORT
  5
1F4
100
AcDbSymbolTableRecord
100
AcDbViewportTableRecord
  2
*ACTIVE
 70
0
 10
0.0
 20
0.0
 11
1.0
 21
1.0
 12
116.0387755551
 22
164.1119825708
 13
0.0
 23
0.0
 14
1.0
 24
1.0
 15
0.0
 25
0.0
 16
0.0
 26
0.0
 36
1.0
 17
0.0
 27
0.0
 37
0.0
 40
328.2239651416
 41
0.7070707071
 42
50.0
 43
0.0
 44
0.0
 50
0.0
 51
0.0
 71
0
 72
100
 73
1
 74
1
 75
0
 76
0
 77
0
 78
0
  0
ENDTAB
  0
TABLE
  2
LTYPE
  5
5
100
AcDbSymbolTable
 70
6
  0
LTYPE
  5
14
100
AcDbSymbolTableRecord
100
AcDbLinetypeTableRecord
  2
BYBLOCK
 70
0
  3

 72
65
 73
0
 40
0.0
  0
LTYPE
  5
15
100
AcDbSymbolTableRecord
100
AcDbLinetypeTableRecord
  2
BYLAYER
 70
0
  3

 72
65
 73
0
 40
0.0
  0
LTYPE
  5
16
100
AcDbSymbolTableRecord
100
AcDbLinetypeTableRecord
  2
CONTINUOUS
 70
64
  3
Solid line
 72
65
 73
0
 40
0.0
  0
LTYPE
  5
1F5
100
AcDbSymbolTableRecord
100
AcDbLinetypeTableRecord
  2
CENTER
 70
64
  3
____ _ ____ _ ____ _ ____ _ ____ _ ____ _ ____
 72
65
 73
4
 40
0.6
 49
0.375
 74
0
 49
-0.075
 74
0
 49
0.075
 74
0
 49
-0.075
 74
0
  0
LTYPE
  5
1F6
100
AcDbSymbolTableRecord
100
AcDbLinetypeTableRecord
  2
HIDDEN
 70
64
  3
- - - - - - - - - - - - - - - - - - - -
 72
65
 73
2
 40
0.2
 49
0.1
 74
0
 49
-0.1
 74
0
  0
LTYPE
  5
1F7
100
AcDbSymbolTableRecord
100
AcDbLinetypeTableRecord
  2
PHANTOM
 70
64
  3
_____ _ _ _____ _ _ _____ _ _ _____
 72
65
 73
6
 40
0.8
 49
0.45
 74
0
 49
-0.05
 74
0
 49
0.1
 74
0
 49
-0.05
 74
0
 49
0.1
 74
0
 49
-0.05
 74
0
  0
LTYPE
  5
1F8
100
AcDbSymbolTableRecord
100
AcDbLinetypeTableRecord
  2
DOT
 70
64
  3
. . . . . . . . . . . . . . . . . . . .
 72
65
 73
2
 40
0.2
 49
0.1
 74
0
 49
-0.1
 74
0
  0
LTYPE
  5
1F9
100
AcDbSymbolTableRecord
100
AcDbLinetypeTableRecord
  2
DASHED
 70
64
  3
- - - - - - - - - - - - - - - - - - - -
 72
65
 73
2
 40
0.2
 49
0.1
 74
0
 49
-0.1
 74
0
  0
ENDTAB
  0
TABLE
  2
LAYER
  5
2
100
AcDbSymbolTable
 70
36
  0
LAYER
  5
10
100
AcDbSymbolTableRecord
100
AcDbLayerTableRecord
  2
0
 70
0
 62
7
  6
CONTINUOUS
370
-3
390
F
  0
LAYER
  5
1FA
100
AcDbSymbolTableRecord
100
AcDbLayerTableRecord
  2
DEFAULT_1
 70
0
 62
7
  6
CENTER
370
-3
390
F
  0
LAYER
  5
1FB
100
AcDbSymbolTableRecord
100
AcDbLayerTableRecord
  2
DEFAULT_2
 70
0
 62
8
  6
HIDDEN
370
-3
390
F
  0
LAYER
  5
1FC
100
AcDbSymbolTableRecord
100
AcDbLayerTableRecord
  2
DEFAULT_3
 70
0
 62
7
  6
PHANTOM
370
-3
390
F
  0
LAYER
  5
1FD
100
AcDbSymbolTableRecord
100
AcDbLayerTableRecord
  2
00_COMPONENTS
 70
0
 62
7
  6
CONTINUOUS
370
-3
390
F
  0
LAYER
  5
1FE
100
AcDbSymbolTableRecord
100
AcDbLayerTableRecord
  2
01_1_DEFAULT_DATUMS
 70
0
 62
7
  6
CONTINUOUS
370
-3
390
F
  0
LAYER
  5
1FF
100
AcDbSymbolTableRecord
100
AcDbLayerTableRecord
  2
01_PLANES
 70
0
 62
7
  6
CONTINUOUS
370
-3
390
F
  0
LAYER
  5
200
100
AcDbSymbolTableRecord
100
AcDbLayerTableRecord
  2
02_COORD_SYS
 70
0
 62
7
  6
CONTINUOUS
370
-3
390
F
  0
LAYER
  5
201
100
AcDbSymbolTableRecord
100
AcDbLayerTableRecord
  2
03_AXES
 70
0
 62
7
  6
CONTINUOUS
370
-3
390
F
  0
LAYER
  5
202
100
AcDbSymbolTableRecord
100
AcDbLayerTableRecord
  2
04_POINTS
 70
0
 62
7
  6
CONTINUOUS
370
-3
390
F
  0
LAYER
  5
203
100
AcDbSymbolTableRecord
100
AcDbLayerTableRecord
  2
05_CURVES
 70
0
 62
7
  6
CONTINUOUS
370
-3
390
F
  0
LAYER
  5
204
100
AcDbSymbolTableRecord
100
AcDbLayerTableRecord
  2
06_SURFS
 70
0
 62
7
  6
CONTINUOUS
370
-3
390
F
  0
LAYER
  5
205
100
AcDbSymbolTableRecord
100
AcDbLayerTableRecord
  2
07_COSMETICS
 70
0
 62
7
  6
CONTINUOUS
370
-3
390
F
  0
LAYER
  5
206
100
AcDbSymbolTableRecord
100
AcDbLayerTableRecord
  2
10_NOTES
 70
0
 62
7
  6
CONTINUOUS
370
-3
390
F
  0
LAYER
  5
207
100
AcDbSymbolTableRecord
100
AcDbLayerTableRecord
  2
11_NOTES_PUB
 70
0
 62
7
  6
CONTINUOUS
370
-3
390
F
  0
LAYER
  5
208
100
AcDbSymbolTableRecord
100
AcDbLayerTableRecord
  2
13_REF_GTOL
 70
0
 62
7
  6
CONTINUOUS
370
-3
390
F
  0
LAYER
  5
209
100
AcDbSymbolTableRecord
100
AcDbLayerTableRecord
  2
16_MISC
 70
0
 62
7
  6
CONTINUOUS
370
-3
390
F
  0
LAYER
  5
20A
100
AcDbSymbolTableRecord
100
AcDbLayerTableRecord
  2
17_NO_PRINT
 70
0
 62
7
  6
CONTINUOUS
370
-3
390
F
  0
LAYER
  5
20B
100
AcDbSymbolTableRecord
100
AcDbLayerTableRecord
  2
18_DATUM_CAMS_JOINTS
 70
0
 62
7
  6
CONTINUOUS
370
-3
390
F
  0
LAYER
  5
20C
100
AcDbSymbolTableRecord
100
AcDbLayerTableRecord
  2
19_DATUM_FUNCTIONAL
 70
0
 62
7
  6
CONTINUOUS
370
-3
390
F
  0
LAYER
  5
20D
100
AcDbSymbolTableRecord
100
AcDbLayerTableRecord
  2
20_DATUM_KINEMATIC_SCHEME
 70
0
 62
7
  6
CONTINUOUS
370
-3
390
F
  0
ENDTAB
  0
TABLE
  2
STYLE
  5
3
100
AcDbSymbolTable
 70
1
  0
STYLE
  5
11
100
AcDbSymbolTableRecord
100
AcDbTextStyleTableRecord
  2
STANDARD
 70
0
 40
0.0
 41
0.8
 50
0.0
 71
0
 42
0.2
  3
txt
  4

  0
STYLE
  5
20E
100
AcDbSymbolTableRecord
100
AcDbTextStyleTableRecord
  2
TEXTSTYLE_1
 70
0
 40
0.0
 41
0.8
 50
0.0
 71
0
 42
0.2
  3
gdt
  4

  0
ENDTAB
  0
TABLE
  2
VIEW
  5
6
100
AcDbSymbolTable
 70
0
  0
ENDTAB
  0
TABLE
  2
UCS
  5
7
100
AcDbSymbolTable
 70
0
  0
ENDTAB
  0
TABLE
  2
APPID
  5
9
100
AcDbSymbolTable
 70
1
  0
APPID
  5
20F
100
AcDbSymbolTableRecord
100
AcDbRegAppTableRecord
  2
ACAD
 70
0
  0
ENDTAB
  0
TABLE
  2
BLOCK_RECORD
  5
1
100
AcDbSymbolTable
 70
0
  0
BLOCK_RECORD
  5
210
100
AcDbSymbolTableRecord
100
AcDbBlockTableRecord
  2
*Model_Space
  0
BLOCK_RECORD
  5
211
100
AcDbSymbolTableRecord
100
AcDbBlockTableRecord
  2
*Paper_Space
  0
BLOCK_RECORD
  5
212
100
AcDbSymbolTableRecord
100
AcDbBlockTableRecord
  2
_FILLED
  0
ENDTAB
  0
TABLE
  2
DIMSTYLE
  5
A
100
AcDbSymbolTable
 70
1
100
AcDbDimStyleTable
 71
0
  0
DIMSTYLE
105
213
100
AcDbSymbolTableRecord
100
AcDbDimStyleTableRecord
  2
STANDARD
 70
0
  3

  4

 40
1.0
 41
2.7628279894
 42
1.0
 43
0.38
 44
1.0
 45
0.0
 46
0.0
 47
0.01
 48
0.01
140
3.8679591852
141
0.09
142
0.0
143
25.4
144
1.0
145
0.0
146
1.0
147
0.625
 71
1
 72
0
 73
0
 74
0
 75
0
 76
0
 77
1
 78
8
 79
2
170
0
171
1
172
0
173
0
174
0
175
0
176
0
177
0
178
0
270
2
179
2
271
2
272
2
273
2
274
2
275
0
280
0
281
0
282
0
283
1
284
8
285
0
286
0
287
3
288
0
340
11
278
46
341
212
342
212
343
212
344
212
  0
ENDTAB
  0
ENDSEC
  0
SECTION
  2
BLOCKS
  0
BLOCK
  5
20
100
AcDbEntity
  8
0
100
AcDbBlockBegin
  2
*Model_Space
 70
0
 10
0.0
 20
0.0
 30
0.0
  3
*Model_Space
  1

  0
ENDBLK
  5
21
100
AcDbEntity
  8
0
100
AcDbBlockEnd
  0
BLOCK
  5
1C
100
AcDbEntity
  8
0
100
AcDbBlockBegin
  2
*Paper_Space
 70
0
 10
0.0
 20
0.0
 30
0.0
  3
*Paper_Space
  1

  0
ENDBLK
  5
1D
100
AcDbEntity
  8
0
100
AcDbBlockEnd
  0
BLOCK
  5
214
100
AcDbEntity
  8
0
100
AcDbBlockBegin
  2
_FILLED
 70
64
 10
0.0
 20
0.0
  3
_FILLED
  1

  0
SOLID
  5
215
100
AcDbEntity
  8
0
  6
BYBLOCK
 62
0
100
AcDbTrace
 10
0.0
 20
0.0
 11
-1.0
 21
0.25
 12
-1.0
 22
-0.25
 13
-1.0
 23
-0.25
  0
ENDBLK
  5
216
100
AcDbEntity
  8
0
  6
BYBLOCK
 62
0
100
AcDbBlockEnd
  0
ENDSEC
  0
SECTION
  2
ENTITIES
  0
LINE
  5
217
100
AcDbEntity
  8
0
100
AcDbLine
 62
7
  6
CONTINUOUS
 10
27.0527189102
 20
149.6837254902
 11
27.0527189102
 21
225.1837254902
  0
LINE
  5
218
100
AcDbEntity
  8
0
100
AcDbLine
 62
7
  6
CONTINUOUS
 10
27.1527189102
 20
226.4337254902
 11
27.1527189102
 21
148.4337254902
  0
LINE
  5
219
100
AcDbEntity
  8
0
100
AcDbLine
 62
7
  6
CONTINUOUS
 10
27.4527189103
 20
229.7687153726
 11
27.4527189102
 21
85.4337254902
  0
LINE
  5
21A
100
AcDbEntity
  8
0
100
AcDbLine
 62
7
  6
CONTINUOUS
 10
32.4527189102
 20
217.2337254902
 11
32.4527189102
 21
214.5837254902
  0
LINE
  5
21B
100
AcDbEntity
  8
0
100
AcDbLine
 62
7
  6
CONTINUOUS
 10
32.4527189102
 20
211.5837254902
 11
32.4527189102
 21
208.9337254902
  0
LINE
  5
21C
100
AcDbEntity
  8
0
100
AcDbLine
 62
7
  6
CONTINUOUS
 10
32.4527189102
 20
205.9337254902
 11
32.4527189102
 21
203.2837254902
  0
LINE
  5
21D
100
AcDbEntity
  8
0
100
AcDbLine
 62
7
  6
CONTINUOUS
 10
32.4527189102
 20
200.2837254902
 11
32.4527189102
 21
197.6337254902
  0
LINE
  5
21E
100
AcDbEntity
  8
0
100
AcDbLine
 62
7
  6
CONTINUOUS
 10
32.4527189102
 20
194.6337254902
 11
32.4527189102
 21
191.9837254902
  0
LINE
  5
21F
100
AcDbEntity
  8
0
100
AcDbLine
 62
7
  6
CONTINUOUS
 10
32.4527189102
 20
188.9837254902
 11
32.4527189102
 21
186.3337254902
  0
LINE
  5
220
100
AcDbEntity
  8
0
100
AcDbLine
 62
7
  6
CONTINUOUS
 10
32.4527189102
 20
183.3337254902
 11
32.4527189102
 21
180.6837254902
  0
LINE
  5
221
100
AcDbEntity
  8
0
100
AcDbLine
 62
7
  6
CONTINUOUS
 10
32.4527189102
 20
177.6837254902
 11
32.4527189102
 21
175.0337254902
  0
LINE
  5
222
100
AcDbEntity
  8
0
100
AcDbLine
 62
7
  6
CONTINUOUS
 10
32.4527189102
 20
172.0337254902
 11
32.4527189102
 21
169.3837254902
  0
LINE
  5
223
100
AcDbEntity
  8
0
100
AcDbLine
 62
7
  6
CONTINUOUS
 10
32.4527189102
 20
166.3837254902
 11
32.4527189102
 21
163.7337254902
  0
LINE
  5
224
100
AcDbEntity
  8
0
100
AcDbLine
 62
7
  6
CONTINUOUS
 10
32.4527189102
 20
160.7337254902
 11
32.4527189102
 21
158.0837254902
  0
LINE
  5
225
100
AcDbEntity
  8
0
100
AcDbLine
 62
7
  6
CONTINUOUS
 10
32.4527189102
 20
155.0837254902
 11
32.4527189102
 21
152.4337254902
  0
LINE
  5
226
100
AcDbEntity
  8
0
100
AcDbLine
 62
7
  6
CONTINUOUS
 10
35.3094948389
 20
214.5837254902
 11
35.3094948389
 21
211.5837254902
  0
LINE
  5
227
100
AcDbEntity
  8
0
100
AcDbLine
 62
7
  6
CONTINUOUS
 10
35.3094948389
 20
208.9337254902
 11
35.3094948389
 21
205.9337254902
  0
LINE
  5
228
100
AcDbEntity
  8
0
100
AcDbLine
 62
7
  6
CONTINUOUS
 10
35.3094948389
 20
203.2837254902
 11
35.3094948389
 21
200.2837254902
  0
LINE
  5
229
100
AcDbEntity
  8
0
100
AcDbLine
 62
7
  6
CONTINUOUS
 10
35.3094948389
 20
197.6337254902
 11
35.3094948389
 21
194.6337254902
  0
LINE
  5
22A
100
AcDbEntity
  8
0
100
AcDbLine
 62
7
  6
CONTINUOUS
 10
35.3094948389
 20
191.9837254902
 11
35.3094948389
 21
188.9837254902
  0
LINE
  5
22B
100
AcDbEntity
  8
0
100
AcDbLine
 62
7
  6
CONTINUOUS
 10
35.3094948389
 20
186.3337254902
 11
35.3094948389
 21
183.3337254902
  0
LINE
  5
22C
100
AcDbEntity
  8
0
100
AcDbLine
 62
7
  6
CONTINUOUS
 10
35.3094948389
 20
180.6837254902
 11
35.3094948389
 21
177.6837254902
  0
LINE
  5
22D
100
AcDbEntity
  8
0
100
AcDbLine
 62
7
  6
CONTINUOUS
 10
35.3094948389
 20
175.0337254902
 11
35.3094948389
 21
172.0337254902
  0
LINE
  5
22E
100
AcDbEntity
  8
0
100
AcDbLine
 62
7
  6
CONTINUOUS
 10
35.3094948389
 20
169.3837254902
 11
35.3094948389
 21
166.3837254902
  0
LINE
  5
22F
100
AcDbEntity
  8
0
100
AcDbLine
 62
7
  6
CONTINUOUS
 10
35.3094948389
 20
163.7337254902
 11
35.3094948389
 21
160.7337254902
  0
LINE
  5
230
100
AcDbEntity
  8
0
100
AcDbLine
 62
7
  6
CONTINUOUS
 10
35.3094948389
 20
158.0837254902
 11
35.3094948389
 21
155.0837254902
  0
LINE
  5
231
100
AcDbEntity
  8
0
100
AcDbLine
 62
7
  6
CONTINUOUS
 10
35.3094948389
 20
152.4337254902
 11
35.3094948389
 21
93.4337254902
  0
LINE
  5
232
100
AcDbEntity
  8
0
100
AcDbLine
 62
7
  6
CONTINUOUS
 10
35.308908505
 20
230.1732886656
 11
35.309494839
 21
217.2337254902
  0
LINE
  5
233
100
AcDbEntity
  8
0
100
AcDbLine
 62
7
  6
CONTINUOUS
 10
35.4665027076
 20
217.2337254902
 11
35.4665027076
 21
214.5837254902
  0
LINE
  5
234
100
AcDbEntity
  8
0
100
AcDbLine
 62
7
  6
CONTINUOUS
 10
35.4665027076
 20
211.5837254902
 11
35.4665027076
 21
208.9337254902
  0
LINE
  5
235
100
AcDbEntity
  8
0
100
AcDbLine
 62
7
  6
CONTINUOUS
 10
35.4665027076
 20
205.9337254902
 11
35.4665027076
 21
203.2837254902
  0
LINE
  5
236
100
AcDbEntity
  8
0
100
AcDbLine
 62
7
  6
CONTINUOUS
 10
35.4665027076
 20
200.2837254902
 11
35.4665027076
 21
197.6337254902
  0
LINE
  5
237
100
AcDbEntity
  8
0
100
AcDbLine
 62
7
  6
CONTINUOUS
 10
35.4665027076
 20
194.6337254902
 11
35.4665027076
 21
191.9837254902
  0
LINE
  5
238
100
AcDbEntity
  8
0
100
AcDbLine
 62
7
  6
CONTINUOUS
 10
35.4665027076
 20
188.9837254902
 11
35.4665027076
 21
186.3337254902
  0
LINE
  5
239
100
AcDbEntity
  8
0
100
AcDbLine
 62
7
  6
CONTINUOUS
 10
35.4665027076
 20
183.3337254902
 11
35.4665027076
 21
180.6837254902
  0
LINE
  5
23A
100
AcDbEntity
  8
0
100
AcDbLine
 62
7
  6
CONTINUOUS
 10
35.4665027076
 20
177.6837254902
 11
35.4665027076
 21
175.0337254902
  0
LINE
  5
23B
100
AcDbEntity
  8
0
100
AcDbLine
 62
7
  6
CONTINUOUS
 10
35.4665027076
 20
172.0337254902
 11
35.4665027076
 21
169.3837254902
  0
LINE
  5
23C
100
AcDbEntity
  8
0
100
AcDbLine
 62
7
  6
CONTINUOUS
 10
35.4665027076
 20
166.3837254902
 11
35.4665027076
 21
163.7337254902
  0
LINE
  5
23D
100
AcDbEntity
  8
0
100
AcDbLine
 62
7
  6
CONTINUOUS
 10
35.4665027076
 20
160.7337254902
 11
35.4665027076
 21
158.0837254902
  0
LINE
  5
23E
100
AcDbEntity
  8
0
100
AcDbLine
 62
7
  6
CONTINUOUS
 10
35.4665027076
 20
155.0837254902
 11
35.4665027076
 21
152.4337254902
  0
LINE
  5
23F
100
AcDbEntity
  8
0
100
AcDbLine
 62
7
  6
CONTINUOUS
 10
39.7141247895
 20
152.4337254902
 11
39.7141247895
 21
155.0837254902
  0
LINE
  5
240
100
AcDbEntity
  8
0
100
AcDbLine
 62
7
  6
CONTINUOUS
 10
39.7141247895
 20
158.0837254902
 11
39.7141247895
 21
160.7337254902
  0
LINE
  5
241
100
AcDbEntity
  8
0
100
AcDbLine
 62
7
  6
CONTINUOUS
 10
39.7141247895
 20
163.7337254902
 11
39.7141247895
 21
166.3837254902
  0
LINE
  5
242
100
AcDbEntity
  8
0
100
AcDbLine
 62
7
  6
CONTINUOUS
 10
39.7141247895
 20
169.3837254902
 11
39.7141247895
 21
172.0337254902
  0
LINE
  5
243
100
AcDbEntity
  8
0
100
AcDbLine
 62
7
  6
CONTINUOUS
 10
39.7141247895
 20
175.0337254902
 11
39.7141247895
 21
177.6837254902
  0
LINE
  5
244
100
AcDbEntity
  8
0
100
AcDbLine
 62
7
  6
CONTINUOUS
 10
39.7141247895
 20
180.6837254902
 11
39.7141247895
 21
183.3337254902
  0
LINE
  5
245
100
AcDbEntity
  8
0
100
AcDbLine
 62
7
  6
CONTINUOUS
 10
39.7141247895
 20
186.3337254902
 11
39.7141247895
 21
188.9837254902
  0
LINE
  5
246
100
AcDbEntity
  8
0
100
AcDbLine
 62
7
  6
CONTINUOUS
 10
39.7141247895
 20
191.9837254902
 11
39.7141247895
 21
194.6337254902
  0
LINE
  5
247
100
AcDbEntity
  8
0
100
AcDbLine
 62
7
  6
CONTINUOUS
 10
39.7141247895
 20
197.6337254902
 11
39.7141247895
 21
200.2837254902
  0
LINE
  5
248
100
AcDbEntity
  8
0
100
AcDbLine
 62
7
  6
CONTINUOUS
 10
39.7141247895
 20
203.2837254902
 11
39.7141247895
 21
205.9337254902
  0
LINE
  5
249
100
AcDbEntity
  8
0
100
AcDbLine
 62
7
  6
CONTINUOUS
 10
39.7141247895
 20
208.9337254902
 11
39.7141247895
 21
211.5837254902
  0
LINE
  5
24A
100
AcDbEntity
  8
0
100
AcDbLine
 62
7
  6
CONTINUOUS
 10
39.7141247895
 20
214.5837254902
 11
39.7141247895
 21
217.2337254902
  0
LINE
  5
24B
100
AcDbEntity
  8
0
100
AcDbLine
 62
7
  6
CONTINUOUS
 10
40.0409627315
 20
93.4337254902
 11
40.0409627315
 21
152.4337254902
  0
LINE
  5
24C
100
AcDbEntity
  8
0
100
AcDbLine
 62
7
  6
CONTINUOUS
 10
40.0409627315
 20
155.0837254902
 11
40.0409627315
 21
158.0837254902
  0
LINE
  5
24D
100
AcDbEntity
  8
0
100
AcDbLine
 62
7
  6
CONTINUOUS
 10
40.0409627315
 20
160.7337254902
 11
40.0409627315
 21
163.7337254902
  0
LINE
  5
24E
100
AcDbEntity
  8
0
100
AcDbLine
 62
7
  6
CONTINUOUS
 10
40.0409627315
 20
166.3837254902
 11
40.0409627315
 21
169.3837254902
  0
LINE
  5
24F
100
AcDbEntity
  8
0
100
AcDbLine
 62
7
  6
CONTINUOUS
 10
40.0409627315
 20
172.0337254902
 11
40.0409627315
 21
175.0337254902
  0
LINE
  5
250
100
AcDbEntity
  8
0
100
AcDbLine
 62
7
  6
CONTINUOUS
 10
40.0409627315
 20
177.6837254902
 11
40.0409627315
 21
180.6837254902
  0
LINE
  5
251
100
AcDbEntity
  8
0
100
AcDbLine
 62
7
  6
CONTINUOUS
 10
40.0409627315
 20
183.3337254902
 11
40.0409627315
 21
186.3337254902
  0
LINE
  5
252
100
AcDbEntity
  8
0
100
AcDbLine
 62
7
  6
CONTINUOUS
 10
40.0409627315
 20
188.9837254902
 11
40.0409627315
 21
191.9837254902
  0
LINE
  5
253
100
AcDbEntity
  8
0
100
AcDbLine
 62
7
  6
CONTINUOUS
 10
40.0409627315
 20
194.6337254902
 11
40.0409627315
 21
197.6337254902
  0
LINE
  5
254
100
AcDbEntity
  8
0
100
AcDbLine
 62
7
  6
CONTINUOUS
 10
40.0409627315
 20
200.2837254902
 11
40.0409627315
 21
203.2837254902
  0
LINE
  5
255
100
AcDbEntity
  8
0
100
AcDbLine
 62
7
  6
CONTINUOUS
 10
40.0409627315
 20
205.9337254902
 11
40.0409627315
 21
208.9337254902
  0
LINE
  5
256
100
AcDbEntity
  8
0
100
AcDbLine
 62
7
  6
CONTINUOUS
 10
40.0409627315
 20
211.5837254902
 11
40.0409627315
 21
214.5837254902
  0
LINE
  5
257
100
AcDbEntity
  8
0
100
AcDbLine
 62
7
  6
CONTINUOUS
 10
40.0409627315
 20
217.2337254902
 11
40.0409627307
 21
230.3927869907
  0
LINE
  5
258
100
AcDbEntity
  8
0
100
AcDbLine
 62
7
  6
CONTINUOUS
 10
40.4527189103
 20
230.4076787757
 11
40.4527189103
 21
93.4337254902
  0
LINE
  5
259
100
AcDbEntity
  8
0
100
AcDbLine
 62
7
  6
CONTINUOUS
 10
45.4527189102
 20
237.4337254902
 11
45.4527189102
 21
230.5144750017
  0
LINE
  5
25A
100
AcDbEntity
  8
0
100
AcDbLine
 62
7
  6
CONTINUOUS
 10
46.4527189102
 20
222.8450091042
 11
46.4527189102
 21
220.202231048
  0
LINE
  5
25B
100
AcDbEntity
  8
0
100
AcDbLine
 62
7
  6
CONTINUOUS
 10
46.4527189102
 20
217.2104493192
 11
46.4527189102
 21
214.5677466078
  0
LINE
  5
25C
100
AcDbEntity
  8
0
100
AcDbLine
 62
7
  6
CONTINUOUS
 10
46.4527189102
 20
211.5760508421
 11
46.4527189102
 21
208.9334246598
  0
LINE
  5
25D
100
AcDbEntity
  8
0
100
AcDbLine
 62
7
  6
CONTINUOUS
 10
46.4527189102
 20
205.941816211
 11
46.4527189102
 21
203.2992677664
  0
LINE
  5
25E
100
AcDbEntity
  8
0
100
AcDbLine
 62
7
  6
CONTINUOUS
 10
46.4527189102
 20
200.3077480169
 11
46.4527189102
 21
197.6652785436
  0
LINE
  5
25F
100
AcDbEntity
  8
0
100
AcDbLine
 62
7
  6
CONTINUOUS
 10
46.4527189102
 20
194.673848906
 11
46.4527189102
 21
192.0314596643
  0
LINE
  5
260
100
AcDbEntity
  8
0
100
AcDbLine
 62
7
  6
CONTINUOUS
 10
46.4527189102
 20
189.0401215797
 11
46.4527189102
 21
186.3978138569
  0
LINE
  5
261
100
AcDbEntity
  8
0
100
AcDbLine
 62
7
  6
CONTINUOUS
 10
46.4527189102
 20
183.4065687983
 11
46.4527189102
 21
180.7643439091
  0
LINE
  5
262
100
AcDbEntity
  8
0
100
AcDbLine
 62
7
  6
CONTINUOUS
 10
46.4527189102
 20
177.7731933804
 11
46.4527189102
 21
175.1310526683
  0
LINE
  5
263
100
AcDbEntity
  8
0
100
AcDbLine
 62
7
  6
CONTINUOUS
 10
46.4527189102
 20
172.1399982076
 11
46.4527189102
 21
169.4979430452
  0
LINE
  5
264
100
AcDbEntity
  8
0
100
AcDbLine
 62
7
  6
CONTINUOUS
 10
46.4527189102
 20
166.5022850803
 11
46.4527189102
 21
163.856141519
  0
LINE
  5
265
100
AcDbEntity
  8
0
100
AcDbLine
 62
7
  6
CONTINUOUS
 10
197.4527189102
 20
85.4337254902
 11
27.4527189102
 21
85.4337254902
  0
LINE
  5
266
100
AcDbEntity
  8
0
100
AcDbLine
 62
7
  6
CONTINUOUS
 10
94.4527189102
 20
93.2337254902
 11
130.4527189102
 21
93.2337254902
  0
LINE
  5
267
100
AcDbEntity
  8
0
100
AcDbLine
 62
7
  6
CONTINUOUS
 10
27.4527189102
 20
93.4337254902
 11
40.4527189103
 21
93.4337254902
  0
LINE
  5
268
100
AcDbEntity
  8
0
100
AcDbLine
 62
7
  6
CONTINUOUS
 10
184.4527189101
 20
93.4337254902
 11
197.4527189102
 21
93.4337254902
  0
LINE
  5
269
100
AcDbEntity
  8
0
100
AcDbLine
 62
7
  6
CONTINUOUS
 10
130.4527189102
 20
93.5976957245
 11
94.4527189102
 21
93.5976957245
  0
LINE
  5
26A
100
AcDbEntity
  8
0
100
AcDbLine
 62
7
  6
CONTINUOUS
 10
130.4527189102
 20
101.7337254902
 11
94.4527189102
 21
101.7337254902
  0
LINE
  5
26B
100
AcDbEntity
  8
0
100
AcDbLine
 62
7
  6
CONTINUOUS
 10
67.4527189102
 20
161.4927279027
 11
67.4527189102
 21
158.8482550342
  0
LINE
  5
26C
100
AcDbEntity
  8
0
100
AcDbLine
 62
7
  6
CONTINUOUS
 10
67.4527189102
 20
155.8476561651
 11
67.4527189102
 21
153.1971242357
  0
LINE
  5
26D
100
AcDbEntity
  8
0
100
AcDbLine
 62
7
  6
CONTINUOUS
 10
70.9546585066
 20
172.82839708
 11
70.9546585066
 21
170.1880928508
  0
LINE
  5
26E
100
AcDbEntity
  8
0
100
AcDbLine
 62
7
  6
CONTINUOUS
 10
70.9913271997
 20
167.195032087
 11
70.9913271997
 21
164.5506628743
  0
LINE
  5
26F
100
AcDbEntity
  8
0
100
AcDbLine
 62
7
  6
CONTINUOUS
 10
71.0322331161
 20
178.4591450598
 11
71.0322331161
 21
175.8187397063
  0
LINE
  5
270
100
AcDbEntity
  8
0
100
AcDbLine
 62
7
  6
CONTINUOUS
 10
71.139688136
 20
161.5595044124
 11
71.1396881361
 21
158.9152034092
  0
LINE
  5
271
100
AcDbEntity
  8
0
100
AcDbLine
 62
7
  6
CONTINUOUS
 10
71.223206315
 20
184.0919019494
 11
71.223206315
 21
181.4514016079
  0
LINE
  5
272
100
AcDbEntity
  8
0
100
AcDbLine
 62
7
  6
CONTINUOUS
 10
71.4032578534
 20
155.9190922206
 11
71.4032578534
 21
153.2687455886
  0
LINE
  5
273
100
AcDbEntity
  8
0
100
AcDbLine
 62
7
  6
CONTINUOUS
 10
71.5279109715
 20
189.7265794459
 11
71.5279109714
 21
187.0859899352
  0
LINE
  5
274
100
AcDbEntity
  8
0
100
AcDbLine
 62
7
  6
CONTINUOUS
 10
69.7348619491
 20
243.5937254902
 11
69.3041127875
 21
237.4337254902
  0
LINE
  5
275
100
AcDbEntity
  8
0
100
AcDbLine
 62
7
  6
CONTINUOUS
 10
71.9468105412
 20
195.3630562912
 11
71.9468105413
 21
192.7223830346
  0
LINE
  5
276
100
AcDbEntity
  8
0
100
AcDbLine
 62
7
  6
CONTINUOUS
 10
72.4804983114
 20
201.0011784459
 11
72.4804983114
 21
198.360426401
  0
LINE
  5
277
100
AcDbEntity
  8
0
100
AcDbLine
 62
7
  6
CONTINUOUS
 10
73.1296974447
 20
206.6407590698
 11
73.1296974447
 21
203.999932656
  0
LINE
  5
278
100
AcDbEntity
  8
0
100
AcDbLine
 62
7
  6
CONTINUOUS
 10
73.8952618157
 20
212.2815782969
 11
73.8952618156
 21
209.640681325
  0
LINE
  5
279
100
AcDbEntity
  8
0
100
AcDbLine
 62
7
  6
CONTINUOUS
 10
74.7781776391
 20
217.9233828139
 11
74.778177639
 21
215.2824184196
  0
LINE
  5
27A
100
AcDbEntity
  8
0
100
AcDbLine
 62
7
  6
CONTINUOUS
 10
75.779565905
 20
223.5658852337
 11
75.779565905
 21
220.9248558077
  0
LINE
  5
27B
100
AcDbEntity
  8
0
100
AcDbLine
 62
7
  6
CONTINUOUS
 10
75.9546585065
 20
170.2578763043
 11
75.9546585065
 21
172.8980036197
  0
LINE
  5
27C
100
AcDbEntity
  8
0
100
AcDbLine
 62
7
  6
CONTINUOUS
 10
75.9913271998
 20
164.6206496365
 11
75.9913271998
 21
167.2648401804
  0
LINE
  5
27D
100
AcDbEntity
  8
0
100
AcDbLine
 62
7
  6
CONTINUOUS
 10
76.0322331161
 20
175.8877755934
 11
76.0322331161
 21
178.5280068627
  0
LINE
  5
27E
100
AcDbEntity
  8
0
100
AcDbLine
 62
7
  6
CONTINUOUS
 10
76.1396881357
 20
158.9848520889
 11
76.1396881357
 21
161.6289743182
  0
LINE
  5
27F
100
AcDbEntity
  8
0
100
AcDbLine
 62
7
  6
CONTINUOUS
 10
76.223206315
 20
181.5191578649
 11
76.2232063151
 21
184.1594882567
  0
LINE
  5
280
100
AcDbEntity
  8
0
100
AcDbLine
 62
7
  6
CONTINUOUS
 10
76.4032578531
 20
153.3374895062
 11
76.4032578531
 21
155.9876583094
  0
LINE
  5
281
100
AcDbEntity
  8
0
100
AcDbLine
 62
7
  6
CONTINUOUS
 10
76.5279109715
 20
187.151941449
 11
76.5279109715
 21
189.7923664116
  0
LINE
  5
282
100
AcDbEntity
  8
0
100
AcDbLine
 62
7
  6
CONTINUOUS
 10
76.9468105413
 20
192.7860108866
 11
76.9468105413
 21
195.4265262282
  0
LINE
  5
283
100
AcDbEntity
  8
0
100
AcDbLine
 62
7
  6
CONTINUOUS
 10
77.4804983115
 20
198.4212171331
 11
77.4804983116
 21
201.0618190948
  0
LINE
  5
284
100
AcDbEntity
  8
0
100
AcDbLine
 62
7
  6
CONTINUOUS
 10
78.1296974448
 20
204.0573775549
 11
78.1296974447
 21
206.6980628853
  0
LINE
  5
285
100
AcDbEntity
  8
0
100
AcDbLine
 62
7
  6
CONTINUOUS
 10
78.8952618156
 20
209.6942757199
 11
78.8952618157
 21
212.335041748
  0
LINE
  5
286
100
AcDbEntity
  8
0
100
AcDbLine
 62
7
  6
CONTINUOUS
 10
79.7781776389
 20
215.3316609885
 11
79.778177639
 21
217.9725056927
  0
LINE
  5
287
100
AcDbEntity
  8
0
100
AcDbLine
 62
7
  6
CONTINUOUS
 10
80.779565905
 20
220.9692478898
 11
80.7795659049
 21
223.6101699697
  0
LINE
  5
288
100
AcDbEntity
  8
0
100
AcDbLine
 62
7
  6
CONTINUOUS
 10
94.4527189102
 20
101.7337254902
 11
94.4527189102
 21
93.2337254902
  0
LINE
  5
289
100
AcDbEntity
  8
0
100
AcDbLine
 62
7
  6
CONTINUOUS
 10
211.4527189102
 20
134.4337254902
 11
197.4527189102
 21
134.4337254902
  0
LINE
  5
28A
100
AcDbEntity
  8
0
100
AcDbLine
 62
7
  6
CONTINUOUS
 10
91.6013250329
 20
237.4337254902
 11
91.1705758713
 21
243.5937254902
  0
LINE
  5
28B
100
AcDbEntity
  8
0
100
AcDbLine
 62
7
  6
CONTINUOUS
 10
197.4527189102
 20
146.9337254902
 11
211.4527189102
 21
146.9337254902
  0
LINE
  5
28C
100
AcDbEntity
  8
0
100
AcDbLine
 62
7
  6
CONTINUOUS
 10
27.1527189102
 20
148.4337254902
 11
27.4527189102
 21
148.4337254902
  0
LINE
  5
28D
100
AcDbEntity
  8
0
100
AcDbLine
 62
7
  6
CONTINUOUS
 10
108.954167467
 20
172.7553545903
 11
108.9541674669
 21
170.1148646887
  0
LINE
  5
28E
100
AcDbEntity
  8
0
100
AcDbLine
 62
7
  6
CONTINUOUS
 10
108.9958979369
 20
167.1201440882
 11
108.9958979369
 21
164.475583178
  0
LINE
  5
28F
100
AcDbEntity
  8
0
100
AcDbLine
 62
7
  6
CONTINUOUS
 10
109.0323720706
 20
178.383667124
 11
109.0323720706
 21
175.743070934
  0
LINE
  5
290
100
AcDbEntity
  8
0
100
AcDbLine
 62
7
  6
CONTINUOUS
 10
109.1565014455
 20
161.4784808334
 11
109.1565014455
 21
158.8339712935
  0
LINE
  5
291
100
AcDbEntity
  8
0
100
AcDbLine
 62
7
  6
CONTINUOUS
 10
109.2298009734
 20
184.0098029482
 11
109.2298009735
 21
181.3690961346
  0
LINE
  5
292
100
AcDbEntity
  8
0
100
AcDbLine
 62
7
  6
CONTINUOUS
 10
109.4386609344
 20
155.82745136
 11
109.4386609344
 21
153.1768670166
  0
LINE
  5
293
100
AcDbEntity
  8
0
100
AcDbLine
 62
7
  6
CONTINUOUS
 10
109.5465614046
 20
189.6337278601
 11
109.5465614046
 21
186.9929060717
  0
LINE
  5
294
100
AcDbEntity
  8
0
100
AcDbLine
 62
7
  6
CONTINUOUS
 10
109.9829161066
 20
195.2553648888
 11
109.9829161065
 21
192.6144236499
  0
LINE
  5
295
100
AcDbEntity
  8
0
100
AcDbLine
 62
7
  6
CONTINUOUS
 10
110.5392809209
 20
200.8745949397
 11
110.5392809209
 21
198.2335295505
  0
LINE
  5
296
100
AcDbEntity
  8
0
100
AcDbLine
 62
7
  6
CONTINUOUS
 10
111.2162234546
 20
206.4912571511
 11
111.2162234546
 21
203.8500625886
  0
LINE
  5
297
100
AcDbEntity
  8
0
100
AcDbLine
 62
7
  6
CONTINUOUS
 10
112.0144627894
 20
212.1051489572
 11
112.0144627895
 21
209.4638197789
  0
LINE
  5
298
100
AcDbEntity
  8
0
100
AcDbLine
 62
7
  6
CONTINUOUS
 10
27.0527189102
 20
149.6837254902
 11
27.1527189102
 21
149.6837254902
  0
LINE
  5
299
100
AcDbEntity
  8
0
100
AcDbLine
 62
7
  6
CONTINUOUS
 10
27.1527189102
 20
150.6837254902
 11
27.0527189102
 21
150.6837254902
  0
LINE
  5
29A
100
AcDbEntity
  8
0
100
AcDbLine
 62
7
  6
CONTINUOUS
 10
32.4527189102
 20
152.4337254902
 11
40.0409627315
 21
152.4337254902
  0
LINE
  5
29B
100
AcDbEntity
  8
0
100
AcDbLine
 62
7
  6
CONTINUOUS
 10
198.9533870422
 20
152.4337254902
 11
208.9520507782
 21
152.4337254902
  0
LINE
  5
29C
100
AcDbEntity
  8
0
100
AcDbLine
 62
7
  6
CONTINUOUS
 10
184.7147578066
 20
154.4337254902
 11
189.5959429816
 21
154.4337254902
  0
LINE
  5
29D
100
AcDbEntity
  8
0
100
AcDbLine
 62
7
  6
CONTINUOUS
 10
40.0409627315
 20
155.0837254902
 11
32.4527189102
 21
155.0837254902
  0
LINE
  5
29E
100
AcDbEntity
  8
0
100
AcDbLine
 62
7
  6
CONTINUOUS
 10
189.5959429813
 20
157.0837254902
 11
184.7147578066
 21
157.0837254902
  0
LINE
  5
29F
100
AcDbEntity
  8
0
100
AcDbLine
 62
7
  6
CONTINUOUS
 10
112.9348702222
 20
217.716025873
 11
112.9348702221
 21
215.0745561247
  0
LINE
  5
2A0
100
AcDbEntity
  8
0
100
AcDbLine
 62
7
  6
CONTINUOUS
 10
113.9541674669
 20
170.0017273279
 11
113.954167467
 21
172.6425041442
  0
LINE
  5
2A1
100
AcDbEntity
  8
0
100
AcDbLine
 62
7
  6
CONTINUOUS
 10
113.9784710275
 20
223.3236009936
 11
113.9784710276
 21
220.6819841169
  0
LINE
  5
2A2
100
AcDbEntity
  8
0
100
AcDbLine
 62
7
  6
CONTINUOUS
 10
113.9958979369
 20
164.3616261419
 11
113.9958979369
 21
167.0064780663
  0
LINE
  5
2A3
100
AcDbEntity
  8
0
100
AcDbLine
 62
7
  6
CONTINUOUS
 10
114.0323720707
 20
175.6301689096
 11
114.0323720706
 21
178.2710498895
  0
LINE
  5
2A4
100
AcDbEntity
  8
0
100
AcDbLine
 62
7
  6
CONTINUOUS
 10
114.1565014455
 20
158.7186067433
 11
114.1565014455
 21
161.3634125003
  0
LINE
  5
2A5
100
AcDbEntity
  8
0
100
AcDbLine
 62
7
  6
CONTINUOUS
 10
114.2298009734
 20
181.2558588583
 11
114.2298009734
 21
183.8968497925
  0
LINE
  5
2A6
100
AcDbEntity
  8
0
100
AcDbLine
 62
7
  6
CONTINUOUS
 10
114.4386609345
 20
153.0594827203
 11
114.4386609345
 21
155.7103708264
  0
LINE
  5
2A7
100
AcDbEntity
  8
0
100
AcDbLine
 62
7
  6
CONTINUOUS
 10
114.5465614045
 20
186.8787715656
 11
114.5465614044
 21
189.5198782163
  0
LINE
  5
2A8
100
AcDbEntity
  8
0
100
AcDbLine
 62
7
  6
CONTINUOUS
 10
114.9829161065
 20
192.498837618
 11
114.9829161065
 21
195.1400658308
  0
LINE
  5
2A9
100
AcDbEntity
  8
0
100
AcDbLine
 62
7
  6
CONTINUOUS
 10
115.539280921
 20
198.1159444866
 11
115.539280921
 21
200.7573002929
  0
LINE
  5
2AA
100
AcDbEntity
  8
0
100
AcDbLine
 62
7
  6
CONTINUOUS
 10
116.2162234546
 20
203.7299369123
 11
116.2162234547
 21
206.3714266317
  0
LINE
  5
2AB
100
AcDbEntity
  8
0
100
AcDbLine
 62
7
  6
CONTINUOUS
 10
117.0144627895
 20
209.3406169949
 11
117.0144627895
 21
211.9822473343
  0
LINE
  5
2AC
100
AcDbEntity
  8
0
100
AcDbLine
 62
7
  6
CONTINUOUS
 10
117.9348702221
 20
214.947743999
 11
117.934870222
 21
217.5895221473
  0
LINE
  5
2AD
100
AcDbEntity
  8
0
100
AcDbLine
 62
7
  6
CONTINUOUS
 10
118.9784710276
 20
220.5510338644
 11
118.9784710276
 21
223.1929675878
  0
LINE
  5
2AE
100
AcDbEntity
  8
0
100
AcDbLine
 62
7
  6
CONTINUOUS
 10
32.4527189102
 20
158.0837254902
 11
40.0409627315
 21
158.0837254902
  0
LINE
  5
2AF
100
AcDbEntity
  8
0
100
AcDbLine
 62
7
  6
CONTINUOUS
 10
199.1527189102
 20
159.6337254902
 11
197.4527189102
 21
159.6337254902
  0
LINE
  5
2B0
100
AcDbEntity
  8
0
100
AcDbLine
 62
7
  6
CONTINUOUS
 10
184.7147578066
 20
160.0837254902
 11
189.5959429812
 21
160.0837254902
  0
LINE
  5
2B1
100
AcDbEntity
  8
0
100
AcDbLine
 62
7
  6
CONTINUOUS
 10
40.0409627315
 20
160.7337254902
 11
32.4527189102
 21
160.7337254902
  0
LINE
  5
2B2
100
AcDbEntity
  8
0
100
AcDbLine
 62
7
  6
CONTINUOUS
 10
189.5959429813
 20
162.7337254902
 11
184.7147578066
 21
162.7337254902
  0
LINE
  5
2B3
100
AcDbEntity
  8
0
100
AcDbLine
 62
7
  6
CONTINUOUS
 10
32.4527189102
 20
163.7337254902
 11
40.0409627315
 21
163.7337254902
  0
LINE
  5
2B4
100
AcDbEntity
  8
0
100
AcDbLine
 62
7
  6
CONTINUOUS
 10
184.7147578066
 20
165.7337254902
 11
189.5959429812
 21
165.7337254902
  0
LINE
  5
2B5
100
AcDbEntity
  8
0
100
AcDbLine
 62
7
  6
CONTINUOUS
 10
40.0409627315
 20
166.3837254902
 11
32.4527189102
 21
166.3837254902
  0
LINE
  5
2B6
100
AcDbEntity
  8
0
100
AcDbLine
 62
7
  6
CONTINUOUS
 10
199.1527189102
 20
167.8837254902
 11
197.4527189102
 21
167.8837254902
  0
LINE
  5
2B7
100
AcDbEntity
  8
0
100
AcDbLine
 62
7
  6
CONTINUOUS
 10
189.5959429813
 20
168.3837254902
 11
184.7147578066
 21
168.3837254902
  0
LINE
  5
2B8
100
AcDbEntity
  8
0
100
AcDbLine
 62
7
  6
CONTINUOUS
 10
32.4527189102
 20
169.3837254902
 11
40.0409627315
 21
169.3837254902
  0
LINE
  5
2B9
100
AcDbEntity
  8
0
100
AcDbLine
 62
7
  6
CONTINUOUS
 10
184.7147578066
 20
171.3837254902
 11
189.5959429812
 21
171.3837254902
  0
LINE
  5
2BA
100
AcDbEntity
  8
0
100
AcDbLine
 62
7
  6
CONTINUOUS
 10
40.0409627315
 20
172.0337254902
 11
32.4527189102
 21
172.0337254902
  0
LINE
  5
2BB
100
AcDbEntity
  8
0
100
AcDbLine
 62
7
  6
CONTINUOUS
 10
130.4527189102
 20
101.7337254902
 11
130.4527189102
 21
93.2337254902
  0
LINE
  5
2BC
100
AcDbEntity
  8
0
100
AcDbLine
 62
7
  6
CONTINUOUS
 10
189.5959429813
 20
174.0337254902
 11
184.7147578066
 21
174.0337254902
  0
LINE
  5
2BD
100
AcDbEntity
  8
0
100
AcDbLine
 62
7
  6
CONTINUOUS
 10
32.4527189102
 20
175.0337254902
 11
40.0409627315
 21
175.0337254902
  0
LINE
  5
2BE
100
AcDbEntity
  8
0
100
AcDbLine
 62
7
  6
CONTINUOUS
 10
184.7147578066
 20
177.0337254902
 11
189.5959429812
 21
177.0337254902
  0
LINE
  5
2BF
100
AcDbEntity
  8
0
100
AcDbLine
 62
7
  6
CONTINUOUS
 10
40.0409627315
 20
177.6837254902
 11
32.4527189102
 21
177.6837254902
  0
LINE
  5
2C0
100
AcDbEntity
  8
0
100
AcDbLine
 62
7
  6
CONTINUOUS
 10
189.5959429813
 20
179.6837254902
 11
184.7147578066
 21
179.6837254902
  0
LINE
  5
2C1
100
AcDbEntity
  8
0
100
AcDbLine
 62
7
  6
CONTINUOUS
 10
32.4527189102
 20
180.6837254902
 11
40.0409627315
 21
180.6837254902
  0
LINE
  5
2C2
100
AcDbEntity
  8
0
100
AcDbLine
 62
7
  6
CONTINUOUS
 10
184.7147578066
 20
182.6837254902
 11
189.5959429812
 21
182.6837254902
  0
LINE
  5
2C3
100
AcDbEntity
  8
0
100
AcDbLine
 62
7
  6
CONTINUOUS
 10
40.0409627315
 20
183.3337254902
 11
32.4527189102
 21
183.3337254902
  0
LINE
  5
2C4
100
AcDbEntity
  8
0
100
AcDbLine
 62
7
  6
CONTINUOUS
 10
189.5959429813
 20
185.3337254902
 11
184.7147578066
 21
185.3337254902
  0
LINE
  5
2C5
100
AcDbEntity
  8
0
100
AcDbLine
 62
7
  6
CONTINUOUS
 10
32.4527189102
 20
186.3337254902
 11
40.0409627315
 21
186.3337254902
  0
LINE
  5
2C6
100
AcDbEntity
  8
0
100
AcDbLine
 62
7
  6
CONTINUOUS
 10
184.7147578066
 20
188.3337254902
 11
189.5959429812
 21
188.3337254902
  0
LINE
  5
2C7
100
AcDbEntity
  8
0
100
AcDbLine
 62
7
  6
CONTINUOUS
 10
40.0409627315
 20
188.9837254902
 11
32.4527189102
 21
188.9837254902
  0
LINE
  5
2C8
100
AcDbEntity
  8
0
100
AcDbLine
 62
7
  6
CONTINUOUS
 10
146.9537338107
 20
171.2946182609
 11
146.9537338106
 21
168.6504097027
  0
LINE
  5
2C9
100
AcDbEntity
  8
0
100
AcDbLine
 62
7
  6
CONTINUOUS
 10
147.0066450841
 20
176.9293810851
 11
147.0066450841
 21
174.2851025148
  0
LINE
  5
2CA
100
AcDbEntity
  8
0
100
AcDbLine
 62
7
  6
CONTINUOUS
 10
147.0407796956
 20
165.6473272788
 11
147.0407796957
 21
162.9989906049
  0
LINE
  5
2CB
100
AcDbEntity
  8
0
100
AcDbLine
 62
7
  6
CONTINUOUS
 10
147.1987620798
 20
182.5564678123
 11
147.1987620797
 21
179.9121006225
  0
LINE
  5
2CC
100
AcDbEntity
  8
0
100
AcDbLine
 62
7
  6
CONTINUOUS
 10
147.2687657636
 20
159.9877614988
 11
147.2687657636
 21
157.3394092916
  0
LINE
  5
2CD
100
AcDbEntity
  8
0
100
AcDbLine
 62
7
  6
CONTINUOUS
 10
147.5298451597
 20
188.1759386516
 11
147.5298451596
 21
185.5314646831
  0
LINE
  5
2CE
100
AcDbEntity
  8
0
100
AcDbLine
 62
7
  6
CONTINUOUS
 10
147.6397969723
 20
154.3128014412
 11
147.6397969723
 21
151.6582819841
  0
LINE
  5
2CF
100
AcDbEntity
  8
0
100
AcDbLine
 62
7
  6
CONTINUOUS
 10
147.9999097977
 20
193.787783659
 11
147.9999097977
 21
191.1431850128
  0
LINE
  5
2D0
100
AcDbEntity
  8
0
100
AcDbLine
 62
7
  6
CONTINUOUS
 10
148.6092199263
 20
199.3919245397
 11
148.6092199262
 21
196.7471834035
  0
LINE
  5
2D1
100
AcDbEntity
  8
0
100
AcDbLine
 62
7
  6
CONTINUOUS
 10
149.3582837273
 20
204.9882157858
 11
149.3582837272
 21
202.3433142645
  0
LINE
  5
2D2
100
AcDbEntity
  8
0
100
AcDbLine
 62
7
  6
CONTINUOUS
 10
150.2478517481
 20
210.5764451717
 11
150.2478517481
 21
207.9313651231
  0
LINE
  5
2D3
100
AcDbEntity
  8
0
100
AcDbLine
 62
7
  6
CONTINUOUS
 10
151.2789172705
 20
216.1563336303
 11
151.2789172705
 21
213.5110565085
  0
LINE
  5
2D4
100
AcDbEntity
  8
0
100
AcDbLine
 62
7
  6
CONTINUOUS
 10
151.9537338106
 20
168.3538959276
 11
151.9537338106
 21
170.9988586901
  0
LINE
  5
2D5
100
AcDbEntity
  8
0
100
AcDbLine
 62
7
  6
CONTINUOUS
 10
152.0066450842
 20
173.989937548
 11
152.0066450842
 21
176.6349628633
  0
LINE
  5
2D6
100
AcDbEntity
  8
0
100
AcDbLine
 62
7
  6
CONTINUOUS
 10
152.0407796957
 20
162.7004298802
 11
152.0407796957
 21
165.3495313064
  0
LINE
  5
2D7
100
AcDbEntity
  8
0
100
AcDbLine
 62
7
  6
CONTINUOUS
 10
152.1987620797
 20
179.6176037713
 11
152.1987620797
 21
182.2627120504
  0
LINE
  5
2D8
100
AcDbEntity
  8
0
100
AcDbLine
 62
7
  6
CONTINUOUS
 10
152.2687657637
 20
157.0380895544
 11
152.2687657637
 21
159.6872178358
  0
LINE
  5
2D9
100
AcDbEntity
  8
0
100
AcDbLine
 62
7
  6
CONTINUOUS
 10
152.4527189103
 20
221.727534516
 11
152.4527189103
 21
219.082041213
  0
LINE
  5
2DA
100
AcDbEntity
  8
0
100
AcDbLine
 62
7
  6
CONTINUOUS
 10
152.5298451597
 20
185.2369673285
 11
152.5298451596
 21
187.8821784754
  0
LINE
  5
2DB
100
AcDbEntity
  8
0
100
AcDbLine
 62
7
  6
CONTINUOUS
 10
152.6397969723
 20
151.3534649269
 11
152.6397969723
 21
154.0087756639
  0
LINE
  5
2DC
100
AcDbEntity
  8
0
100
AcDbLine
 62
7
  6
CONTINUOUS
 10
189.5959429813
 20
190.9837254902
 11
184.7147578066
 21
190.9837254902
  0
LINE
  5
2DD
100
AcDbEntity
  8
0
100
AcDbLine
 62
7
  6
CONTINUOUS
 10
32.4527189102
 20
191.9837254902
 11
40.0409627315
 21
191.9837254902
  0
LINE
  5
2DE
100
AcDbEntity
  8
0
100
AcDbLine
 62
7
  6
CONTINUOUS
 10
184.7147578066
 20
193.9837254902
 11
189.5959429812
 21
193.9837254902
  0
LINE
  5
2DF
100
AcDbEntity
  8
0
100
AcDbLine
 62
7
  6
CONTINUOUS
 10
40.0409627315
 20
194.6337254902
 11
32.4527189102
 21
194.6337254902
  0
LINE
  5
2E0
100
AcDbEntity
  8
0
100
AcDbLine
 62
7
  6
CONTINUOUS
 10
189.5959429813
 20
196.6337254902
 11
184.7147578066
 21
196.6337254902
  0
LINE
  5
2E1
100
AcDbEntity
  8
0
100
AcDbLine
 62
7
  6
CONTINUOUS
 10
32.4527189102
 20
197.6337254902
 11
40.0409627315
 21
197.6337254902
  0
LINE
  5
2E2
100
AcDbEntity
  8
0
100
AcDbLine
 62
7
  6
CONTINUOUS
 10
152.9999097978
 20
190.8480290999
 11
152.9999097978
 21
193.4933627041
  0
LINE
  5
2E3
100
AcDbEntity
  8
0
100
AcDbLine
 62
7
  6
CONTINUOUS
 10
153.6092199264
 20
196.450720003
 11
153.6092199264
 21
199.0961955184
  0
LINE
  5
2E4
100
AcDbEntity
  8
0
100
AcDbLine
 62
7
  6
CONTINUOUS
 10
154.3582837272
 20
202.0449021928
 11
154.3582837272
 21
204.6905391121
  0
LINE
  5
2E5
100
AcDbEntity
  8
0
100
AcDbLine
 62
7
  6
CONTINUOUS
 10
155.2478517482
 20
207.6303696064
 11
155.2478517482
 21
210.2761876287
  0
LINE
  5
2E6
100
AcDbEntity
  8
0
100
AcDbLine
 62
7
  6
CONTINUOUS
 10
156.2789172705
 20
213.2068478778
 11
156.2789172704
 21
215.8528670709
  0
LINE
  5
2E7
100
AcDbEntity
  8
0
100
AcDbLine
 62
7
  6
CONTINUOUS
 10
157.4527189102
 20
151.0368065766
 11
157.4527189102
 21
153.6929398317
  0
LINE
  5
2E8
100
AcDbEntity
  8
0
100
AcDbLine
 62
7
  6
CONTINUOUS
 10
157.4527189102
 20
156.6998448321
 11
157.4527189102
 21
159.3498448324
  0
LINE
  5
2E9
100
AcDbEntity
  8
0
100
AcDbLine
 62
7
  6
CONTINUOUS
 10
157.4527189103
 20
218.7739936191
 11
157.4527189102
 21
221.420234581
  0
LINE
  5
2EA
100
AcDbEntity
  8
0
100
AcDbLine
 62
7
  6
CONTINUOUS
 10
158.9527189102
 20
228.8781810484
 11
158.9527189102
 21
237.4337254902
  0
LINE
  5
2EB
100
AcDbEntity
  8
0
100
AcDbLine
 62
7
  6
CONTINUOUS
 10
184.7147578066
 20
199.6337254902
 11
189.5959429812
 21
199.6337254902
  0
LINE
  5
2EC
100
AcDbEntity
  8
0
100
AcDbLine
 62
7
  6
CONTINUOUS
 10
40.0409627315
 20
200.2837254902
 11
32.4527189102
 21
200.2837254902
  0
LINE
  5
2ED
100
AcDbEntity
  8
0
100
AcDbLine
 62
7
  6
CONTINUOUS
 10
189.5959429813
 20
202.2837254902
 11
184.7147578066
 21
202.2837254902
  0
LINE
  5
2EE
100
AcDbEntity
  8
0
100
AcDbLine
 62
7
  6
CONTINUOUS
 10
32.4527189102
 20
203.2837254902
 11
40.0409627315
 21
203.2837254902
  0
LINE
  5
2EF
100
AcDbEntity
  8
0
100
AcDbLine
 62
7
  6
CONTINUOUS
 10
184.7147578066
 20
205.2837254902
 11
189.5959429812
 21
205.2837254902
  0
LINE
  5
2F0
100
AcDbEntity
  8
0
100
AcDbLine
 62
7
  6
CONTINUOUS
 10
40.0409627315
 20
205.9337254902
 11
32.4527189102
 21
205.9337254902
  0
LINE
  5
2F1
100
AcDbEntity
  8
0
100
AcDbLine
 62
7
  6
CONTINUOUS
 10
189.5959429813
 20
207.9337254902
 11
184.7147578066
 21
207.9337254902
  0
LINE
  5
2F2
100
AcDbEntity
  8
0
100
AcDbLine
 62
7
  6
CONTINUOUS
 10
32.4527189102
 20
208.9337254902
 11
40.0409627315
 21
208.9337254902
  0
LINE
  5
2F3
100
AcDbEntity
  8
0
100
AcDbLine
 62
7
  6
CONTINUOUS
 10
184.7147578066
 20
210.9337254902
 11
189.5959429812
 21
210.9337254902
  0
LINE
  5
2F4
100
AcDbEntity
  8
0
100
AcDbLine
 62
7
  6
CONTINUOUS
 10
40.0409627315
 20
211.5837254902
 11
32.4527189102
 21
211.5837254902
  0
LINE
  5
2F5
100
AcDbEntity
  8
0
100
AcDbLine
 62
7
  6
CONTINUOUS
 10
189.5959429814
 20
213.5837254902
 11
184.7147578066
 21
213.5837254902
  0
LINE
  5
2F6
100
AcDbEntity
  8
0
100
AcDbLine
 62
7
  6
CONTINUOUS
 10
32.4527189102
 20
214.5837254902
 11
40.0409627315
 21
214.5837254902
  0
LINE
  5
2F7
100
AcDbEntity
  8
0
100
AcDbLine
 62
7
  6
CONTINUOUS
 10
40.0409627315
 20
217.2337254902
 11
32.4527189102
 21
217.2337254902
  0
LINE
  5
2F8
100
AcDbEntity
  8
0
100
AcDbLine
 62
7
  6
CONTINUOUS
 10
178.4527189102
 20
160.7189362645
 11
178.4527189102
 21
163.3731244143
  0
LINE
  5
2F9
100
AcDbEntity
  8
0
100
AcDbLine
 62
7
  6
CONTINUOUS
 10
178.4527189102
 20
166.3778398114
 11
178.4527189102
 21
169.0278398111
  0
LINE
  5
2FA
100
AcDbEntity
  8
0
100
AcDbLine
 62
7
  6
CONTINUOUS
 10
178.4527189102
 20
172.0278398109
 11
178.4527189102
 21
174.6778398108
  0
LINE
  5
2FB
100
AcDbEntity
  8
0
100
AcDbLine
 62
7
  6
CONTINUOUS
 10
178.4527189102
 20
177.6778398112
 11
178.4527189102
 21
180.3278398115
  0
LINE
  5
2FC
100
AcDbEntity
  8
0
100
AcDbLine
 62
7
  6
CONTINUOUS
 10
178.4527189102
 20
183.3278398114
 11
178.4527189102
 21
185.9778398113
  0
LINE
  5
2FD
100
AcDbEntity
  8
0
100
AcDbLine
 62
7
  6
CONTINUOUS
 10
178.4527189102
 20
188.9778398113
 11
178.4527189102
 21
191.6278398113
  0
LINE
  5
2FE
100
AcDbEntity
  8
0
100
AcDbLine
 62
7
  6
CONTINUOUS
 10
178.4527189102
 20
194.6278398112
 11
178.4527189102
 21
197.2778398111
  0
LINE
  5
2FF
100
AcDbEntity
  8
0
100
AcDbLine
 62
7
  6
CONTINUOUS
 10
178.4527189102
 20
200.2778398114
 11
178.4527189102
 21
202.9278398112
  0
LINE
  5
300
100
AcDbEntity
  8
0
100
AcDbLine
 62
7
  6
CONTINUOUS
 10
178.4527189102
 20
205.9278398112
 11
178.4527189102
 21
208.5778398113
  0
LINE
  5
301
100
AcDbEntity
  8
0
100
AcDbLine
 62
7
  6
CONTINUOUS
 10
178.4527189102
 20
211.5778398113
 11
178.4527189102
 21
214.2278398115
  0
LINE
  5
302
100
AcDbEntity
  8
0
100
AcDbLine
 62
7
  6
CONTINUOUS
 10
178.4527189102
 20
217.2278398114
 11
178.4527189102
 21
219.8778398112
  0
LINE
  5
303
100
AcDbEntity
  8
0
100
AcDbLine
 62
7
  6
CONTINUOUS
 10
184.4527189101
 20
93.4337254902
 11
184.4527189101
 21
227.1927090263
  0
LINE
  5
304
100
AcDbEntity
  8
0
100
AcDbLine
 62
7
  6
CONTINUOUS
 10
184.7147578066
 20
213.5837254902
 11
184.7147578066
 21
210.9337254902
  0
LINE
  5
305
100
AcDbEntity
  8
0
100
AcDbLine
 62
7
  6
CONTINUOUS
 10
184.7147578066
 20
207.9337254902
 11
184.7147578066
 21
205.2837254902
  0
LINE
  5
306
100
AcDbEntity
  8
0
100
AcDbLine
 62
7
  6
CONTINUOUS
 10
184.7147578066
 20
202.2837254902
 11
184.7147578066
 21
199.6337254902
  0
LINE
  5
307
100
AcDbEntity
  8
0
100
AcDbLine
 62
7
  6
CONTINUOUS
 10
184.7147578066
 20
196.6337254902
 11
184.7147578066
 21
193.9837254902
  0
LINE
  5
308
100
AcDbEntity
  8
0
100
AcDbLine
 62
7
  6
CONTINUOUS
 10
184.7147578066
 20
190.9837254902
 11
184.7147578066
 21
188.3337254902
  0
LINE
  5
309
100
AcDbEntity
  8
0
100
AcDbLine
 62
7
  6
CONTINUOUS
 10
184.7147578066
 20
185.3337254902
 11
184.7147578066
 21
182.6837254902
  0
LINE
  5
30A
100
AcDbEntity
  8
0
100
AcDbLine
 62
7
  6
CONTINUOUS
 10
184.7147578066
 20
179.6837254902
 11
184.7147578066
 21
177.0337254902
  0
LINE
  5
30B
100
AcDbEntity
  8
0
100
AcDbLine
 62
7
  6
CONTINUOUS
 10
184.7147578066
 20
174.0337254902
 11
184.7147578066
 21
171.3837254902
  0
LINE
  5
30C
100
AcDbEntity
  8
0
100
AcDbLine
 62
7
  6
CONTINUOUS
 10
184.7147578066
 20
168.3837254902
 11
184.7147578066
 21
165.7337254902
  0
LINE
  5
30D
100
AcDbEntity
  8
0
100
AcDbLine
 62
7
  6
CONTINUOUS
 10
184.7147578066
 20
162.7337254902
 11
184.7147578066
 21
160.0837254902
  0
LINE
  5
30E
100
AcDbEntity
  8
0
100
AcDbLine
 62
7
  6
CONTINUOUS
 10
184.7147578066
 20
157.0837254902
 11
184.7147578066
 21
154.4337254902
  0
LINE
  5
30F
100
AcDbEntity
  8
0
100
AcDbLine
 62
7
  6
CONTINUOUS
 10
184.8644750889
 20
227.1563690065
 11
184.8644750889
 21
213.5837254902
  0
LINE
  5
310
100
AcDbEntity
  8
0
100
AcDbLine
 62
7
  6
CONTINUOUS
 10
184.8644750889
 20
210.9337254902
 11
184.8644750889
 21
207.9337254902
  0
LINE
  5
311
100
AcDbEntity
  8
0
100
AcDbLine
 62
7
  6
CONTINUOUS
 10
184.8644750889
 20
205.2837254902
 11
184.8644750889
 21
202.2837254902
  0
LINE
  5
312
100
AcDbEntity
  8
0
100
AcDbLine
 62
7
  6
CONTINUOUS
 10
184.8644750889
 20
199.6337254902
 11
184.8644750889
 21
196.6337254902
  0
LINE
  5
313
100
AcDbEntity
  8
0
100
AcDbLine
 62
7
  6
CONTINUOUS
 10
184.8644750889
 20
193.9837254902
 11
184.8644750889
 21
190.9837254902
  0
LINE
  5
314
100
AcDbEntity
  8
0
100
AcDbLine
 62
7
  6
CONTINUOUS
 10
184.8644750889
 20
188.3337254902
 11
184.8644750889
 21
185.3337254902
  0
LINE
  5
315
100
AcDbEntity
  8
0
100
AcDbLine
 62
7
  6
CONTINUOUS
 10
184.8644750889
 20
182.6837254902
 11
184.8644750889
 21
179.6837254902
  0
LINE
  5
316
100
AcDbEntity
  8
0
100
AcDbLine
 62
7
  6
CONTINUOUS
 10
184.8644750889
 20
177.0337254902
 11
184.8644750889
 21
174.0337254902
  0
LINE
  5
317
100
AcDbEntity
  8
0
100
AcDbLine
 62
7
  6
CONTINUOUS
 10
184.8644750889
 20
171.3837254902
 11
184.8644750889
 21
168.3837254902
  0
LINE
  5
318
100
AcDbEntity
  8
0
100
AcDbLine
 62
7
  6
CONTINUOUS
 10
184.8644750889
 20
165.7337254902
 11
184.8644750889
 21
162.7337254902
  0
LINE
  5
319
100
AcDbEntity
  8
0
100
AcDbLine
 62
7
  6
CONTINUOUS
 10
184.8644750889
 20
160.0837254902
 11
184.8644750889
 21
157.0837254902
  0
LINE
  5
31A
100
AcDbEntity
  8
0
100
AcDbLine
 62
7
  6
CONTINUOUS
 10
184.8644750889
 20
154.4337254902
 11
184.8644750889
 21
93.4337254902
  0
LINE
  5
31B
100
AcDbEntity
  8
0
100
AcDbLine
 62
7
  6
CONTINUOUS
 10
27.0527189102
 20
224.1837254902
 11
27.1527189102
 21
224.1837254902
  0
LINE
  5
31C
100
AcDbEntity
  8
0
100
AcDbLine
 62
7
  6
CONTINUOUS
 10
27.1527189102
 20
225.1837254902
 11
27.0527189102
 21
225.1837254902
  0
LINE
  5
31D
100
AcDbEntity
  8
0
100
AcDbLine
 62
7
  6
CONTINUOUS
 10
27.4527189102
 20
226.4337254902
 11
27.1527189102
 21
226.4337254902
  0
LINE
  5
31E
100
AcDbEntity
  8
0
100
AcDbLine
 62
7
  6
CONTINUOUS
 10
189.5959429815
 20
93.4337254902
 11
189.5959429815
 21
154.4337254902
  0
LINE
  5
31F
100
AcDbEntity
  8
0
100
AcDbLine
 62
7
  6
CONTINUOUS
 10
189.5959429814
 20
157.0837254902
 11
189.5959429814
 21
160.0837254902
  0
LINE
  5
320
100
AcDbEntity
  8
0
100
AcDbLine
 62
7
  6
CONTINUOUS
 10
189.5959429814
 20
162.7337254902
 11
189.5959429814
 21
165.7337254902
  0
LINE
  5
321
100
AcDbEntity
  8
0
100
AcDbLine
 62
7
  6
CONTINUOUS
 10
189.5959429814
 20
168.3837254902
 11
189.5959429814
 21
171.3837254902
  0
LINE
  5
322
100
AcDbEntity
  8
0
100
AcDbLine
 62
7
  6
CONTINUOUS
 10
189.5959429814
 20
174.0337254902
 11
189.5959429814
 21
177.0337254902
  0
LINE
  5
323
100
AcDbEntity
  8
0
100
AcDbLine
 62
7
  6
CONTINUOUS
 10
189.5959429814
 20
179.6837254902
 11
189.5959429814
 21
182.6837254902
  0
LINE
  5
324
100
AcDbEntity
  8
0
100
AcDbLine
 62
7
  6
CONTINUOUS
 10
189.5959429814
 20
185.3337254902
 11
189.5959429814
 21
188.3337254902
  0
LINE
  5
325
100
AcDbEntity
  8
0
100
AcDbLine
 62
7
  6
CONTINUOUS
 10
189.5959429814
 20
190.9837254902
 11
189.5959429814
 21
193.9837254902
  0
LINE
  5
326
100
AcDbEntity
  8
0
100
AcDbLine
 62
7
  6
CONTINUOUS
 10
189.5959429814
 20
196.6337254902
 11
189.5959429814
 21
199.6337254902
  0
LINE
  5
327
100
AcDbEntity
  8
0
100
AcDbLine
 62
7
  6
CONTINUOUS
 10
189.5959429814
 20
202.2837254902
 11
189.5959429814
 21
205.2837254902
  0
LINE
  5
328
100
AcDbEntity
  8
0
100
AcDbLine
 62
7
  6
CONTINUOUS
 10
189.5959429814
 20
207.9337254902
 11
189.5959429814
 21
210.9337254902
  0
LINE
  5
329
100
AcDbEntity
  8
0
100
AcDbLine
 62
7
  6
CONTINUOUS
 10
189.5959429815
 20
213.5837254902
 11
189.5959429815
 21
226.7275924503
  0
LINE
  5
32A
100
AcDbEntity
  8
0
100
AcDbLine
 62
7
  6
CONTINUOUS
 10
158.9527189102
 20
231.9337254902
 11
45.4527189102
 21
231.9337254902
  0
LINE
  5
32B
100
AcDbEntity
  8
0
100
AcDbLine
 62
7
  6
CONTINUOUS
 10
158.9527189102
 20
237.4337254902
 11
45.4527189102
 21
237.4337254902
  0
LINE
  5
32C
100
AcDbEntity
  8
0
100
AcDbLine
 62
7
  6
CONTINUOUS
 10
184.4527189102
 20
227.1927090263
 11
184.8644750889
 21
227.1563690065
  0
LINE
  5
32D
100
AcDbEntity
  8
0
100
AcDbLine
 62
7
  6
CONTINUOUS
 10
197.4527189102
 20
85.4337254902
 11
197.4527189102
 21
134.4337254902
  0
LINE
  5
32E
100
AcDbEntity
  8
0
100
AcDbLine
 62
7
  6
CONTINUOUS
 10
197.4527189102
 20
146.9337254902
 11
197.4527189102
 21
225.9700428411
  0
LINE
  5
32F
100
AcDbEntity
  8
0
100
AcDbLine
 62
7
  6
CONTINUOUS
 10
198.9527189102
 20
152.4337254902
 11
198.9527189102
 21
146.9337254902
  0
LINE
  5
330
100
AcDbEntity
  8
0
100
AcDbLine
 62
7
  6
CONTINUOUS
 10
199.1527189102
 20
159.6337254902
 11
199.1527189102
 21
167.8837254902
  0
LINE
  5
331
100
AcDbEntity
  8
0
100
AcDbLine
 62
7
  6
CONTINUOUS
 10
69.7348619491
 20
243.5937254902
 11
91.1705758713
 21
243.5937254902
  0
LINE
  5
332
100
AcDbEntity
  8
0
100
AcDbLine
 62
7
  6
CONTINUOUS
 10
208.9527189102
 20
152.4337254902
 11
208.9527189102
 21
146.9337254902
  0
LINE
  5
333
100
AcDbEntity
  8
0
100
AcDbLine
 62
7
  6
CONTINUOUS
 10
211.4527189102
 20
134.4337254902
 11
211.4527189102
 21
146.9337254902
  0
ARC
  5
334
100
AcDbEntity
  8
0
100
AcDbCircle
 62
7
  6
CONTINUOUS
 10
87.9527189102
 20
-868.5662745098
 40
1100.0
100
AcDbArc
 50
84.2870036614
 51
84.9455972925
  0
ARC
  5
335
100
AcDbEntity
  8
0
100
AcDbCircle
 62
7
  6
CONTINUOUS
 10
87.9527189102
 20
-868.5662745098
 40
1100.0
100
AcDbArc
 50
84.9671278321
 51
93.152858804
  0
ARC
  5
336
100
AcDbEntity
  8
0
100
AcDbCircle
 62
7
  6
CONTINUOUS
 10
87.9527189102
 20
-868.5662745098
 40
1092.2
100
AcDbArc
 50
90.6386053211
 51
92.1775749622
  0
ARC
  5
337
100
AcDbEntity
  8
0
100
AcDbCircle
 62
7
  6
CONTINUOUS
 10
87.9527189102
 20
-868.5662745098
 40
1092.2
100
AcDbArc
 50
88.6345844101
 51
90.3762995309
  0
ARC
  5
338
100
AcDbEntity
  8
0
100
AcDbCircle
 62
7
  6
CONTINUOUS
 10
87.9527189102
 20
-868.5662745098
 40
1092.2
100
AcDbArc
 50
86.614421154
 51
88.3721994009
  0
ARC
  5
339
100
AcDbEntity
  8
0
100
AcDbCircle
 62
7
  6
CONTINUOUS
 10
87.9527189102
 20
-868.5662745098
 40
1092.2
100
AcDbArc
 50
85.2470060625
 51
86.3516307293
  0
ARC
  5
33A
100
AcDbEntity
  8
0
100
AcDbCircle
 62
7
  6
CONTINUOUS
 10
87.9527189102
 20
-868.5662745098
 40
1089.559135015
100
AcDbArc
 50
90.640153232
 51
92.1828555035
  0
ARC
  5
33B
100
AcDbEntity
  8
0
100
AcDbCircle
 62
7
  6
CONTINUOUS
 10
87.9527189102
 20
-868.5662745098
 40
1089.559135015
100
AcDbArc
 50
88.6312742975
 51
90.377211616
  0
ARC
  5
33C
100
AcDbEntity
  8
0
100
AcDbCircle
 62
7
  6
CONTINUOUS
 10
87.9527189102
 20
-868.5662745098
 40
1089.559135015
100
AcDbArc
 50
86.6062056155
 51
88.3682528847
  0
ARC
  5
33D
100
AcDbEntity
  8
0
100
AcDbCircle
 62
7
  6
CONTINUOUS
 10
87.9527189102
 20
-868.5662745098
 40
1089.559135015
100
AcDbArc
 50
85.2354591969
 51
86.3427758255
  0
ARC
  5
33E
100
AcDbEntity
  8
0
100
AcDbCircle
 62
7
  6
CONTINUOUS
 10
87.9527189102
 20
-868.5662745098
 40
1086.569530223
100
AcDbArc
 50
90.6947223233
 51
92.1888643666
  0
ARC
  5
33F
100
AcDbEntity
  8
0
100
AcDbCircle
 62
7
  6
CONTINUOUS
 10
87.9527189102
 20
-868.5662745098
 40
1086.569530223
100
AcDbArc
 50
85.2223195365
 51
86.3947200069
  0
ARC
  5
340
100
AcDbEntity
  8
0
100
AcDbCircle
 62
7
  6
CONTINUOUS
 10
87.9527189102
 20
-868.5662745098
 40
1086.569530223
100
AcDbArc
 50
86.6588598588
 51
88.4188137511
  0
ARC
  5
341
100
AcDbEntity
  8
0
100
AcDbCircle
 62
7
  6
CONTINUOUS
 10
87.9527189102
 20
-868.5662745098
 40
1086.569530223
100
AcDbArc
 50
88.6825528119
 51
90.4310549114
  0
ARC
  5
342
100
AcDbEntity
  8
0
100
AcDbCircle
 62
7
  6
CONTINUOUS
 10
87.9527189102
 20
-868.5662745098
 40
1083.928760437
100
AcDbArc
 50
90.6964149548
 51
92.1941996903
  0
ARC
  5
343
100
AcDbEntity
  8
0
100
AcDbCircle
 62
7
  6
CONTINUOUS
 10
87.9527189102
 20
-868.5662745098
 40
1083.928760437
100
AcDbArc
 50
85.2106525465
 51
86.3859248292
  0
ARC
  5
344
100
AcDbEntity
  8
0
100
AcDbCircle
 62
7
  6
CONTINUOUS
 10
87.9527189102
 20
-868.5662745098
 40
1083.928760437
100
AcDbArc
 50
86.6507105839
 51
88.4149605337
  0
ARC
  5
345
100
AcDbEntity
  8
0
100
AcDbCircle
 62
7
  6
CONTINUOUS
 10
87.9527189102
 20
-868.5662745098
 40
1083.928760437
100
AcDbArc
 50
88.6793425546
 51
90.4321051081
  0
ARC
  5
346
100
AcDbEntity
  8
0
100
AcDbCircle
 62
7
  6
CONTINUOUS
 10
87.9527189102
 20
-868.5662745098
 40
1080.939264259
100
AcDbArc
 50
88.7244886947
 51
90.4801011072
  0
ARC
  5
347
100
AcDbEntity
  8
0
100
AcDbCircle
 62
7
  6
CONTINUOUS
 10
87.9527189102
 20
-868.5662745098
 40
1080.939264259
100
AcDbArc
 50
85.1973758374
 51
86.4306762965
  0
ARC
  5
348
100
AcDbEntity
  8
0
100
AcDbCircle
 62
7
  6
CONTINUOUS
 10
87.9527189102
 20
-868.5662745098
 40
1080.939264259
100
AcDbArc
 50
86.6961817201
 51
88.4593806597
  0
ARC
  5
349
100
AcDbEntity
  8
0
100
AcDbCircle
 62
7
  6
CONTINUOUS
 10
87.9527189102
 20
-868.5662745098
 40
1080.939264259
100
AcDbArc
 50
90.7451442406
 51
92.2002710523
  0
ARC
  5
34A
100
AcDbEntity
  8
0
100
AcDbCircle
 62
7
  6
CONTINUOUS
 10
87.9527189102
 20
-868.5662745098
 40
1078.298591166
100
AcDbArc
 50
88.7213645443
 51
90.4812768668
  0
ARC
  5
34B
100
AcDbEntity
  8
0
100
AcDbCircle
 62
7
  6
CONTINUOUS
 10
87.9527189102
 20
-868.5662745098
 40
1078.298591166
100
AcDbArc
 50
85.1855868431
 51
86.4219239212
  0
ARC
  5
34C
100
AcDbEntity
  8
0
100
AcDbCircle
 62
7
  6
CONTINUOUS
 10
87.9527189102
 20
-868.5662745098
 40
1078.298591166
100
AcDbArc
 50
86.6880819025
 51
88.4556068846
  0
ARC
  5
34D
100
AcDbEntity
  8
0
100
AcDbCircle
 62
7
  6
CONTINUOUS
 10
87.9527189102
 20
-868.5662745098
 40
1078.298591166
100
AcDbArc
 50
90.7469691468
 51
92.2056620125
  0
ARC
  5
34E
100
AcDbEntity
  8
0
100
AcDbCircle
 62
7
  6
CONTINUOUS
 10
87.9527189102
 20
-868.5662745098
 40
1075.30920531
100
AcDbArc
 50
90.7898411595
 51
92.2117968503
  0
ARC
  5
34F
100
AcDbEntity
  8
0
100
AcDbCircle
 62
7
  6
CONTINUOUS
 10
87.9527189102
 20
-868.5662745098
 40
1075.30920531
100
AcDbArc
 50
85.1721709352
 51
86.4594545596
  0
ARC
  5
350
100
AcDbEntity
  8
0
100
AcDbCircle
 62
7
  6
CONTINUOUS
 10
87.9527189102
 20
-868.5662745098
 40
1075.30920531
100
AcDbArc
 50
86.7263418999
 51
88.4938601536
  0
ARC
  5
351
100
AcDbEntity
  8
0
100
AcDbCircle
 62
7
  6
CONTINUOUS
 10
87.9527189102
 20
-868.5662745098
 40
1075.30920531
100
AcDbArc
 50
88.7603522618
 51
90.5234080554
  0
ARC
  5
352
100
AcDbEntity
  8
0
100
AcDbCircle
 62
7
  6
CONTINUOUS
 10
87.9527189102
 20
-868.5662745098
 40
1072.668630435
100
AcDbArc
 50
90.7917856252
 51
92.217244319
  0
ARC
  5
353
100
AcDbEntity
  8
0
100
AcDbCircle
 62
7
  6
CONTINUOUS
 10
87.9527189102
 20
-868.5662745098
 40
1072.668630435
100
AcDbArc
 50
85.1602580174
 51
86.4507276916
  0
ARC
  5
354
100
AcDbEntity
  8
0
100
AcDbCircle
 62
7
  6
CONTINUOUS
 10
87.9527189102
 20
-868.5662745098
 40
1072.668630435
100
AcDbArc
 50
86.7182743637
 51
88.4901516507
  0
ARC
  5
355
100
AcDbEntity
  8
0
100
AcDbCircle
 62
7
  6
CONTINUOUS
 10
87.9527189102
 20
-868.5662745098
 40
1072.668630435
100
AcDbArc
 50
88.7573001585
 51
90.5246965584
  0
ARC
  5
356
100
AcDbEntity
  8
0
100
AcDbCircle
 62
7
  6
CONTINUOUS
 10
87.9527189102
 20
-868.5662745098
 40
1069.679356645
100
AcDbArc
 50
90.8287753232
 51
92.2234436298
  0
ARC
  5
357
100
AcDbEntity
  8
0
100
AcDbCircle
 62
7
  6
CONTINUOUS
 10
87.9527189102
 20
-868.5662745098
 40
1069.679356645
100
AcDbArc
 50
85.1467007152
 51
86.4809954581
  0
ARC
  5
358
100
AcDbEntity
  8
0
100
AcDbCircle
 62
7
  6
CONTINUOUS
 10
87.9527189102
 20
-868.5662745098
 40
1069.679356645
100
AcDbArc
 50
86.7492812809
 51
88.522203101
  0
ARC
  5
359
100
AcDbEntity
  8
0
100
AcDbCircle
 62
7
  6
CONTINUOUS
 10
87.9527189102
 20
-868.5662745098
 40
1069.679356645
100
AcDbArc
 50
88.7900945712
 51
90.5609378398
  0
ARC
  5
35A
100
AcDbEntity
  8
0
100
AcDbCircle
 62
7
  6
CONTINUOUS
 10
87.9527189102
 20
-868.5662745098
 40
1067.038881544
100
AcDbArc
 50
90.8308263392
 51
92.228948497
  0
ARC
  5
35B
100
AcDbEntity
  8
0
100
AcDbCircle
 62
7
  6
CONTINUOUS
 10
87.9527189102
 20
-868.5662745098
 40
1067.038881544
100
AcDbArc
 50
85.1346619144
 51
86.4722763863
  0
ARC
  5
35C
100
AcDbEntity
  8
0
100
AcDbCircle
 62
7
  6
CONTINUOUS
 10
87.9527189102
 20
-868.5662745098
 40
1067.038881544
100
AcDbArc
 50
86.7412284366
 51
88.5185453574
  0
ARC
  5
35D
100
AcDbEntity
  8
0
100
AcDbCircle
 62
7
  6
CONTINUOUS
 10
87.9527189102
 20
-868.5662745098
 40
1067.038881544
100
AcDbArc
 50
88.7871001144
 51
90.5623259709
  0
ARC
  5
35E
100
AcDbEntity
  8
0
100
AcDbCircle
 62
7
  6
CONTINUOUS
 10
87.9527189102
 20
-868.5662745098
 40
1064.049721602
100
AcDbArc
 50
90.8619010623
 51
92.2352132991
  0
ARC
  5
35F
100
AcDbEntity
  8
0
100
AcDbCircle
 62
7
  6
CONTINUOUS
 10
87.9527189102
 20
-868.5662745098
 40
1064.049721602
100
AcDbArc
 50
85.1209609763
 51
86.4952251254
  0
ARC
  5
360
100
AcDbEntity
  8
0
100
AcDbCircle
 62
7
  6
CONTINUOUS
 10
87.9527189102
 20
-868.5662745098
 40
1064.049721602
100
AcDbArc
 50
86.7649262379
 51
88.5443510721
  0
ARC
  5
361
100
AcDbEntity
  8
0
100
AcDbCircle
 62
7
  6
CONTINUOUS
 10
87.9527189102
 20
-868.5662745098
 40
1064.049721602
100
AcDbArc
 50
88.8136573965
 51
90.5926446209
  0
ARC
  5
362
100
AcDbEntity
  8
0
100
AcDbCircle
 62
7
  6
CONTINUOUS
 10
87.9527189102
 20
-868.5662745098
 40
1061.409347865
100
AcDbArc
 50
90.8640452994
 51
92.2407764737
  0
ARC
  5
363
100
AcDbEntity
  8
0
100
AcDbCircle
 62
7
  6
CONTINUOUS
 10
87.9527189102
 20
-868.5662745098
 40
1061.409347865
100
AcDbArc
 50
85.1087942915
 51
86.486495677
  0
ARC
  5
364
100
AcDbEntity
  8
0
100
AcDbCircle
 62
7
  6
CONTINUOUS
 10
87.9527189102
 20
-868.5662745098
 40
1061.409347865
100
AcDbArc
 50
86.7568700374
 51
88.5407292013
  0
ARC
  5
365
100
AcDbEntity
  8
0
100
AcDbCircle
 62
7
  6
CONTINUOUS
 10
87.9527189102
 20
-868.5662745098
 40
1061.409347865
100
AcDbArc
 50
88.810705814
 51
90.5941189431
  0
ARC
  5
366
100
AcDbEntity
  8
0
100
AcDbCircle
 62
7
  6
CONTINUOUS
 10
87.9527189102
 20
-868.5662745098
 40
1058.420303589
100
AcDbArc
 50
90.8891646786
 51
92.2471078068
  0
ARC
  5
367
100
AcDbEntity
  8
0
100
AcDbCircle
 62
7
  6
CONTINUOUS
 10
87.9527189102
 20
-868.5662745098
 40
1058.420303589
100
AcDbArc
 50
85.0949474284
 51
86.5020548056
  0
ARC
  5
368
100
AcDbEntity
  8
0
100
AcDbCircle
 62
7
  6
CONTINUOUS
 10
87.9527189102
 20
-868.5662745098
 40
1058.420303589
100
AcDbArc
 50
86.7731882793
 51
88.5602361366
  0
ARC
  5
369
100
AcDbEntity
  8
0
100
AcDbCircle
 62
7
  6
CONTINUOUS
 10
87.9527189102
 20
-868.5662745098
 40
1058.420303589
100
AcDbArc
 50
88.8309730252
 51
90.6184745197
  0
ARC
  5
36A
100
AcDbEntity
  8
0
100
AcDbCircle
 62
7
  6
CONTINUOUS
 10
87.9527189102
 20
-868.5662745098
 40
1055.78003284
100
AcDbArc
 50
90.8913884607
 51
92.2527302168
  0
ARC
  5
36B
100
AcDbEntity
  8
0
100
AcDbCircle
 62
7
  6
CONTINUOUS
 10
87.9527189102
 20
-868.5662745098
 40
1055.78003284
100
AcDbArc
 50
85.082650816
 51
86.4932962985
  0
ARC
  5
36C
100
AcDbEntity
  8
0
100
AcDbCircle
 62
7
  6
CONTINUOUS
 10
87.9527189102
 20
-868.5662745098
 40
1055.78003284
100
AcDbArc
 50
86.7651101672
 51
88.5566348469
  0
ARC
  5
36D
100
AcDbEntity
  8
0
100
AcDbCircle
 62
7
  6
CONTINUOUS
 10
87.9527189102
 20
-868.5662745098
 40
1055.78003284
100
AcDbArc
 50
88.8280491418
 51
90.6200212471
  0
ARC
  5
36E
100
AcDbEntity
  8
0
100
AcDbCircle
 62
7
  6
CONTINUOUS
 10
87.9527189102
 20
-868.5662745098
 40
1052.791106088
100
AcDbArc
 50
90.9105042816
 51
92.2591291426
  0
ARC
  5
36F
100
AcDbEntity
  8
0
100
AcDbCircle
 62
7
  6
CONTINUOUS
 10
87.9527189102
 20
-868.5662745098
 40
1052.791106088
100
AcDbArc
 50
85.0686556898
 51
86.5013803557
  0
ARC
  5
370
100
AcDbEntity
  8
0
100
AcDbCircle
 62
7
  6
CONTINUOUS
 10
87.9527189102
 20
-868.5662745098
 40
1052.791106088
100
AcDbArc
 50
86.773963549
 51
88.5697805988
  0
ARC
  5
371
100
AcDbEntity
  8
0
100
AcDbCircle
 62
7
  6
CONTINUOUS
 10
87.9527189102
 20
-868.5662745098
 40
1052.791106088
100
AcDbArc
 50
88.8419639943
 51
90.6383654534
  0
ARC
  5
372
100
AcDbEntity
  8
0
100
AcDbCircle
 62
7
  6
CONTINUOUS
 10
87.9527189102
 20
-868.5662745098
 40
1050.150939985
100
AcDbArc
 50
90.9127935579
 51
92.2648117359
  0
ARC
  5
373
100
AcDbEntity
  8
0
100
AcDbCircle
 62
7
  6
CONTINUOUS
 10
87.9527189102
 20
-868.5662745098
 40
1050.150939985
100
AcDbArc
 50
85.0562270628
 51
86.4925735474
  0
ARC
  5
374
100
AcDbEntity
  8
0
100
AcDbCircle
 62
7
  6
CONTINUOUS
 10
87.9527189102
 20
-868.5662745098
 40
1050.150939985
100
AcDbArc
 50
86.7658444131
 51
88.5661841594
  0
ARC
  5
375
100
AcDbEntity
  8
0
100
AcDbCircle
 62
7
  6
CONTINUOUS
 10
87.9527189102
 20
-868.5662745098
 40
1050.150939985
100
AcDbArc
 50
88.8390521982
 51
90.6399704235
  0
ARC
  5
376
100
AcDbEntity
  8
0
100
AcDbCircle
 62
7
  6
CONTINUOUS
 10
87.9527189102
 20
-868.5662745098
 40
1047.162132654
100
AcDbArc
 50
90.9258495751
 51
92.2712793388
  0
ARC
  5
377
100
AcDbEntity
  8
0
100
AcDbCircle
 62
7
  6
CONTINUOUS
 10
87.9527189102
 20
-868.5662745098
 40
1047.162132654
100
AcDbArc
 50
85.0420812855
 51
86.4930816002
  0
ARC
  5
378
100
AcDbEntity
  8
0
100
AcDbCircle
 62
7
  6
CONTINUOUS
 10
87.9527189102
 20
-868.5662745098
 40
1047.162132654
100
AcDbArc
 50
86.7671321834
 51
88.5728966647
  0
ARC
  5
379
100
AcDbEntity
  8
0
100
AcDbCircle
 62
7
  6
CONTINUOUS
 10
87.9527189102
 20
-868.5662745098
 40
1047.162132654
100
AcDbArc
 50
88.8465427582
 51
90.6522469219
  0
ARC
  5
37A
100
AcDbEntity
  8
0
100
AcDbCircle
 62
7
  6
CONTINUOUS
 10
87.9527189102
 20
-868.5662745098
 40
1044.522072892
100
AcDbArc
 50
90.9281898912
 51
92.2770230834
  0
ARC
  5
37B
100
AcDbEntity
  8
0
100
AcDbCircle
 62
7
  6
CONTINUOUS
 10
87.9527189102
 20
-868.5662745098
 40
1044.522072892
100
AcDbArc
 50
85.0295185117
 51
86.4842066348
  0
ARC
  5
37C
100
AcDbEntity
  8
0
100
AcDbCircle
 62
7
  6
CONTINUOUS
 10
87.9527189102
 20
-868.5662745098
 40
1044.522072892
100
AcDbArc
 50
86.7589523009
 51
88.5692888708
  0
ARC
  5
37D
100
AcDbEntity
  8
0
100
AcDbCircle
 62
7
  6
CONTINUOUS
 10
87.9527189102
 20
-868.5662745098
 40
1044.522072892
100
AcDbArc
 50
88.8436269663
 51
90.6538955663
  0
ARC
  5
37E
100
AcDbEntity
  8
0
100
AcDbCircle
 62
7
  6
CONTINUOUS
 10
87.9527189102
 20
-868.5662745098
 40
1041.533386922
100
AcDbArc
 50
85.0152196439
 51
86.4770215265
  0
ARC
  5
37F
100
AcDbEntity
  8
0
100
AcDbCircle
 62
7
  6
CONTINUOUS
 10
87.9527189102
 20
-868.5662745098
 40
1041.533386922
100
AcDbArc
 50
90.935121593
 51
92.283560471
  0
ARC
  5
380
100
AcDbEntity
  8
0
100
AcDbCircle
 62
7
  6
CONTINUOUS
 10
87.9527189102
 20
-868.5662745098
 40
1041.533386922
100
AcDbArc
 50
86.752557508
 51
88.5694860376
  0
ARC
  5
381
100
AcDbEntity
  8
0
100
AcDbCircle
 62
7
  6
CONTINUOUS
 10
87.9527189102
 20
-868.5662745098
 40
1041.533386922
100
AcDbArc
 50
88.8446112853
 51
90.6600397424
  0
ARC
  5
382
100
AcDbEntity
  8
0
100
AcDbCircle
 62
7
  6
CONTINUOUS
 10
87.9527189102
 20
-868.5662745098
 40
1038.893435232
100
AcDbArc
 50
85.0025205454
 51
86.4680578772
  0
ARC
  5
383
100
AcDbEntity
  8
0
100
AcDbCircle
 62
7
  6
CONTINUOUS
 10
87.9527189102
 20
-868.5662745098
 40
1038.893435232
100
AcDbArc
 50
90.93749806
 51
92.2893663557
  0
ARC
  5
384
100
AcDbEntity
  8
0
100
AcDbCircle
 62
7
  6
CONTINUOUS
 10
87.9527189102
 20
-868.5662745098
 40
1038.893435232
100
AcDbArc
 50
86.7442964889
 51
88.5658501732
  0
ARC
  5
385
100
AcDbEntity
  8
0
100
AcDbCircle
 62
7
  6
CONTINUOUS
 10
87.9527189102
 20
-868.5662745098
 40
1038.893435232
100
AcDbArc
 50
88.8416749057
 51
90.6617170563
  0
ARC
  5
386
100
AcDbEntity
  8
0
100
AcDbCircle
 62
7
  6
CONTINUOUS
 10
87.9527189102
 20
-868.5662745098
 40
1035.900175235
100
AcDbArc
 50
84.9880433095
 51
86.4530154897
  0
ARC
  5
387
100
AcDbEntity
  8
0
100
AcDbCircle
 62
7
  6
CONTINUOUS
 10
87.9527189102
 20
-868.5662745098
 40
1035.900175235
100
AcDbArc
 50
90.9381788045
 51
92.2959850763
  0
ARC
  5
388
100
AcDbEntity
  8
0
100
AcDbCircle
 62
7
  6
CONTINUOUS
 10
87.9527189102
 20
-868.5662745098
 40
1035.900175235
100
AcDbArc
 50
86.7300565088
 51
88.5593964447
  0
ARC
  5
389
100
AcDbEntity
  8
0
100
AcDbCircle
 62
7
  6
CONTINUOUS
 10
87.9527189102
 20
-868.5662745098
 40
1035.900175235
100
AcDbArc
 50
88.8360188443
 51
90.661600904
  0
ARC
  5
38A
100
AcDbEntity
  8
0
100
AcDbCircle
 62
7
  6
CONTINUOUS
 10
87.9527189102
 20
-868.5662745098
 40
1033.256161423
100
AcDbArc
 50
84.9751852032
 51
86.4439274034
  0
ARC
  5
38B
100
AcDbEntity
  8
0
100
AcDbCircle
 62
7
  6
CONTINUOUS
 10
87.9527189102
 20
-868.5662745098
 40
1033.256161423
100
AcDbArc
 50
90.9405797389
 51
92.301863464
  0
ARC
  5
38C
100
AcDbEntity
  8
0
100
AcDbCircle
 62
7
  6
CONTINUOUS
 10
87.9527189102
 20
-868.5662745098
 40
1033.256161423
100
AcDbArc
 50
86.7216798726
 51
88.5557092839
  0
ARC
  5
38D
100
AcDbEntity
  8
0
100
AcDbCircle
 62
7
  6
CONTINUOUS
 10
87.9527189102
 20
-868.5662745098
 40
1033.256161423
100
AcDbArc
 50
88.8330399051
 51
90.6632939594
  0
ARC
  5
38E
100
AcDbEntity
  8
0
100
AcDbCircle
 62
7
  6
CONTINUOUS
 10
87.9527189102
 20
-868.5662745098
 40
1030.262975363
100
AcDbArc
 50
86.1319749127
 51
86.4208791018
  0
ARC
  5
38F
100
AcDbEntity
  8
0
100
AcDbCircle
 62
7
  6
CONTINUOUS
 10
87.9527189102
 20
-868.5662745098
 40
1030.262975363
100
AcDbArc
 50
90.9350607466
 51
91.1401370603
  0
ARC
  5
390
100
AcDbEntity
  8
0
100
AcDbCircle
 62
7
  6
CONTINUOUS
 10
87.9527189102
 20
-868.5662745098
 40
1030.262975363
100
AcDbArc
 50
86.6994451118
 51
88.5425778661
  0
ARC
  5
391
100
AcDbEntity
  8
0
100
AcDbCircle
 62
7
  6
CONTINUOUS
 10
87.9527189102
 20
-868.5662745098
 40
1030.262975363
100
AcDbArc
 50
88.8207156227
 51
90.6569697779
  0
ARC
  5
392
100
AcDbEntity
  8
0
100
AcDbCircle
 62
7
  6
CONTINUOUS
 10
87.9527189102
 20
-868.5662745098
 40
1027.619027398
100
AcDbArc
 50
86.1220077147
 51
86.4116583839
  0
ARC
  5
393
100
AcDbEntity
  8
0
100
AcDbCircle
 62
7
  6
CONTINUOUS
 10
87.9527189102
 20
-868.5662745098
 40
1027.619027398
100
AcDbArc
 50
90.9374667669
 51
91.1430708932
  0
ARC
  5
394
100
AcDbEntity
  8
0
100
AcDbCircle
 62
7
  6
CONTINUOUS
 10
87.9527189102
 20
-868.5662745098
 40
1027.619027398
100
AcDbArc
 50
86.6909437138
 51
88.5388272711
  0
ARC
  5
395
100
AcDbEntity
  8
0
100
AcDbCircle
 62
7
  6
CONTINUOUS
 10
87.9527189102
 20
-868.5662745098
 40
1027.619027398
100
AcDbArc
 50
88.8176810267
 51
90.6586601615
  0
ARC
  5
396
100
AcDbEntity
  8
0
100
AcDbCircle
 62
7
  6
CONTINUOUS
 10
87.9527189102
 20
-868.5662745098
 40
1024.619027398
100
AcDbArc
 50
90.9254713018
 51
91.1464181566
  0
ARC
  5
397
100
AcDbEntity
  8
0
100
AcDbCircle
 62
7
  6
CONTINUOUS
 10
87.9527189102
 20
-868.5662745098
 40
1024.619027398
100
AcDbArc
 50
88.7984372696
 51
90.6458492087
  0
ARC
  5
398
100
AcDbEntity
  8
0
100
AcDbCircle
 62
7
  6
CONTINUOUS
 10
87.9527189102
 20
-868.5662745098
 40
1024.619027398
100
AcDbArc
 50
86.6604614295
 51
88.5187648218
  0
ARC
  5
399
100
AcDbEntity
  8
0
100
AcDbCircle
 62
7
  6
CONTINUOUS
 10
87.9527189102
 20
-868.5662745098
 40
1024.619027398
100
AcDbArc
 50
86.1106358262
 51
86.3803492301
  0
ARC
  5
39A
100
AcDbEntity
  8
0
100
AcDbCircle
 62
7
  6
CONTINUOUS
 10
87.9527189102
 20
-868.5662745098
 40
1021.969027398
100
AcDbArc
 50
90.9278712895
 51
91.1493912557
  0
ARC
  5
39B
100
AcDbEntity
  8
0
100
AcDbCircle
 62
7
  6
CONTINUOUS
 10
87.9527189102
 20
-868.5662745098
 40
1021.969027398
100
AcDbArc
 50
88.7953211185
 51
90.6475239886
  0
ARC
  5
39C
100
AcDbEntity
  8
0
100
AcDbCircle
 62
7
  6
CONTINUOUS
 10
87.9527189102
 20
-868.5662745098
 40
1021.969027398
100
AcDbArc
 50
86.651792036
 51
88.51492307
  0
ARC
  5
39D
100
AcDbEntity
  8
0
100
AcDbCircle
 62
7
  6
CONTINUOUS
 10
87.9527189102
 20
-868.5662745098
 40
1021.969027398
100
AcDbArc
 50
86.1005349942
 51
86.3709507988
  0
ENDSEC
  0
SECTION
  2
OBJECTS
  0
DICTIONARY
  5
C
100
AcDbDictionary
280
0
281
1
  3
ACAD_GROUP
350
D
  3
ACAD_MLINESTYLE
350
17
  3
ACAD_LAYOUT
350
1A
  3
ACAD_PLOTSETTINGS
350
19
  3
ACAD_PLOTSTYLENAME
350
E
  0
DICTIONARY
  5
D
102
{ACAD_REACTORS
330
C
102
}
100
AcDbDictionary
280
0
281
1
  0
ACDBDICTIONARYWDFLT
  5
E
102
{ACAD_REACTORS
330
C
102
}
100
AcDbDictionary
281
1
  3
Normal
350
F
100
AcDbDictionaryWithDefault
340
F
  0
DICTIONARY
  5
17
102
{ACAD_REACTORS
330
C
102
}
100
AcDbDictionary
280
0
281
1
  3
Standard
350
18
  0
DICTIONARY
  5
19
102
{ACAD_REACTORS
330
C
102
}
100
AcDbDictionary
281
1
  0
DICTIONARY
  5
1A
102
{ACAD_REACTORS
330
C
102
}
100
AcDbDictionary
281
1
  3
Model
350
39E
  3
Layout1
350
39F
  0
ACDBPLACEHOLDER
  5
F
102
{ACAD_REACTORS
330
E
102
}
  0
MLINESTYLE
  5
18
102
{ACAD_REACTORS
330
17
102
}
100
AcDbMlineStyle
  2
STANDARD
 70
0
  3

 62
256
 51
90.0
 52
90.0
 71
2
 49
0.5
 62
256
  6
BYLAYER
 49
-0.5
 62
256
  6
BYLAYER
  0
LAYOUT
  5
39E
102
{ACAD_REACTORS
330
1A
102
}
100
AcDbPlotSettings
  1

  2
none_device
  4

  6

 40
0.0
 41
0.0
 42
0.0
 43
0.0
 44
210.0
 45
297.0
 46
0.0
 47
0.0
 48
0.0
 49
0.0
140
0.0
141
0.0
142
1.0
143
1.0
 70
1024
 72
1
 73
0
 74
0
  7

 75
0
147
1.0
148
0.0
149
0.0
100
AcDbLayout
  1
Model
 70
0
 71
0
 10
0.0
 20
0.0
 11
210.0
 21
297.0
 12
0.0
 22
0.0
 32
0.0
 14
0.0
 24
0.0
 34
0.0
 15
0.0
 25
0.0
 35
0.0
146
0.0
 13
0.0
 23
0.0
 33
0.0
 16
1.0
 26
0.0
 36
0.0
 17
0.0
 27
1.0
 37
0.0
 76
0
330
210
345
0
346
0
  0
LAYOUT
  5
39F
102
{ACAD_REACTORS
330
1A
102
}
100
AcDbPlotSettings
  1

  2
none_device
  4

  6

 40
0.0
 41
0.0
 42
0.0
 43
0.0
 44
210.0
 45
297.0
 46
0.0
 47
0.0
 48
0.0
 49
0.0
140
0.0
141
0.0
142
1.0
143
1.0
 70
0
 72
1
 73
0
 74
0
  7

 75
0
147
1.0
148
0.0
149
0.0
100
AcDbLayout
  1
Layout1
 70
0
 71
1
 10
0.0
 20
0.0
 11
210.0
 21
297.0
 12
0.0
 22
0.0
 32
0.0
 14
0.0
 24
0.0
 34
0.0
 15
0.0
 25
0.0
 35
0.0
146
0.0
 13
0.0
 23
0.0
 33
0.0
 16
1.0
 26
0.0
 36
0.0
 17
0.0
 27
1.0
 37
0.0
 76
0
330
211
345
0
346
0
  0
ENDSEC
  0
EOF
