999
DXF file: C:\Users\sesa63760\OneDrive - Schneider Electric\Documents\7-Dev\_Creo\CAD\MCADUE0000163_3D-CAD\drw0001_3.dxf
999
Pro/ENGINEER 2019471 by Parametric Technology Corporation
  0
SECTION
  2
HEADER
  9
$ACADVER
  1
AC1024
  9
$DWGCODEPAGE
  3
ANSI_1252
  9
$EXTMAX
 10
54.98673828
 20
77.7669584245
 30
0.0
  9
$EXTMIN
 10
0.0
 20
0.0
 30
0.0
  9
$LIMMIN
 10
0.0
 20
0.0
  9
$LIMMAX
 10
54.98673828
 20
77.7669584245
  9
$VIEWCTR
 10
27.49336914
 20
38.8834792123
  9
$VIEWSIZE
 40
77.7669584245
  9
$CLAYER
  8
0
  9
$LTSCALE
 40
5.0692535862
  9
$CELTYPE
  6
BYLAYER
  9
$DIMSCALE
 40
1.0
  9
$DIMASZ
 40
0.6546040271
  9
$DIMEXO
 40
1.0
  9
$DIMDLI
 40
3.5023933868
  9
$DIMEXE
 40
1.0
  9
$DIMCEN
 40
0.8295142232
  9
$DIMLFAC
 40
1.0
  9
$DIMBLK
  1
_FILLED
  9
$DIMALT
 70
0
  9
$DIMALTF
 40
0.0393700787
  9
$DIMTXT
 40
0.916445638
  9
$DIMTOL
 70
1
  9
$DIMLIM
 70
0
  9
$DIMTFAC
 40
1.0
  9
$DIMTP
 40
0.01
  9
$DIMTM
 40
0.01
  9
$DIMGAP
 40
0.625
  9
$DIMDSEP
 70
46
  9
$AUNITS
 70
0
  9
$PDMODE
 70
3
  9
$PDSIZE
 40
0.3125
  9
$HANDSEED
  5
2E7
  9
$TILEMODE
 70
1
  9
$MEASUREMENT
 70
1
  9
$INSUNITS
 70
4
  0
ENDSEC
  0
SECTION
  2
CLASSES
  0
CLASS
  1
ACDBDICTIONARYWDFLT
  2
AcDbDictionaryWithDefault
  3
AutoCAD 2000
 90
0
 91
1
280
0
281
0
  0
CLASS
  1
ACDBPLACEHOLDER
  2
AcDbPlaceHolder
  3
AutoCAD 2000
 90
0
 91
1
280
0
281
0
  0
CLASS
  1
LAYOUT
  2
AcDbLayout
  3
AutoCAD 2000
 90
0
 91
0
280
0
281
0
  0
ENDSEC
  0
SECTION
  2
TABLES
  0
TABLE
  2
VPORT
  5
8
100
AcDbSymbolTable
 70
2
  0
VPORT
  5
1F4
100
AcDbSymbolTableRecord
100
AcDbViewportTableRecord
  2
*ACTIVE
 70
0
 10
0.0
 20
0.0
 11
1.0
 21
1.0
 12
27.49336914
 22
38.8834792123
 13
0.0
 23
0.0
 14
1.0
 24
1.0
 15
0.0
 25
0.0
 16
0.0
 26
0.0
 36
1.0
 17
0.0
 27
0.0
 37
0.0
 40
77.7669584245
 41
0.7070707071
 42
50.0
 43
0.0
 44
0.0
 50
0.0
 51
0.0
 71
0
 72
100
 73
1
 74
1
 75
0
 76
0
 77
0
 78
0
  0
ENDTAB
  0
TABLE
  2
LTYPE
  5
5
100
AcDbSymbolTable
 70
6
  0
LTYPE
  5
14
100
AcDbSymbolTableRecord
100
AcDbLinetypeTableRecord
  2
BYBLOCK
 70
0
  3

 72
65
 73
0
 40
0.0
  0
LTYPE
  5
15
100
AcDbSymbolTableRecord
100
AcDbLinetypeTableRecord
  2
BYLAYER
 70
0
  3

 72
65
 73
0
 40
0.0
  0
LTYPE
  5
16
100
AcDbSymbolTableRecord
100
AcDbLinetypeTableRecord
  2
CONTINUOUS
 70
64
  3
Solid line
 72
65
 73
0
 40
0.0
  0
LTYPE
  5
1F5
100
AcDbSymbolTableRecord
100
AcDbLinetypeTableRecord
  2
CENTER
 70
64
  3
____ _ ____ _ ____ _ ____ _ ____ _ ____ _ ____
 72
65
 73
4
 40
0.6
 49
0.375
 74
0
 49
-0.075
 74
0
 49
0.075
 74
0
 49
-0.075
 74
0
  0
LTYPE
  5
1F6
100
AcDbSymbolTableRecord
100
AcDbLinetypeTableRecord
  2
HIDDEN
 70
64
  3
- - - - - - - - - - - - - - - - - - - -
 72
65
 73
2
 40
0.2
 49
0.1
 74
0
 49
-0.1
 74
0
  0
LTYPE
  5
1F7
100
AcDbSymbolTableRecord
100
AcDbLinetypeTableRecord
  2
PHANTOM
 70
64
  3
_____ _ _ _____ _ _ _____ _ _ _____
 72
65
 73
6
 40
0.8
 49
0.45
 74
0
 49
-0.05
 74
0
 49
0.1
 74
0
 49
-0.05
 74
0
 49
0.1
 74
0
 49
-0.05
 74
0
  0
LTYPE
  5
1F8
100
AcDbSymbolTableRecord
100
AcDbLinetypeTableRecord
  2
DOT
 70
64
  3
. . . . . . . . . . . . . . . . . . . .
 72
65
 73
2
 40
0.2
 49
0.1
 74
0
 49
-0.1
 74
0
  0
LTYPE
  5
1F9
100
AcDbSymbolTableRecord
100
AcDbLinetypeTableRecord
  2
DASHED
 70
64
  3
- - - - - - - - - - - - - - - - - - - -
 72
65
 73
2
 40
0.2
 49
0.1
 74
0
 49
-0.1
 74
0
  0
ENDTAB
  0
TABLE
  2
LAYER
  5
2
100
AcDbSymbolTable
 70
36
  0
LAYER
  5
10
100
AcDbSymbolTableRecord
100
AcDbLayerTableRecord
  2
0
 70
0
 62
7
  6
CONTINUOUS
370
-3
390
F
  0
LAYER
  5
1FA
100
AcDbSymbolTableRecord
100
AcDbLayerTableRecord
  2
DEFAULT_1
 70
0
 62
7
  6
CENTER
370
-3
390
F
  0
LAYER
  5
1FB
100
AcDbSymbolTableRecord
100
AcDbLayerTableRecord
  2
DEFAULT_2
 70
0
 62
8
  6
HIDDEN
370
-3
390
F
  0
LAYER
  5
1FC
100
AcDbSymbolTableRecord
100
AcDbLayerTableRecord
  2
DEFAULT_3
 70
0
 62
7
  6
PHANTOM
370
-3
390
F
  0
LAYER
  5
1FD
100
AcDbSymbolTableRecord
100
AcDbLayerTableRecord
  2
00_COMPONENTS
 70
0
 62
7
  6
CONTINUOUS
370
-3
390
F
  0
LAYER
  5
1FE
100
AcDbSymbolTableRecord
100
AcDbLayerTableRecord
  2
01_1_DEFAULT_DATUMS
 70
0
 62
7
  6
CONTINUOUS
370
-3
390
F
  0
LAYER
  5
1FF
100
AcDbSymbolTableRecord
100
AcDbLayerTableRecord
  2
01_PLANES
 70
0
 62
7
  6
CONTINUOUS
370
-3
390
F
  0
LAYER
  5
200
100
AcDbSymbolTableRecord
100
AcDbLayerTableRecord
  2
02_COORD_SYS
 70
0
 62
7
  6
CONTINUOUS
370
-3
390
F
  0
LAYER
  5
201
100
AcDbSymbolTableRecord
100
AcDbLayerTableRecord
  2
03_AXES
 70
0
 62
7
  6
CONTINUOUS
370
-3
390
F
  0
LAYER
  5
202
100
AcDbSymbolTableRecord
100
AcDbLayerTableRecord
  2
04_POINTS
 70
0
 62
7
  6
CONTINUOUS
370
-3
390
F
  0
LAYER
  5
203
100
AcDbSymbolTableRecord
100
AcDbLayerTableRecord
  2
05_CURVES
 70
0
 62
7
  6
CONTINUOUS
370
-3
390
F
  0
LAYER
  5
204
100
AcDbSymbolTableRecord
100
AcDbLayerTableRecord
  2
06_SURFS
 70
0
 62
7
  6
CONTINUOUS
370
-3
390
F
  0
LAYER
  5
205
100
AcDbSymbolTableRecord
100
AcDbLayerTableRecord
  2
07_COSMETICS
 70
0
 62
7
  6
CONTINUOUS
370
-3
390
F
  0
LAYER
  5
206
100
AcDbSymbolTableRecord
100
AcDbLayerTableRecord
  2
10_NOTES
 70
0
 62
7
  6
CONTINUOUS
370
-3
390
F
  0
LAYER
  5
207
100
AcDbSymbolTableRecord
100
AcDbLayerTableRecord
  2
11_NOTES_PUB
 70
0
 62
7
  6
CONTINUOUS
370
-3
390
F
  0
LAYER
  5
208
100
AcDbSymbolTableRecord
100
AcDbLayerTableRecord
  2
13_REF_GTOL
 70
0
 62
7
  6
CONTINUOUS
370
-3
390
F
  0
LAYER
  5
209
100
AcDbSymbolTableRecord
100
AcDbLayerTableRecord
  2
16_MISC
 70
0
 62
7
  6
CONTINUOUS
370
-3
390
F
  0
LAYER
  5
20A
100
AcDbSymbolTableRecord
100
AcDbLayerTableRecord
  2
17_NO_PRINT
 70
0
 62
7
  6
CONTINUOUS
370
-3
390
F
  0
LAYER
  5
20B
100
AcDbSymbolTableRecord
100
AcDbLayerTableRecord
  2
18_DATUM_CAMS_JOINTS
 70
0
 62
7
  6
CONTINUOUS
370
-3
390
F
  0
LAYER
  5
20C
100
AcDbSymbolTableRecord
100
AcDbLayerTableRecord
  2
19_DATUM_FUNCTIONAL
 70
0
 62
7
  6
CONTINUOUS
370
-3
390
F
  0
LAYER
  5
20D
100
AcDbSymbolTableRecord
100
AcDbLayerTableRecord
  2
20_DATUM_KINEMATIC_SCHEME
 70
0
 62
7
  6
CONTINUOUS
370
-3
390
F
  0
ENDTAB
  0
TABLE
  2
STYLE
  5
3
100
AcDbSymbolTable
 70
1
  0
STYLE
  5
11
100
AcDbSymbolTableRecord
100
AcDbTextStyleTableRecord
  2
STANDARD
 70
0
 40
0.0
 41
0.8
 50
0.0
 71
0
 42
0.2
  3
txt
  4

  0
STYLE
  5
20E
100
AcDbSymbolTableRecord
100
AcDbTextStyleTableRecord
  2
TEXTSTYLE_1
 70
0
 40
0.0
 41
0.8
 50
0.0
 71
0
 42
0.2
  3
gdt
  4

  0
ENDTAB
  0
TABLE
  2
VIEW
  5
6
100
AcDbSymbolTable
 70
0
  0
ENDTAB
  0
TABLE
  2
UCS
  5
7
100
AcDbSymbolTable
 70
0
  0
ENDTAB
  0
TABLE
  2
APPID
  5
9
100
AcDbSymbolTable
 70
1
  0
APPID
  5
20F
100
AcDbSymbolTableRecord
100
AcDbRegAppTableRecord
  2
ACAD
 70
0
  0
ENDTAB
  0
TABLE
  2
BLOCK_RECORD
  5
1
100
AcDbSymbolTable
 70
0
  0
BLOCK_RECORD
  5
210
100
AcDbSymbolTableRecord
100
AcDbBlockTableRecord
  2
*Model_Space
  0
BLOCK_RECORD
  5
211
100
AcDbSymbolTableRecord
100
AcDbBlockTableRecord
  2
*Paper_Space
  0
BLOCK_RECORD
  5
212
100
AcDbSymbolTableRecord
100
AcDbBlockTableRecord
  2
_FILLED
  0
ENDTAB
  0
TABLE
  2
DIMSTYLE
  5
A
100
AcDbSymbolTable
 70
1
100
AcDbDimStyleTable
 71
0
  0
DIMSTYLE
105
213
100
AcDbSymbolTableRecord
100
AcDbDimStyleTableRecord
  2
STANDARD
 70
0
  3

  4

 40
1.0
 41
0.6546040271
 42
1.0
 43
0.38
 44
1.0
 45
0.0
 46
0.0
 47
0.01
 48
0.01
140
0.916445638
141
0.09
142
0.0
143
25.4
144
1.0
145
0.0
146
1.0
147
0.625
 71
1
 72
0
 73
0
 74
0
 75
0
 76
0
 77
1
 78
8
 79
2
170
0
171
1
172
0
173
0
174
0
175
0
176
0
177
0
178
0
270
2
179
2
271
2
272
2
273
2
274
2
275
0
280
0
281
0
282
0
283
1
284
8
285
0
286
0
287
3
288
0
340
11
278
46
341
212
342
212
343
212
344
212
  0
ENDTAB
  0
ENDSEC
  0
SECTION
  2
BLOCKS
  0
BLOCK
  5
20
100
AcDbEntity
  8
0
100
AcDbBlockBegin
  2
*Model_Space
 70
0
 10
0.0
 20
0.0
 30
0.0
  3
*Model_Space
  1

  0
ENDBLK
  5
21
100
AcDbEntity
  8
0
100
AcDbBlockEnd
  0
BLOCK
  5
1C
100
AcDbEntity
  8
0
100
AcDbBlockBegin
  2
*Paper_Space
 70
0
 10
0.0
 20
0.0
 30
0.0
  3
*Paper_Space
  1

  0
ENDBLK
  5
1D
100
AcDbEntity
  8
0
100
AcDbBlockEnd
  0
BLOCK
  5
214
100
AcDbEntity
  8
0
100
AcDbBlockBegin
  2
_FILLED
 70
64
 10
0.0
 20
0.0
  3
_FILLED
  1

  0
SOLID
  5
215
100
AcDbEntity
  8
0
  6
BYBLOCK
 62
0
100
AcDbTrace
 10
0.0
 20
0.0
 11
-1.0
 21
0.25
 12
-1.0
 22
-0.25
 13
-1.0
 23
-0.25
  0
ENDBLK
  5
216
100
AcDbEntity
  8
0
  6
BYBLOCK
 62
0
100
AcDbBlockEnd
  0
ENDSEC
  0
SECTION
  2
ENTITIES
  0
LWPOLYLINE
  5
217
100
AcDbEntity
  8
0
100
AcDbPolyline
 62
7
  6
CONTINUOUS
 90
3
 70
0
 10
6.7520395035
 20
22.8413128911
 10
7.0280418857
 20
22.3707320856
 10
7.6375443694
 20
21.8678440447
  0
LINE
  5
218
100
AcDbEntity
  8
0
100
AcDbLine
 62
7
  6
CONTINUOUS
 10
6.7521415632
 20
22.8411219034
 11
6.7520679297
 21
22.8413246836
  0
LINE
  5
219
100
AcDbEntity
  8
0
100
AcDbLine
 62
7
  6
CONTINUOUS
 10
9.1287920738
 20
21.0033510714
 11
7.0048571271
 21
22.2296054847
  0
LWPOLYLINE
  5
21A
100
AcDbEntity
  8
0
100
AcDbPolyline
 62
7
  6
CONTINUOUS
 90
3
 70
0
 10
7.6374987991
 20
21.8678637764
 10
7.6686065863
 20
21.8487478033
 10
7.791403607
 20
21.775539876
  0
LWPOLYLINE
  5
21B
100
AcDbEntity
  8
0
100
AcDbPolyline
 62
7
  6
CONTINUOUS
 90
4
 70
0
 10
6.5048578333
 20
23.650872236
 10
6.5440466631
 20
23.4008340806
 10
6.601618022
 20
23.2292796704
 10
6.7521415632
 20
22.8411219034
  0
LINE
  5
21C
100
AcDbEntity
  8
0
100
AcDbLine
 62
7
  6
CONTINUOUS
 10
6.504857105
 20
23.0956311097
 11
6.504857105
 21
26.1123037505
  0
LINE
  5
21D
100
AcDbEntity
  8
0
100
AcDbLine
 62
7
  6
CONTINUOUS
 10
7.8208166646
 20
24.5768009161
 11
7.8208168176
 21
22.7157460539
  0
LINE
  5
21E
100
AcDbEntity
  8
0
100
AcDbLine
 62
7
  6
CONTINUOUS
 10
8.504857105
 20
25.3113313821
 11
8.504857105
 21
28.1123043364
  0
LINE
  5
21F
100
AcDbEntity
  8
0
100
AcDbLine
 62
7
  6
CONTINUOUS
 10
30.0921910265
 20
18.8357053902
 11
44.3842514694
 21
22.665251444
  0
LINE
  5
220
100
AcDbEntity
  8
0
100
AcDbLine
 62
7
  6
CONTINUOUS
 10
9.9371008886
 20
20.7446094819
 11
29.914859082
 21
18.8209701604
  0
LINE
  5
221
100
AcDbEntity
  8
0
100
AcDbLine
 62
7
  6
CONTINUOUS
 10
29.9627793598
 20
19.3186412691
 11
36.5048575791
 21
21.0716103882
  0
LINE
  5
222
100
AcDbEntity
  8
0
100
AcDbLine
 62
7
  6
CONTINUOUS
 10
36.50485804
 20
21.0716077215
 11
44.754857105
 21
23.1482145017
  0
LINE
  5
223
100
AcDbEntity
  8
0
100
AcDbLine
 62
7
  6
CONTINUOUS
 10
40.8002364104
 20
19.8523043364
 11
37.004857105
 21
19.8523043364
  0
LINE
  5
224
100
AcDbEntity
  8
0
100
AcDbLine
 62
7
  6
CONTINUOUS
 10
36.004857105
 20
19.8523043364
 11
33.8861899449
 21
19.8523043364
  0
LINE
  5
225
100
AcDbEntity
  8
0
100
AcDbLine
 62
7
  6
CONTINUOUS
 10
41.2983337595
 20
20.308726465
 11
37.004857105
 21
20.308726465
  0
LINE
  5
226
100
AcDbEntity
  8
0
100
AcDbLine
 62
7
  6
CONTINUOUS
 10
36.004857105
 20
20.308726465
 11
35.5895805186
 21
20.308726465
  0
LINE
  5
227
100
AcDbEntity
  8
0
100
AcDbLine
 62
7
  6
CONTINUOUS
 10
37.004857105
 20
20.6023043364
 11
36.6852280505
 21
20.6023043364
  0
LINE
  5
228
100
AcDbEntity
  8
0
100
AcDbLine
 62
7
  6
CONTINUOUS
 10
12.6311333537
 20
20.987554427
 11
29.9627793598
 21
19.3186412691
  0
LINE
  5
229
100
AcDbEntity
  8
0
100
AcDbLine
 62
7
  6
CONTINUOUS
 10
16.504857105
 20
25.3046170099
 11
14.3663384396
 21
27.7852987315
  0
LINE
  5
22A
100
AcDbEntity
  8
0
100
AcDbLine
 62
7
  6
CONTINUOUS
 10
14.2409778937
 20
28.0360215029
 11
14.1764320268
 21
28.1123043364
  0
LINE
  5
22B
100
AcDbEntity
  8
0
100
AcDbLine
 62
7
  6
CONTINUOUS
 10
11.6684265764
 20
21.1361755927
 11
11.6684257531
 21
23.3077705474
  0
LINE
  5
22C
100
AcDbEntity
  8
0
100
AcDbLine
 62
7
  6
CONTINUOUS
 10
12.3524523004
 20
21.0149301168
 11
12.3524659053
 21
23.9040545344
  0
LINE
  5
22D
100
AcDbEntity
  8
0
100
AcDbLine
 62
7
  6
CONTINUOUS
 10
7.6374986415
 20
21.8678638888
 11
7.6380530958
 21
21.8705373514
  0
LINE
  5
22E
100
AcDbEntity
  8
0
100
AcDbLine
 62
7
  6
CONTINUOUS
 10
6.7520679297
 20
22.8413246836
 11
6.794339992
 21
23.0119803576
  0
LINE
  5
22F
100
AcDbEntity
  8
0
100
AcDbLine
 62
7
  6
CONTINUOUS
 10
36.5048571833
 20
23.2402749848
 11
12.3524659244
 21
23.2402749682
  0
LINE
  5
230
100
AcDbEntity
  8
0
100
AcDbLine
 62
7
  6
CONTINUOUS
 10
15.590645071
 20
27.5265163704
 11
17.9190706673
 21
25.198090774
  0
LINE
  5
231
100
AcDbEntity
  8
0
100
AcDbLine
 62
7
  6
CONTINUOUS
 10
14.3663384361
 20
27.785298728
 11
14.2409778937
 21
28.0360215029
  0
LINE
  5
232
100
AcDbEntity
  8
0
100
AcDbLine
 62
7
  6
CONTINUOUS
 10
12.3044753935
 20
20.5166572441
 11
12.3524535996
 21
21.0149299777
  0
LINE
  5
233
100
AcDbEntity
  8
0
100
AcDbLine
 62
7
  6
CONTINUOUS
 10
12.3524631088
 20
23.9040545344
 11
30.3573433619
 21
23.9040545344
  0
LINE
  5
234
100
AcDbEntity
  8
0
100
AcDbLine
 62
7
  6
CONTINUOUS
 10
19.3332842297
 20
23.9455924746
 11
30.2632471007
 21
23.9455924746
  0
LINE
  5
235
100
AcDbEntity
  8
0
100
AcDbLine
 62
7
  6
CONTINUOUS
 10
19.3332842297
 20
24.6123043364
 11
24.9423217656
 21
24.6123043364
  0
LINE
  5
236
100
AcDbEntity
  8
0
100
AcDbLine
 62
7
  6
CONTINUOUS
 10
8.504857105
 20
27.785298728
 11
14.3663384361
 21
27.785298728
  0
LINE
  5
237
100
AcDbEntity
  8
0
100
AcDbLine
 62
7
  6
CONTINUOUS
 10
14.2409778937
 20
28.0360215029
 11
8.504857105
 21
28.0360215029
  0
LINE
  5
238
100
AcDbEntity
  8
0
100
AcDbLine
 62
7
  6
CONTINUOUS
 10
14.1764299802
 20
28.1123043364
 11
8.504857105
 21
28.1123043364
  0
LINE
  5
239
100
AcDbEntity
  8
0
100
AcDbLine
 62
7
  6
CONTINUOUS
 10
19.3332842297
 20
23.9455924746
 11
19.3332842297
 21
24.6123043363
  0
LINE
  5
23A
100
AcDbEntity
  8
0
100
AcDbLine
 62
7
  6
CONTINUOUS
 10
29.3054070846
 20
29.6123060466
 11
28.254857105
 21
29.6123043364
  0
LINE
  5
23B
100
AcDbEntity
  8
0
100
AcDbLine
 62
7
  6
CONTINUOUS
 10
23.004857105
 20
50.8123043364
 11
23.7499625658
 21
59.3288987243
  0
LINE
  5
23C
100
AcDbEntity
  8
0
100
AcDbLine
 62
7
  6
CONTINUOUS
 10
23.612689242
 20
52.1283588364
 11
23.4975496532
 21
50.8123043364
  0
LINE
  5
23D
100
AcDbEntity
  8
0
100
AcDbLine
 62
7
  6
CONTINUOUS
 10
28.254857105
 20
31.8123043364
 11
44.3669497012
 21
31.8123043364
  0
LINE
  5
23E
100
AcDbEntity
  8
0
100
AcDbLine
 62
7
  6
CONTINUOUS
 10
45.8047252462
 20
32.8123043364
 11
27.5471619844
 21
32.8123043364
  0
LINE
  5
23F
100
AcDbEntity
  8
0
100
AcDbLine
 62
7
  6
CONTINUOUS
 10
46.304857105
 20
33.3123117992
 11
27.0290984406
 21
33.3123117992
  0
LINE
  5
240
100
AcDbEntity
  8
0
100
AcDbLine
 62
7
  6
CONTINUOUS
 10
23.754857105
 20
50.8123043364
 11
23.754857105
 21
50.3123043364
  0
LINE
  5
241
100
AcDbEntity
  8
0
100
AcDbLine
 62
7
  6
CONTINUOUS
 10
23.6817387225
 20
53.3123043362
 11
23.6126890945
 21
52.1283561975
  0
LINE
  5
242
100
AcDbEntity
  8
0
100
AcDbLine
 62
7
  6
CONTINUOUS
 10
27.0290985601
 20
35.3123043364
 11
26.704857105
 21
35.3123043364
  0
LINE
  5
243
100
AcDbEntity
  8
0
100
AcDbLine
 62
7
  6
CONTINUOUS
 10
25.6014474599
 20
50.8123043364
 11
25.6014474599
 21
50.3123043364
  0
LINE
  5
244
100
AcDbEntity
  8
0
100
AcDbLine
 62
7
  6
CONTINUOUS
 10
26.434857105
 20
50.3123043364
 11
26.434857105
 21
48.8123043364
  0
LINE
  5
245
100
AcDbEntity
  8
0
100
AcDbLine
 62
7
  6
CONTINUOUS
 10
30.0921910265
 20
18.8357053901
 11
29.962781504
 21
19.3186683033
  0
LINE
  5
246
100
AcDbEntity
  8
0
100
AcDbLine
 62
7
  6
CONTINUOUS
 10
26.5917155286
 20
50.3123043364
 11
26.5917155286
 21
50.8123043364
  0
LINE
  5
247
100
AcDbEntity
  8
0
100
AcDbLine
 62
7
  6
CONTINUOUS
 10
26.704857105
 20
35.3123043364
 11
26.704857105
 21
48.812310287
  0
LINE
  5
248
100
AcDbEntity
  8
0
100
AcDbLine
 62
7
  6
CONTINUOUS
 10
27.0290892975
 20
33.312316911
 11
27.0290985601
 21
35.3123043364
  0
LINE
  5
249
100
AcDbEntity
  8
0
100
AcDbLine
 62
7
  6
CONTINUOUS
 10
28.254857105
 20
29.6123043364
 11
28.254857105
 21
31.8123043364
  0
LINE
  5
24A
100
AcDbEntity
  8
0
100
AcDbLine
 62
7
  6
CONTINUOUS
 10
26.704857105
 20
37.8123043364
 11
46.304857105
 21
37.8123043364
  0
LINE
  5
24B
100
AcDbEntity
  8
0
100
AcDbLine
 62
7
  6
CONTINUOUS
 10
26.704857105
 20
38.5223043364
 11
31.0697858083
 21
38.5223043364
  0
LINE
  5
24C
100
AcDbEntity
  8
0
100
AcDbLine
 62
7
  6
CONTINUOUS
 10
41.9399284017
 20
38.5223043364
 11
46.304857105
 21
38.5223043364
  0
LINE
  5
24D
100
AcDbEntity
  8
0
100
AcDbLine
 62
7
  6
CONTINUOUS
 10
26.704857105
 20
39.2223043364
 11
32.5885450643
 21
39.2223043364
  0
LINE
  5
24E
100
AcDbEntity
  8
0
100
AcDbLine
 62
7
  6
CONTINUOUS
 10
40.4211691457
 20
39.2223043364
 11
46.304857105
 21
39.2223043364
  0
LINE
  5
24F
100
AcDbEntity
  8
0
100
AcDbLine
 62
7
  6
CONTINUOUS
 10
26.704857105
 20
39.9323043364
 11
31.0697858083
 21
39.9323043364
  0
LINE
  5
250
100
AcDbEntity
  8
0
100
AcDbLine
 62
7
  6
CONTINUOUS
 10
41.9399284017
 20
39.9323043364
 11
46.304857105
 21
39.9323043364
  0
LINE
  5
251
100
AcDbEntity
  8
0
100
AcDbLine
 62
7
  6
CONTINUOUS
 10
26.704857105
 20
40.6323043364
 11
32.5885450643
 21
40.6323043364
  0
LINE
  5
252
100
AcDbEntity
  8
0
100
AcDbLine
 62
7
  6
CONTINUOUS
 10
40.4211691457
 20
40.6323043364
 11
46.304857105
 21
40.6323043364
  0
LINE
  5
253
100
AcDbEntity
  8
0
100
AcDbLine
 62
7
  6
CONTINUOUS
 10
29.9148604478
 20
18.8209700289
 11
29.9627833239
 21
19.3186681262
  0
LINE
  5
254
100
AcDbEntity
  8
0
100
AcDbLine
 62
7
  6
CONTINUOUS
 10
26.704857105
 20
41.3423043364
 11
31.0697858083
 21
41.3423043364
  0
LINE
  5
255
100
AcDbEntity
  8
0
100
AcDbLine
 62
7
  6
CONTINUOUS
 10
41.9399284017
 20
41.3423043364
 11
46.304857105
 21
41.3423043364
  0
LINE
  5
256
100
AcDbEntity
  8
0
100
AcDbLine
 62
7
  6
CONTINUOUS
 10
26.704857105
 20
42.0423043364
 11
32.5885450643
 21
42.0423043364
  0
LINE
  5
257
100
AcDbEntity
  8
0
100
AcDbLine
 62
7
  6
CONTINUOUS
 10
40.4211691457
 20
42.0423043364
 11
46.304857105
 21
42.0423043364
  0
LINE
  5
258
100
AcDbEntity
  8
0
100
AcDbLine
 62
7
  6
CONTINUOUS
 10
26.704857105
 20
42.7523043364
 11
31.0697858083
 21
42.7523043364
  0
LINE
  5
259
100
AcDbEntity
  8
0
100
AcDbLine
 62
7
  6
CONTINUOUS
 10
41.9399284017
 20
42.7523043364
 11
46.304857105
 21
42.7523043364
  0
LINE
  5
25A
100
AcDbEntity
  8
0
100
AcDbLine
 62
7
  6
CONTINUOUS
 10
36.504857105
 20
21.0716121775
 11
36.6342666275
 21
20.5886492643
  0
LINE
  5
25B
100
AcDbEntity
  8
0
100
AcDbLine
 62
7
  6
CONTINUOUS
 10
26.704857105
 20
43.4523043364
 11
32.5885450643
 21
43.4523043364
  0
LINE
  5
25C
100
AcDbEntity
  8
0
100
AcDbLine
 62
7
  6
CONTINUOUS
 10
40.4211691457
 20
43.4523043364
 11
46.304857105
 21
43.4523043364
  0
LINE
  5
25D
100
AcDbEntity
  8
0
100
AcDbLine
 62
7
  6
CONTINUOUS
 10
26.704857105
 20
44.1623043364
 11
31.0697858083
 21
44.1623043364
  0
LINE
  5
25E
100
AcDbEntity
  8
0
100
AcDbLine
 62
7
  6
CONTINUOUS
 10
41.9399284017
 20
44.1623043364
 11
46.304857105
 21
44.1623043364
  0
LINE
  5
25F
100
AcDbEntity
  8
0
100
AcDbLine
 62
7
  6
CONTINUOUS
 10
26.704857105
 20
44.8623043364
 11
32.5885450643
 21
44.8623043364
  0
LINE
  5
260
100
AcDbEntity
  8
0
100
AcDbLine
 62
7
  6
CONTINUOUS
 10
40.4211691457
 20
44.8623043364
 11
46.304857105
 21
44.8623043364
  0
LINE
  5
261
100
AcDbEntity
  8
0
100
AcDbLine
 62
7
  6
CONTINUOUS
 10
36.004857105
 20
19.8523043364
 11
36.004857105
 21
20.419999491
  0
LINE
  5
262
100
AcDbEntity
  8
0
100
AcDbLine
 62
7
  6
CONTINUOUS
 10
26.704857105
 20
45.5723043364
 11
31.0697858083
 21
45.5723043364
  0
LINE
  5
263
100
AcDbEntity
  8
0
100
AcDbLine
 62
7
  6
CONTINUOUS
 10
41.9399284017
 20
45.5723043364
 11
46.304857105
 21
45.5723043364
  0
LINE
  5
264
100
AcDbEntity
  8
0
100
AcDbLine
 62
7
  6
CONTINUOUS
 10
26.704857105
 20
46.2723043364
 11
32.5885450643
 21
46.2723043364
  0
LINE
  5
265
100
AcDbEntity
  8
0
100
AcDbLine
 62
7
  6
CONTINUOUS
 10
40.4211691457
 20
46.2723043364
 11
46.304857105
 21
46.2723043364
  0
LINE
  5
266
100
AcDbEntity
  8
0
100
AcDbLine
 62
7
  6
CONTINUOUS
 10
26.704857105
 20
46.9623043364
 11
31.0697858083
 21
46.9623043364
  0
LINE
  5
267
100
AcDbEntity
  8
0
100
AcDbLine
 62
7
  6
CONTINUOUS
 10
41.9399284017
 20
46.9623043364
 11
46.304857105
 21
46.9623043364
  0
LINE
  5
268
100
AcDbEntity
  8
0
100
AcDbLine
 62
7
  6
CONTINUOUS
 10
36.5048575791
 20
21.0716103882
 11
36.5048571833
 21
23.2402749848
  0
LINE
  5
269
100
AcDbEntity
  8
0
100
AcDbLine
 62
7
  6
CONTINUOUS
 10
37.004857105
 20
19.8523043364
 11
37.004857105
 21
20.6023043364
  0
LINE
  5
26A
100
AcDbEntity
  8
0
100
AcDbLine
 62
7
  6
CONTINUOUS
 10
26.704857105
 20
47.6723043364
 11
32.5885450643
 21
47.6723043364
  0
LINE
  5
26B
100
AcDbEntity
  8
0
100
AcDbLine
 62
7
  6
CONTINUOUS
 10
40.4211691457
 20
47.6723043364
 11
46.304857105
 21
47.6723043364
  0
LINE
  5
26C
100
AcDbEntity
  8
0
100
AcDbLine
 62
7
  6
CONTINUOUS
 10
46.3048561739
 20
48.3773043364
 11
41.9691302337
 21
48.3773043364
  0
LINE
  5
26D
100
AcDbEntity
  8
0
100
AcDbLine
 62
7
  6
CONTINUOUS
 10
26.7048463489
 20
48.3773043364
 11
31.0405845082
 21
48.3773043364
  0
LINE
  5
26E
100
AcDbEntity
  8
0
100
AcDbLine
 62
7
  6
CONTINUOUS
 10
46.574857105
 20
48.8123043364
 11
26.434857105
 21
48.8123043364
  0
LINE
  5
26F
100
AcDbEntity
  8
0
100
AcDbLine
 62
7
  6
CONTINUOUS
 10
23.754857105
 20
50.3123043364
 11
49.254857105
 21
50.3123043364
  0
LINE
  5
270
100
AcDbEntity
  8
0
100
AcDbLine
 62
7
  6
CONTINUOUS
 10
23.004857105
 20
50.8123043364
 11
50.004857105
 21
50.8123043364
  0
LINE
  5
271
100
AcDbEntity
  8
0
100
AcDbLine
 62
7
  6
CONTINUOUS
 10
49.3970258406
 20
52.1283535586
 11
23.612689242
 21
52.1283588364
  0
LINE
  5
272
100
AcDbEntity
  8
0
100
AcDbLine
 62
7
  6
CONTINUOUS
 10
44.3669497017
 20
32.8123043364
 11
44.3669497006
 21
31.8123043364
  0
LINE
  5
273
100
AcDbEntity
  8
0
100
AcDbLine
 62
7
  6
CONTINUOUS
 10
41.4353738679
 20
21.8751020721
 11
41.2983337595
 21
20.308726465
  0
LWPOLYLINE
  5
274
100
AcDbEntity
  8
0
100
AcDbPolyline
 62
7
  6
CONTINUOUS
 90
4
 70
0
 10
23.6817431499
 20
53.3122941602
 10
23.4652123656
 20
53.2629766481
 10
23.3256679987
 20
53.1633085282
 10
23.1836464231
 20
52.8558755938
  0
LINE
  5
275
100
AcDbEntity
  8
0
100
AcDbLine
 62
7
  6
CONTINUOUS
 10
49.327974581
 20
53.3123043364
 11
23.6817387199
 21
53.3123043364
  0
LINE
  5
276
100
AcDbEntity
  8
0
100
AcDbLine
 62
7
  6
CONTINUOUS
 10
49.6538318026
 20
54.8223043364
 11
23.3558824074
 21
54.8223043364
  0
LINE
  5
277
100
AcDbEntity
  8
0
100
AcDbLine
 62
7
  6
CONTINUOUS
 10
44.754857105
 20
23.1482124135
 11
44.754857105
 21
32.8123043364
  0
LINE
  5
278
100
AcDbEntity
  8
0
100
AcDbLine
 62
7
  6
CONTINUOUS
 10
46.304857105
 20
33.3122865137
 11
46.304857105
 21
48.8123385954
  0
LINE
  5
279
100
AcDbEntity
  8
0
100
AcDbLine
 62
7
  6
CONTINUOUS
 10
45.8048740184
 20
32.8123043364
 11
46.304857105
 21
33.3122865137
  0
LINE
  5
27A
100
AcDbEntity
  8
0
100
AcDbLine
 62
7
  6
CONTINUOUS
 10
49.5227599838
 20
56.3223043364
 11
23.4869542267
 21
56.3223043364
  0
LINE
  5
27B
100
AcDbEntity
  8
0
100
AcDbLine
 62
7
  6
CONTINUOUS
 10
46.4179986813
 20
50.8123043364
 11
46.4179986813
 21
50.3123043364
  0
LINE
  5
27C
100
AcDbEntity
  8
0
100
AcDbLine
 62
7
  6
CONTINUOUS
 10
46.574857105
 20
48.8123043364
 11
46.574857105
 21
50.3123043364
  0
LINE
  5
27D
100
AcDbEntity
  8
0
100
AcDbLine
 62
7
  6
CONTINUOUS
 10
47.4082667501
 20
50.3123043364
 11
47.4082667501
 21
50.8123043364
  0
LINE
  5
27E
100
AcDbEntity
  8
0
100
AcDbLine
 62
7
  6
CONTINUOUS
 10
49.3906509785
 20
57.8323043364
 11
23.619063232
 21
57.8323043364
  0
LINE
  5
27F
100
AcDbEntity
  8
0
100
AcDbLine
 62
7
  6
CONTINUOUS
 10
49.327974581
 20
53.3123043364
 11
49.397025693
 21
52.1283561975
  0
LINE
  5
280
100
AcDbEntity
  8
0
100
AcDbLine
 62
7
  6
CONTINUOUS
 10
49.254857105
 20
50.3123043364
 11
49.254857105
 21
50.8123043364
  0
LINE
  5
281
100
AcDbEntity
  8
0
100
AcDbLine
 62
7
  6
CONTINUOUS
 10
49.2597516438
 20
59.3285253771
 11
23.7499625662
 21
59.3285253771
  0
LINE
  5
282
100
AcDbEntity
  8
0
100
AcDbLine
 62
7
  6
CONTINUOUS
 10
49.5121645568
 20
50.8123043364
 11
49.3970258406
 21
52.1283535586
  0
LINE
  5
283
100
AcDbEntity
  8
0
100
AcDbLine
 62
7
  6
CONTINUOUS
 10
50.004857105
 20
50.8123043364
 11
49.2597516442
 21
59.3288987243
  0
LWPOLYLINE
  5
284
100
AcDbEntity
  8
0
100
AcDbPolyline
 62
7
  6
CONTINUOUS
 90
4
 70
0
 10
49.8260677869
 20
52.8558755938
 10
49.6840463553
 20
53.1633083821
 10
49.5445021209
 20
53.2629765152
 10
49.3279710601
 20
53.3122941602
  0
ARC
  5
285
100
AcDbEntity
  8
0
100
AcDbCircle
 62
7
  6
CONTINUOUS
 10
1.511989859
 20
-9.0463746437
 40
47.6122725907
100
AcDbArc
 50
42.6966045314
 51
42.8590354365
  0
ARC
  5
286
100
AcDbEntity
  8
0
100
AcDbCircle
 62
7
  6
CONTINUOUS
 10
9.646161435
 20
24.9421341454
 40
3.6697709781
100
AcDbArc
 50
236.8246068477
 51
240.0130905643
  0
ARC
  5
287
100
AcDbEntity
  8
0
100
AcDbCircle
 62
7
  6
CONTINUOUS
 10
14.1753320221
 20
26.109653641
 40
2.0026046577
100
AcDbArc
 50
45.0313505069
 51
89.968496438
  0
ARC
  5
288
100
AcDbEntity
  8
0
100
AcDbCircle
 62
7
  6
CONTINUOUS
 10
10.1287920105
 20
22.7354019156
 40
2.0
100
AcDbArc
 50
240.0000001543
 51
264.5000000295
  0
ARC
  5
289
100
AcDbEntity
  8
0
100
AcDbCircle
 62
7
  6
CONTINUOUS
 10
19.3332842297
 20
26.6123043364
 40
2.0
100
AcDbArc
 50
224.9999999996
 51
270.0
  0
ARC
  5
28A
100
AcDbEntity
  8
0
100
AcDbCircle
 62
7
  6
CONTINUOUS
 10
8.504857105
 20
26.1123043364
 40
2.0
100
AcDbArc
 50
90.0000000006
 51
180.0000167842
  0
ARC
  5
28B
100
AcDbEntity
  8
0
100
AcDbCircle
 62
7
  6
CONTINUOUS
 10
7.504857105
 20
23.0956309012
 40
1.0
100
AcDbArc
 50
179.999997143
 51
240.0000021601
  0
ARC
  5
28C
100
AcDbEntity
  8
0
100
AcDbCircle
 62
7
  6
CONTINUOUS
 10
7.3204579603
 20
24.1947384287
 40
0.810500289
100
AcDbArc
 50
177.9138489559
 51
182.0853202935
  0
ARC
  5
28D
100
AcDbEntity
  8
0
100
AcDbCircle
 62
7
  6
CONTINUOUS
 10
39.907542214
 20
45.6668742573
 40
23.7660808498
100
AcDbArc
 50
246.0586665008
 51
246.3066472847
  0
ARC
  5
28E
100
AcDbEntity
  8
0
100
AcDbCircle
 62
7
  6
CONTINUOUS
 10
38.8103411127
 20
31.4288359166
 40
18.6445692795
100
AcDbArc
 50
111.1939248564
 51
114.6283282324
  0
ARC
  5
28F
100
AcDbEntity
  8
0
100
AcDbCircle
 62
7
  6
CONTINUOUS
 10
34.2047446034
 20
31.4411815196
 40
18.6310605073
100
AcDbArc
 50
65.3708900594
 51
68.8079988465
  0
ARC
  5
290
100
AcDbEntity
  8
0
100
AcDbCircle
 62
7
  6
CONTINUOUS
 10
42.1948855228
 20
37.2645404277
 40
13.8354776657
100
AcDbArc
 50
226.1989417898
 51
226.534197435
  0
ARC
  5
291
100
AcDbEntity
  8
0
100
AcDbCircle
 62
7
  6
CONTINUOUS
 10
23.254857105
 20
29.6123043364
 40
5.0
100
AcDbArc
 50
270.00340639
 51
359.9999999999
  0
ARC
  5
292
100
AcDbEntity
  8
0
100
AcDbCircle
 62
7
  6
CONTINUOUS
 10
29.254857105
 20
31.8123043364
 40
1.0
100
AcDbArc
 50
89.9991661635
 51
180.0
  0
ARC
  5
293
100
AcDbEntity
  8
0
100
AcDbCircle
 62
7
  6
CONTINUOUS
 10
44.254810883
 20
23.1482538875
 40
0.5001833871
100
AcDbArc
 50
285.0022224635
 51
359.9954871363
  0
ARC
  5
294
100
AcDbEntity
  8
0
100
AcDbCircle
 62
7
  6
CONTINUOUS
 10
40.8002364104
 20
20.3523043364
 40
0.5
100
AcDbArc
 50
270.0000000001
 51
355.0000000004
  0
ARC
  5
295
100
AcDbEntity
  8
0
100
AcDbCircle
 62
7
  6
CONTINUOUS
 10
29.962781504
 20
19.3186683033
 40
0.5
100
AcDbArc
 50
264.5
 51
285.0000000007
  0
CIRCLE
  5
296
100
AcDbEntity
  8
0
100
AcDbCircle
 62
7
  6
CONTINUOUS
 10
36.504857105
 20
42.8123043364
 40
0.3
  0
SPLINE
  5
297
100
AcDbEntity
  8
0
100
AcDbSpline
 62
7
  6
CONTINUOUS
 70
0
 71
3
 72
8
 73
4
 74
0
 42
0.0000001
 43
0.0000001
 44
0.0000000001
 40
0.0
 40
0.0
 40
0.0
 40
0.0
 40
1.0
 40
1.0
 40
1.0
 40
1.0
 10
27.0290892975
 20
33.312316911
 30
0.0
 10
27.2016274401
 20
33.1454876343
 30
0.0
 10
27.3743050869
 20
32.9788024333
 30
0.0
 10
27.5471645006
 20
32.8123060629
 30
0.0
  0
SPLINE
  5
298
100
AcDbEntity
  8
0
100
AcDbSpline
 62
7
  6
CONTINUOUS
 70
0
 71
3
 72
13
 73
9
 74
0
 42
0.0000001
 43
0.0000001
 44
0.0000000001
 40
0.0
 40
0.0
 40
0.0
 40
0.0
 40
0.0716608888
 40
0.1611674904
 40
0.268046221
 40
0.3907191959
 40
0.6755626796
 40
1.0
 40
1.0
 40
1.0
 40
1.0
 10
6.5048578458
 20
23.6508536749
 30
0.0
 10
6.5049118312
 20
23.6340235684
 30
0.0
 10
6.5112319509
 20
23.5962941772
 30
0.0
 10
6.5309681114
 20
23.5364658899
 30
0.0
 10
6.5604940534
 20
23.4675108875
 30
0.0
 10
6.6135680313
 20
23.3589650287
 30
0.0
 10
6.695142069
 20
23.2076249516
 30
0.0
 10
6.7611437976
 20
23.0806249727
 30
0.0
 10
6.7943846174
 20
23.0120609411
 30
0.0
  0
SPLINE
  5
299
100
AcDbEntity
  8
0
100
AcDbSpline
 62
7
  6
CONTINUOUS
 70
0
 71
3
 72
10
 73
6
 74
0
 42
0.0000001
 43
0.0000001
 44
0.0000000001
 40
0.0
 40
0.0
 40
0.0
 40
0.0
 40
0.2500028849
 40
0.6249995709
 40
1.0
 40
1.0
 40
1.0
 40
1.0
 10
12.3524523004
 20
21.0149301168
 30
0.0
 10
12.3756236693
 20
21.0121598503
 30
0.0
 10
12.4335849243
 20
21.0054888674
 30
0.0
 10
12.5265550452
 20
20.9970764519
 30
0.0
 10
12.5962697766
 20
20.9906890107
 30
0.0
 10
12.6311333537
 20
20.987554427
 30
0.0
  0
SPLINE
  5
29A
100
AcDbEntity
  8
0
100
AcDbSpline
 62
7
  6
CONTINUOUS
 70
0
 71
3
 72
11
 73
7
 74
0
 42
0.0000001
 43
0.0000001
 44
0.0000000001
 40
0.0
 40
0.0
 40
0.0
 40
0.0
 40
0.2471988468
 40
0.4992077236
 40
0.7516403956
 40
1.0
 40
1.0
 40
1.0
 40
1.0
 10
15.6551909975
 20
27.4619704439
 30
0.0
 10
15.5640209755
 20
27.5531405236
 30
0.0
 10
15.3605958429
 20
27.7187782077
 30
0.0
 10
15.0122150271
 20
27.9041711841
 30
0.0
 10
14.6325904742
 20
28.0141512826
 30
0.0
 10
14.3705079474
 20
28.0375371592
 30
0.0
 10
14.2409774644
 20
28.036021503
 30
0.0
  0
SPLINE
  5
29B
100
AcDbEntity
  8
0
100
AcDbSpline
 62
7
  6
CONTINUOUS
 70
0
 71
3
 72
11
 73
7
 74
0
 42
0.0000001
 43
0.0000001
 44
0.0000000001
 40
0.0
 40
0.0
 40
0.0
 40
0.0
 40
0.2403959187
 40
0.4891038634
 40
0.7437318164
 40
1.0
 40
1.0
 40
1.0
 40
1.0
 10
15.7805519748
 20
27.3366094665
 30
0.0
 10
15.6936375628
 20
27.4235238834
 30
0.0
 10
15.4939642565
 20
27.5786406257
 30
0.0
 10
15.1445947045
 20
27.737556256
 30
0.0
 10
14.7595367457
 20
27.8095912814
 30
0.0
 10
14.4962359532
 20
27.8024969431
 30
0.0
 10
14.366338408
 20
27.7852987313
 30
0.0
  0
SPLINE
  5
29C
100
AcDbEntity
  8
0
100
AcDbSpline
 62
7
  6
CONTINUOUS
 70
0
 71
3
 72
14
 73
10
 74
0
 42
0.0000001
 43
0.0000001
 44
0.0000000001
 40
0.0
 40
0.0
 40
0.0
 40
0.0
 40
0.1101296441
 40
0.2197539631
 40
0.3319435057
 40
0.4490605764
 40
0.5729442204
 40
0.7051582646
 40
1.0
 40
1.0
 40
1.0
 40
1.0
 10
17.9190706673
 20
25.198090774
 30
0.0
 10
17.880093111
 20
25.2370683303
 30
0.0
 10
17.7941434418
 20
25.3071375241
 30
0.0
 10
17.6463303472
 20
25.3850314234
 30
0.0
 10
17.4838086791
 20
25.4364749715
 30
0.0
 10
17.3082082103
 20
25.4620613707
 30
0.0
 10
17.1208146874
 20
25.4623533726
 30
0.0
 10
16.8467317137
 20
25.4272702852
 30
0.0
 10
16.6408297226
 20
25.3619753748
 30
0.0
 10
16.504857105
 20
25.3046170099
 30
0.0
  0
SPLINE
  5
29D
100
AcDbEntity
  8
0
100
AcDbSpline
 62
7
  6
CONTINUOUS
 70
0
 71
3
 72
9
 73
5
 74
0
 42
0.0000001
 43
0.0000001
 44
0.0000000001
 40
0.0
 40
0.0
 40
0.0
 40
0.0
 40
0.2500362506
 40
1.0
 40
1.0
 40
1.0
 40
1.0
 10
40.4211691457
 20
39.2223043364
 30
0.0
 10
40.5507788949
 20
39.2746106466
 30
0.0
 10
41.0660276131
 20
39.4915093665
 30
0.0
 10
41.5691684262
 20
39.7366495125
 30
0.0
 10
41.9399284017
 20
39.9323043364
 30
0.0
  0
SPLINE
  5
29E
100
AcDbEntity
  8
0
100
AcDbSpline
 62
7
  6
CONTINUOUS
 70
0
 71
3
 72
9
 73
5
 74
0
 42
0.0000001
 43
0.0000001
 44
0.0000000001
 40
0.0
 40
0.0
 40
0.0
 40
0.0
 40
0.7499643857
 40
1.0
 40
1.0
 40
1.0
 40
1.0
 10
41.9399284017
 20
39.9323043364
 30
0.0
 10
41.5689692294
 20
40.1253070967
 30
0.0
 10
41.0657449513
 20
40.3670129467
 30
0.0
 10
40.5507064224
 20
40.5807635704
 30
0.0
 10
40.4211691457
 20
40.6323043364
 30
0.0
  0
SPLINE
  5
29F
100
AcDbEntity
  8
0
100
AcDbSpline
 62
7
  6
CONTINUOUS
 70
0
 71
3
 72
9
 73
5
 74
0
 42
0.0000001
 43
0.0000001
 44
0.0000000001
 40
0.0
 40
0.0
 40
0.0
 40
0.0
 40
0.2500362506
 40
1.0
 40
1.0
 40
1.0
 40
1.0
 10
40.4211691457
 20
40.6323043364
 30
0.0
 10
40.5507788949
 20
40.6846106466
 30
0.0
 10
41.0660276131
 20
40.9015093665
 30
0.0
 10
41.5691684262
 20
41.1466495125
 30
0.0
 10
41.9399284017
 20
41.3423043364
 30
0.0
  0
SPLINE
  5
2A0
100
AcDbEntity
  8
0
100
AcDbSpline
 62
7
  6
CONTINUOUS
 70
0
 71
3
 72
9
 73
5
 74
0
 42
0.0000001
 43
0.0000001
 44
0.0000000001
 40
0.0
 40
0.0
 40
0.0
 40
0.0
 40
0.7499643857
 40
1.0
 40
1.0
 40
1.0
 40
1.0
 10
41.9399284017
 20
41.3423043364
 30
0.0
 10
41.5689692294
 20
41.5353070967
 30
0.0
 10
41.0657449513
 20
41.7770129467
 30
0.0
 10
40.5507064224
 20
41.9907635704
 30
0.0
 10
40.4211691457
 20
42.0423043364
 30
0.0
  0
SPLINE
  5
2A1
100
AcDbEntity
  8
0
100
AcDbSpline
 62
7
  6
CONTINUOUS
 70
0
 71
3
 72
9
 73
5
 74
0
 42
0.0000001
 43
0.0000001
 44
0.0000000001
 40
0.0
 40
0.0
 40
0.0
 40
0.0
 40
0.2500362506
 40
1.0
 40
1.0
 40
1.0
 40
1.0
 10
40.4211691457
 20
42.0423043364
 30
0.0
 10
40.5507788949
 20
42.0946106466
 30
0.0
 10
41.0660276131
 20
42.3115093665
 30
0.0
 10
41.5691684262
 20
42.5566495125
 30
0.0
 10
41.9399284017
 20
42.7523043364
 30
0.0
  0
SPLINE
  5
2A2
100
AcDbEntity
  8
0
100
AcDbSpline
 62
7
  6
CONTINUOUS
 70
0
 71
3
 72
9
 73
5
 74
0
 42
0.0000001
 43
0.0000001
 44
0.0000000001
 40
0.0
 40
0.0
 40
0.0
 40
0.0
 40
0.7499643857
 40
1.0
 40
1.0
 40
1.0
 40
1.0
 10
41.9399284017
 20
42.7523043364
 30
0.0
 10
41.5689692294
 20
42.9453070967
 30
0.0
 10
41.0657449513
 20
43.1870129467
 30
0.0
 10
40.5507064224
 20
43.4007635704
 30
0.0
 10
40.4211691457
 20
43.4523043364
 30
0.0
  0
SPLINE
  5
2A3
100
AcDbEntity
  8
0
100
AcDbSpline
 62
7
  6
CONTINUOUS
 70
0
 71
3
 72
9
 73
5
 74
0
 42
0.0000001
 43
0.0000001
 44
0.0000000001
 40
0.0
 40
0.0
 40
0.0
 40
0.0
 40
0.2500362506
 40
1.0
 40
1.0
 40
1.0
 40
1.0
 10
40.4211691457
 20
43.4523043364
 30
0.0
 10
40.5507788949
 20
43.5046106466
 30
0.0
 10
41.0660276131
 20
43.7215093665
 30
0.0
 10
41.5691684262
 20
43.9666495125
 30
0.0
 10
41.9399284017
 20
44.1623043364
 30
0.0
  0
SPLINE
  5
2A4
100
AcDbEntity
  8
0
100
AcDbSpline
 62
7
  6
CONTINUOUS
 70
0
 71
3
 72
9
 73
5
 74
0
 42
0.0000001
 43
0.0000001
 44
0.0000000001
 40
0.0
 40
0.0
 40
0.0
 40
0.0
 40
0.7499643857
 40
1.0
 40
1.0
 40
1.0
 40
1.0
 10
41.9399284017
 20
44.1623043364
 30
0.0
 10
41.5689692294
 20
44.3553070967
 30
0.0
 10
41.0657449513
 20
44.5970129467
 30
0.0
 10
40.5507064224
 20
44.8107635704
 30
0.0
 10
40.4211691457
 20
44.8623043364
 30
0.0
  0
SPLINE
  5
2A5
100
AcDbEntity
  8
0
100
AcDbSpline
 62
7
  6
CONTINUOUS
 70
0
 71
3
 72
9
 73
5
 74
0
 42
0.0000001
 43
0.0000001
 44
0.0000000001
 40
0.0
 40
0.0
 40
0.0
 40
0.0
 40
0.2500362506
 40
1.0
 40
1.0
 40
1.0
 40
1.0
 10
40.4211691457
 20
44.8623043364
 30
0.0
 10
40.5507788949
 20
44.9146106466
 30
0.0
 10
41.0660276131
 20
45.1315093665
 30
0.0
 10
41.5691684262
 20
45.3766495125
 30
0.0
 10
41.9399284017
 20
45.5723043364
 30
0.0
  0
SPLINE
  5
2A6
100
AcDbEntity
  8
0
100
AcDbSpline
 62
7
  6
CONTINUOUS
 70
0
 71
3
 72
9
 73
5
 74
0
 42
0.0000001
 43
0.0000001
 44
0.0000000001
 40
0.0
 40
0.0
 40
0.0
 40
0.0
 40
0.7499643857
 40
1.0
 40
1.0
 40
1.0
 40
1.0
 10
41.9399284017
 20
45.5723043364
 30
0.0
 10
41.5689692294
 20
45.7653070967
 30
0.0
 10
41.0657449513
 20
46.0070129467
 30
0.0
 10
40.5507064224
 20
46.2207635704
 30
0.0
 10
40.4211691457
 20
46.2723043364
 30
0.0
  0
SPLINE
  5
2A7
100
AcDbEntity
  8
0
100
AcDbSpline
 62
7
  6
CONTINUOUS
 70
0
 71
3
 72
9
 73
5
 74
0
 42
0.0000001
 43
0.0000001
 44
0.0000000001
 40
0.0
 40
0.0
 40
0.0
 40
0.0
 40
0.2500349965
 40
1.0
 40
1.0
 40
1.0
 40
1.0
 10
40.4211691457
 20
46.2723043364
 30
0.0
 10
40.5506343801
 20
46.3230805508
 30
0.0
 10
41.0654641092
 20
46.5336853061
 30
0.0
 10
41.5687705835
 20
46.7719568833
 30
0.0
 10
41.9399284017
 20
46.9623043364
 30
0.0
  0
SPLINE
  5
2A8
100
AcDbEntity
  8
0
100
AcDbSpline
 62
7
  6
CONTINUOUS
 70
0
 71
3
 72
9
 73
5
 74
0
 42
0.0000001
 43
0.0000001
 44
0.0000000001
 40
0.0
 40
0.0
 40
0.0
 40
0.0
 40
0.7499637604
 40
1.0
 40
1.0
 40
1.0
 40
1.0
 10
41.9399284017
 20
46.9623043364
 30
0.0
 10
41.5691684226
 20
47.1579591622
 30
0.0
 10
41.0660274389
 20
47.4030989205
 30
0.0
 10
40.5507788886
 20
47.6199980288
 30
0.0
 10
40.4211691457
 20
47.6723043364
 30
0.0
  0
SPLINE
  5
2A9
100
AcDbEntity
  8
0
100
AcDbSpline
 62
7
  6
CONTINUOUS
 70
0
 71
3
 72
9
 73
5
 74
0
 42
0.0000001
 43
0.0000001
 44
0.0000000001
 40
0.0
 40
0.0
 40
0.0
 40
0.0
 40
0.2500360811
 40
1.0
 40
1.0
 40
1.0
 40
1.0
 10
40.4211691457
 20
47.6723043364
 30
0.0
 10
40.553178887
 20
47.7240785054
 30
0.0
 10
41.0780650825
 20
47.9389736994
 30
0.0
 10
41.5909826338
 20
48.1825661907
 30
0.0
 10
41.9691087052
 20
48.3772846322
 30
0.0
  0
SPLINE
  5
2AA
100
AcDbEntity
  8
0
100
AcDbSpline
 62
7
  6
CONTINUOUS
 70
0
 71
3
 72
9
 73
5
 74
0
 42
0.0000001
 43
0.0000001
 44
0.0000000001
 40
0.0
 40
0.0
 40
0.0
 40
0.0
 40
0.2500362506
 40
1.0
 40
1.0
 40
1.0
 40
1.0
 10
40.4211691457
 20
37.8123043364
 30
0.0
 10
40.5507788949
 20
37.8646106466
 30
0.0
 10
41.0660276131
 20
38.0815093665
 30
0.0
 10
41.5691684262
 20
38.3266495125
 30
0.0
 10
41.9399284017
 20
38.5223043364
 30
0.0
  0
SPLINE
  5
2AB
100
AcDbEntity
  8
0
100
AcDbSpline
 62
7
  6
CONTINUOUS
 70
0
 71
3
 72
9
 73
5
 74
0
 42
0.0000001
 43
0.0000001
 44
0.0000000001
 40
0.0
 40
0.0
 40
0.0
 40
0.0
 40
0.7499643857
 40
1.0
 40
1.0
 40
1.0
 40
1.0
 10
41.9399284017
 20
38.5223043364
 30
0.0
 10
41.5689692294
 20
38.7153070967
 30
0.0
 10
41.0657449513
 20
38.9570129467
 30
0.0
 10
40.5507064224
 20
39.1707635704
 30
0.0
 10
40.4211691457
 20
39.2223043364
 30
0.0
  0
SPLINE
  5
2AC
100
AcDbEntity
  8
0
100
AcDbSpline
 62
7
  6
CONTINUOUS
 70
0
 71
3
 72
9
 73
5
 74
0
 42
0.0000001
 43
0.0000001
 44
0.0000000001
 40
0.0
 40
0.0
 40
0.0
 40
0.0
 40
0.2500360374
 40
1.0
 40
1.0
 40
1.0
 40
1.0
 10
32.5885450643
 20
37.8123043364
 30
0.0
 10
32.4589354459
 20
37.8646105938
 30
0.0
 10
31.9436920415
 20
38.0815216101
 30
0.0
 10
31.440545831
 20
38.3266494876
 30
0.0
 10
31.0697858083
 20
38.5223043364
 30
0.0
  0
SPLINE
  5
2AD
100
AcDbEntity
  8
0
100
AcDbSpline
 62
7
  6
CONTINUOUS
 70
0
 71
3
 72
9
 73
5
 74
0
 42
0.0000001
 43
0.0000001
 44
0.0000000001
 40
0.0
 40
0.0
 40
0.0
 40
0.0
 40
0.7499646278
 40
1.0
 40
1.0
 40
1.0
 40
1.0
 10
31.0697858083
 20
38.5223043364
 30
0.0
 10
31.4407450472
 20
38.7153071314
 30
0.0
 10
31.9439742199
 20
38.9570016974
 30
0.0
 10
32.4590079315
 20
39.1707636277
 30
0.0
 10
32.5885450643
 20
39.2223043364
 30
0.0
  0
SPLINE
  5
2AE
100
AcDbEntity
  8
0
100
AcDbSpline
 62
7
  6
CONTINUOUS
 70
0
 71
3
 72
9
 73
5
 74
0
 42
0.0000001
 43
0.0000001
 44
0.0000000001
 40
0.0
 40
0.0
 40
0.0
 40
0.0
 40
0.2500360374
 40
1.0
 40
1.0
 40
1.0
 40
1.0
 10
32.5885450643
 20
39.2223043364
 30
0.0
 10
32.4589354459
 20
39.2746105938
 30
0.0
 10
31.9436920415
 20
39.4915216101
 30
0.0
 10
31.440545831
 20
39.7366494876
 30
0.0
 10
31.0697858083
 20
39.9323043364
 30
0.0
  0
SPLINE
  5
2AF
100
AcDbEntity
  8
0
100
AcDbSpline
 62
7
  6
CONTINUOUS
 70
0
 71
3
 72
9
 73
5
 74
0
 42
0.0000001
 43
0.0000001
 44
0.0000000001
 40
0.0
 40
0.0
 40
0.0
 40
0.0
 40
0.7499646278
 40
1.0
 40
1.0
 40
1.0
 40
1.0
 10
31.0697858083
 20
39.9323043364
 30
0.0
 10
31.4407450472
 20
40.1253071314
 30
0.0
 10
31.9439742199
 20
40.3670016974
 30
0.0
 10
32.4590079315
 20
40.5807636277
 30
0.0
 10
32.5885450643
 20
40.6323043364
 30
0.0
  0
SPLINE
  5
2B0
100
AcDbEntity
  8
0
100
AcDbSpline
 62
7
  6
CONTINUOUS
 70
0
 71
3
 72
23
 73
19
 74
0
 42
0.0000001
 43
0.0000001
 44
0.0000000001
 40
0.0
 40
0.0
 40
0.0
 40
0.0
 40
0.0802848677
 40
0.1534487985
 40
0.2215959186
 40
0.2859865153
 40
0.3475769332
 40
0.4070294515
 40
0.4648956044
 40
0.5216444076
 40
0.5777196331
 40
0.6335588416
 40
0.6896350085
 40
0.7464952588
 40
0.8048080235
 40
0.8655088817
 40
0.9298739135
 40
1.0
 40
1.0
 40
1.0
 40
1.0
 10
29.3053489441
 20
29.6123043364
 30
0.0
 10
29.3053489441
 20
29.4153605605
 30
0.0
 10
29.2859518656
 20
29.0386283695
 30
0.0
 10
29.2041764339
 20
28.5004672546
 30
0.0
 10
29.0830482742
 20
28.0099004088
 30
0.0
 10
28.9275641988
 20
27.5591543714
 30
0.0
 10
28.7431018946
 20
27.1427598199
 30
0.0
 10
28.5314530997
 20
26.7576879028
 30
0.0
 10
28.2946008401
 20
26.4017782482
 30
0.0
 10
28.0330577928
 20
26.0741281325
 30
0.0
 10
27.7474153561
 20
25.7740612322
 30
0.0
 10
27.4369791077
 20
25.502172128
 30
0.0
 10
27.1010238386
 20
25.2591333794
 30
0.0
 10
26.7375357436
 20
25.0471712204
 30
0.0
 10
26.3439841574
 20
24.8684263986
 30
0.0
 10
25.9152546889
 20
24.7289942953
 30
0.0
 10
25.444671169
 20
24.6347618794
 30
0.0
 10
25.1142937306
 20
24.6123158468
 30
0.0
 10
24.9422700773
 20
24.6123043451
 30
0.0
  0
SPLINE
  5
2B1
100
AcDbEntity
  8
0
100
AcDbSpline
 62
7
  6
CONTINUOUS
 70
0
 71
3
 72
12
 73
8
 74
0
 42
0.0000001
 43
0.0000001
 44
0.0000000001
 40
0.0
 40
0.0
 40
0.0
 40
0.0
 40
0.1381770553
 40
0.2594293445
 40
0.4838294397
 40
0.7148230529
 40
1.0
 40
1.0
 40
1.0
 40
1.0
 10
30.2632412416
 20
23.9455935353
 30
0.0
 10
30.4016293778
 20
24.0743604567
 30
0.0
 10
30.6524226251
 20
24.3259765223
 30
0.0
 10
31.0913150682
 20
24.8217242671
 30
0.0
 10
31.5723772674
 20
25.4482946072
 30
0.0
 10
32.1231996489
 20
26.2996203916
 30
0.0
 10
32.4541961286
 20
26.9250210857
 30
0.0
 10
32.618574966
 20
27.2788293769
 30
0.0
  0
SPLINE
  5
2B2
100
AcDbEntity
  8
0
100
AcDbSpline
 62
7
  6
CONTINUOUS
 70
0
 71
3
 72
15
 73
11
 74
0
 42
0.0000001
 43
0.0000001
 44
0.0000000001
 40
0.0
 40
0.0
 40
0.0
 40
0.0
 40
0.2565597454
 40
0.383985407
 40
0.5105440095
 40
0.6359301951
 40
0.7597863339
 40
0.8209750886
 40
0.8815700654
 40
1.0
 40
1.0
 40
1.0
 40
1.0
 10
30.2632471007
 20
23.9455924746
 30
0.0
 10
29.8107320452
 20
24.0227519461
 30
0.0
 10
29.1333883246
 20
24.137903553
 30
0.0
 10
28.2307745926
 20
24.278503487
 30
0.0
 10
27.5591538883
 20
24.3769296421
 30
0.0
 10
26.8927004312
 20
24.4663099448
 30
0.0
 10
26.3407626275
 20
24.5291091246
 30
0.0
 10
25.9030197679
 20
24.5687673484
 30
0.0
 10
25.474358476
 20
24.5999255272
 30
0.0
 10
25.1540177212
 20
24.6123058466
 30
0.0
 10
24.9421184722
 20
24.6123043363
 30
0.0
  0
SPLINE
  5
2B3
100
AcDbEntity
  8
0
100
AcDbSpline
 62
7
  6
CONTINUOUS
 70
0
 71
3
 72
15
 73
11
 74
0
 42
0.0000001
 43
0.0000001
 44
0.0000000001
 40
0.0
 40
0.0
 40
0.0
 40
0.0
 40
0.0582120004
 40
0.1326730065
 40
0.2320342301
 40
0.3572049116
 40
0.505009497
 40
0.6674652892
 40
0.8352670648
 40
1.0
 40
1.0
 40
1.0
 40
1.0
 10
11.8098588318
 20
20.5642834021
 30
0.0
 10
11.7978393164
 20
20.5654405086
 30
0.0
 10
11.7711182308
 20
20.5763288889
 30
0.0
 10
11.7381031382
 20
20.612656038
 30
0.0
 10
11.7099664991
 20
20.668395541
 30
0.0
 10
11.6870260813
 20
20.7424147915
 30
0.0
 10
11.6713197399
 20
20.8315341098
 30
0.0
 10
11.6627491623
 20
20.9304339493
 30
0.0
 10
11.6617948368
 20
21.0331909299
 30
0.0
 10
11.6655307047
 20
21.1021170775
 30
0.0
 10
11.6684257883
 20
21.1361652454
 30
0.0
  0
SPLINE
  5
2B4
100
AcDbEntity
  8
0
100
AcDbSpline
 62
7
  6
CONTINUOUS
 70
0
 71
3
 72
9
 73
5
 74
0
 42
0.0000001
 43
0.0000001
 44
0.0000000001
 40
0.0
 40
0.0
 40
0.0
 40
0.0
 40
0.246168995
 40
1.0
 40
1.0
 40
1.0
 40
1.0
 10
12.0104458665
 20
23.976549743
 30
0.0
 10
12.0368562145
 20
23.9650721717
 30
0.0
 10
12.1463350836
 20
23.9237634946
 30
0.0
 10
12.2642808824
 20
23.9040548093
 30
0.0
 10
12.3524631088
 20
23.9040544959
 30
0.0
  0
SPLINE
  5
2B5
100
AcDbEntity
  8
0
100
AcDbSpline
 62
7
  6
CONTINUOUS
 70
0
 71
3
 72
9
 73
5
 74
0
 42
0.0000001
 43
0.0000001
 44
0.0000000001
 40
0.0
 40
0.0
 40
0.0
 40
0.0
 40
0.249403304
 40
1.0
 40
1.0
 40
1.0
 40
1.0
 10
8.5048567448
 20
25.3113309272
 30
0.0
 10
8.8007415015
 20
25.2126704445
 30
0.0
 10
9.9833335066
 20
24.8059587869
 30
0.0
 10
11.1495443877
 20
24.3506863495
 30
0.0
 10
12.0104463534
 20
23.9765503623
 30
0.0
  0
SPLINE
  5
2B6
100
AcDbEntity
  8
0
100
AcDbSpline
 62
7
  6
CONTINUOUS
 70
0
 71
3
 72
13
 73
9
 74
0
 42
0.0000001
 43
0.0000001
 44
0.0000000001
 40
0.0
 40
0.0
 40
0.0
 40
0.0
 40
0.2636961603
 40
0.3940514664
 40
0.5222652872
 40
0.6474395114
 40
0.7691506759
 40
1.0
 40
1.0
 40
1.0
 40
1.0
 10
19.3332781738
 20
23.9455924746
 30
0.0
 10
19.0490407352
 20
23.9455929836
 30
0.0
 10
18.6219504843
 20
23.9990417835
 30
0.0
 10
18.0844017168
 20
24.169066169
 30
0.0
 10
17.7060027756
 20
24.3384596191
 30
0.0
 10
17.3566739598
 20
24.5436156811
 30
0.0
 10
16.9413148779
 20
24.8490481879
 30
0.0
 10
16.6673293215
 20
25.1161492386
 30
0.0
 10
16.504857105
 20
25.3046170099
 30
0.0
  0
SPLINE
  5
2B7
100
AcDbEntity
  8
0
100
AcDbSpline
 62
7
  6
CONTINUOUS
 70
0
 71
3
 72
14
 73
10
 74
0
 42
0.0000001
 43
0.0000001
 44
0.0000000001
 40
0.0
 40
0.0
 40
0.0
 40
0.0
 40
0.1116223602
 40
0.2304065788
 40
0.354992845
 40
0.4836278659
 40
0.614425588
 40
0.7453861018
 40
1.0
 40
1.0
 40
1.0
 40
1.0
 10
30.3573432718
 20
23.9040550667
 30
0.0
 10
30.4672840684
 20
24.0082679586
 30
0.0
 10
30.6877804681
 20
24.2302445938
 30
0.0
 10
31.0089459699
 20
24.589604208
 30
0.0
 10
31.3262401387
 20
24.9825460956
 30
0.0
 10
31.6345037464
 20
25.402977783
 30
0.0
 10
31.9280727354
 20
25.8442455342
 30
0.0
 10
32.2904289199
 20
26.4442253514
 30
0.0
 10
32.5319560455
 20
26.909409833
 30
0.0
 10
32.677162283
 20
27.222957556
 30
0.0
  0
LINE
  5
2B8
100
AcDbEntity
  8
0
100
AcDbLine
 62
7
  6
CONTINUOUS
 10
36.3576272217
 20
23.25678721
 11
36.4131857831
 21
23.3393482598
  0
SPLINE
  5
2B9
100
AcDbEntity
  8
0
100
AcDbSpline
 62
7
  6
CONTINUOUS
 70
0
 71
3
 72
9
 73
5
 74
0
 42
0.0000001
 43
0.0000001
 44
0.0000000001
 40
0.0
 40
0.0
 40
0.0
 40
0.0
 40
0.5066968186
 40
1.0
 40
1.0
 40
1.0
 40
1.0
 10
36.3576271545
 20
23.2567872175
 30
0.0
 10
35.3446515254
 20
23.3703910197
 30
0.0
 10
33.3454533546
 20
23.5943260727
 30
0.0
 10
31.3449614824
 20
23.8069167521
 30
0.0
 10
30.3573452724
 20
23.9040560449
 30
0.0
  0
SPLINE
  5
2BA
100
AcDbEntity
  8
0
100
AcDbSpline
 62
7
  6
CONTINUOUS
 70
0
 71
3
 72
8
 73
4
 74
0
 42
0.0000001
 43
0.0000001
 44
0.0000000001
 40
0.0
 40
0.0
 40
0.0
 40
0.0
 40
1.0
 40
1.0
 40
1.0
 40
1.0
 10
36.5048573322
 20
23.2402749416
 30
0.0
 10
36.4558062203
 20
23.2460044314
 30
0.0
 10
36.4065889747
 20
23.250338986
 30
0.0
 10
36.3576232441
 20
23.2567573854
 30
0.0
  0
SPLINE
  5
2BB
100
AcDbEntity
  8
0
100
AcDbSpline
 62
7
  6
CONTINUOUS
 70
0
 71
3
 72
11
 73
7
 74
0
 42
0.0000001
 43
0.0000001
 44
0.0000000001
 40
0.0
 40
0.0
 40
0.0
 40
0.0
 40
0.2249865034
 40
0.475275375
 40
0.7384582218
 40
1.0
 40
1.0
 40
1.0
 40
1.0
 10
12.0104458792
 20
23.9765497375
 30
0.0
 10
11.9770708403
 20
23.9309568816
 30
0.0
 10
11.9114885863
 20
23.8310219435
 30
0.0
 10
11.8214072211
 20
23.6687503756
 30
0.0
 10
11.7389630308
 20
23.492284314
 30
0.0
 10
11.6905251473
 20
23.3696247981
 30
0.0
 10
11.668425636
 20
23.307770554
 30
0.0
  0
SPLINE
  5
2BC
100
AcDbEntity
  8
0
100
AcDbSpline
 62
7
  6
CONTINUOUS
 70
0
 71
3
 72
9
 73
5
 74
0
 42
0.0000001
 43
0.0000001
 44
0.0000000001
 40
0.0
 40
0.0
 40
0.0
 40
0.0
 40
0.4974598884
 40
1.0
 40
1.0
 40
1.0
 40
1.0
 10
11.6684158846
 20
21.1361017257
 30
0.0
 10
11.7822192941
 20
21.1181790947
 30
0.0
 10
12.0085382538
 20
21.0690341717
 30
0.0
 10
12.2366720791
 20
21.0266200224
 30
0.0
 10
12.3524726921
 20
21.014995742
 30
0.0
  0
SPLINE
  5
2BD
100
AcDbEntity
  8
0
100
AcDbSpline
 62
7
  6
CONTINUOUS
 70
0
 71
3
 72
9
 73
5
 74
0
 42
0.0000001
 43
0.0000001
 44
0.0000000001
 40
0.0
 40
0.0
 40
0.0
 40
0.0
 40
0.5134327332
 40
1.0
 40
1.0
 40
1.0
 40
1.0
 10
12.3524659053
 20
23.2402749774
 30
0.0
 10
12.2346862996
 20
23.2402749774
 30
0.0
 10
12.0051755777
 20
23.2521174534
 30
0.0
 10
11.7778265952
 20
23.2856379622
 30
0.0
 10
11.6684261595
 20
23.3077704481
 30
0.0
  0
SPLINE
  5
2BE
100
AcDbEntity
  8
0
100
AcDbSpline
 62
7
  6
CONTINUOUS
 70
0
 71
3
 72
9
 73
5
 74
0
 42
0.0000001
 43
0.0000001
 44
0.0000000001
 40
0.0
 40
0.0
 40
0.0
 40
0.0
 40
0.5016499302
 40
1.0
 40
1.0
 40
1.0
 40
1.0
 10
9.2659912258
 20
21.7554567878
 30
0.0
 10
9.3361912107
 20
21.7006554711
 30
0.0
 10
9.4893859316
 20
21.6076569965
 30
0.0
 10
9.6579469094
 20
21.5482490393
 30
0.0
 10
9.7437164523
 20
21.5265509403
 30
0.0
  0
SPLINE
  5
2BF
100
AcDbEntity
  8
0
100
AcDbSpline
 62
7
  6
CONTINUOUS
 70
0
 71
3
 72
15
 73
11
 74
0
 42
0.0000001
 43
0.0000001
 44
0.0000000001
 40
0.0
 40
0.0
 40
0.0
 40
0.0
 40
0.1251407866
 40
0.2502765043
 40
0.3753894992
 40
0.5004730018
 40
0.6254602227
 40
0.7503179739
 40
0.8751526915
 40
1.0
 40
1.0
 40
1.0
 40
1.0
 10
7.8207054548
 20
22.7155276059
 30
0.0
 10
7.883451055
 20
22.679298586
 30
0.0
 10
8.0092631486
 20
22.6074045544
 30
0.0
 10
8.1974002657
 20
22.4985779918
 30
0.0
 10
8.3833201355
 20
22.3860123467
 30
0.0
 10
8.5648785826
 20
22.2666498857
 30
0.0
 10
8.7419727999
 20
22.141073703
 30
0.0
 10
8.9170518047
 20
22.0129829572
 30
0.0
 10
9.091077873
 20
21.8836033919
 30
0.0
 10
9.2074055401
 20
21.7977764353
 30
0.0
 10
9.2658768209
 20
21.7552785755
 30
0.0
  0
SPLINE
  5
2C0
100
AcDbEntity
  8
0
100
AcDbSpline
 62
7
  6
CONTINUOUS
 70
0
 71
3
 72
9
 73
5
 74
0
 42
0.0000001
 43
0.0000001
 44
0.0000000001
 40
0.0
 40
0.0
 40
0.0
 40
0.0
 40
0.5010261966
 40
1.0
 40
1.0
 40
1.0
 40
1.0
 10
8.1628370294
 20
24.5504975169
 30
0.0
 10
8.1077477241
 20
24.5675997674
 30
0.0
 10
7.9939040957
 20
24.5904811276
 30
0.0
 10
7.8774529172
 20
24.5864159115
 30
0.0
 10
7.820816745
 20
24.5768003802
 30
0.0
  0
SPLINE
  5
2C1
100
AcDbEntity
  8
0
100
AcDbSpline
 62
7
  6
CONTINUOUS
 70
0
 71
3
 72
9
 73
5
 74
0
 42
0.0000001
 43
0.0000001
 44
0.0000000001
 40
0.0
 40
0.0
 40
0.0
 40
0.0
 40
0.2503189479
 40
1.0
 40
1.0
 40
1.0
 40
1.0
 10
11.668425744
 20
23.3077705217
 30
0.0
 10
11.380692222
 20
23.4241917032
 30
0.0
 10
10.2256563665
 20
23.8754971913
 30
0.0
 10
9.0506392061
 20
24.2748820998
 30
0.0
 10
8.1628368913
 20
24.550497013
 30
0.0
  0
SPLINE
  5
2C2
100
AcDbEntity
  8
0
100
AcDbSpline
 62
7
  6
CONTINUOUS
 70
0
 71
3
 72
9
 73
5
 74
0
 42
0.0000001
 43
0.0000001
 44
0.0000000001
 40
0.0
 40
0.0
 40
0.0
 40
0.0
 40
0.499891124
 40
1.0
 40
1.0
 40
1.0
 40
1.0
 10
9.743717958
 20
21.5265585499
 30
0.0
 10
10.0633760654
 20
21.4564946677
 30
0.0
 10
10.7056079993
 20
21.3293377739
 30
0.0
 10
11.3474066137
 20
21.2004375669
 30
0.0
 10
11.6684247827
 20
21.1361654468
 30
0.0
  0
SPLINE
  5
2C3
100
AcDbEntity
  8
0
100
AcDbSpline
 62
7
  6
CONTINUOUS
 70
0
 71
3
 72
17
 73
13
 74
0
 42
0.0000001
 43
0.0000001
 44
0.0000000001
 40
0.0
 40
0.0
 40
0.0
 40
0.0
 40
0.0267440692
 40
0.0559765415
 40
0.0893127319
 40
0.1279705346
 40
0.2239930215
 40
0.3462251462
 40
0.4917862026
 40
0.654523225
 40
0.8265907267
 40
1.0
 40
1.0
 40
1.0
 40
1.0
 10
9.1287922081
 20
21.0033509939
 30
0.0
 10
9.122589808
 20
21.0069319507
 30
0.0
 10
9.1106095479
 20
21.0162947144
 30
0.0
 10
9.0961082128
 20
21.035598688
 30
0.0
 10
9.0849371605
 20
21.0604961837
 30
0.0
 10
9.0739584245
 20
21.1043114839
 30
0.0
 10
9.0717435121
 20
21.1737184381
 30
0.0
 10
9.08435014
 20
21.2705210532
 30
0.0
 10
9.1119757443
 20
21.3826658611
 30
0.0
 10
9.1530451076
 20
21.5046851445
 30
0.0
 10
9.2049246463
 20
21.6305953257
 30
0.0
 10
9.2448993075
 20
21.7140838266
 30
0.0
 10
9.2659907519
 20
21.7554558375
 30
0.0
  0
SPLINE
  5
2C4
100
AcDbEntity
  8
0
100
AcDbSpline
 62
7
  6
CONTINUOUS
 70
0
 71
3
 72
18
 73
14
 74
0
 42
0.0000001
 43
0.0000001
 44
0.0000000001
 40
0.0
 40
0.0
 40
0.0
 40
0.0
 40
0.0280114714
 40
0.058604881
 40
0.093261769
 40
0.1333012358
 40
0.1797183369
 40
0.2327294785
 40
0.3577868044
 40
0.5054573611
 40
0.667765883
 40
0.8354157918
 40
1.0
 40
1.0
 40
1.0
 40
1.0
 10
9.9371006797
 20
20.744609502
 30
0.0
 10
9.9291853312
 20
20.7453716463
 30
0.0
 10
9.9127785371
 20
20.7492449453
 30
0.0
 10
9.889136135
 20
20.7616669206
 30
0.0
 10
9.8661393412
 20
20.781067989
 30
0.0
 10
9.8441500031
 20
20.8076906547
 30
0.0
 10
9.8235373962
 20
20.8416173313
 30
0.0
 10
9.7965664428
 20
20.8994604088
 30
0.0
 10
9.7691713106
 20
20.9882098062
 30
0.0
 10
9.7476678936
 20
21.1100133335
 30
0.0
 10
9.7359576198
 20
21.2452555498
 30
0.0
 10
9.7346499002
 20
21.3857517931
 30
0.0
 10
9.7397582741
 20
21.4799963616
 30
0.0
 10
9.7437166138
 20
21.5265508994
 30
0.0
  0
SPLINE
  5
2C5
100
AcDbEntity
  8
0
100
AcDbSpline
 62
7
  6
CONTINUOUS
 70
0
 71
3
 72
15
 73
11
 74
0
 42
0.0000001
 43
0.0000001
 44
0.0000000001
 40
0.0
 40
0.0
 40
0.0
 40
0.0
 40
0.0610106806
 40
0.0983555268
 40
0.1411251949
 40
0.2438262017
 40
0.3689138168
 40
0.5129559177
 40
0.6704569172
 40
1.0
 40
1.0
 40
1.0
 40
1.0
 10
7.638057233
 20
21.8705433548
 30
0.0
 10
7.6262729021
 20
21.8843463617
 30
0.0
 10
7.6130448773
 20
21.9115089457
 30
0.0
 10
7.6033684245
 20
21.9523441818
 30
0.0
 10
7.5974529435
 20
22.0065639665
 30
0.0
 10
7.6011543424
 20
22.0873508528
 30
0.0
 10
7.6202336656
 20
22.1964825879
 30
0.0
 10
7.6536954307
 20
22.3190646374
 30
0.0
 10
7.7161200347
 20
22.4962266194
 30
0.0
 10
7.7763238902
 20
22.6283934745
 30
0.0
 10
7.8208168184
 20
22.7157460537
 30
0.0
  0
SPLINE
  5
2C6
100
AcDbEntity
  8
0
100
AcDbSpline
 62
7
  6
CONTINUOUS
 70
0
 71
3
 72
9
 73
5
 74
0
 42
0.0000001
 43
0.0000001
 44
0.0000000001
 40
0.0
 40
0.0
 40
0.0
 40
0.0
 40
0.2480799337
 40
1.0
 40
1.0
 40
1.0
 40
1.0
 10
6.7943160553
 20
23.011980354
 30
0.0
 10
6.796538171
 20
23.0014454117
 30
0.0
 10
6.806037108
 20
22.9590948015
 30
0.0
 10
6.8176329229
 20
22.9172205997
 30
0.0
 10
6.8273862983
 20
22.8860786499
 30
0.0
  0
SPLINE
  5
2C7
100
AcDbEntity
  8
0
100
AcDbSpline
 62
7
  6
CONTINUOUS
 70
0
 71
3
 72
13
 73
9
 74
0
 42
0.0000001
 43
0.0000001
 44
0.0000000001
 40
0.0
 40
0.0
 40
0.0
 40
0.0
 40
0.1232669633
 40
0.2485921927
 40
0.3749649228
 40
0.5014377191
 40
0.7524516894
 40
1.0
 40
1.0
 40
1.0
 40
1.0
 10
6.8273862983
 20
22.8860786499
 30
0.0
 10
6.8436619049
 20
22.8341116027
 30
0.0
 10
6.8823487237
 20
22.7310848704
 30
0.0
 10
6.9550620155
 20
22.5820173885
 30
0.0
 10
7.0416430784
 20
22.4388489926
 30
0.0
 10
7.1741671985
 20
22.2596628767
 30
0.0
 10
7.3683336163
 20
22.0611260304
 30
0.0
 10
7.54652399
 20
21.9303877951
 30
0.0
 10
7.638057233
 20
21.8705433548
 30
0.0
  0
SPLINE
  5
2C8
100
AcDbEntity
  8
0
100
AcDbSpline
 62
7
  6
CONTINUOUS
 70
0
 71
3
 72
11
 73
7
 74
0
 42
0.0000001
 43
0.0000001
 44
0.0000000001
 40
0.0
 40
0.0
 40
0.0
 40
0.0
 40
0.1959689609
 40
0.4330626679
 40
0.7038261925
 40
1.0
 40
1.0
 40
1.0
 40
1.0
 10
6.7943399768
 20
23.0119803554
 30
0.0
 10
6.8613035871
 20
22.9923239481
 30
0.0
 10
7.0096324769
 20
22.9500861412
 30
0.0
 10
7.2503882915
 20
22.8803647744
 30
0.0
 10
7.525503138
 20
22.801000984
 30
0.0
 10
7.7195908184
 20
22.7453790409
 30
0.0
 10
7.8208167411
 20
22.7157460749
 30
0.0
  0
SPLINE
  5
2C9
100
AcDbEntity
  8
0
100
AcDbSpline
 62
7
  6
CONTINUOUS
 70
0
 71
3
 72
9
 73
5
 74
0
 42
0.0000001
 43
0.0000001
 44
0.0000000001
 40
0.0
 40
0.0
 40
0.0
 40
0.0
 40
0.7471623231
 40
1.0
 40
1.0
 40
1.0
 40
1.0
 10
6.5104946958
 20
24.1652251022
 30
0.0
 10
6.5076874412
 20
24.1564423836
 30
0.0
 10
6.5053073084
 20
24.1441764363
 30
0.0
 10
6.5048566423
 20
24.1318398772
 30
0.0
 10
6.5048571055
 20
24.1287197
 30
0.0
  0
SPLINE
  5
2CA
100
AcDbEntity
  8
0
100
AcDbSpline
 62
7
  6
CONTINUOUS
 70
0
 71
3
 72
16
 73
12
 74
0
 42
0.0000001
 43
0.0000001
 44
0.0000000001
 40
0.0
 40
0.0
 40
0.0
 40
0.0
 40
0.1941842043
 40
0.3720508248
 40
0.5308142578
 40
0.6680822772
 40
0.7823305037
 40
0.874141845
 40
0.9121958201
 40
0.9454534763
 40
1.0
 40
1.0
 40
1.0
 40
1.0
 10
7.820816523
 20
24.5768038348
 30
0.0
 10
7.7297114595
 20
24.5690699861
 30
0.0
 10
7.5554200277
 20
24.5508408753
 30
0.0
 10
7.3081381132
 20
24.5138793794
 30
0.0
 10
7.0893340809
 20
24.4695534305
 30
0.0
 10
6.9026426814
 20
24.4191506547
 30
0.0
 10
6.7506510638
 20
24.3634227059
 30
0.0
 10
6.6478540961
 20
24.3108786058
 30
0.0
 10
6.5853469477
 20
24.2658316396
 30
0.0
 10
6.541993705
 20
24.2255369459
 30
0.0
 10
6.5180926426
 20
24.1897797524
 30
0.0
 10
6.5104943294
 20
24.1652459007
 30
0.0
  0
SPLINE
  5
2CB
100
AcDbEntity
  8
0
100
AcDbSpline
 62
7
  6
CONTINUOUS
 70
0
 71
3
 72
9
 73
5
 74
0
 42
0.0000001
 43
0.0000001
 44
0.0000000001
 40
0.0
 40
0.0
 40
0.0
 40
0.0
 40
0.2500360374
 40
1.0
 40
1.0
 40
1.0
 40
1.0
 10
32.5885450643
 20
40.6323043364
 30
0.0
 10
32.4589354459
 20
40.6846105938
 30
0.0
 10
31.9436920415
 20
40.9015216101
 30
0.0
 10
31.440545831
 20
41.1466494876
 30
0.0
 10
31.0697858083
 20
41.3423043364
 30
0.0
  0
SPLINE
  5
2CC
100
AcDbEntity
  8
0
100
AcDbSpline
 62
7
  6
CONTINUOUS
 70
0
 71
3
 72
9
 73
5
 74
0
 42
0.0000001
 43
0.0000001
 44
0.0000000001
 40
0.0
 40
0.0
 40
0.0
 40
0.0
 40
0.266139587
 40
1.0
 40
1.0
 40
1.0
 40
1.0
 10
6.7493443047
 20
22.8506479024
 30
0.0
 10
6.7357095864
 20
22.8552799746
 30
0.0
 10
6.6850853453
 20
22.8742926737
 30
0.0
 10
6.6367590704
 20
22.9003634055
 30
0.0
 10
6.6051737223
 20
22.9244262337
 30
0.0
  0
SPLINE
  5
2CD
100
AcDbEntity
  8
0
100
AcDbSpline
 62
7
  6
CONTINUOUS
 70
0
 71
3
 72
11
 73
7
 74
0
 42
0.0000001
 43
0.0000001
 44
0.0000000001
 40
0.0
 40
0.0
 40
0.0
 40
0.0
 40
0.2960442359
 40
0.5575323693
 40
0.7891757803
 40
1.0
 40
1.0
 40
1.0
 40
1.0
 10
6.6051737223
 20
22.9244262337
 30
0.0
 10
6.5890588919
 20
22.9367030779
 30
0.0
 10
6.5604190183
 20
22.9622685003
 30
0.0
 10
6.5278421342
 20
23.0059082553
 30
0.0
 10
6.5090495368
 20
23.0508054633
 30
0.0
 10
6.5048571293
 20
23.0812037614
 30
0.0
 10
6.504857105
 20
23.0956306325
 30
0.0
  0
SPLINE
  5
2CE
100
AcDbEntity
  8
0
100
AcDbSpline
 62
7
  6
CONTINUOUS
 70
0
 71
3
 72
9
 73
5
 74
0
 42
0.0000001
 43
0.0000001
 44
0.0000000001
 40
0.0
 40
0.0
 40
0.0
 40
0.0
 40
0.7499646278
 40
1.0
 40
1.0
 40
1.0
 40
1.0
 10
31.0697858083
 20
41.3423043364
 30
0.0
 10
31.4407450472
 20
41.5353071314
 30
0.0
 10
31.9439742199
 20
41.7770016974
 30
0.0
 10
32.4590079315
 20
41.9907636277
 30
0.0
 10
32.5885450643
 20
42.0423043364
 30
0.0
  0
SPLINE
  5
2CF
100
AcDbEntity
  8
0
100
AcDbSpline
 62
7
  6
CONTINUOUS
 70
0
 71
3
 72
9
 73
5
 74
0
 42
0.0000001
 43
0.0000001
 44
0.0000000001
 40
0.0
 40
0.0
 40
0.0
 40
0.0
 40
0.2500360374
 40
1.0
 40
1.0
 40
1.0
 40
1.0
 10
32.5885450643
 20
42.0423043364
 30
0.0
 10
32.4589354459
 20
42.0946105938
 30
0.0
 10
31.9436920415
 20
42.3115216101
 30
0.0
 10
31.440545831
 20
42.5566494876
 30
0.0
 10
31.0697858083
 20
42.7523043364
 30
0.0
  0
SPLINE
  5
2D0
100
AcDbEntity
  8
0
100
AcDbSpline
 62
7
  6
CONTINUOUS
 70
0
 71
3
 72
9
 73
5
 74
0
 42
0.0000001
 43
0.0000001
 44
0.0000000001
 40
0.0
 40
0.0
 40
0.0
 40
0.0
 40
0.7499646278
 40
1.0
 40
1.0
 40
1.0
 40
1.0
 10
31.0697858083
 20
42.7523043364
 30
0.0
 10
31.4407450472
 20
42.9453071314
 30
0.0
 10
31.9439742199
 20
43.1870016974
 30
0.0
 10
32.4590079315
 20
43.4007636277
 30
0.0
 10
32.5885450643
 20
43.4523043364
 30
0.0
  0
SPLINE
  5
2D1
100
AcDbEntity
  8
0
100
AcDbSpline
 62
7
  6
CONTINUOUS
 70
0
 71
3
 72
9
 73
5
 74
0
 42
0.0000001
 43
0.0000001
 44
0.0000000001
 40
0.0
 40
0.0
 40
0.0
 40
0.0
 40
0.2500360374
 40
1.0
 40
1.0
 40
1.0
 40
1.0
 10
32.5885450643
 20
43.4523043364
 30
0.0
 10
32.4589354459
 20
43.5046105938
 30
0.0
 10
31.9436920415
 20
43.7215216101
 30
0.0
 10
31.440545831
 20
43.9666494876
 30
0.0
 10
31.0697858083
 20
44.1623043364
 30
0.0
  0
SPLINE
  5
2D2
100
AcDbEntity
  8
0
100
AcDbSpline
 62
7
  6
CONTINUOUS
 70
0
 71
3
 72
9
 73
5
 74
0
 42
0.0000001
 43
0.0000001
 44
0.0000000001
 40
0.0
 40
0.0
 40
0.0
 40
0.0
 40
0.7499646278
 40
1.0
 40
1.0
 40
1.0
 40
1.0
 10
31.0697858083
 20
44.1623043364
 30
0.0
 10
31.4407450472
 20
44.3553071314
 30
0.0
 10
31.9439742199
 20
44.5970016974
 30
0.0
 10
32.4590079315
 20
44.8107636277
 30
0.0
 10
32.5885450643
 20
44.8623043364
 30
0.0
  0
SPLINE
  5
2D3
100
AcDbEntity
  8
0
100
AcDbSpline
 62
7
  6
CONTINUOUS
 70
0
 71
3
 72
15
 73
11
 74
0
 42
0.0000001
 43
0.0000001
 44
0.0000000001
 40
0.0
 40
0.0
 40
0.0
 40
0.0
 40
0.1253481087
 40
0.2506561364
 40
0.3758385095
 40
0.500902042
 40
0.6258334476
 40
0.7506285505
 40
0.8753596486
 40
1.0
 40
1.0
 40
1.0
 40
1.0
 10
8.5048571048
 20
28.0360214977
 30
0.0
 10
8.3741882201
 20
28.0360214976
 30
0.0
 10
8.112180038
 20
28.0103848258
 30
0.0
 10
7.7347805529
 20
27.8966071241
 30
0.0
 10
7.3868127667
 20
27.7117354673
 30
0.0
 10
7.0817703427
 20
27.4629783255
 30
0.0
 10
6.8314123044
 20
27.1597614602
 30
0.0
 10
6.6452578286
 20
26.8137432811
 30
0.0
 10
6.5306869193
 20
26.4383645708
 30
0.0
 10
6.5048568593
 20
26.1776846661
 30
0.0
 10
6.504857105
 20
26.0477535816
 30
0.0
  0
SPLINE
  5
2D4
100
AcDbEntity
  8
0
100
AcDbSpline
 62
7
  6
CONTINUOUS
 70
0
 71
3
 72
15
 73
11
 74
0
 42
0.0000001
 43
0.0000001
 44
0.0000000001
 40
0.0
 40
0.0
 40
0.0
 40
0.0
 40
0.1206021176
 40
0.2419022197
 40
0.3644328681
 40
0.4885953681
 40
0.6144990598
 40
0.7419753963
 40
0.8706853977
 40
1.0
 40
1.0
 40
1.0
 40
1.0
 10
6.504857105
 20
25.9223924324
 30
0.0
 10
6.5048568592
 20
26.0442002097
 30
0.0
 10
6.530833216
 20
26.2892885384
 30
0.0
 10
6.6459094917
 20
26.6415986453
 30
0.0
 10
6.8326145107
 20
26.9659975506
 30
0.0
 10
7.0833952816
 20
27.2498926978
 30
0.0
 10
7.3885348842
 20
27.4824992199
 30
0.0
 10
7.7362206509
 20
27.6552084196
 30
0.0
 10
8.1130181641
 20
27.7613927485
 30
0.0
 10
8.3742497441
 20
27.785298728
 30
0.0
 10
8.5048571048
 20
27.785298728
 30
0.0
  0
SPLINE
  5
2D5
100
AcDbEntity
  8
0
100
AcDbSpline
 62
7
  6
CONTINUOUS
 70
0
 71
3
 72
15
 73
11
 74
0
 42
0.0000001
 43
0.0000001
 44
0.0000000001
 40
0.0
 40
0.0
 40
0.0
 40
0.0
 40
0.0984122495
 40
0.200924639
 40
0.3099632813
 40
0.4276647568
 40
0.5557005234
 40
0.6942616533
 40
0.8427119214
 40
1.0
 40
1.0
 40
1.0
 40
1.0
 10
6.5104947369
 20
24.22423265
 30
0.0
 10
6.5174359628
 20
24.2828224549
 30
0.0
 10
6.5450907129
 20
24.4011980408
 30
0.0
 10
6.6244797503
 20
24.5704981766
 30
0.0
 10
6.7410847941
 20
24.7311081739
 30
0.0
 10
6.8942564987
 20
24.8800207653
 30
0.0
 10
7.0826329939
 20
25.0139975789
 30
0.0
 10
7.3029561395
 20
25.1309545913
 30
0.0
 10
7.5515279302
 20
25.2281011023
 30
0.0
 10
7.7287219297
 20
25.276477459
 30
0.0
 10
7.8208060742
 20
25.2967833279
 30
0.0
  0
SPLINE
  5
2D6
100
AcDbEntity
  8
0
100
AcDbSpline
 62
7
  6
CONTINUOUS
 70
0
 71
3
 72
9
 73
5
 74
0
 42
0.0000001
 43
0.0000001
 44
0.0000000001
 40
0.0
 40
0.0
 40
0.0
 40
0.0
 40
0.2584194213
 40
1.0
 40
1.0
 40
1.0
 40
1.0
 10
6.5048571021
 20
24.1286839599
 30
0.0
 10
6.5048575259
 20
24.1369322281
 30
0.0
 10
6.505306521
 20
24.1688478608
 30
0.0
 10
6.5076217489
 20
24.2007443388
 30
0.0
 10
6.5104948754
 20
24.2242391925
 30
0.0
  0
SPLINE
  5
2D7
100
AcDbEntity
  8
0
100
AcDbSpline
 62
7
  6
CONTINUOUS
 70
0
 71
3
 72
9
 73
5
 74
0
 42
0.0000001
 43
0.0000001
 44
0.0000000001
 40
0.0
 40
0.0
 40
0.0
 40
0.0
 40
0.5044478019
 40
1.0
 40
1.0
 40
1.0
 40
1.0
 10
7.8208076318
 20
25.2967962424
 30
0.0
 10
7.9336652455
 20
25.3216834315
 30
0.0
 10
8.1630673641
 20
25.3474919083
 30
0.0
 10
8.3928720802
 20
25.3300024483
 30
0.0
 10
8.5048574852
 20
25.3113321614
 30
0.0
  0
SPLINE
  5
2D8
100
AcDbEntity
  8
0
100
AcDbSpline
 62
7
  6
CONTINUOUS
 70
0
 71
3
 72
11
 73
7
 74
0
 42
0.0000001
 43
0.0000001
 44
0.0000000001
 40
0.0
 40
0.0
 40
0.0
 40
0.0
 40
0.2105081785
 40
0.4556670773
 40
0.7240346345
 40
1.0
 40
1.0
 40
1.0
 40
1.0
 10
7.8208181866
 20
25.2967980297
 30
0.0
 10
7.8099576411
 20
25.2472177001
 30
0.0
 10
7.7946722854
 20
25.1380981702
 30
0.0
 10
7.787501311
 20
24.9634726948
 30
0.0
 10
7.7960083738
 20
24.7731096314
 30
0.0
 10
7.8109523167
 20
24.6426034744
 30
0.0
 10
7.8208172471
 20
24.5768004654
 30
0.0
  0
SPLINE
  5
2D9
100
AcDbEntity
  8
0
100
AcDbSpline
 62
7
  6
CONTINUOUS
 70
0
 71
3
 72
11
 73
7
 74
0
 42
0.0000001
 43
0.0000001
 44
0.0000000001
 40
0.0
 40
0.0
 40
0.0
 40
0.0
 40
0.2136548284
 40
0.4623858423
 40
0.7310039761
 40
1.0
 40
1.0
 40
1.0
 40
1.0
 10
8.5048575193
 20
25.311330669
 30
0.0
 10
8.4694413261
 20
25.2632872036
 30
0.0
 10
8.4006635354
 20
25.1535253122
 30
0.0
 10
8.3091055012
 20
24.9707291077
 30
0.0
 10
8.2280369858
 20
24.7663081152
 30
0.0
 10
8.1827038485
 20
24.6229698966
 30
0.0
 10
8.1628367957
 20
24.5504970427
 30
0.0
  0
SPLINE
  5
2DA
100
AcDbEntity
  8
0
100
AcDbSpline
 62
7
  6
CONTINUOUS
 70
0
 71
3
 72
9
 73
5
 74
0
 42
0.0000001
 43
0.0000001
 44
0.0000000001
 40
0.0
 40
0.0
 40
0.0
 40
0.0
 40
0.2500360374
 40
1.0
 40
1.0
 40
1.0
 40
1.0
 10
32.5885450643
 20
44.8623043364
 30
0.0
 10
32.4589354459
 20
44.9146105938
 30
0.0
 10
31.9436920415
 20
45.1315216101
 30
0.0
 10
31.440545831
 20
45.3766494876
 30
0.0
 10
31.0697858083
 20
45.5723043364
 30
0.0
  0
SPLINE
  5
2DB
100
AcDbEntity
  8
0
100
AcDbSpline
 62
7
  6
CONTINUOUS
 70
0
 71
3
 72
9
 73
5
 74
0
 42
0.0000001
 43
0.0000001
 44
0.0000000001
 40
0.0
 40
0.0
 40
0.0
 40
0.0
 40
0.7499646278
 40
1.0
 40
1.0
 40
1.0
 40
1.0
 10
31.0697858083
 20
45.5723043364
 30
0.0
 10
31.4407450472
 20
45.7653071314
 30
0.0
 10
31.9439742199
 20
46.0070016974
 30
0.0
 10
32.4590079315
 20
46.2207636277
 30
0.0
 10
32.5885450643
 20
46.2723043364
 30
0.0
  0
SPLINE
  5
2DC
100
AcDbEntity
  8
0
100
AcDbSpline
 62
7
  6
CONTINUOUS
 70
0
 71
3
 72
18
 73
14
 74
0
 42
0.0000001
 43
0.0000001
 44
0.0000000001
 40
0.0
 40
0.0
 40
0.0
 40
0.0
 40
0.0184687217
 40
0.0405178139
 40
0.0683657544
 40
0.1035273994
 40
0.1469258656
 40
0.1985561751
 40
0.3250364374
 40
0.4784491953
 40
0.6490997814
 40
0.8261687815
 40
1.0
 40
1.0
 40
1.0
 40
1.0
 10
23.11459308
 20
52.0665922699
 30
0.0
 10
23.1148709535
 20
52.0697682511
 30
0.0
 10
23.1171375801
 20
52.0766317536
 30
0.0
 10
23.1248106044
 20
52.0858311016
 30
0.0
 10
23.1367830889
 20
52.0944988773
 30
0.0
 10
23.1533233113
 20
52.1026246386
 30
0.0
 10
23.1745557985
 20
52.1100968997
 30
0.0
 10
23.2115729888
 20
52.1197982595
 30
0.0
 10
23.2681926608
 20
52.1289035565
 30
0.0
 10
23.3457681228
 20
52.1350350193
 30
0.0
 10
23.4322930623
 20
52.1370225488
 30
0.0
 10
23.5223229561
 20
52.1347666146
 30
0.0
 10
23.5827874747
 20
52.1308693654
 30
0.0
 10
23.6126903034
 20
52.1283693624
 30
0.0
  0
SPLINE
  5
2DD
100
AcDbEntity
  8
0
100
AcDbSpline
 62
7
  6
CONTINUOUS
 70
0
 71
3
 72
11
 73
7
 74
0
 42
0.0000001
 43
0.0000001
 44
0.0000000001
 40
0.0
 40
0.0
 40
0.0
 40
0.0
 40
0.2371096033
 40
0.4856606188
 40
0.7411057246
 40
1.0
 40
1.0
 40
1.0
 40
1.0
 10
32.6771646541
 20
27.2229594057
 30
0.0
 10
32.9863428879
 20
26.929917418
 30
0.0
 10
33.6073870678
 20
26.3167779857
 30
0.0
 10
34.531548781
 20
25.3582183477
 30
0.0
 10
35.4695131585
 20
24.3588078412
 30
0.0
 10
36.0972872701
 20
23.680741155
 30
0.0
 10
36.4131858482
 20
23.3393481895
 30
0.0
  0
SPLINE
  5
2DE
100
AcDbEntity
  8
0
100
AcDbSpline
 62
7
  6
CONTINUOUS
 70
0
 71
3
 72
9
 73
5
 74
0
 42
0.0000001
 43
0.0000001
 44
0.0000000001
 40
0.0
 40
0.0
 40
0.0
 40
0.0
 40
0.2500347895
 40
1.0
 40
1.0
 40
1.0
 40
1.0
 10
32.5885450643
 20
46.2723043364
 30
0.0
 10
32.4590799565
 20
46.3230805011
 30
0.0
 10
31.9442552582
 20
46.5336972358
 30
0.0
 10
31.4409436733
 20
46.7719568593
 30
0.0
 10
31.0697858083
 20
46.9623043364
 30
0.0
  0
SPLINE
  5
2DF
100
AcDbEntity
  8
0
100
AcDbSpline
 62
7
  6
CONTINUOUS
 70
0
 71
3
 72
9
 73
5
 74
0
 42
0.0000001
 43
0.0000001
 44
0.0000000001
 40
0.0
 40
0.0
 40
0.0
 40
0.0
 40
0.7499640138
 40
1.0
 40
1.0
 40
1.0
 40
1.0
 10
31.0697858083
 20
46.9623043364
 30
0.0
 10
31.4405458584
 20
47.1579591996
 30
0.0
 10
31.9436918744
 20
47.4030875196
 30
0.0
 10
32.4589354717
 20
47.6199980894
 30
0.0
 10
32.5885450643
 20
47.6723043364
 30
0.0
  0
SPLINE
  5
2E0
100
AcDbEntity
  8
0
100
AcDbSpline
 62
7
  6
CONTINUOUS
 70
0
 71
3
 72
17
 73
13
 74
0
 42
0.0000001
 43
0.0000001
 44
0.0000000001
 40
0.0
 40
0.0
 40
0.0
 40
0.0
 40
0.079439841
 40
0.1245349355
 40
0.1734643285
 40
0.226222794
 40
0.2826824008
 40
0.4057970198
 40
0.5407594259
 40
0.6858634458
 40
0.8395194608
 40
1.0
 40
1.0
 40
1.0
 40
1.0
 10
29.305407085
 20
29.6123363158
 30
0.0
 10
29.4143466426
 20
29.6123285742
 30
0.0
 10
29.585174316
 20
29.5801291858
 30
0.0
 10
29.8089433605
 20
29.4996766458
 30
0.0
 10
29.9919936104
 20
29.4152111422
 30
0.0
 10
30.1822836943
 20
29.3109570554
 30
0.0
 10
30.4530255842
 20
29.1427430557
 30
0.0
 10
30.8038320568
 20
28.891063187
 30
0.0
 10
31.2347871937
 20
28.5444432659
 30
0.0
 10
31.6835280614
 20
28.153887886
 30
0.0
 10
32.1474414094
 20
27.7279081623
 30
0.0
 10
32.4597362706
 20
27.4311526103
 30
0.0
 10
32.6185760535
 20
27.2788283341
 30
0.0
  0
SPLINE
  5
2E1
100
AcDbEntity
  8
0
100
AcDbSpline
 62
7
  6
CONTINUOUS
 70
0
 71
3
 72
9
 73
5
 74
0
 42
0.0000001
 43
0.0000001
 44
0.0000000001
 40
0.0
 40
0.0
 40
0.0
 40
0.0
 40
0.2500358935
 40
1.0
 40
1.0
 40
1.0
 40
1.0
 10
32.5885450643
 20
47.6723043364
 30
0.0
 10
32.4565330557
 20
47.7240793946
 30
0.0
 10
31.9316420812
 20
47.9389900154
 30
0.0
 10
31.4187175248
 20
48.182590434
 30
0.0
 10
31.040584411
 20
48.3773120845
 30
0.0
  0
SPLINE
  5
2E2
100
AcDbEntity
  8
0
100
AcDbSpline
 62
7
  6
CONTINUOUS
 70
0
 71
3
 72
18
 73
14
 74
0
 42
0.0000001
 43
0.0000001
 44
0.0000000001
 40
0.0
 40
0.0
 40
0.0
 40
0.0
 40
0.1738312548
 40
0.350900274
 40
0.5215508587
 40
0.6749636053
 40
0.8014438506
 40
0.8530741512
 40
0.8964726104
 40
0.9316342507
 40
0.959482188
 40
0.9815312786
 40
1.0
 40
1.0
 40
1.0
 40
1.0
 10
49.3970241137
 20
52.1283693433
 30
0.0
 10
49.4269269367
 20
52.1308693434
 30
0.0
 10
49.4873914408
 20
52.1347665865
 30
0.0
 10
49.5774213076
 20
52.1370225136
 30
0.0
 10
49.6639462131
 20
52.1350349787
 30
0.0
 10
49.7415216381
 20
52.128903513
 30
0.0
 10
49.7981412803
 20
52.119798217
 30
0.0
 10
49.8351584493
 20
52.1100968591
 30
0.0
 10
49.8563909238
 20
52.1026246002
 30
0.0
 10
49.8729311364
 20
52.0944988419
 30
0.0
 10
49.8849036139
 20
52.0858310694
 30
0.0
 10
49.8925766336
 20
52.076631725
 30
0.0
 10
49.8948432586
 20
52.0697682256
 30
0.0
 10
49.8951211321
 20
52.0665922457
 30
0.0
  0
SPLINE
  5
2E3
100
AcDbEntity
  8
0
100
AcDbSpline
 62
7
  6
CONTINUOUS
 70
0
 71
3
 72
15
 73
11
 74
0
 42
0.0000001
 43
0.0000001
 44
0.0000000001
 40
0.0
 40
0.0
 40
0.0
 40
0.0
 40
0.1249581139
 40
0.2500169843
 40
0.3749968607
 40
0.5000026879
 40
0.6250280291
 40
0.7499860431
 40
0.8750286519
 40
1.0
 40
1.0
 40
1.0
 40
1.0
 10
44.3669497006
 20
31.8123043364
 30
0.0
 10
44.3669497006
 20
31.8795302951
 30
0.0
 10
44.3525634146
 20
32.0144631299
 30
0.0
 10
44.2891952314
 20
32.2074873988
 30
0.0
 10
44.1873125009
 20
32.3833151559
 30
0.0
 10
44.0521792479
 20
32.5349345243
 30
0.0
 10
43.8900323626
 20
32.6570767
 30
0.0
 10
43.7077297898
 20
32.7462976364
 30
0.0
 10
43.5122320588
 20
32.8002555329
 30
0.0
 10
43.377418978
 20
32.8123043364
 30
0.0
 10
43.3101858994
 20
32.8123043364
 30
0.0
  0
SPLINE
  5
2E4
100
AcDbEntity
  8
0
100
AcDbSpline
 62
7
  6
CONTINUOUS
 70
0
 71
3
 72
13
 73
9
 74
0
 42
0.0000001
 43
0.0000001
 44
0.0000000001
 40
0.0
 40
0.0
 40
0.0
 40
0.0
 40
0.4035582692
 40
0.5664223135
 40
0.7021013683
 40
0.8103352456
 40
0.8931438287
 40
1.0
 40
1.0
 40
1.0
 40
1.0
 10
7.1024786591
 20
22.3060643817
 30
0.0
 10
7.0914155021
 20
22.2928426083
 30
0.0
 10
7.0754010337
 20
22.2746630534
 30
0.0
 10
7.0538930446
 20
22.2537180555
 30
0.0
 10
7.0407196674
 20
22.2424097034
 30
0.0
 10
7.0291540576
 20
22.2343716248
 30
0.0
 10
7.0180807512
 20
22.2286170411
 30
0.0
 10
7.0088103635
 20
22.2273230828
 30
0.0
 10
7.0048571089
 20
22.2296054952
 30
0.0
  0
ENDSEC
  0
SECTION
  2
OBJECTS
  0
DICTIONARY
  5
C
100
AcDbDictionary
280
0
281
1
  3
ACAD_GROUP
350
D
  3
ACAD_MLINESTYLE
350
17
  3
ACAD_LAYOUT
350
1A
  3
ACAD_PLOTSETTINGS
350
19
  3
ACAD_PLOTSTYLENAME
350
E
  0
DICTIONARY
  5
D
102
{ACAD_REACTORS
330
C
102
}
100
AcDbDictionary
280
0
281
1
  0
ACDBDICTIONARYWDFLT
  5
E
102
{ACAD_REACTORS
330
C
102
}
100
AcDbDictionary
281
1
  3
Normal
350
F
100
AcDbDictionaryWithDefault
340
F
  0
DICTIONARY
  5
17
102
{ACAD_REACTORS
330
C
102
}
100
AcDbDictionary
280
0
281
1
  3
Standard
350
18
  0
DICTIONARY
  5
19
102
{ACAD_REACTORS
330
C
102
}
100
AcDbDictionary
281
1
  0
DICTIONARY
  5
1A
102
{ACAD_REACTORS
330
C
102
}
100
AcDbDictionary
281
1
  3
Model
350
2E5
  3
Layout1
350
2E6
  0
ACDBPLACEHOLDER
  5
F
102
{ACAD_REACTORS
330
E
102
}
  0
MLINESTYLE
  5
18
102
{ACAD_REACTORS
330
17
102
}
100
AcDbMlineStyle
  2
STANDARD
 70
0
  3

 62
256
 51
90.0
 52
90.0
 71
2
 49
0.5
 62
256
  6
BYLAYER
 49
-0.5
 62
256
  6
BYLAYER
  0
LAYOUT
  5
2E5
102
{ACAD_REACTORS
330
1A
102
}
100
AcDbPlotSettings
  1

  2
none_device
  4

  6

 40
0.0
 41
0.0
 42
0.0
 43
0.0
 44
210.0
 45
297.0
 46
0.0
 47
0.0
 48
0.0
 49
0.0
140
0.0
141
0.0
142
1.0
143
1.0
 70
1024
 72
1
 73
0
 74
0
  7

 75
0
147
1.0
148
0.0
149
0.0
100
AcDbLayout
  1
Model
 70
0
 71
0
 10
0.0
 20
0.0
 11
210.0
 21
297.0
 12
0.0
 22
0.0
 32
0.0
 14
0.0
 24
0.0
 34
0.0
 15
0.0
 25
0.0
 35
0.0
146
0.0
 13
0.0
 23
0.0
 33
0.0
 16
1.0
 26
0.0
 36
0.0
 17
0.0
 27
1.0
 37
0.0
 76
0
330
210
345
0
346
0
  0
LAYOUT
  5
2E6
102
{ACAD_REACTORS
330
1A
102
}
100
AcDbPlotSettings
  1

  2
none_device
  4

  6

 40
0.0
 41
0.0
 42
0.0
 43
0.0
 44
210.0
 45
297.0
 46
0.0
 47
0.0
 48
0.0
 49
0.0
140
0.0
141
0.0
142
1.0
143
1.0
 70
0
 72
1
 73
0
 74
0
  7

 75
0
147
1.0
148
0.0
149
0.0
100
AcDbLayout
  1
Layout1
 70
0
 71
1
 10
0.0
 20
0.0
 11
210.0
 21
297.0
 12
0.0
 22
0.0
 32
0.0
 14
0.0
 24
0.0
 34
0.0
 15
0.0
 25
0.0
 35
0.0
146
0.0
 13
0.0
 23
0.0
 33
0.0
 16
1.0
 26
0.0
 36
0.0
 17
0.0
 27
1.0
 37
0.0
 76
0
330
211
345
0
346
0
  0
ENDSEC
  0
EOF
