999
DXF file: C:\Users\sesa63760\Dev\_Creo\CAD\MCADID0000702_3D-CAD\drw0001_3.dxf
999
Pro/ENGINEER 2019471 by Parametric Technology Corporation
  0
SECTION
  2
HEADER
  9
$ACADVER
  1
AC1024
  9
$DWGCODEPAGE
  3
ANSI_1252
  9
$EXTMAX
 10
90.0012819663
 20
127.2875273523
 30
0.0
  9
$EXTMIN
 10
0.0
 20
0.0
 30
0.0
  9
$LIMMIN
 10
0.0
 20
0.0
  9
$LIMMAX
 10
90.0012819663
 20
127.2875273523
  9
$VIEWCTR
 10
45.0006409831
 20
63.6437636761
  9
$VIEWSIZE
 40
127.2875273523
  9
$CLAYER
  8
0
  9
$LTSCALE
 40
8.2972610422
  9
$CELTYPE
  6
BYLAYER
  9
$DIMSCALE
 40
1.0
  9
$DIMASZ
 40
1.0714438329
  9
$DIMEXO
 40
1.0
  9
$DIMDLI
 40
5.7326530837
  9
$DIMEXE
 40
1.0
  9
$DIMCEN
 40
1.3577336251
  9
$DIMLFAC
 40
1.0
  9
$DIMBLK
  1
_FILLED
  9
$DIMALT
 70
0
  9
$DIMALTF
 40
0.0393700787
  9
$DIMTXT
 40
1.5000213661
  9
$DIMTOL
 70
1
  9
$DIMLIM
 70
0
  9
$DIMTFAC
 40
1.0
  9
$DIMTP
 40
0.01
  9
$DIMTM
 40
0.01
  9
$DIMGAP
 40
0.625
  9
$DIMDSEP
 70
46
  9
$AUNITS
 70
0
  9
$PDMODE
 70
3
  9
$PDSIZE
 40
0.3125
  9
$HANDSEED
  5
359
  9
$TILEMODE
 70
1
  9
$MEASUREMENT
 70
1
  9
$INSUNITS
 70
4
  0
ENDSEC
  0
SECTION
  2
CLASSES
  0
CLASS
  1
ACDBDICTIONARYWDFLT
  2
AcDbDictionaryWithDefault
  3
AutoCAD 2000
 90
0
 91
1
280
0
281
0
  0
CLASS
  1
ACDBPLACEHOLDER
  2
AcDbPlaceHolder
  3
AutoCAD 2000
 90
0
 91
1
280
0
281
0
  0
CLASS
  1
LAYOUT
  2
AcDbLayout
  3
AutoCAD 2000
 90
0
 91
0
280
0
281
0
  0
ENDSEC
  0
SECTION
  2
TABLES
  0
TABLE
  2
VPORT
  5
8
100
AcDbSymbolTable
 70
2
  0
VPORT
  5
1F4
100
AcDbSymbolTableRecord
100
AcDbViewportTableRecord
  2
*ACTIVE
 70
0
 10
0.0
 20
0.0
 11
1.0
 21
1.0
 12
45.0006409831
 22
63.6437636761
 13
0.0
 23
0.0
 14
1.0
 24
1.0
 15
0.0
 25
0.0
 16
0.0
 26
0.0
 36
1.0
 17
0.0
 27
0.0
 37
0.0
 40
127.2875273523
 41
0.7070707071
 42
50.0
 43
0.0
 44
0.0
 50
0.0
 51
0.0
 71
0
 72
100
 73
1
 74
1
 75
0
 76
0
 77
0
 78
0
  0
ENDTAB
  0
TABLE
  2
LTYPE
  5
5
100
AcDbSymbolTable
 70
6
  0
LTYPE
  5
14
100
AcDbSymbolTableRecord
100
AcDbLinetypeTableRecord
  2
BYBLOCK
 70
0
  3

 72
65
 73
0
 40
0.0
  0
LTYPE
  5
15
100
AcDbSymbolTableRecord
100
AcDbLinetypeTableRecord
  2
BYLAYER
 70
0
  3

 72
65
 73
0
 40
0.0
  0
LTYPE
  5
16
100
AcDbSymbolTableRecord
100
AcDbLinetypeTableRecord
  2
CONTINUOUS
 70
64
  3
Solid line
 72
65
 73
0
 40
0.0
  0
LTYPE
  5
1F5
100
AcDbSymbolTableRecord
100
AcDbLinetypeTableRecord
  2
CENTER
 70
64
  3
____ _ ____ _ ____ _ ____ _ ____ _ ____ _ ____
 72
65
 73
4
 40
0.6
 49
0.375
 74
0
 49
-0.075
 74
0
 49
0.075
 74
0
 49
-0.075
 74
0
  0
LTYPE
  5
1F6
100
AcDbSymbolTableRecord
100
AcDbLinetypeTableRecord
  2
HIDDEN
 70
64
  3
- - - - - - - - - - - - - - - - - - - -
 72
65
 73
2
 40
0.2
 49
0.1
 74
0
 49
-0.1
 74
0
  0
LTYPE
  5
1F7
100
AcDbSymbolTableRecord
100
AcDbLinetypeTableRecord
  2
PHANTOM
 70
64
  3
_____ _ _ _____ _ _ _____ _ _ _____
 72
65
 73
6
 40
0.8
 49
0.45
 74
0
 49
-0.05
 74
0
 49
0.1
 74
0
 49
-0.05
 74
0
 49
0.1
 74
0
 49
-0.05
 74
0
  0
LTYPE
  5
1F8
100
AcDbSymbolTableRecord
100
AcDbLinetypeTableRecord
  2
DOT
 70
64
  3
. . . . . . . . . . . . . . . . . . . .
 72
65
 73
2
 40
0.2
 49
0.1
 74
0
 49
-0.1
 74
0
  0
LTYPE
  5
1F9
100
AcDbSymbolTableRecord
100
AcDbLinetypeTableRecord
  2
DASHED
 70
64
  3
- - - - - - - - - - - - - - - - - - - -
 72
65
 73
2
 40
0.2
 49
0.1
 74
0
 49
-0.1
 74
0
  0
ENDTAB
  0
TABLE
  2
LAYER
  5
2
100
AcDbSymbolTable
 70
36
  0
LAYER
  5
10
100
AcDbSymbolTableRecord
100
AcDbLayerTableRecord
  2
0
 70
0
 62
7
  6
CONTINUOUS
370
-3
390
F
  0
LAYER
  5
1FA
100
AcDbSymbolTableRecord
100
AcDbLayerTableRecord
  2
DEFAULT_1
 70
0
 62
7
  6
CENTER
370
-3
390
F
  0
LAYER
  5
1FB
100
AcDbSymbolTableRecord
100
AcDbLayerTableRecord
  2
DEFAULT_2
 70
0
 62
8
  6
HIDDEN
370
-3
390
F
  0
LAYER
  5
1FC
100
AcDbSymbolTableRecord
100
AcDbLayerTableRecord
  2
DEFAULT_3
 70
0
 62
7
  6
PHANTOM
370
-3
390
F
  0
LAYER
  5
1FD
100
AcDbSymbolTableRecord
100
AcDbLayerTableRecord
  2
00_COMPONENTS
 70
0
 62
7
  6
CONTINUOUS
370
-3
390
F
  0
LAYER
  5
1FE
100
AcDbSymbolTableRecord
100
AcDbLayerTableRecord
  2
01_1_DEFAULT_DATUMS
 70
0
 62
7
  6
CONTINUOUS
370
-3
390
F
  0
LAYER
  5
1FF
100
AcDbSymbolTableRecord
100
AcDbLayerTableRecord
  2
01_PLANES
 70
0
 62
7
  6
CONTINUOUS
370
-3
390
F
  0
LAYER
  5
200
100
AcDbSymbolTableRecord
100
AcDbLayerTableRecord
  2
02_COORD_SYS
 70
0
 62
7
  6
CONTINUOUS
370
-3
390
F
  0
LAYER
  5
201
100
AcDbSymbolTableRecord
100
AcDbLayerTableRecord
  2
03_AXES
 70
0
 62
7
  6
CONTINUOUS
370
-3
390
F
  0
LAYER
  5
202
100
AcDbSymbolTableRecord
100
AcDbLayerTableRecord
  2
04_POINTS
 70
0
 62
7
  6
CONTINUOUS
370
-3
390
F
  0
LAYER
  5
203
100
AcDbSymbolTableRecord
100
AcDbLayerTableRecord
  2
05_CURVES
 70
0
 62
7
  6
CONTINUOUS
370
-3
390
F
  0
LAYER
  5
204
100
AcDbSymbolTableRecord
100
AcDbLayerTableRecord
  2
06_SURFS
 70
0
 62
7
  6
CONTINUOUS
370
-3
390
F
  0
LAYER
  5
205
100
AcDbSymbolTableRecord
100
AcDbLayerTableRecord
  2
07_COSMETICS
 70
0
 62
7
  6
CONTINUOUS
370
-3
390
F
  0
LAYER
  5
206
100
AcDbSymbolTableRecord
100
AcDbLayerTableRecord
  2
10_NOTES
 70
0
 62
7
  6
CONTINUOUS
370
-3
390
F
  0
LAYER
  5
207
100
AcDbSymbolTableRecord
100
AcDbLayerTableRecord
  2
11_NOTES_PUB
 70
0
 62
7
  6
CONTINUOUS
370
-3
390
F
  0
LAYER
  5
208
100
AcDbSymbolTableRecord
100
AcDbLayerTableRecord
  2
13_REF_GTOL
 70
0
 62
7
  6
CONTINUOUS
370
-3
390
F
  0
LAYER
  5
209
100
AcDbSymbolTableRecord
100
AcDbLayerTableRecord
  2
16_MISC
 70
0
 62
7
  6
CONTINUOUS
370
-3
390
F
  0
LAYER
  5
20A
100
AcDbSymbolTableRecord
100
AcDbLayerTableRecord
  2
17_NO_PRINT
 70
0
 62
7
  6
CONTINUOUS
370
-3
390
F
  0
LAYER
  5
20B
100
AcDbSymbolTableRecord
100
AcDbLayerTableRecord
  2
18_DATUM_CAMS_JOINTS
 70
0
 62
7
  6
CONTINUOUS
370
-3
390
F
  0
LAYER
  5
20C
100
AcDbSymbolTableRecord
100
AcDbLayerTableRecord
  2
19_DATUM_FUNCTIONAL
 70
0
 62
7
  6
CONTINUOUS
370
-3
390
F
  0
LAYER
  5
20D
100
AcDbSymbolTableRecord
100
AcDbLayerTableRecord
  2
20_DATUM_KINEMATIC_SCHEME
 70
0
 62
7
  6
CONTINUOUS
370
-3
390
F
  0
ENDTAB
  0
TABLE
  2
STYLE
  5
3
100
AcDbSymbolTable
 70
1
  0
STYLE
  5
11
100
AcDbSymbolTableRecord
100
AcDbTextStyleTableRecord
  2
STANDARD
 70
0
 40
0.0
 41
0.8
 50
0.0
 71
0
 42
0.2
  3
txt
  4

  0
STYLE
  5
20E
100
AcDbSymbolTableRecord
100
AcDbTextStyleTableRecord
  2
TEXTSTYLE_1
 70
0
 40
0.0
 41
0.8
 50
0.0
 71
0
 42
0.2
  3
gdt
  4

  0
ENDTAB
  0
TABLE
  2
VIEW
  5
6
100
AcDbSymbolTable
 70
0
  0
ENDTAB
  0
TABLE
  2
UCS
  5
7
100
AcDbSymbolTable
 70
0
  0
ENDTAB
  0
TABLE
  2
APPID
  5
9
100
AcDbSymbolTable
 70
1
  0
APPID
  5
20F
100
AcDbSymbolTableRecord
100
AcDbRegAppTableRecord
  2
ACAD
 70
0
  0
ENDTAB
  0
TABLE
  2
BLOCK_RECORD
  5
1
100
AcDbSymbolTable
 70
0
  0
BLOCK_RECORD
  5
210
100
AcDbSymbolTableRecord
100
AcDbBlockTableRecord
  2
*Model_Space
  0
BLOCK_RECORD
  5
211
100
AcDbSymbolTableRecord
100
AcDbBlockTableRecord
  2
*Paper_Space
  0
BLOCK_RECORD
  5
212
100
AcDbSymbolTableRecord
100
AcDbBlockTableRecord
  2
_FILLED
  0
ENDTAB
  0
TABLE
  2
DIMSTYLE
  5
A
100
AcDbSymbolTable
 70
1
100
AcDbDimStyleTable
 71
0
  0
DIMSTYLE
105
213
100
AcDbSymbolTableRecord
100
AcDbDimStyleTableRecord
  2
STANDARD
 70
0
  3

  4

 40
1.0
 41
1.0714438329
 42
1.0
 43
0.38
 44
1.0
 45
0.0
 46
0.0
 47
0.01
 48
0.01
140
1.5000213661
141
0.09
142
0.0
143
25.4
144
1.0
145
0.0
146
1.0
147
0.625
 71
1
 72
0
 73
0
 74
0
 75
0
 76
0
 77
1
 78
8
 79
2
170
0
171
1
172
0
173
0
174
0
175
0
176
0
177
0
178
0
270
2
179
2
271
2
272
2
273
2
274
2
275
0
280
0
281
0
282
0
283
1
284
8
285
0
286
0
287
3
288
0
340
11
278
46
341
212
342
212
343
212
344
212
  0
ENDTAB
  0
ENDSEC
  0
SECTION
  2
BLOCKS
  0
BLOCK
  5
20
100
AcDbEntity
  8
0
100
AcDbBlockBegin
  2
*Model_Space
 70
0
 10
0.0
 20
0.0
 30
0.0
  3
*Model_Space
  1

  0
ENDBLK
  5
21
100
AcDbEntity
  8
0
100
AcDbBlockEnd
  0
BLOCK
  5
1C
100
AcDbEntity
  8
0
100
AcDbBlockBegin
  2
*Paper_Space
 70
0
 10
0.0
 20
0.0
 30
0.0
  3
*Paper_Space
  1

  0
ENDBLK
  5
1D
100
AcDbEntity
  8
0
100
AcDbBlockEnd
  0
BLOCK
  5
214
100
AcDbEntity
  8
0
100
AcDbBlockBegin
  2
_FILLED
 70
64
 10
0.0
 20
0.0
  3
_FILLED
  1

  0
SOLID
  5
215
100
AcDbEntity
  8
0
  6
BYBLOCK
 62
0
100
AcDbTrace
 10
0.0
 20
0.0
 11
-1.0
 21
0.25
 12
-1.0
 22
-0.25
 13
-1.0
 23
-0.25
  0
ENDBLK
  5
216
100
AcDbEntity
  8
0
  6
BYBLOCK
 62
0
100
AcDbBlockEnd
  0
ENDSEC
  0
SECTION
  2
ENTITIES
  0
LINE
  5
217
100
AcDbEntity
  8
0
100
AcDbLine
 62
7
  6
CONTINUOUS
 10
10.6470304799
 20
35.2569097615
 11
10.6470304799
 21
88.9192851669
  0
LINE
  5
218
100
AcDbEntity
  8
0
100
AcDbLine
 62
7
  6
CONTINUOUS
 10
11.2970304806
 20
35.2569097615
 11
11.2970304806
 21
47.7569097615
  0
LINE
  5
219
100
AcDbEntity
  8
0
100
AcDbLine
 62
7
  6
CONTINUOUS
 10
11.2970304806
 20
48.2569097615
 11
11.2970304806
 21
88.9192851666
  0
LINE
  5
21A
100
AcDbEntity
  8
0
100
AcDbLine
 62
7
  6
CONTINUOUS
 10
11.3470304792
 20
48.2569097615
 11
11.3470304792
 21
47.7569097615
  0
LINE
  5
21B
100
AcDbEntity
  8
0
100
AcDbLine
 62
7
  6
CONTINUOUS
 10
11.4470304799
 20
47.7569097615
 11
11.4470304799
 21
48.2569097615
  0
LINE
  5
21C
100
AcDbEntity
  8
0
100
AcDbLine
 62
7
  6
CONTINUOUS
 10
18.8670304799
 20
69.0007512042
 11
18.8670304799
 21
69.0222955312
  0
LINE
  5
21D
100
AcDbEntity
  8
0
100
AcDbLine
 62
7
  6
CONTINUOUS
 10
18.9420304802
 20
52.1569097619
 11
18.9420304802
 21
57.4569097608
  0
LINE
  5
21E
100
AcDbEntity
  8
0
100
AcDbLine
 62
7
  6
CONTINUOUS
 10
19.0420304799
 20
52.2569097615
 11
19.0420304799
 21
57.3569097615
  0
LINE
  5
21F
100
AcDbEntity
  8
0
100
AcDbLine
 62
7
  6
CONTINUOUS
 10
10.6470304803
 20
35.2569097615
 11
81.8470304795
 21
35.2569097615
  0
LINE
  5
220
100
AcDbEntity
  8
0
100
AcDbLine
 62
7
  6
CONTINUOUS
 10
72.6970304799
 20
35.7569097615
 11
79.5970304803
 21
35.7569097615
  0
LINE
  5
221
100
AcDbEntity
  8
0
100
AcDbLine
 62
7
  6
CONTINUOUS
 10
79.5970304803
 20
35.9569097608
 11
72.6970304799
 21
35.9569097608
  0
LINE
  5
222
100
AcDbEntity
  8
0
100
AcDbLine
 62
7
  6
CONTINUOUS
 10
38.2470304799
 20
35.9569097615
 11
54.2470304799
 21
35.9569097615
  0
LINE
  5
223
100
AcDbEntity
  8
0
100
AcDbLine
 62
7
  6
CONTINUOUS
 10
11.1830726168
 20
89.5592176682
 11
11.2970343302
 21
88.9192635458
  0
LINE
  5
224
100
AcDbEntity
  8
0
100
AcDbLine
 62
7
  6
CONTINUOUS
 10
71.6470304799
 20
37.4069097615
 11
72.6970304791
 21
37.4069097615
  0
LINE
  5
225
100
AcDbEntity
  8
0
100
AcDbLine
 62
7
  6
CONTINUOUS
 10
79.5970304795
 20
37.4069097615
 11
80.6470304799
 21
37.4069097615
  0
LINE
  5
226
100
AcDbEntity
  8
0
100
AcDbLine
 62
7
  6
CONTINUOUS
 10
72.0470304806
 20
37.4569097615
 11
72.9220304806
 21
37.4569097615
  0
LINE
  5
227
100
AcDbEntity
  8
0
100
AcDbLine
 62
7
  6
CONTINUOUS
 10
79.5720304799
 20
37.4569097615
 11
80.4470304791
 21
37.4569097615
  0
LINE
  5
228
100
AcDbEntity
  8
0
100
AcDbLine
 62
7
  6
CONTINUOUS
 10
80.4470304806
 20
37.5172171407
 11
79.5720304799
 21
37.5172171407
  0
LINE
  5
229
100
AcDbEntity
  8
0
100
AcDbLine
 62
7
  6
CONTINUOUS
 10
72.9220304799
 20
37.5172171407
 11
72.0470304802
 21
37.5172171407
  0
LINE
  5
22A
100
AcDbEntity
  8
0
100
AcDbLine
 62
7
  6
CONTINUOUS
 10
36.1970304799
 20
38.2569097615
 11
37.7470304799
 21
38.2569097615
  0
LINE
  5
22B
100
AcDbEntity
  8
0
100
AcDbLine
 62
7
  6
CONTINUOUS
 10
54.7470304799
 20
38.2569097615
 11
56.2970304799
 21
38.2569097615
  0
LINE
  5
22C
100
AcDbEntity
  8
0
100
AcDbLine
 62
7
  6
CONTINUOUS
 10
55.9970304799
 20
38.4569097615
 11
54.2470304799
 21
38.4569097615
  0
LINE
  5
22D
100
AcDbEntity
  8
0
100
AcDbLine
 62
7
  6
CONTINUOUS
 10
38.2470304799
 20
38.4569097615
 11
36.4970304799
 21
38.4569097615
  0
LINE
  5
22E
100
AcDbEntity
  8
0
100
AcDbLine
 62
7
  6
CONTINUOUS
 10
73.8470304772
 20
38.7920996353
 11
74.2085419737
 21
38.7920996353
  0
LINE
  5
22F
100
AcDbEntity
  8
0
100
AcDbLine
 62
7
  6
CONTINUOUS
 10
78.2855189894
 20
38.7920996352
 11
78.6470306092
 21
38.7920996352
  0
LINE
  5
230
100
AcDbEntity
  8
0
100
AcDbLine
 62
7
  6
CONTINUOUS
 10
78.6470304769
 20
38.980038166
 11
77.5720304795
 21
38.980038166
  0
LINE
  5
231
100
AcDbEntity
  8
0
100
AcDbLine
 62
7
  6
CONTINUOUS
 10
74.9220304799
 20
38.9800381585
 11
73.8470304799
 21
38.9800381585
  0
LINE
  5
232
100
AcDbEntity
  8
0
100
AcDbLine
 62
7
  6
CONTINUOUS
 10
36.4970304799
 20
39.5569097621
 11
36.1970304799
 21
39.5569097621
  0
LINE
  5
233
100
AcDbEntity
  8
0
100
AcDbLine
 62
7
  6
CONTINUOUS
 10
55.9970304799
 20
39.5569097621
 11
56.2970304799
 21
39.5569097621
  0
LINE
  5
234
100
AcDbEntity
  8
0
100
AcDbLine
 62
7
  6
CONTINUOUS
 10
22.6920304799
 20
57.3569097615
 11
22.6920304799
 21
52.2569097615
  0
LINE
  5
235
100
AcDbEntity
  8
0
100
AcDbLine
 62
7
  6
CONTINUOUS
 10
22.7920304798
 20
57.4569097608
 11
22.7920304798
 21
52.1569097619
  0
LINE
  5
236
100
AcDbEntity
  8
0
100
AcDbLine
 62
7
  6
CONTINUOUS
 10
22.8670304799
 20
69.0007905758
 11
22.8670304799
 21
69.0223196891
  0
LINE
  5
237
100
AcDbEntity
  8
0
100
AcDbLine
 62
7
  6
CONTINUOUS
 10
23.9470304799
 20
69.0007512042
 11
23.9470304799
 21
69.0222955312
  0
LINE
  5
238
100
AcDbEntity
  8
0
100
AcDbLine
 62
7
  6
CONTINUOUS
 10
24.0220304803
 20
52.1569097619
 11
24.0220304803
 21
57.4569097608
  0
LINE
  5
239
100
AcDbEntity
  8
0
100
AcDbLine
 62
7
  6
CONTINUOUS
 10
24.1220304803
 20
52.2569097615
 11
24.1220304803
 21
57.3569097615
  0
LINE
  5
23A
100
AcDbEntity
  8
0
100
AcDbLine
 62
7
  6
CONTINUOUS
 10
71.6470304799
 20
40.5569097622
 11
80.6470304799
 21
40.5569097615
  0
LINE
  5
23B
100
AcDbEntity
  8
0
100
AcDbLine
 62
7
  6
CONTINUOUS
 10
36.1970304799
 20
40.7569097615
 11
56.2970304799
 21
40.7569097615
  0
LINE
  5
23C
100
AcDbEntity
  8
0
100
AcDbLine
 62
7
  6
CONTINUOUS
 10
71.6470304799
 20
40.7569097615
 11
80.6470304799
 21
40.7569097615
  0
LINE
  5
23D
100
AcDbEntity
  8
0
100
AcDbLine
 62
7
  6
CONTINUOUS
 10
27.7720304803
 20
57.3569097615
 11
27.7720304803
 21
52.2569097615
  0
LINE
  5
23E
100
AcDbEntity
  8
0
100
AcDbLine
 62
7
  6
CONTINUOUS
 10
27.8720304799
 20
57.4569097608
 11
27.8720304799
 21
52.1569097619
  0
LINE
  5
23F
100
AcDbEntity
  8
0
100
AcDbLine
 62
7
  6
CONTINUOUS
 10
27.9470304799
 20
69.0007905758
 11
27.9470304799
 21
69.0223196891
  0
LINE
  5
240
100
AcDbEntity
  8
0
100
AcDbLine
 62
7
  6
CONTINUOUS
 10
49.2470304799
 20
43.2569097615
 11
43.2470304799
 21
43.2569097615
  0
LINE
  5
241
100
AcDbEntity
  8
0
100
AcDbLine
 62
7
  6
CONTINUOUS
 10
29.0270304799
 20
69.0007512042
 11
29.0270304799
 21
69.0222955506
  0
LINE
  5
242
100
AcDbEntity
  8
0
100
AcDbLine
 62
7
  6
CONTINUOUS
 10
29.1020304803
 20
52.1569097619
 11
29.1020304803
 21
57.4569097608
  0
LINE
  5
243
100
AcDbEntity
  8
0
100
AcDbLine
 62
7
  6
CONTINUOUS
 10
29.2020304806
 20
52.2569097615
 11
29.2020304806
 21
57.3569097615
  0
LINE
  5
244
100
AcDbEntity
  8
0
100
AcDbLine
 62
7
  6
CONTINUOUS
 10
10.6470304806
 20
47.7569097615
 11
81.8470304799
 21
47.7569097615
  0
LINE
  5
245
100
AcDbEntity
  8
0
100
AcDbLine
 62
7
  6
CONTINUOUS
 10
81.8470304799
 20
48.2569097615
 11
10.6470304803
 21
48.2569097615
  0
LINE
  5
246
100
AcDbEntity
  8
0
100
AcDbLine
 62
7
  6
CONTINUOUS
 10
32.8520304806
 20
57.3569097615
 11
32.8520304806
 21
52.2569097615
  0
LINE
  5
247
100
AcDbEntity
  8
0
100
AcDbLine
 62
7
  6
CONTINUOUS
 10
32.95203048
 20
57.4569097608
 11
32.95203048
 21
52.1569097619
  0
LINE
  5
248
100
AcDbEntity
  8
0
100
AcDbLine
 62
7
  6
CONTINUOUS
 10
33.0270304799
 20
69.0007905758
 11
33.0270304799
 21
69.0223196696
  0
LINE
  5
249
100
AcDbEntity
  8
0
100
AcDbLine
 62
7
  6
CONTINUOUS
 10
34.1070304799
 20
69.0007512042
 11
34.1070304799
 21
69.0222955507
  0
LINE
  5
24A
100
AcDbEntity
  8
0
100
AcDbLine
 62
7
  6
CONTINUOUS
 10
34.1820304804
 20
52.1569097619
 11
34.1820304804
 21
57.4569097608
  0
LINE
  5
24B
100
AcDbEntity
  8
0
100
AcDbLine
 62
7
  6
CONTINUOUS
 10
34.282030481
 20
52.2569097615
 11
34.282030481
 21
57.3569097615
  0
LINE
  5
24C
100
AcDbEntity
  8
0
100
AcDbLine
 62
7
  6
CONTINUOUS
 10
73.5920304806
 20
52.1569097619
 11
69.7420304791
 21
52.1569097619
  0
LINE
  5
24D
100
AcDbEntity
  8
0
100
AcDbLine
 62
7
  6
CONTINUOUS
 10
68.5120304805
 20
52.1569097619
 11
64.662030479
 21
52.1569097619
  0
LINE
  5
24E
100
AcDbEntity
  8
0
100
AcDbLine
 62
7
  6
CONTINUOUS
 10
63.4320304804
 20
52.1569097619
 11
59.5820304808
 21
52.1569097619
  0
LINE
  5
24F
100
AcDbEntity
  8
0
100
AcDbLine
 62
7
  6
CONTINUOUS
 10
58.3520304803
 20
52.1569097619
 11
54.5020304807
 21
52.1569097619
  0
LINE
  5
250
100
AcDbEntity
  8
0
100
AcDbLine
 62
7
  6
CONTINUOUS
 10
53.2720304802
 20
52.1569097619
 11
49.4220304806
 21
52.1569097619
  0
LINE
  5
251
100
AcDbEntity
  8
0
100
AcDbLine
 62
7
  6
CONTINUOUS
 10
48.1920304802
 20
52.1569097619
 11
44.3420304805
 21
52.1569097619
  0
LINE
  5
252
100
AcDbEntity
  8
0
100
AcDbLine
 62
7
  6
CONTINUOUS
 10
43.1120304801
 20
52.1569097619
 11
39.2620304805
 21
52.1569097619
  0
LINE
  5
253
100
AcDbEntity
  8
0
100
AcDbLine
 62
7
  6
CONTINUOUS
 10
38.03203048
 20
52.1569097619
 11
34.1820304804
 21
52.1569097619
  0
LINE
  5
254
100
AcDbEntity
  8
0
100
AcDbLine
 62
7
  6
CONTINUOUS
 10
32.95203048
 20
52.1569097619
 11
29.1020304803
 21
52.1569097619
  0
LINE
  5
255
100
AcDbEntity
  8
0
100
AcDbLine
 62
7
  6
CONTINUOUS
 10
27.8720304799
 20
52.1569097619
 11
24.0220304803
 21
52.1569097619
  0
LINE
  5
256
100
AcDbEntity
  8
0
100
AcDbLine
 62
7
  6
CONTINUOUS
 10
22.7920304798
 20
52.1569097619
 11
18.9420304802
 21
52.1569097619
  0
LINE
  5
257
100
AcDbEntity
  8
0
100
AcDbLine
 62
7
  6
CONTINUOUS
 10
36.1970304799
 20
35.2569097615
 11
36.1970304799
 21
40.7569097615
  0
LINE
  5
258
100
AcDbEntity
  8
0
100
AcDbLine
 62
7
  6
CONTINUOUS
 10
36.4970304799
 20
40.7569097615
 11
36.4970304799
 21
38.4569097608
  0
LINE
  5
259
100
AcDbEntity
  8
0
100
AcDbLine
 62
7
  6
CONTINUOUS
 10
36.7470304799
 20
38.4569097615
 11
36.7470304799
 21
38.2569097615
  0
LINE
  5
25A
100
AcDbEntity
  8
0
100
AcDbLine
 62
7
  6
CONTINUOUS
 10
73.4920304836
 20
52.2569097615
 11
69.8420304848
 21
52.2569097615
  0
LINE
  5
25B
100
AcDbEntity
  8
0
100
AcDbLine
 62
7
  6
CONTINUOUS
 10
68.4120304833
 20
52.2569097615
 11
64.7620304829
 21
52.2569097615
  0
LINE
  5
25C
100
AcDbEntity
  8
0
100
AcDbLine
 62
7
  6
CONTINUOUS
 10
63.3320304829
 20
52.2569097615
 11
59.6820304828
 21
52.2569097615
  0
LINE
  5
25D
100
AcDbEntity
  8
0
100
AcDbLine
 62
7
  6
CONTINUOUS
 10
58.2520304825
 20
52.2569097615
 11
54.6020304827
 21
52.2569097615
  0
LINE
  5
25E
100
AcDbEntity
  8
0
100
AcDbLine
 62
7
  6
CONTINUOUS
 10
53.1720304821
 20
52.2569097615
 11
49.5220304826
 21
52.2569097615
  0
LINE
  5
25F
100
AcDbEntity
  8
0
100
AcDbLine
 62
7
  6
CONTINUOUS
 10
48.0920304817
 20
52.2569097615
 11
44.4420304825
 21
52.2569097615
  0
LINE
  5
260
100
AcDbEntity
  8
0
100
AcDbLine
 62
7
  6
CONTINUOUS
 10
43.0120304813
 20
52.2569097615
 11
39.3620304806
 21
52.2569097615
  0
LINE
  5
261
100
AcDbEntity
  8
0
100
AcDbLine
 62
7
  6
CONTINUOUS
 10
37.932030481
 20
52.2569097615
 11
34.2820304806
 21
52.2569097615
  0
LINE
  5
262
100
AcDbEntity
  8
0
100
AcDbLine
 62
7
  6
CONTINUOUS
 10
32.8520304806
 20
52.2569097615
 11
29.2020304805
 21
52.2569097615
  0
LINE
  5
263
100
AcDbEntity
  8
0
100
AcDbLine
 62
7
  6
CONTINUOUS
 10
27.7720304803
 20
52.2569097615
 11
24.1220304804
 21
52.2569097615
  0
LINE
  5
264
100
AcDbEntity
  8
0
100
AcDbLine
 62
7
  6
CONTINUOUS
 10
22.6920304799
 20
52.2569097615
 11
19.0420304803
 21
52.2569097615
  0
LINE
  5
265
100
AcDbEntity
  8
0
100
AcDbLine
 62
7
  6
CONTINUOUS
 10
37.7470304799
 20
38.2569097615
 11
37.7470304799
 21
35.2569097615
  0
LINE
  5
266
100
AcDbEntity
  8
0
100
AcDbLine
 62
7
  6
CONTINUOUS
 10
37.932030481
 20
57.3569097615
 11
37.932030481
 21
52.2569097615
  0
LINE
  5
267
100
AcDbEntity
  8
0
100
AcDbLine
 62
7
  6
CONTINUOUS
 10
38.03203048
 20
57.4569097608
 11
38.03203048
 21
52.1569097619
  0
LINE
  5
268
100
AcDbEntity
  8
0
100
AcDbLine
 62
7
  6
CONTINUOUS
 10
38.1070304799
 20
69.0007905758
 11
38.1070304799
 21
69.0223196696
  0
LINE
  5
269
100
AcDbEntity
  8
0
100
AcDbLine
 62
7
  6
CONTINUOUS
 10
38.2470304799
 20
40.7569097615
 11
38.2470304799
 21
35.9569097615
  0
LINE
  5
26A
100
AcDbEntity
  8
0
100
AcDbLine
 62
7
  6
CONTINUOUS
 10
39.1870304799
 20
69.0007512042
 11
39.1870304799
 21
69.0222955507
  0
LINE
  5
26B
100
AcDbEntity
  8
0
100
AcDbLine
 62
7
  6
CONTINUOUS
 10
39.2470304799
 20
35.9569097615
 11
39.2470304799
 21
40.7569097615
  0
LINE
  5
26C
100
AcDbEntity
  8
0
100
AcDbLine
 62
7
  6
CONTINUOUS
 10
39.2620304805
 20
52.1569097619
 11
39.2620304805
 21
57.4569097608
  0
LINE
  5
26D
100
AcDbEntity
  8
0
100
AcDbLine
 62
7
  6
CONTINUOUS
 10
39.3620304813
 20
52.2569097615
 11
39.3620304813
 21
57.3569097615
  0
LINE
  5
26E
100
AcDbEntity
  8
0
100
AcDbLine
 62
7
  6
CONTINUOUS
 10
19.04203048
 20
57.3569097615
 11
22.6920304803
 21
57.3569097615
  0
LINE
  5
26F
100
AcDbEntity
  8
0
100
AcDbLine
 62
7
  6
CONTINUOUS
 10
24.12203048
 20
57.3569097615
 11
27.7720304804
 21
57.3569097615
  0
LINE
  5
270
100
AcDbEntity
  8
0
100
AcDbLine
 62
7
  6
CONTINUOUS
 10
29.2020304801
 20
57.3569097615
 11
32.8520304805
 21
57.3569097615
  0
LINE
  5
271
100
AcDbEntity
  8
0
100
AcDbLine
 62
7
  6
CONTINUOUS
 10
34.2820304802
 20
57.3569097615
 11
37.9320304805
 21
57.3569097615
  0
LINE
  5
272
100
AcDbEntity
  8
0
100
AcDbLine
 62
7
  6
CONTINUOUS
 10
39.3620304821
 20
57.3569097615
 11
43.0120304806
 21
57.3569097615
  0
LINE
  5
273
100
AcDbEntity
  8
0
100
AcDbLine
 62
7
  6
CONTINUOUS
 10
44.4420304822
 20
57.3569097615
 11
48.0920304825
 21
57.3569097615
  0
LINE
  5
274
100
AcDbEntity
  8
0
100
AcDbLine
 62
7
  6
CONTINUOUS
 10
49.5220304822
 20
57.3569097615
 11
53.1720304826
 21
57.3569097615
  0
LINE
  5
275
100
AcDbEntity
  8
0
100
AcDbLine
 62
7
  6
CONTINUOUS
 10
54.6020304823
 20
57.3569097615
 11
58.2520304827
 21
57.3569097615
  0
LINE
  5
276
100
AcDbEntity
  8
0
100
AcDbLine
 62
7
  6
CONTINUOUS
 10
59.6820304824
 20
57.3569097615
 11
63.3320304828
 21
57.3569097615
  0
LINE
  5
277
100
AcDbEntity
  8
0
100
AcDbLine
 62
7
  6
CONTINUOUS
 10
64.7620304825
 20
57.3569097615
 11
68.4120304829
 21
57.3569097615
  0
LINE
  5
278
100
AcDbEntity
  8
0
100
AcDbLine
 62
7
  6
CONTINUOUS
 10
69.8420304844
 20
57.3569097615
 11
73.492030483
 21
57.3569097615
  0
LINE
  5
279
100
AcDbEntity
  8
0
100
AcDbLine
 62
7
  6
CONTINUOUS
 10
18.9420304802
 20
57.4569097608
 11
22.7920304798
 21
57.4569097608
  0
LINE
  5
27A
100
AcDbEntity
  8
0
100
AcDbLine
 62
7
  6
CONTINUOUS
 10
24.0220304803
 20
57.4569097608
 11
27.8720304799
 21
57.4569097608
  0
LINE
  5
27B
100
AcDbEntity
  8
0
100
AcDbLine
 62
7
  6
CONTINUOUS
 10
29.1020304803
 20
57.4569097608
 11
32.95203048
 21
57.4569097608
  0
LINE
  5
27C
100
AcDbEntity
  8
0
100
AcDbLine
 62
7
  6
CONTINUOUS
 10
34.1820304804
 20
57.4569097608
 11
38.03203048
 21
57.4569097608
  0
LINE
  5
27D
100
AcDbEntity
  8
0
100
AcDbLine
 62
7
  6
CONTINUOUS
 10
39.2620304805
 20
57.4569097608
 11
43.1120304801
 21
57.4569097608
  0
LINE
  5
27E
100
AcDbEntity
  8
0
100
AcDbLine
 62
7
  6
CONTINUOUS
 10
44.3420304805
 20
57.4569097608
 11
48.1920304802
 21
57.4569097608
  0
LINE
  5
27F
100
AcDbEntity
  8
0
100
AcDbLine
 62
7
  6
CONTINUOUS
 10
49.4220304806
 20
57.4569097608
 11
53.2720304802
 21
57.4569097608
  0
LINE
  5
280
100
AcDbEntity
  8
0
100
AcDbLine
 62
7
  6
CONTINUOUS
 10
54.5020304807
 20
57.4569097608
 11
58.3520304803
 21
57.4569097608
  0
LINE
  5
281
100
AcDbEntity
  8
0
100
AcDbLine
 62
7
  6
CONTINUOUS
 10
59.5820304808
 20
57.4569097608
 11
63.4320304804
 21
57.4569097608
  0
LINE
  5
282
100
AcDbEntity
  8
0
100
AcDbLine
 62
7
  6
CONTINUOUS
 10
64.662030479
 20
57.4569097608
 11
68.5120304805
 21
57.4569097608
  0
LINE
  5
283
100
AcDbEntity
  8
0
100
AcDbLine
 62
7
  6
CONTINUOUS
 10
69.7420304791
 20
57.4569097608
 11
73.5920304806
 21
57.4569097608
  0
LINE
  5
284
100
AcDbEntity
  8
0
100
AcDbLine
 62
7
  6
CONTINUOUS
 10
43.0120304813
 20
57.3569097615
 11
43.0120304813
 21
52.2569097615
  0
LINE
  5
285
100
AcDbEntity
  8
0
100
AcDbLine
 62
7
  6
CONTINUOUS
 10
43.1120304801
 20
57.4569097608
 11
43.1120304801
 21
52.1569097619
  0
LINE
  5
286
100
AcDbEntity
  8
0
100
AcDbLine
 62
7
  6
CONTINUOUS
 10
43.1870304799
 20
69.0007905759
 11
43.1870304799
 21
69.0223196696
  0
LINE
  5
287
100
AcDbEntity
  8
0
100
AcDbLine
 62
7
  6
CONTINUOUS
 10
43.2470304799
 20
40.7569097615
 11
43.2470304799
 21
43.2569097615
  0
LINE
  5
288
100
AcDbEntity
  8
0
100
AcDbLine
 62
7
  6
CONTINUOUS
 10
44.2670304799
 20
69.0007512042
 11
44.2670304799
 21
69.0222955506
  0
LINE
  5
289
100
AcDbEntity
  8
0
100
AcDbLine
 62
7
  6
CONTINUOUS
 10
44.3420304805
 20
52.1569097619
 11
44.3420304805
 21
57.4569097608
  0
LINE
  5
28A
100
AcDbEntity
  8
0
100
AcDbLine
 62
7
  6
CONTINUOUS
 10
44.4420304817
 20
52.2569097615
 11
44.4420304817
 21
57.3569097615
  0
LINE
  5
28B
100
AcDbEntity
  8
0
100
AcDbLine
 62
7
  6
CONTINUOUS
 10
48.0920304817
 20
57.3569097615
 11
48.0920304817
 21
52.2569097615
  0
LINE
  5
28C
100
AcDbEntity
  8
0
100
AcDbLine
 62
7
  6
CONTINUOUS
 10
48.1920304802
 20
57.4569097608
 11
48.1920304802
 21
52.1569097619
  0
LINE
  5
28D
100
AcDbEntity
  8
0
100
AcDbLine
 62
7
  6
CONTINUOUS
 10
48.2670304799
 20
69.0007905758
 11
48.2670304799
 21
69.0223196696
  0
LINE
  5
28E
100
AcDbEntity
  8
0
100
AcDbLine
 62
7
  6
CONTINUOUS
 10
49.2470304799
 20
40.7569097615
 11
49.2470304799
 21
43.2569097615
  0
LINE
  5
28F
100
AcDbEntity
  8
0
100
AcDbLine
 62
7
  6
CONTINUOUS
 10
49.3470304799
 20
69.0007512042
 11
49.3470304799
 21
69.0222955506
  0
LINE
  5
290
100
AcDbEntity
  8
0
100
AcDbLine
 62
7
  6
CONTINUOUS
 10
49.4220304806
 20
52.1569097619
 11
49.4220304806
 21
57.4569097608
  0
LINE
  5
291
100
AcDbEntity
  8
0
100
AcDbLine
 62
7
  6
CONTINUOUS
 10
49.5220304821
 20
52.2569097615
 11
49.5220304821
 21
57.3569097615
  0
LINE
  5
292
100
AcDbEntity
  8
0
100
AcDbLine
 62
7
  6
CONTINUOUS
 10
10.6470304799
 20
68.1292120579
 11
81.8470304799
 21
68.1292120574
  0
LINE
  5
293
100
AcDbEntity
  8
0
100
AcDbLine
 62
7
  6
CONTINUOUS
 10
81.1970304799
 20
68.7788160954
 11
11.2970304806
 21
68.7788160954
  0
LINE
  5
294
100
AcDbEntity
  8
0
100
AcDbLine
 62
7
  6
CONTINUOUS
 10
81.1970304799
 20
69.1410382259
 11
11.2970304806
 21
69.1410382259
  0
LINE
  5
295
100
AcDbEntity
  8
0
100
AcDbLine
 62
7
  6
CONTINUOUS
 10
53.1720304821
 20
57.3569097615
 11
53.1720304821
 21
52.2569097615
  0
LINE
  5
296
100
AcDbEntity
  8
0
100
AcDbLine
 62
7
  6
CONTINUOUS
 10
53.2470304799
 20
40.7569097615
 11
53.2470304799
 21
35.9569097615
  0
LINE
  5
297
100
AcDbEntity
  8
0
100
AcDbLine
 62
7
  6
CONTINUOUS
 10
53.2720304802
 20
57.4569097608
 11
53.2720304802
 21
52.1569097619
  0
LINE
  5
298
100
AcDbEntity
  8
0
100
AcDbLine
 62
7
  6
CONTINUOUS
 10
53.3470304799
 20
69.0007905758
 11
53.3470304799
 21
69.0223196696
  0
LINE
  5
299
100
AcDbEntity
  8
0
100
AcDbLine
 62
7
  6
CONTINUOUS
 10
54.2470304799
 20
35.9569097615
 11
54.2470304799
 21
40.7569097615
  0
LINE
  5
29A
100
AcDbEntity
  8
0
100
AcDbLine
 62
7
  6
CONTINUOUS
 10
54.4270304799
 20
69.0007512042
 11
54.4270304799
 21
69.0222955506
  0
LINE
  5
29B
100
AcDbEntity
  8
0
100
AcDbLine
 62
7
  6
CONTINUOUS
 10
54.5020304807
 20
52.1569097619
 11
54.5020304807
 21
57.4569097608
  0
LINE
  5
29C
100
AcDbEntity
  8
0
100
AcDbLine
 62
7
  6
CONTINUOUS
 10
54.6020304825
 20
52.2569097615
 11
54.6020304825
 21
57.3569097615
  0
LINE
  5
29D
100
AcDbEntity
  8
0
100
AcDbLine
 62
7
  6
CONTINUOUS
 10
54.7470304791
 20
38.2569097615
 11
54.7470304791
 21
35.2569097615
  0
LINE
  5
29E
100
AcDbEntity
  8
0
100
AcDbLine
 62
7
  6
CONTINUOUS
 10
55.7470304799
 20
38.2569097615
 11
55.7470304799
 21
38.4569097615
  0
LINE
  5
29F
100
AcDbEntity
  8
0
100
AcDbLine
 62
7
  6
CONTINUOUS
 10
55.9970304799
 20
38.4569097608
 11
55.9970304799
 21
40.7569097615
  0
LINE
  5
2A0
100
AcDbEntity
  8
0
100
AcDbLine
 62
7
  6
CONTINUOUS
 10
56.2970304799
 20
35.2569097615
 11
56.2970304799
 21
40.7569097615
  0
LINE
  5
2A1
100
AcDbEntity
  8
0
100
AcDbLine
 62
7
  6
CONTINUOUS
 10
58.2520304825
 20
57.3569097615
 11
58.2520304825
 21
52.2569097615
  0
LINE
  5
2A2
100
AcDbEntity
  8
0
100
AcDbLine
 62
7
  6
CONTINUOUS
 10
58.3520304803
 20
57.4569097608
 11
58.3520304803
 21
52.1569097619
  0
LINE
  5
2A3
100
AcDbEntity
  8
0
100
AcDbLine
 62
7
  6
CONTINUOUS
 10
58.4270304799
 20
69.0007905759
 11
58.4270304799
 21
69.0223196696
  0
LINE
  5
2A4
100
AcDbEntity
  8
0
100
AcDbLine
 62
7
  6
CONTINUOUS
 10
59.5070304799
 20
69.0007512042
 11
59.5070304799
 21
69.0222955307
  0
LINE
  5
2A5
100
AcDbEntity
  8
0
100
AcDbLine
 62
7
  6
CONTINUOUS
 10
59.5820304808
 20
52.1569097619
 11
59.5820304808
 21
57.4569097608
  0
LINE
  5
2A6
100
AcDbEntity
  8
0
100
AcDbLine
 62
7
  6
CONTINUOUS
 10
59.6820304829
 20
52.2569097615
 11
59.6820304829
 21
57.3569097615
  0
LINE
  5
2A7
100
AcDbEntity
  8
0
100
AcDbLine
 62
7
  6
CONTINUOUS
 10
63.3320304829
 20
57.3569097615
 11
63.3320304829
 21
52.2569097615
  0
LINE
  5
2A8
100
AcDbEntity
  8
0
100
AcDbLine
 62
7
  6
CONTINUOUS
 10
63.4320304804
 20
57.4569097608
 11
63.4320304804
 21
52.1569097619
  0
LINE
  5
2A9
100
AcDbEntity
  8
0
100
AcDbLine
 62
7
  6
CONTINUOUS
 10
63.5070304799
 20
69.0007905758
 11
63.5070304799
 21
69.0223196891
  0
LINE
  5
2AA
100
AcDbEntity
  8
0
100
AcDbLine
 62
7
  6
CONTINUOUS
 10
64.5870304799
 20
69.0007512042
 11
64.5870304799
 21
69.0222955501
  0
LINE
  5
2AB
100
AcDbEntity
  8
0
100
AcDbLine
 62
7
  6
CONTINUOUS
 10
64.662030479
 20
52.1569097619
 11
64.662030479
 21
57.4569097608
  0
LINE
  5
2AC
100
AcDbEntity
  8
0
100
AcDbLine
 62
7
  6
CONTINUOUS
 10
64.7620304833
 20
52.2569097615
 11
64.7620304833
 21
57.3569097615
  0
LINE
  5
2AD
100
AcDbEntity
  8
0
100
AcDbLine
 62
7
  6
CONTINUOUS
 10
10.6470304799
 20
84.0069097604
 11
81.8470304799
 21
84.0069097618
  0
LINE
  5
2AE
100
AcDbEntity
  8
0
100
AcDbLine
 62
7
  6
CONTINUOUS
 10
81.1970304799
 20
84.6569097615
 11
11.2970304806
 21
84.6569097615
  0
LINE
  5
2AF
100
AcDbEntity
  8
0
100
AcDbLine
 62
7
  6
CONTINUOUS
 10
68.4120304833
 20
57.3569097615
 11
68.4120304833
 21
52.2569097615
  0
LINE
  5
2B0
100
AcDbEntity
  8
0
100
AcDbLine
 62
7
  6
CONTINUOUS
 10
68.5120304805
 20
57.4569097608
 11
68.5120304805
 21
52.1569097619
  0
LINE
  5
2B1
100
AcDbEntity
  8
0
100
AcDbLine
 62
7
  6
CONTINUOUS
 10
68.5870304799
 20
69.0007905758
 11
68.5870304799
 21
69.0223196696
  0
LINE
  5
2B2
100
AcDbEntity
  8
0
100
AcDbLine
 62
7
  6
CONTINUOUS
 10
69.6670304799
 20
69.0007512042
 11
69.6670304799
 21
69.0222955506
  0
LINE
  5
2B3
100
AcDbEntity
  8
0
100
AcDbLine
 62
7
  6
CONTINUOUS
 10
69.7420304791
 20
52.1569097619
 11
69.7420304791
 21
57.4569097608
  0
LINE
  5
2B4
100
AcDbEntity
  8
0
100
AcDbLine
 62
7
  6
CONTINUOUS
 10
69.8420304836
 20
52.2569097615
 11
69.8420304836
 21
57.3569097615
  0
LINE
  5
2B5
100
AcDbEntity
  8
0
100
AcDbLine
 62
7
  6
CONTINUOUS
 10
71.6470304799
 20
35.2569097615
 11
71.6470304799
 21
40.7569097615
  0
LINE
  5
2B6
100
AcDbEntity
  8
0
100
AcDbLine
 62
7
  6
CONTINUOUS
 10
71.8470304799
 20
37.6569097615
 11
71.8470304799
 21
40.5569097622
  0
LINE
  5
2B7
100
AcDbEntity
  8
0
100
AcDbLine
 62
7
  6
CONTINUOUS
 10
72.0470304805
 20
37.4569097615
 11
72.0470305324
 21
38.1369532138
  0
LINE
  5
2B8
100
AcDbEntity
  8
0
100
AcDbLine
 62
7
  6
CONTINUOUS
 10
72.6970304799
 20
37.4069097615
 11
72.6970304799
 21
35.2569097615
  0
LINE
  5
2B9
100
AcDbEntity
  8
0
100
AcDbLine
 62
7
  6
CONTINUOUS
 10
72.9220304799
 20
38.1120561826
 11
72.9220304799
 21
35.9569097608
  0
LINE
  5
2BA
100
AcDbEntity
  8
0
100
AcDbLine
 62
7
  6
CONTINUOUS
 10
73.4920304836
 20
57.3569097615
 11
73.4920304836
 21
52.2569097615
  0
LINE
  5
2BB
100
AcDbEntity
  8
0
100
AcDbLine
 62
7
  6
CONTINUOUS
 10
73.5920304806
 20
57.4569097608
 11
73.5920304806
 21
52.1569097619
  0
LINE
  5
2BC
100
AcDbEntity
  8
0
100
AcDbLine
 62
7
  6
CONTINUOUS
 10
73.6670304799
 20
69.0007905758
 11
73.6670304799
 21
69.0223196696
  0
LINE
  5
2BD
100
AcDbEntity
  8
0
100
AcDbLine
 62
7
  6
CONTINUOUS
 10
73.8470304776
 20
38.7920996352
 11
73.8470316201
 21
40.7569097615
  0
LINE
  5
2BE
100
AcDbEntity
  8
0
100
AcDbLine
 62
7
  6
CONTINUOUS
 10
10.6470304799
 20
88.9192851677
 11
11.2970304799
 21
88.9192851677
  0
LINE
  5
2BF
100
AcDbEntity
  8
0
100
AcDbLine
 62
7
  6
CONTINUOUS
 10
81.1970304799
 20
88.9192851672
 11
81.8470304799
 21
88.9192851672
  0
LINE
  5
2C0
100
AcDbEntity
  8
0
100
AcDbLine
 62
7
  6
CONTINUOUS
 10
74.9220303496
 20
35.7569097615
 11
74.9220304799
 21
38.9800381585
  0
LINE
  5
2C1
100
AcDbEntity
  8
0
100
AcDbLine
 62
7
  6
CONTINUOUS
 10
81.310988343
 20
89.5592176682
 11
81.1970304799
 21
88.9192851675
  0
LINE
  5
2C2
100
AcDbEntity
  8
0
100
AcDbLine
 62
7
  6
CONTINUOUS
 10
77.5720304795
 20
38.980038166
 11
77.5720304799
 21
35.7569097615
  0
LINE
  5
2C3
100
AcDbEntity
  8
0
100
AcDbLine
 62
7
  6
CONTINUOUS
 10
78.6470304225
 20
38.7920996352
 11
78.6470304791
 21
40.7569097615
  0
LINE
  5
2C4
100
AcDbEntity
  8
0
100
AcDbLine
 62
7
  6
CONTINUOUS
 10
79.5720304799
 20
35.9569097615
 11
79.5720304799
 21
38.1120561828
  0
LINE
  5
2C5
100
AcDbEntity
  8
0
100
AcDbLine
 62
7
  6
CONTINUOUS
 10
79.5970304803
 20
37.4069097615
 11
79.5970304803
 21
35.2569097615
  0
LINE
  5
2C6
100
AcDbEntity
  8
0
100
AcDbLine
 62
7
  6
CONTINUOUS
 10
80.4470304899
 20
38.1369532285
 11
80.4470304795
 21
37.4069097615
  0
LINE
  5
2C7
100
AcDbEntity
  8
0
100
AcDbLine
 62
7
  6
CONTINUOUS
 10
80.6470304799
 20
35.2569097615
 11
80.6470304799
 21
40.7569097615
  0
LINE
  5
2C8
100
AcDbEntity
  8
0
100
AcDbLine
 62
7
  6
CONTINUOUS
 10
81.0470304799
 20
48.2569097615
 11
81.0470304799
 21
47.7569097615
  0
LINE
  5
2C9
100
AcDbEntity
  8
0
100
AcDbLine
 62
7
  6
CONTINUOUS
 10
81.1470304799
 20
47.7569097615
 11
81.1470304799
 21
48.2569097615
  0
LINE
  5
2CA
100
AcDbEntity
  8
0
100
AcDbLine
 62
7
  6
CONTINUOUS
 10
81.1970304799
 20
88.9192851665
 11
81.1970304799
 21
48.2569097615
  0
LINE
  5
2CB
100
AcDbEntity
  8
0
100
AcDbLine
 62
7
  6
CONTINUOUS
 10
81.1970304792
 20
47.7569097615
 11
81.1970304792
 21
35.2569097615
  0
LINE
  5
2CC
100
AcDbEntity
  8
0
100
AcDbLine
 62
7
  6
CONTINUOUS
 10
81.8470304799
 20
35.2569097615
 11
81.8470304799
 21
88.9192851669
  0
ARC
  5
2CD
100
AcDbEntity
  8
0
100
AcDbCircle
 62
7
  6
CONTINUOUS
 10
46.2470304799
 20
-107.3430902385
 40
200.0
100
AcDbArc
 50
79.9027315989
 51
100.0972684011
  0
ARC
  5
2CE
100
AcDbEntity
  8
0
100
AcDbCircle
 62
7
  6
CONTINUOUS
 10
46.2470304799
 20
-107.3430902385
 40
199.3499780382
100
AcDbArc
 50
79.9027315988
 51
100.097268401
  0
ARC
  5
2CF
100
AcDbEntity
  8
0
100
AcDbCircle
 62
7
  6
CONTINUOUS
 10
11.2970304799
 20
84.0069097615
 40
0.65
100
AcDbArc
 50
90.0
 51
180.0
  0
ARC
  5
2D0
100
AcDbEntity
  8
0
100
AcDbCircle
 62
7
  6
CONTINUOUS
 10
81.1970304799
 20
84.0069097615
 40
0.65
100
AcDbArc
 50
0.0
 51
90.0
  0
ARC
  5
2D1
100
AcDbEntity
  8
0
100
AcDbCircle
 62
7
  6
CONTINUOUS
 10
11.2970304799
 20
88.9192851675
 40
0.65
100
AcDbArc
 50
100.097268405
 51
180.0
  0
ARC
  5
2D2
100
AcDbEntity
  8
0
100
AcDbCircle
 62
7
  6
CONTINUOUS
 10
81.1970304799
 20
88.9192851675
 40
0.65
100
AcDbArc
 50
0.0
 51
79.902731595
  0
ARC
  5
2D3
100
AcDbEntity
  8
0
100
AcDbCircle
 62
7
  6
CONTINUOUS
 10
11.2968188046
 20
68.1290002714
 40
0.6498021093
100
AcDbArc
 50
89.9813361017
 51
179.9813255685
  0
ARC
  5
2D4
100
AcDbEntity
  8
0
100
AcDbCircle
 62
7
  6
CONTINUOUS
 10
81.1972421551
 20
68.1290002714
 40
0.6498021093
100
AcDbArc
 50
0.0186744971
 51
90.0186638983
  0
ARC
  5
2D5
100
AcDbEntity
  8
0
100
AcDbCircle
 62
7
  6
CONTINUOUS
 10
72.0470304799
 20
37.6569097615
 40
0.2
100
AcDbArc
 50
180.0
 51
270.0000002149
  0
ARC
  5
2D6
100
AcDbEntity
  8
0
100
AcDbCircle
 62
7
  6
CONTINUOUS
 10
79.3720304799
 20
35.9569097615
 40
0.2
100
AcDbArc
 50
270.0
 51
360.0
  0
ARC
  5
2D7
100
AcDbEntity
  8
0
100
AcDbCircle
 62
7
  6
CONTINUOUS
 10
73.1220304799
 20
35.9569097615
 40
0.2
100
AcDbArc
 50
180.0000002149
 51
270.0
  0
ARC
  5
2D8
100
AcDbEntity
  8
0
100
AcDbCircle
 62
7
  6
CONTINUOUS
 10
80.4470304799
 20
40.5569097615
 40
0.2
100
AcDbArc
 50
30.0000000716
 51
60.0000001432
  0
ARC
  5
2D9
100
AcDbEntity
  8
0
100
AcDbCircle
 62
7
  6
CONTINUOUS
 10
72.0470304799
 20
40.5569097615
 40
0.2
100
AcDbArc
 50
90.0
 51
179.9999997866
  0
ARC
  5
2DA
100
AcDbEntity
  8
0
100
AcDbCircle
 62
7
  6
CONTINUOUS
 10
80.4470304799
 20
37.6569097615
 40
0.2
100
AcDbArc
 50
269.9999997851
 51
360.0
  0
SPLINE
  5
2DB
100
AcDbEntity
  8
0
100
AcDbSpline
 62
7
  6
CONTINUOUS
 70
0
 71
3
 72
11
 73
7
 74
0
 42
0.0000001
 43
0.0000001
 44
0.0000000001
 40
0.0
 40
0.0
 40
0.0
 40
0.0
 40
0.2427725304
 40
0.4898569618
 40
0.7428736497
 40
1.0
 40
1.0
 40
1.0
 40
1.0
 10
71.847030537
 20
38.3248916974
 30
0.0
 10
71.8470305297
 20
38.3003908835
 30
0.0
 10
71.8576981519
 20
38.2503672142
 30
0.0
 10
71.9027106547
 20
38.1879645792
 30
0.0
 10
71.9690781262
 20
38.1465506649
 30
0.0
 10
72.0210810661
 20
38.1369531364
 30
0.0
 10
72.0470304799
 20
38.1369531313
 30
0.0
  0
SPLINE
  5
2DC
100
AcDbEntity
  8
0
100
AcDbSpline
 62
7
  6
CONTINUOUS
 70
0
 71
3
 72
20
 73
16
 74
0
 42
0.0000001
 43
0.0000001
 44
0.0000000001
 40
0.0
 40
0.0
 40
0.0
 40
0.0
 40
0.030997478
 40
0.0637893955
 40
0.0998576708
 40
0.1402895613
 40
0.1857909708
 40
0.2366828506
 40
0.2930749264
 40
0.354958583
 40
0.4221808737
 40
0.4943885957
 40
0.6517993305
 40
0.8223963835
 40
1.0
 40
1.0
 40
1.0
 40
1.0
 10
80.4469934954
 20
38.1369532318
 30
0.0
 10
80.4469937439
 20
38.1579647393
 30
0.0
 10
80.4410931884
 20
38.2013882298
 30
0.0
 10
80.4153100584
 20
38.2646009954
 30
0.0
 10
80.373234965
 20
38.326132664
 30
0.0
 10
80.3153256743
 20
38.3856191411
 30
0.0
 10
80.2419618409
 20
38.4427339572
 30
0.0
 10
80.1536787888
 20
38.4971911494
 30
0.0
 10
80.0510097671
 20
38.5485431714
 30
0.0
 10
79.9345719403
 20
38.596266475
 30
0.0
 10
79.8051714256
 20
38.6398455218
 30
0.0
 10
79.6111187139
 20
38.6933599626
 30
0.0
 10
79.3444689562
 20
38.7455330115
 30
0.0
 10
79.003547829
 20
38.7835433605
 30
0.0
 10
78.7674184593
 20
38.7920898069
 30
0.0
 10
78.6470306092
 20
38.7920898023
 30
0.0
  0
SPLINE
  5
2DD
100
AcDbEntity
  8
0
100
AcDbSpline
 62
7
  6
CONTINUOUS
 70
0
 71
3
 72
10
 73
6
 74
0
 42
0.0000001
 43
0.0000001
 44
0.0000000001
 40
0.0
 40
0.0
 40
0.0
 40
0.0
 40
0.2427736173
 40
0.4918988667
 40
1.0
 40
1.0
 40
1.0
 40
1.0
 10
78.2855181148
 20
38.7920996345
 30
0.0
 10
78.2263124437
 20
38.8003285901
 30
0.0
 10
78.1071538533
 20
38.8229125131
 30
0.0
 10
77.8687388744
 20
38.8847795579
 30
0.0
 10
77.6913112657
 20
38.9423182624
 30
0.0
 10
77.5720304795
 20
38.980038159
 30
0.0
  0
SPLINE
  5
2DE
100
AcDbEntity
  8
0
100
AcDbSpline
 62
7
  6
CONTINUOUS
 70
0
 71
3
 72
18
 73
14
 74
0
 42
0.0000001
 43
0.0000001
 44
0.0000000001
 40
0.0
 40
0.0
 40
0.0
 40
0.0
 40
0.0349014339
 40
0.0710589314
 40
0.1095432335
 40
0.1512372095
 40
0.1968148817
 40
0.2467504183
 40
0.3606683407
 40
0.4940757035
 40
0.6464084867
 40
0.8159687787
 40
1.0
 40
1.0
 40
1.0
 40
1.0
 10
79.5720304799
 20
38.1120561832
 30
0.0
 10
79.5720304799
 20
38.1300202673
 30
0.0
 10
79.5682385764
 20
38.1666942253
 30
0.0
 10
79.5514307922
 20
38.2208477104
 30
0.0
 10
79.5236644912
 20
38.2742181307
 30
0.0
 10
79.4851777112
 20
38.3265277156
 30
0.0
 10
79.4361765532
 20
38.3776168355
 30
0.0
 10
79.3533608221
 20
38.4468923303
 30
0.0
 10
79.2226720386
 20
38.5278435785
 30
0.0
 10
79.034767669
 20
38.6124982347
 30
0.0
 10
78.8121248233
 20
38.6867193207
 30
0.0
 10
78.5589082364
 20
38.7484708827
 30
0.0
 10
78.3793396458
 20
38.7790595665
 30
0.0
 10
78.2855189894
 20
38.7920996352
 30
0.0
  0
SPLINE
  5
2DF
100
AcDbEntity
  8
0
100
AcDbSpline
 62
7
  6
CONTINUOUS
 70
0
 71
3
 72
11
 73
7
 74
0
 42
0.0000001
 43
0.0000001
 44
0.0000000001
 40
0.0
 40
0.0
 40
0.0
 40
0.0
 40
0.2571682184
 40
0.5101497027
 40
0.757191297
 40
1.0
 40
1.0
 40
1.0
 40
1.0
 10
72.0470304799
 20
37.5172171711
 30
0.0
 10
72.0210733834
 20
37.5172171711
 30
0.0
 10
71.9690629204
 20
37.5267938292
 30
0.0
 10
71.9026649432
 20
37.5681832112
 30
0.0
 10
71.8576743748
 20
37.6306173596
 30
0.0
 10
71.8470304851
 20
37.6806479291
 30
0.0
 10
71.8470304799
 20
37.7051556578
 30
0.0
  0
SPLINE
  5
2E0
100
AcDbEntity
  8
0
100
AcDbSpline
 62
7
  6
CONTINUOUS
 70
0
 71
3
 72
20
 73
16
 74
0
 42
0.0000001
 43
0.0000001
 44
0.0000000001
 40
0.0
 40
0.0
 40
0.0
 40
0.0
 40
0.0284478281
 40
0.0589552429
 40
0.09316942
 40
0.1322325825
 40
0.1768028843
 40
0.2271731378
 40
0.2834490009
 40
0.3455834691
 40
0.4133208053
 40
0.4863114081
 40
0.6459096969
 40
0.8192905081
 40
1.0
 40
1.0
 40
1.0
 40
1.0
 10
71.8470305384
 20
38.3248694095
 30
0.0
 10
71.847030768
 20
38.3459239346
 30
0.0
 10
71.8536973661
 20
38.3897747729
 30
0.0
 10
71.8825917989
 20
38.4531386278
 30
0.0
 10
71.9294917788
 20
38.5146074123
 30
0.0
 10
71.9938797804
 20
38.5739325818
 30
0.0
 10
72.0753061677
 20
38.6309472048
 30
0.0
 10
72.1732992649
 20
38.6853390842
 30
0.0
 10
72.2873340655
 20
38.7366256757
 30
0.0
 10
72.4167007792
 20
38.7842724466
 30
0.0
 10
72.5604572959
 20
38.8278483777
 30
0.0
 10
72.776271816
 20
38.8813718966
 30
0.0
 10
73.0725631618
 20
38.9335179529
 30
0.0
 10
73.4511268723
 20
38.9714843274
 30
0.0
 10
73.7132855582
 20
38.9800199592
 30
0.0
 10
73.8470304799
 20
38.9800199606
 30
0.0
  0
SPLINE
  5
2E1
100
AcDbEntity
  8
0
100
AcDbSpline
 62
7
  6
CONTINUOUS
 70
0
 71
3
 72
17
 73
13
 74
0
 42
0.0000001
 43
0.0000001
 44
0.0000000001
 40
0.0
 40
0.0
 40
0.0
 40
0.0
 40
0.0349002757
 40
0.0710411729
 40
0.1094947206
 40
0.1511568739
 40
0.2465364292
 40
0.3605906786
 40
0.4941463942
 40
0.646523409
 40
0.8160271809
 40
1.0
 40
1.0
 40
1.0
 40
1.0
 10
72.9220304799
 20
38.1120561832
 30
0.0
 10
72.9220304799
 20
38.1300185244
 30
0.0
 10
72.925784579
 20
38.1666804557
 30
0.0
 10
72.9424772885
 20
38.2208375268
 30
0.0
 10
72.9701130225
 20
38.274227755
 30
0.0
 10
73.0237371246
 20
38.3472831829
 30
0.0
 10
73.1205902356
 20
38.4346788938
 30
0.0
 10
73.2712580072
 20
38.5277575668
 30
0.0
 10
73.4594556814
 20
38.6123476075
 30
0.0
 10
73.6821295072
 20
38.6865430332
 30
0.0
 10
73.9352762868
 20
38.7483822178
 30
0.0
 10
74.1147570789
 20
38.7790645371
 30
0.0
 10
74.2085419737
 20
38.7920996353
 30
0.0
  0
SPLINE
  5
2E2
100
AcDbEntity
  8
0
100
AcDbSpline
 62
7
  6
CONTINUOUS
 70
0
 71
3
 72
19
 73
15
 74
0
 42
0.0000001
 43
0.0000001
 44
0.0000000001
 40
0.0
 40
0.0
 40
0.0
 40
0.0
 40
0.1776075653
 40
0.3481965737
 40
0.5056108821
 40
0.6450037816
 40
0.7069259225
 40
0.7633265842
 40
0.8141990823
 40
0.859691347
 40
0.9001364121
 40
0.9362083429
 40
0.9690001919
 40
1.0
 40
1.0
 40
1.0
 40
1.0
 10
73.8470304772
 20
38.7920840386
 30
0.0
 10
73.7266474028
 20
38.7920840371
 30
0.0
 10
73.4905445714
 20
38.783535687
 30
0.0
 10
73.1496061454
 20
38.7455367454
 30
0.0
 10
72.8383427248
 20
38.6845662369
 30
0.0
 10
72.604821218
 20
38.6147762832
 30
0.0
 10
72.4430341558
 20
38.5485630475
 30
0.0
 10
72.3403489609
 20
38.4972112896
 30
0.0
 10
72.2521002853
 20
38.442733983
 30
0.0
 10
72.178774519
 20
38.3856007846
 30
0.0
 10
72.1208390861
 20
38.3261411062
 30
0.0
 10
72.0787547869
 20
38.2646049506
 30
0.0
 10
72.0529811143
 20
38.2013877758
 30
0.0
 10
72.0470887705
 20
38.1579650084
 30
0.0
 10
72.0470891809
 20
38.1369532221
 30
0.0
  0
SPLINE
  5
2E3
100
AcDbEntity
  8
0
100
AcDbSpline
 62
7
  6
CONTINUOUS
 70
0
 71
3
 72
10
 73
6
 74
0
 42
0.0000001
 43
0.0000001
 44
0.0000000001
 40
0.0
 40
0.0
 40
0.0
 40
0.0
 40
0.5081011267
 40
0.7572263797
 40
1.0
 40
1.0
 40
1.0
 40
1.0
 10
74.9220304799
 20
38.9800381589
 30
0.0
 10
74.8027496952
 20
38.9423182628
 30
0.0
 10
74.6253220869
 20
38.8847795602
 30
0.0
 10
74.386907109
 20
38.8229125118
 30
0.0
 10
74.2677485168
 20
38.8003285902
 30
0.0
 10
74.2085428449
 20
38.7920996345
 30
0.0
  0
SPLINE
  5
2E4
100
AcDbEntity
  8
0
100
AcDbSpline
 62
7
  6
CONTINUOUS
 70
0
 71
3
 72
20
 73
16
 74
0
 42
0.0000001
 43
0.0000001
 44
0.0000000001
 40
0.0
 40
0.0
 40
0.0
 40
0.0
 40
0.1807156303
 40
0.3541143875
 40
0.5137179326
 40
0.586699585
 40
0.6544350585
 40
0.7165332312
 40
0.772803326
 40
0.8231968078
 40
0.8677795221
 40
0.9068310046
 40
0.9410432401
 40
0.9715526437
 40
1.0
 40
1.0
 40
1.0
 40
1.0
 10
78.6470304787
 20
38.9800191643
 30
0.0
 10
78.7807793655
 20
38.9800191733
 30
0.0
 10
79.0429549548
 20
38.97148347
 30
0.0
 10
79.4215378065
 20
38.9335146589
 30
0.0
 10
79.7178418925
 20
38.8813799672
 30
0.0
 10
79.9336450177
 20
38.8278340334
 30
0.0
 10
80.0773730872
 20
38.7842848249
 30
0.0
 10
80.2066926232
 20
38.7366042573
 30
0.0
 10
80.3207080671
 20
38.6853130868
 30
0.0
 10
80.418736221
 20
38.6309432619
 30
0.0
 10
80.5002017429
 20
38.5739495968
 30
0.0
 10
80.5645629796
 20
38.5145956665
 30
0.0
 10
80.6114510111
 20
38.4531318267
 30
0.0
 10
80.6403547281
 20
38.3897739064
 30
0.0
 10
80.6470302359
 20
38.3459226442
 30
0.0
 10
80.6470304899
 20
38.3248685592
 30
0.0
  0
SPLINE
  5
2E5
100
AcDbEntity
  8
0
100
AcDbSpline
 62
7
  6
CONTINUOUS
 70
0
 71
3
 72
11
 73
7
 74
0
 42
0.0000001
 43
0.0000001
 44
0.0000000001
 40
0.0
 40
0.0
 40
0.0
 40
0.0
 40
0.2428087039
 40
0.4898502971
 40
0.7428317811
 40
1.0
 40
1.0
 40
1.0
 40
1.0
 10
80.6470304799
 20
37.7051556649
 30
0.0
 10
80.6470304799
 20
37.6806479337
 30
0.0
 10
80.6363865984
 20
37.6306173566
 30
0.0
 10
80.5913960335
 20
37.5681831952
 30
0.0
 10
80.5249980527
 20
37.526793803
 30
0.0
 10
80.4729875844
 20
37.5172171414
 30
0.0
 10
80.4470304853
 20
37.5172171408
 30
0.0
  0
SPLINE
  5
2E6
100
AcDbEntity
  8
0
100
AcDbSpline
 62
7
  6
CONTINUOUS
 70
0
 71
3
 72
11
 73
7
 74
0
 42
0.0000001
 43
0.0000001
 44
0.0000000001
 40
0.0
 40
0.0
 40
0.0
 40
0.0
 40
0.2571263504
 40
0.5101430427
 40
0.7572274763
 40
1.0
 40
1.0
 40
1.0
 40
1.0
 10
80.4470304853
 20
38.1369532287
 30
0.0
 10
80.4729798982
 20
38.1369532282
 30
0.0
 10
80.5249828387
 20
38.1465507445
 30
0.0
 10
80.5913503203
 20
38.1879646378
 30
0.0
 10
80.6363628445
 20
38.2503672533
 30
0.0
 10
80.6470304878
 20
38.3003909156
 30
0.0
 10
80.6470304914
 20
38.324891728
 30
0.0
  0
SPLINE
  5
2E7
100
AcDbEntity
  8
0
100
AcDbSpline
 62
7
  6
CONTINUOUS
 70
0
 71
3
 72
11
 73
7
 74
0
 42
0.0000001
 43
0.0000001
 44
0.0000000001
 40
0.0
 40
0.0
 40
0.0
 40
0.0
 40
0.0829202337
 40
0.2724270562
 40
0.5778327583
 40
1.0
 40
1.0
 40
1.0
 40
1.0
 10
63.6069369666
 20
69.02230632
 30
0.0
 10
63.6069369666
 20
69.019651189
 30
0.0
 10
63.5970453006
 20
69.0145878986
 30
0.0
 10
63.5808165417
 20
69.0105499615
 30
0.0
 10
63.5509470696
 20
69.005098936
 30
0.0
 10
63.5281272722
 20
69.0023126986
 30
0.0
 10
63.5146962529
 20
69.0007823532
 30
0.0
  0
SPLINE
  5
2E8
100
AcDbEntity
  8
0
100
AcDbSpline
 62
7
  6
CONTINUOUS
 70
0
 71
3
 72
17
 73
13
 74
0
 42
0.0000001
 43
0.0000001
 44
0.0000000001
 40
0.0
 40
0.0
 40
0.0
 40
0.0
 40
0.0307188331
 40
0.0732379833
 40
0.1892053536
 40
0.3363402541
 40
0.4998957487
 40
0.663464719
 40
0.8106436121
 40
0.926681157
 40
0.9692396798
 40
1.0
 40
1.0
 40
1.0
 40
1.0
 10
63.5146962529
 20
69.0007823532
 30
0.0
 10
63.4738245589
 20
68.9961253866
 30
0.0
 10
63.3760286383
 20
68.9882713314
 30
0.0
 10
63.1230618793
 20
68.9740433955
 30
0.0
 10
62.7139508664
 20
68.9610158098
 30
0.0
 10
62.1426890545
 20
68.9511729768
 30
0.0
 10
61.5075921163
 20
68.9478313392
 30
0.0
 10
60.8724362354
 20
68.9511614603
 30
0.0
 10
60.3010032476
 20
68.9609943601
 30
0.0
 10
59.8916864705
 20
68.9740158484
 30
0.0
 10
59.6385168373
 20
68.9882395468
 30
0.0
 10
59.5406123352
 20
68.9960922944
 30
0.0
 10
59.4996845045
 20
69.0007473138
 30
0.0
  0
SPLINE
  5
2E9
100
AcDbEntity
  8
0
100
AcDbSpline
 62
7
  6
CONTINUOUS
 70
0
 71
3
 72
11
 73
7
 74
0
 42
0.0000001
 43
0.0000001
 44
0.0000000001
 40
0.0
 40
0.0
 40
0.0
 40
0.0
 40
0.4222073303
 40
0.727633256
 40
0.9171349577
 40
1.0
 40
1.0
 40
1.0
 40
1.0
 10
59.4996845045
 20
69.0007473138
 30
0.0
 10
59.4862070031
 20
69.0022802079
 30
0.0
 10
59.4633094198
 20
69.0050713319
 30
0.0
 10
59.4333337859
 20
69.0105311858
 30
0.0
 10
59.4170555735
 20
69.0145769009
 30
0.0
 10
59.4071239926
 20
69.0196466666
 30
0.0
 10
59.4071239926
 20
69.0223088993
 30
0.0
  0
SPLINE
  5
2EA
100
AcDbEntity
  8
0
100
AcDbSpline
 62
7
  6
CONTINUOUS
 70
0
 71
3
 72
11
 73
7
 74
0
 42
0.0000001
 43
0.0000001
 44
0.0000000001
 40
0.0
 40
0.0
 40
0.0
 40
0.0
 40
0.0829202337
 40
0.2724270561
 40
0.5778327581
 40
1.0
 40
1.0
 40
1.0
 40
1.0
 10
48.3669369666
 20
69.02230632
 30
0.0
 10
48.3669369666
 20
69.0196511891
 30
0.0
 10
48.3570453006
 20
69.0145878986
 30
0.0
 10
48.3408165417
 20
69.0105499615
 30
0.0
 10
48.3109470696
 20
69.005098936
 30
0.0
 10
48.2881272721
 20
69.0023126985
 30
0.0
 10
48.2746962528
 20
69.0007823532
 30
0.0
  0
SPLINE
  5
2EB
100
AcDbEntity
  8
0
100
AcDbSpline
 62
7
  6
CONTINUOUS
 70
0
 71
3
 72
17
 73
13
 74
0
 42
0.0000001
 43
0.0000001
 44
0.0000000001
 40
0.0
 40
0.0
 40
0.0
 40
0.0
 40
0.0307188331
 40
0.0732379833
 40
0.1892053536
 40
0.3363402542
 40
0.4998957489
 40
0.6634647192
 40
0.8106436122
 40
0.9266811571
 40
0.9692396798
 40
1.0
 40
1.0
 40
1.0
 40
1.0
 10
48.2746962528
 20
69.0007823532
 30
0.0
 10
48.2338245588
 20
68.9961253866
 30
0.0
 10
48.1360286382
 20
68.9882713314
 30
0.0
 10
47.8830618791
 20
68.9740433955
 30
0.0
 10
47.473950866
 20
68.9610158098
 30
0.0
 10
46.9026890538
 20
68.9511729768
 30
0.0
 10
46.2675921155
 20
68.9478313391
 30
0.0
 10
45.6324362344
 20
68.9511614603
 30
0.0
 10
45.0610032466
 20
68.9609943601
 30
0.0
 10
44.6516864694
 20
68.9740158484
 30
0.0
 10
44.3985168363
 20
68.9882395469
 30
0.0
 10
44.3006123343
 20
68.9960922944
 30
0.0
 10
44.2596845037
 20
69.0007473138
 30
0.0
  0
SPLINE
  5
2EC
100
AcDbEntity
  8
0
100
AcDbSpline
 62
7
  6
CONTINUOUS
 70
0
 71
3
 72
11
 73
7
 74
0
 42
0.0000001
 43
0.0000001
 44
0.0000000001
 40
0.0
 40
0.0
 40
0.0
 40
0.0
 40
0.4222073303
 40
0.727633256
 40
0.9171349577
 40
1.0
 40
1.0
 40
1.0
 40
1.0
 10
44.2596845037
 20
69.0007473138
 30
0.0
 10
44.2462070024
 20
69.002280208
 30
0.0
 10
44.2233094191
 20
69.0050713319
 30
0.0
 10
44.1933337853
 20
69.0105311858
 30
0.0
 10
44.177055573
 20
69.014576901
 30
0.0
 10
44.1671239921
 20
69.0196466667
 30
0.0
 10
44.1671239921
 20
69.0223088993
 30
0.0
  0
SPLINE
  5
2ED
100
AcDbEntity
  8
0
100
AcDbSpline
 62
7
  6
CONTINUOUS
 70
0
 71
3
 72
11
 73
7
 74
0
 42
0.0000001
 43
0.0000001
 44
0.0000000001
 40
0.0
 40
0.0
 40
0.0
 40
0.0
 40
0.0829202336
 40
0.2724270564
 40
0.5778327586
 40
1.0
 40
1.0
 40
1.0
 40
1.0
 10
33.1269369676
 20
69.0223063199
 30
0.0
 10
33.1269369676
 20
69.019651189
 30
0.0
 10
33.1170453015
 20
69.0145878985
 30
0.0
 10
33.1008165425
 20
69.0105499614
 30
0.0
 10
33.0709470703
 20
69.0050989359
 30
0.0
 10
33.0481272727
 20
69.0023126985
 30
0.0
 10
33.0346962533
 20
69.0007823531
 30
0.0
  0
SPLINE
  5
2EE
100
AcDbEntity
  8
0
100
AcDbSpline
 62
7
  6
CONTINUOUS
 70
0
 71
3
 72
17
 73
13
 74
0
 42
0.0000001
 43
0.0000001
 44
0.0000000001
 40
0.0
 40
0.0
 40
0.0
 40
0.0
 40
0.0307188332
 40
0.0732379835
 40
0.1892053539
 40
0.3363402545
 40
0.4998957491
 40
0.6634647194
 40
0.8106436123
 40
0.9266811572
 40
0.9692396798
 40
1.0
 40
1.0
 40
1.0
 40
1.0
 10
33.0346962533
 20
69.0007823531
 30
0.0
 10
32.9938245592
 20
68.9961253865
 30
0.0
 10
32.8960286383
 20
68.9882713314
 30
0.0
 10
32.6430618789
 20
68.9740433955
 30
0.0
 10
32.2339508655
 20
68.9610158098
 30
0.0
 10
31.6626890532
 20
68.9511729768
 30
0.0
 10
31.0275921149
 20
68.9478313392
 30
0.0
 10
30.3924362341
 20
68.9511614603
 30
0.0
 10
29.8210032465
 20
68.9609943602
 30
0.0
 10
29.4116864695
 20
68.9740158484
 30
0.0
 10
29.1585168366
 20
68.9882395469
 30
0.0
 10
29.0606123347
 20
68.9960922944
 30
0.0
 10
29.0196845041
 20
69.0007473139
 30
0.0
  0
SPLINE
  5
2EF
100
AcDbEntity
  8
0
100
AcDbSpline
 62
7
  6
CONTINUOUS
 70
0
 71
3
 72
11
 73
7
 74
0
 42
0.0000001
 43
0.0000001
 44
0.0000000001
 40
0.0
 40
0.0
 40
0.0
 40
0.0
 40
0.4222073298
 40
0.7276332556
 40
0.9171349576
 40
1.0
 40
1.0
 40
1.0
 40
1.0
 10
29.0196845041
 20
69.0007473139
 30
0.0
 10
29.0062070028
 20
69.002280208
 30
0.0
 10
28.9833094196
 20
69.0050713319
 30
0.0
 10
28.9533337859
 20
69.0105311858
 30
0.0
 10
28.9370555736
 20
69.0145769009
 30
0.0
 10
28.9271239927
 20
69.0196466666
 30
0.0
 10
28.9271239927
 20
69.0223088993
 30
0.0
  0
SPLINE
  5
2F0
100
AcDbEntity
  8
0
100
AcDbSpline
 62
7
  6
CONTINUOUS
 70
0
 71
3
 72
11
 73
7
 74
0
 42
0.0000001
 43
0.0000001
 44
0.0000000001
 40
0.0
 40
0.0
 40
0.0
 40
0.0
 40
0.0829202337
 40
0.2724270562
 40
0.5778327582
 40
1.0
 40
1.0
 40
1.0
 40
1.0
 10
73.7669369671
 20
69.02230632
 30
0.0
 10
73.7669369671
 20
69.0196511891
 30
0.0
 10
73.7570453011
 20
69.0145878986
 30
0.0
 10
73.7408165421
 20
69.0105499615
 30
0.0
 10
73.7109470699
 20
69.005098936
 30
0.0
 10
73.6881272723
 20
69.0023126985
 30
0.0
 10
73.674696253
 20
69.0007823532
 30
0.0
  0
SPLINE
  5
2F1
100
AcDbEntity
  8
0
100
AcDbSpline
 62
7
  6
CONTINUOUS
 70
0
 71
3
 72
17
 73
13
 74
0
 42
0.0000001
 43
0.0000001
 44
0.0000000001
 40
0.0
 40
0.0
 40
0.0
 40
0.0
 40
0.0307188332
 40
0.0732379834
 40
0.1892053538
 40
0.3363402543
 40
0.499895749
 40
0.6634647193
 40
0.8106436124
 40
0.9266811572
 40
0.9692396798
 40
1.0
 40
1.0
 40
1.0
 40
1.0
 10
73.674696253
 20
69.0007823532
 30
0.0
 10
73.6338245589
 20
68.9961253866
 30
0.0
 10
73.5360286382
 20
68.9882713314
 30
0.0
 10
73.283061879
 20
68.9740433955
 30
0.0
 10
72.8739508657
 20
68.9610158098
 30
0.0
 10
72.3026890535
 20
68.9511729768
 30
0.0
 10
71.6675921151
 20
68.9478313392
 30
0.0
 10
71.0324362341
 20
68.9511614603
 30
0.0
 10
70.4610032464
 20
68.9609943601
 30
0.0
 10
70.0516864695
 20
68.9740158484
 30
0.0
 10
69.7985168366
 20
68.9882395469
 30
0.0
 10
69.7006123347
 20
68.9960922945
 30
0.0
 10
69.6596845042
 20
69.0007473139
 30
0.0
  0
SPLINE
  5
2F2
100
AcDbEntity
  8
0
100
AcDbSpline
 62
7
  6
CONTINUOUS
 70
0
 71
3
 72
11
 73
7
 74
0
 42
0.0000001
 43
0.0000001
 44
0.0000000001
 40
0.0
 40
0.0
 40
0.0
 40
0.0
 40
0.4222073302
 40
0.7276332559
 40
0.9171349576
 40
1.0
 40
1.0
 40
1.0
 40
1.0
 10
69.6596845042
 20
69.0007473139
 30
0.0
 10
69.6462070029
 20
69.002280208
 30
0.0
 10
69.6233094196
 20
69.005071332
 30
0.0
 10
69.5933337859
 20
69.0105311859
 30
0.0
 10
69.5770555736
 20
69.014576901
 30
0.0
 10
69.5671239927
 20
69.0196466667
 30
0.0
 10
69.5671239927
 20
69.0223088994
 30
0.0
  0
SPLINE
  5
2F3
100
AcDbEntity
  8
0
100
AcDbSpline
 62
7
  6
CONTINUOUS
 70
0
 71
3
 72
11
 73
7
 74
0
 42
0.0000001
 43
0.0000001
 44
0.0000000001
 40
0.0
 40
0.0
 40
0.0
 40
0.0
 40
0.0829202337
 40
0.2724270562
 40
0.5778327583
 40
1.0
 40
1.0
 40
1.0
 40
1.0
 10
68.6869369669
 20
69.02230632
 30
0.0
 10
68.6869369669
 20
69.0196511891
 30
0.0
 10
68.6770453009
 20
69.0145878986
 30
0.0
 10
68.660816542
 20
69.0105499615
 30
0.0
 10
68.6309470698
 20
69.005098936
 30
0.0
 10
68.6081272722
 20
69.0023126985
 30
0.0
 10
68.5946962529
 20
69.0007823532
 30
0.0
  0
SPLINE
  5
2F4
100
AcDbEntity
  8
0
100
AcDbSpline
 62
7
  6
CONTINUOUS
 70
0
 71
3
 72
17
 73
13
 74
0
 42
0.0000001
 43
0.0000001
 44
0.0000000001
 40
0.0
 40
0.0
 40
0.0
 40
0.0
 40
0.0307188331
 40
0.0732379834
 40
0.1892053537
 40
0.3363402543
 40
0.499895749
 40
0.6634647193
 40
0.8106436123
 40
0.9266811572
 40
0.9692396798
 40
1.0
 40
1.0
 40
1.0
 40
1.0
 10
68.5946962529
 20
69.0007823532
 30
0.0
 10
68.5538245588
 20
68.9961253866
 30
0.0
 10
68.4560286381
 20
68.9882713314
 30
0.0
 10
68.203061879
 20
68.9740433955
 30
0.0
 10
67.7939508658
 20
68.9610158098
 30
0.0
 10
67.2226890536
 20
68.9511729768
 30
0.0
 10
66.5875921152
 20
68.9478313392
 30
0.0
 10
65.9524362343
 20
68.9511614603
 30
0.0
 10
65.3810032465
 20
68.9609943601
 30
0.0
 10
64.9716864695
 20
68.9740158484
 30
0.0
 10
64.7185168366
 20
68.9882395469
 30
0.0
 10
64.6206123346
 20
68.9960922944
 30
0.0
 10
64.5796845041
 20
69.0007473139
 30
0.0
  0
SPLINE
  5
2F5
100
AcDbEntity
  8
0
100
AcDbSpline
 62
7
  6
CONTINUOUS
 70
0
 71
3
 72
11
 73
7
 74
0
 42
0.0000001
 43
0.0000001
 44
0.0000000001
 40
0.0
 40
0.0
 40
0.0
 40
0.0
 40
0.4222073302
 40
0.7276332559
 40
0.9171349577
 40
1.0
 40
1.0
 40
1.0
 40
1.0
 10
64.5796845041
 20
69.0007473139
 30
0.0
 10
64.5662070028
 20
69.002280208
 30
0.0
 10
64.5433094195
 20
69.005071332
 30
0.0
 10
64.5133337857
 20
69.0105311858
 30
0.0
 10
64.4970555734
 20
69.014576901
 30
0.0
 10
64.4871239926
 20
69.0196466667
 30
0.0
 10
64.4871239926
 20
69.0223088994
 30
0.0
  0
SPLINE
  5
2F6
100
AcDbEntity
  8
0
100
AcDbSpline
 62
7
  6
CONTINUOUS
 70
0
 71
3
 72
11
 73
7
 74
0
 42
0.0000001
 43
0.0000001
 44
0.0000000001
 40
0.0
 40
0.0
 40
0.0
 40
0.0
 40
0.0829202337
 40
0.2724270563
 40
0.5778327583
 40
1.0
 40
1.0
 40
1.0
 40
1.0
 10
58.5269369665
 20
69.02230632
 30
0.0
 10
58.5269369665
 20
69.0196511891
 30
0.0
 10
58.5170453005
 20
69.0145878986
 30
0.0
 10
58.5008165416
 20
69.0105499615
 30
0.0
 10
58.4709470695
 20
69.005098936
 30
0.0
 10
58.448127272
 20
69.0023126986
 30
0.0
 10
58.4346962527
 20
69.0007823532
 30
0.0
  0
SPLINE
  5
2F7
100
AcDbEntity
  8
0
100
AcDbSpline
 62
7
  6
CONTINUOUS
 70
0
 71
3
 72
17
 73
13
 74
0
 42
0.0000001
 43
0.0000001
 44
0.0000000001
 40
0.0
 40
0.0
 40
0.0
 40
0.0
 40
0.0307188331
 40
0.0732379833
 40
0.1892053536
 40
0.3363402542
 40
0.4998957489
 40
0.6634647192
 40
0.8106436123
 40
0.9266811571
 40
0.9692396798
 40
1.0
 40
1.0
 40
1.0
 40
1.0
 10
58.4346962527
 20
69.0007823532
 30
0.0
 10
58.3938245587
 20
68.9961253866
 30
0.0
 10
58.296028638
 20
68.9882713314
 30
0.0
 10
58.043061879
 20
68.9740433955
 30
0.0
 10
57.6339508659
 20
68.9610158098
 30
0.0
 10
57.0626890537
 20
68.9511729768
 30
0.0
 10
56.4275921154
 20
68.9478313392
 30
0.0
 10
55.7924362344
 20
68.9511614603
 30
0.0
 10
55.2210032466
 20
68.9609943601
 30
0.0
 10
54.8116864696
 20
68.9740158484
 30
0.0
 10
54.5585168365
 20
68.9882395469
 30
0.0
 10
54.4606123346
 20
68.9960922944
 30
0.0
 10
54.419684504
 20
69.0007473139
 30
0.0
  0
SPLINE
  5
2F8
100
AcDbEntity
  8
0
100
AcDbSpline
 62
7
  6
CONTINUOUS
 70
0
 71
3
 72
11
 73
7
 74
0
 42
0.0000001
 43
0.0000001
 44
0.0000000001
 40
0.0
 40
0.0
 40
0.0
 40
0.0
 40
0.4222073301
 40
0.7276332558
 40
0.9171349577
 40
1.0
 40
1.0
 40
1.0
 40
1.0
 10
54.419684504
 20
69.0007473139
 30
0.0
 10
54.4062070027
 20
69.002280208
 30
0.0
 10
54.3833094194
 20
69.0050713319
 30
0.0
 10
54.3533337856
 20
69.0105311858
 30
0.0
 10
54.3370555733
 20
69.014576901
 30
0.0
 10
54.3271239925
 20
69.0196466667
 30
0.0
 10
54.3271239925
 20
69.0223088993
 30
0.0
  0
SPLINE
  5
2F9
100
AcDbEntity
  8
0
100
AcDbSpline
 62
7
  6
CONTINUOUS
 70
0
 71
3
 72
11
 73
7
 74
0
 42
0.0000001
 43
0.0000001
 44
0.0000000001
 40
0.0
 40
0.0
 40
0.0
 40
0.0
 40
0.0829202337
 40
0.2724270562
 40
0.5778327582
 40
1.0
 40
1.0
 40
1.0
 40
1.0
 10
53.4469369665
 20
69.02230632
 30
0.0
 10
53.4469369665
 20
69.019651189
 30
0.0
 10
53.4370453005
 20
69.0145878986
 30
0.0
 10
53.4208165416
 20
69.0105499615
 30
0.0
 10
53.3909470696
 20
69.005098936
 30
0.0
 10
53.3681272721
 20
69.0023126985
 30
0.0
 10
53.3546962528
 20
69.0007823532
 30
0.0
  0
SPLINE
  5
2FA
100
AcDbEntity
  8
0
100
AcDbSpline
 62
7
  6
CONTINUOUS
 70
0
 71
3
 72
17
 73
13
 74
0
 42
0.0000001
 43
0.0000001
 44
0.0000000001
 40
0.0
 40
0.0
 40
0.0
 40
0.0
 40
0.0307188331
 40
0.0732379833
 40
0.1892053536
 40
0.3363402542
 40
0.4998957489
 40
0.6634647192
 40
0.8106436123
 40
0.9266811571
 40
0.9692396798
 40
1.0
 40
1.0
 40
1.0
 40
1.0
 10
53.3546962528
 20
69.0007823532
 30
0.0
 10
53.3138245588
 20
68.9961253866
 30
0.0
 10
53.2160286382
 20
68.9882713314
 30
0.0
 10
52.9630618791
 20
68.9740433955
 30
0.0
 10
52.553950866
 20
68.9610158098
 30
0.0
 10
51.9826890538
 20
68.9511729768
 30
0.0
 10
51.3475921154
 20
68.9478313391
 30
0.0
 10
50.7124362344
 20
68.9511614603
 30
0.0
 10
50.1410032465
 20
68.9609943601
 30
0.0
 10
49.7316864695
 20
68.9740158484
 30
0.0
 10
49.4785168364
 20
68.9882395469
 30
0.0
 10
49.3806123345
 20
68.9960922944
 30
0.0
 10
49.3396845039
 20
69.0007473139
 30
0.0
  0
SPLINE
  5
2FB
100
AcDbEntity
  8
0
100
AcDbSpline
 62
7
  6
CONTINUOUS
 70
0
 71
3
 72
11
 73
7
 74
0
 42
0.0000001
 43
0.0000001
 44
0.0000000001
 40
0.0
 40
0.0
 40
0.0
 40
0.0
 40
0.4222073303
 40
0.727633256
 40
0.9171349577
 40
1.0
 40
1.0
 40
1.0
 40
1.0
 10
49.3396845039
 20
69.0007473139
 30
0.0
 10
49.3262070026
 20
69.002280208
 30
0.0
 10
49.3033094193
 20
69.0050713319
 30
0.0
 10
49.2733337856
 20
69.0105311858
 30
0.0
 10
49.2570555733
 20
69.014576901
 30
0.0
 10
49.2471239924
 20
69.0196466667
 30
0.0
 10
49.2471239924
 20
69.0223088993
 30
0.0
  0
SPLINE
  5
2FC
100
AcDbEntity
  8
0
100
AcDbSpline
 62
7
  6
CONTINUOUS
 70
0
 71
3
 72
11
 73
7
 74
0
 42
0.0000001
 43
0.0000001
 44
0.0000000001
 40
0.0
 40
0.0
 40
0.0
 40
0.0
 40
0.0829202337
 40
0.2724270563
 40
0.5778327584
 40
1.0
 40
1.0
 40
1.0
 40
1.0
 10
43.2869369664
 20
69.02230632
 30
0.0
 10
43.2869369664
 20
69.019651189
 30
0.0
 10
43.2770453004
 20
69.0145878986
 30
0.0
 10
43.2608165415
 20
69.0105499615
 30
0.0
 10
43.2309470694
 20
69.005098936
 30
0.0
 10
43.208127272
 20
69.0023126986
 30
0.0
 10
43.1946962527
 20
69.0007823532
 30
0.0
  0
SPLINE
  5
2FD
100
AcDbEntity
  8
0
100
AcDbSpline
 62
7
  6
CONTINUOUS
 70
0
 71
3
 72
17
 73
13
 74
0
 42
0.0000001
 43
0.0000001
 44
0.0000000001
 40
0.0
 40
0.0
 40
0.0
 40
0.0
 40
0.0307188331
 40
0.0732379833
 40
0.1892053536
 40
0.3363402542
 40
0.4998957488
 40
0.6634647192
 40
0.8106436122
 40
0.9266811571
 40
0.9692396798
 40
1.0
 40
1.0
 40
1.0
 40
1.0
 10
43.1946962527
 20
69.0007823532
 30
0.0
 10
43.1538245587
 20
68.9961253866
 30
0.0
 10
43.0560286381
 20
68.9882713314
 30
0.0
 10
42.8030618791
 20
68.9740433955
 30
0.0
 10
42.393950866
 20
68.9610158098
 30
0.0
 10
41.8226890539
 20
68.9511729768
 30
0.0
 10
41.1875921155
 20
68.9478313392
 30
0.0
 10
40.5524362345
 20
68.9511614603
 30
0.0
 10
39.9810032467
 20
68.9609943601
 30
0.0
 10
39.5716864696
 20
68.9740158484
 30
0.0
 10
39.3185168365
 20
68.9882395469
 30
0.0
 10
39.2206123345
 20
68.9960922944
 30
0.0
 10
39.1796845039
 20
69.0007473139
 30
0.0
  0
SPLINE
  5
2FE
100
AcDbEntity
  8
0
100
AcDbSpline
 62
7
  6
CONTINUOUS
 70
0
 71
3
 72
11
 73
7
 74
0
 42
0.0000001
 43
0.0000001
 44
0.0000000001
 40
0.0
 40
0.0
 40
0.0
 40
0.0
 40
0.4222073301
 40
0.7276332559
 40
0.9171349577
 40
1.0
 40
1.0
 40
1.0
 40
1.0
 10
39.1796845039
 20
69.0007473139
 30
0.0
 10
39.1662070026
 20
69.002280208
 30
0.0
 10
39.1433094193
 20
69.0050713319
 30
0.0
 10
39.1133337855
 20
69.0105311858
 30
0.0
 10
39.0970555732
 20
69.014576901
 30
0.0
 10
39.0871239923
 20
69.0196466667
 30
0.0
 10
39.0871239923
 20
69.0223088993
 30
0.0
  0
SPLINE
  5
2FF
100
AcDbEntity
  8
0
100
AcDbSpline
 62
7
  6
CONTINUOUS
 70
0
 71
3
 72
11
 73
7
 74
0
 42
0.0000001
 43
0.0000001
 44
0.0000000001
 40
0.0
 40
0.0
 40
0.0
 40
0.0
 40
0.0829202336
 40
0.2724270562
 40
0.5778327583
 40
1.0
 40
1.0
 40
1.0
 40
1.0
 10
38.206936968
 20
69.0223063201
 30
0.0
 10
38.206936968
 20
69.0196511891
 30
0.0
 10
38.1970453019
 20
69.0145878986
 30
0.0
 10
38.1808165428
 20
69.0105499615
 30
0.0
 10
38.1509470704
 20
69.0050989359
 30
0.0
 10
38.1281272727
 20
69.0023126985
 30
0.0
 10
38.1146962532
 20
69.0007823531
 30
0.0
  0
SPLINE
  5
300
100
AcDbEntity
  8
0
100
AcDbSpline
 62
7
  6
CONTINUOUS
 70
0
 71
3
 72
17
 73
13
 74
0
 42
0.0000001
 43
0.0000001
 44
0.0000000001
 40
0.0
 40
0.0
 40
0.0
 40
0.0
 40
0.0307188332
 40
0.0732379835
 40
0.1892053539
 40
0.3363402545
 40
0.4998957491
 40
0.6634647194
 40
0.8106436124
 40
0.9266811572
 40
0.9692396798
 40
1.0
 40
1.0
 40
1.0
 40
1.0
 10
38.1146962532
 20
69.0007823531
 30
0.0
 10
38.0738245591
 20
68.9961253865
 30
0.0
 10
37.9760286383
 20
68.9882713314
 30
0.0
 10
37.7230618789
 20
68.9740433955
 30
0.0
 10
37.3139508655
 20
68.9610158098
 30
0.0
 10
36.7426890532
 20
68.9511729768
 30
0.0
 10
36.1075921148
 20
68.9478313392
 30
0.0
 10
35.472436234
 20
68.9511614603
 30
0.0
 10
34.9010032464
 20
68.9609943602
 30
0.0
 10
34.4916864695
 20
68.9740158484
 30
0.0
 10
34.2385168366
 20
68.9882395469
 30
0.0
 10
34.1406123347
 20
68.9960922945
 30
0.0
 10
34.0996845042
 20
69.0007473139
 30
0.0
  0
SPLINE
  5
301
100
AcDbEntity
  8
0
100
AcDbSpline
 62
7
  6
CONTINUOUS
 70
0
 71
3
 72
11
 73
7
 74
0
 42
0.0000001
 43
0.0000001
 44
0.0000000001
 40
0.0
 40
0.0
 40
0.0
 40
0.0
 40
0.4222073301
 40
0.7276332558
 40
0.9171349577
 40
1.0
 40
1.0
 40
1.0
 40
1.0
 10
34.0996845042
 20
69.0007473139
 30
0.0
 10
34.0862070028
 20
69.002280208
 30
0.0
 10
34.0633094195
 20
69.005071332
 30
0.0
 10
34.0333337857
 20
69.0105311859
 30
0.0
 10
34.0170555734
 20
69.014576901
 30
0.0
 10
34.0071239925
 20
69.0196466667
 30
0.0
 10
34.0071239925
 20
69.0223088994
 30
0.0
  0
SPLINE
  5
302
100
AcDbEntity
  8
0
100
AcDbSpline
 62
7
  6
CONTINUOUS
 70
0
 71
3
 72
11
 73
7
 74
0
 42
0.0000001
 43
0.0000001
 44
0.0000000001
 40
0.0
 40
0.0
 40
0.0
 40
0.0
 40
0.0829202336
 40
0.2724270564
 40
0.5778327585
 40
1.0
 40
1.0
 40
1.0
 40
1.0
 10
28.0469369677
 20
69.02230632
 30
0.0
 10
28.0469369677
 20
69.019651189
 30
0.0
 10
28.0370453016
 20
69.0145878986
 30
0.0
 10
28.0208165426
 20
69.0105499615
 30
0.0
 10
27.9909470703
 20
69.0050989359
 30
0.0
 10
27.9681272727
 20
69.0023126985
 30
0.0
 10
27.9546962534
 20
69.0007823531
 30
0.0
  0
SPLINE
  5
303
100
AcDbEntity
  8
0
100
AcDbSpline
 62
7
  6
CONTINUOUS
 70
0
 71
3
 72
17
 73
13
 74
0
 42
0.0000001
 43
0.0000001
 44
0.0000000001
 40
0.0
 40
0.0
 40
0.0
 40
0.0
 40
0.0307188332
 40
0.0732379834
 40
0.1892053538
 40
0.3363402543
 40
0.4998957489
 40
0.6634647191
 40
0.8106436121
 40
0.926681157
 40
0.9692396797
 40
1.0
 40
1.0
 40
1.0
 40
1.0
 10
27.9546962534
 20
69.0007823531
 30
0.0
 10
27.9138245592
 20
68.9961253866
 30
0.0
 10
27.8160286384
 20
68.9882713314
 30
0.0
 10
27.5630618792
 20
68.9740433955
 30
0.0
 10
27.1539508661
 20
68.9610158098
 30
0.0
 10
26.5826890541
 20
68.9511729768
 30
0.0
 10
25.947592116
 20
68.9478313392
 30
0.0
 10
25.3124362353
 20
68.9511614603
 30
0.0
 10
24.7410032476
 20
68.9609943601
 30
0.0
 10
24.3316864705
 20
68.9740158484
 30
0.0
 10
24.0785168373
 20
68.9882395469
 30
0.0
 10
23.9806123352
 20
68.9960922944
 30
0.0
 10
23.9396845046
 20
69.0007473138
 30
0.0
  0
SPLINE
  5
304
100
AcDbEntity
  8
0
100
AcDbSpline
 62
7
  6
CONTINUOUS
 70
0
 71
3
 72
11
 73
7
 74
0
 42
0.0000001
 43
0.0000001
 44
0.0000000001
 40
0.0
 40
0.0
 40
0.0
 40
0.0
 40
0.42220733
 40
0.7276332558
 40
0.9171349577
 40
1.0
 40
1.0
 40
1.0
 40
1.0
 10
23.9396845046
 20
69.0007473138
 30
0.0
 10
23.9262070032
 20
69.0022802079
 30
0.0
 10
23.9033094198
 20
69.0050713319
 30
0.0
 10
23.8733337858
 20
69.0105311858
 30
0.0
 10
23.8570555735
 20
69.0145769009
 30
0.0
 10
23.8471239925
 20
69.0196466666
 30
0.0
 10
23.8471239925
 20
69.0223088993
 30
0.0
  0
SPLINE
  5
305
100
AcDbEntity
  8
0
100
AcDbSpline
 62
7
  6
CONTINUOUS
 70
0
 71
3
 72
11
 73
7
 74
0
 42
0.0000001
 43
0.0000001
 44
0.0000000001
 40
0.0
 40
0.0
 40
0.0
 40
0.0
 40
0.0829202337
 40
0.2724270564
 40
0.5778327585
 40
1.0
 40
1.0
 40
1.0
 40
1.0
 10
22.9669369674
 20
69.02230632
 30
0.0
 10
22.9669369674
 20
69.019651189
 30
0.0
 10
22.9570453013
 20
69.0145878986
 30
0.0
 10
22.9408165423
 20
69.0105499615
 30
0.0
 10
22.9109470701
 20
69.0050989359
 30
0.0
 10
22.8881272725
 20
69.0023126985
 30
0.0
 10
22.8746962532
 20
69.0007823531
 30
0.0
  0
SPLINE
  5
306
100
AcDbEntity
  8
0
100
AcDbSpline
 62
7
  6
CONTINUOUS
 70
0
 71
3
 72
17
 73
13
 74
0
 42
0.0000001
 43
0.0000001
 44
0.0000000001
 40
0.0
 40
0.0
 40
0.0
 40
0.0
 40
0.0307188332
 40
0.0732379834
 40
0.1892053537
 40
0.3363402543
 40
0.4998957489
 40
0.6634647191
 40
0.8106436122
 40
0.926681157
 40
0.9692396798
 40
1.0
 40
1.0
 40
1.0
 40
1.0
 10
22.8746962532
 20
69.0007823531
 30
0.0
 10
22.8338245591
 20
68.9961253866
 30
0.0
 10
22.7360286383
 20
68.9882713314
 30
0.0
 10
22.4830618792
 20
68.9740433955
 30
0.0
 10
22.0739508661
 20
68.9610158098
 30
0.0
 10
21.5026890541
 20
68.9511729768
 30
0.0
 10
20.867592116
 20
68.9478313392
 30
0.0
 10
20.2324362352
 20
68.9511614603
 30
0.0
 10
19.6610032476
 20
68.9609943601
 30
0.0
 10
19.2516864705
 20
68.9740158484
 30
0.0
 10
18.9985168374
 20
68.9882395469
 30
0.0
 10
18.9006123353
 20
68.9960922944
 30
0.0
 10
18.8596845047
 20
69.0007473138
 30
0.0
  0
SPLINE
  5
307
100
AcDbEntity
  8
0
100
AcDbSpline
 62
7
  6
CONTINUOUS
 70
0
 71
3
 72
11
 73
7
 74
0
 42
0.0000001
 43
0.0000001
 44
0.0000000001
 40
0.0
 40
0.0
 40
0.0
 40
0.0
 40
0.42220733
 40
0.7276332558
 40
0.9171349577
 40
1.0
 40
1.0
 40
1.0
 40
1.0
 10
18.8596845047
 20
69.0007473138
 30
0.0
 10
18.8462070033
 20
69.0022802079
 30
0.0
 10
18.8233094199
 20
69.0050713319
 30
0.0
 10
18.793333786
 20
69.0105311858
 30
0.0
 10
18.7770555736
 20
69.0145769009
 30
0.0
 10
18.7671239927
 20
69.0196466666
 30
0.0
 10
18.7671239927
 20
69.0223088993
 30
0.0
  0
SPLINE
  5
308
100
AcDbEntity
  8
0
100
AcDbSpline
 62
7
  6
CONTINUOUS
 70
0
 71
3
 72
11
 73
7
 74
0
 42
0.0000001
 43
0.0000001
 44
0.0000000001
 40
0.0
 40
0.0
 40
0.0
 40
0.0
 40
0.0843553171
 40
0.2741194085
 40
0.5790504504
 40
1.0
 40
1.0
 40
1.0
 40
1.0
 10
18.8670639147
 20
69.0223076103
 30
0.0
 10
18.8670639147
 20
69.0246781626
 30
0.0
 10
18.8756093296
 20
69.0293406018
 30
0.0
 10
18.8899541187
 20
69.033015488
 30
0.0
 10
18.9160318829
 20
69.0380021433
 30
0.0
 10
18.9360188024
 20
69.0405498815
 30
0.0
 10
18.9477650591
 20
69.041950954
 30
0.0
  0
SPLINE
  5
309
100
AcDbEntity
  8
0
100
AcDbSpline
 62
7
  6
CONTINUOUS
 70
0
 71
3
 72
19
 73
15
 74
0
 42
0.0000001
 43
0.0000001
 44
0.0000000001
 40
0.0
 40
0.0
 40
0.0
 40
0.0
 40
0.029985007
 40
0.0720050752
 40
0.1250271059
 40
0.187683133
 40
0.3352984973
 40
0.4997794008
 40
0.6642905096
 40
0.8119984435
 40
0.8747209393
 40
0.9278212877
 40
0.9699255334
 40
1.0
 40
1.0
 40
1.0
 40
1.0
 10
18.9477650591
 20
69.041950954
 30
0.0
 10
18.985878105
 20
69.0464970099
 30
0.0
 10
19.0777782044
 20
69.0540765573
 30
0.0
 10
19.2375523376
 20
69.0633104129
 30
0.0
 10
19.4392588186
 20
69.0716216972
 30
0.0
 10
19.7761445749
 20
69.0817826101
 30
0.0
 10
20.2558079391
 20
69.0899651833
 30
0.0
 10
20.865905033
 20
69.0932918962
 30
0.0
 10
21.476120767
 20
69.0899887916
 30
0.0
 10
21.956026675
 20
69.081824928
 30
0.0
 10
22.2932168287
 20
69.0716773904
 30
0.0
 10
22.4952168396
 20
69.0633731563
 30
0.0
 10
22.6553144272
 20
69.0541435702
 30
0.0
 10
22.7474373817
 20
69.046566849
 30
0.0
 10
22.78566635
 20
69.0420258227
 30
0.0
  0
SPLINE
  5
30A
100
AcDbEntity
  8
0
100
AcDbSpline
 62
7
  6
CONTINUOUS
 70
0
 71
3
 72
11
 73
7
 74
0
 42
0.0000001
 43
0.0000001
 44
0.0000000001
 40
0.0
 40
0.0
 40
0.0
 40
0.0
 40
0.4210421361
 40
0.7260231023
 40
0.915776993
 40
1.0
 40
1.0
 40
1.0
 40
1.0
 10
22.78566635
 20
69.0420258227
 30
0.0
 10
22.7975039025
 20
69.0406196995
 30
0.0
 10
22.817643877
 20
69.0380624781
 30
0.0
 10
22.8439302288
 20
69.0330578876
 30
0.0
 10
22.8583730631
 20
69.0293683303
 30
0.0
 10
22.8669970449
 20
69.0246921777
 30
0.0
 10
22.8669970449
 20
69.0223076103
 30
0.0
  0
SPLINE
  5
30B
100
AcDbEntity
  8
0
100
AcDbSpline
 62
7
  6
CONTINUOUS
 70
0
 71
3
 72
11
 73
7
 74
0
 42
0.0000001
 43
0.0000001
 44
0.0000000001
 40
0.0
 40
0.0
 40
0.0
 40
0.0
 40
0.0843553172
 40
0.2741194086
 40
0.5790504505
 40
1.0
 40
1.0
 40
1.0
 40
1.0
 10
23.9470639147
 20
69.0223076103
 30
0.0
 10
23.9470639147
 20
69.0246781626
 30
0.0
 10
23.9556093296
 20
69.0293406018
 30
0.0
 10
23.9699541187
 20
69.033015488
 30
0.0
 10
23.9960318829
 20
69.0380021433
 30
0.0
 10
24.0160188024
 20
69.0405498815
 30
0.0
 10
24.0277650591
 20
69.041950954
 30
0.0
  0
SPLINE
  5
30C
100
AcDbEntity
  8
0
100
AcDbSpline
 62
7
  6
CONTINUOUS
 70
0
 71
3
 72
19
 73
15
 74
0
 42
0.0000001
 43
0.0000001
 44
0.0000000001
 40
0.0
 40
0.0
 40
0.0
 40
0.0
 40
0.029985007
 40
0.0720050752
 40
0.1250271059
 40
0.187683133
 40
0.3352984973
 40
0.4997794008
 40
0.6642905096
 40
0.8119984435
 40
0.8747209393
 40
0.9278212877
 40
0.9699255334
 40
1.0
 40
1.0
 40
1.0
 40
1.0
 10
24.0277650591
 20
69.041950954
 30
0.0
 10
24.065878105
 20
69.0464970099
 30
0.0
 10
24.1577782044
 20
69.0540765573
 30
0.0
 10
24.3175523376
 20
69.0633104129
 30
0.0
 10
24.5192588186
 20
69.0716216972
 30
0.0
 10
24.8561445749
 20
69.0817826101
 30
0.0
 10
25.3358079391
 20
69.0899651833
 30
0.0
 10
25.945905033
 20
69.0932918962
 30
0.0
 10
26.556120767
 20
69.0899887916
 30
0.0
 10
27.036026675
 20
69.081824928
 30
0.0
 10
27.3732168287
 20
69.0716773904
 30
0.0
 10
27.5752168396
 20
69.0633731563
 30
0.0
 10
27.7353144272
 20
69.0541435702
 30
0.0
 10
27.8274373817
 20
69.046566849
 30
0.0
 10
27.86566635
 20
69.0420258227
 30
0.0
  0
SPLINE
  5
30D
100
AcDbEntity
  8
0
100
AcDbSpline
 62
7
  6
CONTINUOUS
 70
0
 71
3
 72
11
 73
7
 74
0
 42
0.0000001
 43
0.0000001
 44
0.0000000001
 40
0.0
 40
0.0
 40
0.0
 40
0.0
 40
0.4210421359
 40
0.7260231022
 40
0.915776993
 40
1.0
 40
1.0
 40
1.0
 40
1.0
 10
27.86566635
 20
69.0420258227
 30
0.0
 10
27.8775039025
 20
69.0406196995
 30
0.0
 10
27.897643877
 20
69.0380624781
 30
0.0
 10
27.9239302288
 20
69.0330578876
 30
0.0
 10
27.9383730631
 20
69.0293683303
 30
0.0
 10
27.946997045
 20
69.0246921777
 30
0.0
 10
27.946997045
 20
69.0223076103
 30
0.0
  0
SPLINE
  5
30E
100
AcDbEntity
  8
0
100
AcDbSpline
 62
7
  6
CONTINUOUS
 70
0
 71
3
 72
11
 73
7
 74
0
 42
0.0000001
 43
0.0000001
 44
0.0000000001
 40
0.0
 40
0.0
 40
0.0
 40
0.0
 40
0.0843553172
 40
0.2741194082
 40
0.57905045
 40
1.0
 40
1.0
 40
1.0
 40
1.0
 10
34.1070639149
 20
69.0223076103
 30
0.0
 10
34.1070639149
 20
69.0246781626
 30
0.0
 10
34.1156093297
 20
69.0293406019
 30
0.0
 10
34.1299541187
 20
69.0330154881
 30
0.0
 10
34.1560318829
 20
69.0380021433
 30
0.0
 10
34.1760188023
 20
69.0405498815
 30
0.0
 10
34.187765059
 20
69.041950954
 30
0.0
  0
SPLINE
  5
30F
100
AcDbEntity
  8
0
100
AcDbSpline
 62
7
  6
CONTINUOUS
 70
0
 71
3
 72
19
 73
15
 74
0
 42
0.0000001
 43
0.0000001
 44
0.0000000001
 40
0.0
 40
0.0
 40
0.0
 40
0.0
 40
0.029985007
 40
0.0720050751
 40
0.1250271058
 40
0.1876831329
 40
0.3352984972
 40
0.4997794008
 40
0.6642905096
 40
0.8119984435
 40
0.8747209393
 40
0.9278212877
 40
0.9699255334
 40
1.0
 40
1.0
 40
1.0
 40
1.0
 10
34.187765059
 20
69.041950954
 30
0.0
 10
34.2258781048
 20
69.0464970099
 30
0.0
 10
34.3177782042
 20
69.0540765573
 30
0.0
 10
34.4775523372
 20
69.0633104129
 30
0.0
 10
34.6792588183
 20
69.0716216972
 30
0.0
 10
35.0161445745
 20
69.0817826102
 30
0.0
 10
35.4958079388
 20
69.0899651833
 30
0.0
 10
36.1059050328
 20
69.0932918963
 30
0.0
 10
36.716120767
 20
69.0899887916
 30
0.0
 10
37.196026675
 20
69.081824928
 30
0.0
 10
37.5332168287
 20
69.0716773904
 30
0.0
 10
37.7352168395
 20
69.0633731563
 30
0.0
 10
37.8953144272
 20
69.0541435702
 30
0.0
 10
37.9874373816
 20
69.046566849
 30
0.0
 10
38.0256663499
 20
69.0420258227
 30
0.0
  0
SPLINE
  5
310
100
AcDbEntity
  8
0
100
AcDbSpline
 62
7
  6
CONTINUOUS
 70
0
 71
3
 72
11
 73
7
 74
0
 42
0.0000001
 43
0.0000001
 44
0.0000000001
 40
0.0
 40
0.0
 40
0.0
 40
0.0
 40
0.4210421362
 40
0.7260231024
 40
0.915776993
 40
1.0
 40
1.0
 40
1.0
 40
1.0
 10
38.0256663499
 20
69.0420258227
 30
0.0
 10
38.0375039024
 20
69.0406196995
 30
0.0
 10
38.0576438769
 20
69.0380624781
 30
0.0
 10
38.0839302287
 20
69.0330578877
 30
0.0
 10
38.098373063
 20
69.0293683303
 30
0.0
 10
38.1069970448
 20
69.0246921777
 30
0.0
 10
38.1069970448
 20
69.0223076103
 30
0.0
  0
SPLINE
  5
311
100
AcDbEntity
  8
0
100
AcDbSpline
 62
7
  6
CONTINUOUS
 70
0
 71
3
 72
11
 73
7
 74
0
 42
0.0000001
 43
0.0000001
 44
0.0000000001
 40
0.0
 40
0.0
 40
0.0
 40
0.0
 40
0.0843553172
 40
0.2741194083
 40
0.5790504502
 40
1.0
 40
1.0
 40
1.0
 40
1.0
 10
39.1870639148
 20
69.0223076103
 30
0.0
 10
39.1870639148
 20
69.0246781626
 30
0.0
 10
39.1956093297
 20
69.0293406019
 30
0.0
 10
39.2099541187
 20
69.0330154881
 30
0.0
 10
39.2360318829
 20
69.0380021433
 30
0.0
 10
39.2560188023
 20
69.0405498815
 30
0.0
 10
39.267765059
 20
69.041950954
 30
0.0
  0
SPLINE
  5
312
100
AcDbEntity
  8
0
100
AcDbSpline
 62
7
  6
CONTINUOUS
 70
0
 71
3
 72
19
 73
15
 74
0
 42
0.0000001
 43
0.0000001
 44
0.0000000001
 40
0.0
 40
0.0
 40
0.0
 40
0.0
 40
0.029985007
 40
0.0720050751
 40
0.1250271058
 40
0.1876831329
 40
0.3352984972
 40
0.4997794008
 40
0.6642905096
 40
0.8119984435
 40
0.8747209393
 40
0.9278212877
 40
0.9699255334
 40
1.0
 40
1.0
 40
1.0
 40
1.0
 10
39.267765059
 20
69.041950954
 30
0.0
 10
39.3058781048
 20
69.0464970099
 30
0.0
 10
39.3977782042
 20
69.0540765573
 30
0.0
 10
39.5575523372
 20
69.0633104129
 30
0.0
 10
39.7592588183
 20
69.0716216972
 30
0.0
 10
40.0961445745
 20
69.0817826102
 30
0.0
 10
40.5758079388
 20
69.0899651833
 30
0.0
 10
41.1859050328
 20
69.0932918963
 30
0.0
 10
41.796120767
 20
69.0899887916
 30
0.0
 10
42.276026675
 20
69.081824928
 30
0.0
 10
42.6132168287
 20
69.0716773904
 30
0.0
 10
42.8152168395
 20
69.0633731563
 30
0.0
 10
42.9753144272
 20
69.0541435702
 30
0.0
 10
43.0674373816
 20
69.046566849
 30
0.0
 10
43.1056663499
 20
69.0420258227
 30
0.0
  0
SPLINE
  5
313
100
AcDbEntity
  8
0
100
AcDbSpline
 62
7
  6
CONTINUOUS
 70
0
 71
3
 72
11
 73
7
 74
0
 42
0.0000001
 43
0.0000001
 44
0.0000000001
 40
0.0
 40
0.0
 40
0.0
 40
0.0
 40
0.4210421361
 40
0.7260231023
 40
0.915776993
 40
1.0
 40
1.0
 40
1.0
 40
1.0
 10
43.1056663499
 20
69.0420258227
 30
0.0
 10
43.1175039024
 20
69.0406196995
 30
0.0
 10
43.1376438769
 20
69.0380624781
 30
0.0
 10
43.1639302287
 20
69.0330578877
 30
0.0
 10
43.178373063
 20
69.0293683303
 30
0.0
 10
43.1869970449
 20
69.0246921777
 30
0.0
 10
43.1869970449
 20
69.0223076103
 30
0.0
  0
SPLINE
  5
314
100
AcDbEntity
  8
0
100
AcDbSpline
 62
7
  6
CONTINUOUS
 70
0
 71
3
 72
11
 73
7
 74
0
 42
0.0000001
 43
0.0000001
 44
0.0000000001
 40
0.0
 40
0.0
 40
0.0
 40
0.0
 40
0.0843553172
 40
0.2741194083
 40
0.5790504502
 40
1.0
 40
1.0
 40
1.0
 40
1.0
 10
49.3470639148
 20
69.0223076103
 30
0.0
 10
49.3470639148
 20
69.0246781626
 30
0.0
 10
49.3556093297
 20
69.0293406019
 30
0.0
 10
49.3699541187
 20
69.0330154881
 30
0.0
 10
49.3960318829
 20
69.0380021433
 30
0.0
 10
49.4160188023
 20
69.0405498815
 30
0.0
 10
49.427765059
 20
69.041950954
 30
0.0
  0
SPLINE
  5
315
100
AcDbEntity
  8
0
100
AcDbSpline
 62
7
  6
CONTINUOUS
 70
0
 71
3
 72
19
 73
15
 74
0
 42
0.0000001
 43
0.0000001
 44
0.0000000001
 40
0.0
 40
0.0
 40
0.0
 40
0.0
 40
0.029985007
 40
0.0720050751
 40
0.1250271058
 40
0.1876831329
 40
0.3352984972
 40
0.4997794008
 40
0.6642905096
 40
0.8119984435
 40
0.8747209393
 40
0.9278212877
 40
0.9699255334
 40
1.0
 40
1.0
 40
1.0
 40
1.0
 10
49.427765059
 20
69.041950954
 30
0.0
 10
49.4658781048
 20
69.0464970099
 30
0.0
 10
49.5577782042
 20
69.0540765573
 30
0.0
 10
49.7175523372
 20
69.0633104129
 30
0.0
 10
49.9192588183
 20
69.0716216972
 30
0.0
 10
50.2561445745
 20
69.0817826102
 30
0.0
 10
50.7358079388
 20
69.0899651833
 30
0.0
 10
51.3459050328
 20
69.0932918963
 30
0.0
 10
51.956120767
 20
69.0899887916
 30
0.0
 10
52.436026675
 20
69.081824928
 30
0.0
 10
52.7732168287
 20
69.0716773904
 30
0.0
 10
52.9752168395
 20
69.0633731563
 30
0.0
 10
53.1353144272
 20
69.0541435702
 30
0.0
 10
53.2274373816
 20
69.046566849
 30
0.0
 10
53.2656663499
 20
69.0420258227
 30
0.0
  0
SPLINE
  5
316
100
AcDbEntity
  8
0
100
AcDbSpline
 62
7
  6
CONTINUOUS
 70
0
 71
3
 72
11
 73
7
 74
0
 42
0.0000001
 43
0.0000001
 44
0.0000000001
 40
0.0
 40
0.0
 40
0.0
 40
0.0
 40
0.4210421361
 40
0.7260231023
 40
0.915776993
 40
1.0
 40
1.0
 40
1.0
 40
1.0
 10
53.2656663499
 20
69.0420258227
 30
0.0
 10
53.2775039024
 20
69.0406196995
 30
0.0
 10
53.2976438769
 20
69.0380624781
 30
0.0
 10
53.3239302287
 20
69.0330578877
 30
0.0
 10
53.338373063
 20
69.0293683303
 30
0.0
 10
53.3469970449
 20
69.0246921777
 30
0.0
 10
53.3469970449
 20
69.0223076103
 30
0.0
  0
SPLINE
  5
317
100
AcDbEntity
  8
0
100
AcDbSpline
 62
7
  6
CONTINUOUS
 70
0
 71
3
 72
11
 73
7
 74
0
 42
0.0000001
 43
0.0000001
 44
0.0000000001
 40
0.0
 40
0.0
 40
0.0
 40
0.0
 40
0.0843553172
 40
0.2741194083
 40
0.5790504502
 40
1.0
 40
1.0
 40
1.0
 40
1.0
 10
54.4270639149
 20
69.0223076103
 30
0.0
 10
54.4270639149
 20
69.0246781626
 30
0.0
 10
54.4356093297
 20
69.0293406019
 30
0.0
 10
54.4499541187
 20
69.0330154881
 30
0.0
 10
54.4760318829
 20
69.0380021433
 30
0.0
 10
54.4960188023
 20
69.0405498815
 30
0.0
 10
54.507765059
 20
69.041950954
 30
0.0
  0
SPLINE
  5
318
100
AcDbEntity
  8
0
100
AcDbSpline
 62
7
  6
CONTINUOUS
 70
0
 71
3
 72
19
 73
15
 74
0
 42
0.0000001
 43
0.0000001
 44
0.0000000001
 40
0.0
 40
0.0
 40
0.0
 40
0.0
 40
0.029985007
 40
0.0720050751
 40
0.1250271058
 40
0.1876831329
 40
0.3352984972
 40
0.4997794008
 40
0.6642905096
 40
0.8119984435
 40
0.8747209393
 40
0.9278212877
 40
0.9699255334
 40
1.0
 40
1.0
 40
1.0
 40
1.0
 10
54.507765059
 20
69.041950954
 30
0.0
 10
54.5458781048
 20
69.0464970099
 30
0.0
 10
54.6377782042
 20
69.0540765573
 30
0.0
 10
54.7975523372
 20
69.0633104129
 30
0.0
 10
54.9992588183
 20
69.0716216972
 30
0.0
 10
55.3361445745
 20
69.0817826102
 30
0.0
 10
55.8158079388
 20
69.0899651833
 30
0.0
 10
56.4259050328
 20
69.0932918963
 30
0.0
 10
57.036120767
 20
69.0899887916
 30
0.0
 10
57.516026675
 20
69.081824928
 30
0.0
 10
57.8532168287
 20
69.0716773904
 30
0.0
 10
58.0552168395
 20
69.0633731563
 30
0.0
 10
58.2153144272
 20
69.0541435702
 30
0.0
 10
58.3074373816
 20
69.046566849
 30
0.0
 10
58.3456663499
 20
69.0420258227
 30
0.0
  0
SPLINE
  5
319
100
AcDbEntity
  8
0
100
AcDbSpline
 62
7
  6
CONTINUOUS
 70
0
 71
3
 72
11
 73
7
 74
0
 42
0.0000001
 43
0.0000001
 44
0.0000000001
 40
0.0
 40
0.0
 40
0.0
 40
0.0
 40
0.4210421361
 40
0.7260231023
 40
0.915776993
 40
1.0
 40
1.0
 40
1.0
 40
1.0
 10
58.3456663499
 20
69.0420258227
 30
0.0
 10
58.3575039024
 20
69.0406196995
 30
0.0
 10
58.3776438769
 20
69.0380624781
 30
0.0
 10
58.4039302287
 20
69.0330578877
 30
0.0
 10
58.418373063
 20
69.0293683303
 30
0.0
 10
58.4269970448
 20
69.0246921777
 30
0.0
 10
58.4269970448
 20
69.0223076103
 30
0.0
  0
SPLINE
  5
31A
100
AcDbEntity
  8
0
100
AcDbSpline
 62
7
  6
CONTINUOUS
 70
0
 71
3
 72
11
 73
7
 74
0
 42
0.0000001
 43
0.0000001
 44
0.0000000001
 40
0.0
 40
0.0
 40
0.0
 40
0.0
 40
0.0843553172
 40
0.2741194083
 40
0.5790504502
 40
1.0
 40
1.0
 40
1.0
 40
1.0
 10
64.5870639149
 20
69.0223076103
 30
0.0
 10
64.5870639149
 20
69.0246781626
 30
0.0
 10
64.5956093297
 20
69.0293406019
 30
0.0
 10
64.6099541187
 20
69.0330154881
 30
0.0
 10
64.6360318829
 20
69.0380021433
 30
0.0
 10
64.6560188023
 20
69.0405498815
 30
0.0
 10
64.667765059
 20
69.041950954
 30
0.0
  0
SPLINE
  5
31B
100
AcDbEntity
  8
0
100
AcDbSpline
 62
7
  6
CONTINUOUS
 70
0
 71
3
 72
19
 73
15
 74
0
 42
0.0000001
 43
0.0000001
 44
0.0000000001
 40
0.0
 40
0.0
 40
0.0
 40
0.0
 40
0.029985007
 40
0.0720050751
 40
0.1250271058
 40
0.1876831329
 40
0.3352984972
 40
0.4997794008
 40
0.6642905096
 40
0.8119984435
 40
0.8747209393
 40
0.9278212877
 40
0.9699255334
 40
1.0
 40
1.0
 40
1.0
 40
1.0
 10
64.667765059
 20
69.041950954
 30
0.0
 10
64.7058781048
 20
69.0464970099
 30
0.0
 10
64.7977782042
 20
69.0540765573
 30
0.0
 10
64.9575523372
 20
69.0633104129
 30
0.0
 10
65.1592588183
 20
69.0716216972
 30
0.0
 10
65.4961445745
 20
69.0817826102
 30
0.0
 10
65.9758079388
 20
69.0899651833
 30
0.0
 10
66.5859050328
 20
69.0932918963
 30
0.0
 10
67.196120767
 20
69.0899887916
 30
0.0
 10
67.676026675
 20
69.081824928
 30
0.0
 10
68.0132168287
 20
69.0716773904
 30
0.0
 10
68.2152168395
 20
69.0633731563
 30
0.0
 10
68.3753144272
 20
69.0541435702
 30
0.0
 10
68.4674373816
 20
69.046566849
 30
0.0
 10
68.5056663499
 20
69.0420258227
 30
0.0
  0
SPLINE
  5
31C
100
AcDbEntity
  8
0
100
AcDbSpline
 62
7
  6
CONTINUOUS
 70
0
 71
3
 72
11
 73
7
 74
0
 42
0.0000001
 43
0.0000001
 44
0.0000000001
 40
0.0
 40
0.0
 40
0.0
 40
0.0
 40
0.4210421361
 40
0.7260231023
 40
0.915776993
 40
1.0
 40
1.0
 40
1.0
 40
1.0
 10
68.5056663499
 20
69.0420258227
 30
0.0
 10
68.5175039024
 20
69.0406196995
 30
0.0
 10
68.5376438769
 20
69.0380624781
 30
0.0
 10
68.5639302287
 20
69.0330578877
 30
0.0
 10
68.578373063
 20
69.0293683303
 30
0.0
 10
68.5869970448
 20
69.0246921777
 30
0.0
 10
68.5869970448
 20
69.0223076103
 30
0.0
  0
SPLINE
  5
31D
100
AcDbEntity
  8
0
100
AcDbSpline
 62
7
  6
CONTINUOUS
 70
0
 71
3
 72
11
 73
7
 74
0
 42
0.0000001
 43
0.0000001
 44
0.0000000001
 40
0.0
 40
0.0
 40
0.0
 40
0.0
 40
0.0843553172
 40
0.2741194082
 40
0.57905045
 40
1.0
 40
1.0
 40
1.0
 40
1.0
 10
69.6670639149
 20
69.0223076103
 30
0.0
 10
69.6670639149
 20
69.0246781626
 30
0.0
 10
69.6756093297
 20
69.0293406018
 30
0.0
 10
69.6899541187
 20
69.033015488
 30
0.0
 10
69.7160318829
 20
69.0380021433
 30
0.0
 10
69.7360188023
 20
69.0405498815
 30
0.0
 10
69.747765059
 20
69.041950954
 30
0.0
  0
SPLINE
  5
31E
100
AcDbEntity
  8
0
100
AcDbSpline
 62
7
  6
CONTINUOUS
 70
0
 71
3
 72
19
 73
15
 74
0
 42
0.0000001
 43
0.0000001
 44
0.0000000001
 40
0.0
 40
0.0
 40
0.0
 40
0.0
 40
0.029985007
 40
0.0720050751
 40
0.1250271058
 40
0.1876831329
 40
0.3352984972
 40
0.4997794008
 40
0.6642905096
 40
0.8119984435
 40
0.8747209393
 40
0.9278212877
 40
0.9699255334
 40
1.0
 40
1.0
 40
1.0
 40
1.0
 10
69.747765059
 20
69.041950954
 30
0.0
 10
69.7858781048
 20
69.0464970099
 30
0.0
 10
69.8777782042
 20
69.0540765573
 30
0.0
 10
70.0375523372
 20
69.0633104129
 30
0.0
 10
70.2392588183
 20
69.0716216972
 30
0.0
 10
70.5761445745
 20
69.0817826102
 30
0.0
 10
71.0558079388
 20
69.0899651833
 30
0.0
 10
71.6659050328
 20
69.0932918963
 30
0.0
 10
72.276120767
 20
69.0899887916
 30
0.0
 10
72.756026675
 20
69.081824928
 30
0.0
 10
73.0932168287
 20
69.0716773904
 30
0.0
 10
73.2952168395
 20
69.0633731563
 30
0.0
 10
73.4553144272
 20
69.0541435702
 30
0.0
 10
73.5474373816
 20
69.046566849
 30
0.0
 10
73.5856663499
 20
69.0420258227
 30
0.0
  0
SPLINE
  5
31F
100
AcDbEntity
  8
0
100
AcDbSpline
 62
7
  6
CONTINUOUS
 70
0
 71
3
 72
11
 73
7
 74
0
 42
0.0000001
 43
0.0000001
 44
0.0000000001
 40
0.0
 40
0.0
 40
0.0
 40
0.0
 40
0.4210421362
 40
0.7260231024
 40
0.915776993
 40
1.0
 40
1.0
 40
1.0
 40
1.0
 10
73.5856663499
 20
69.0420258227
 30
0.0
 10
73.5975039024
 20
69.0406196995
 30
0.0
 10
73.6176438769
 20
69.0380624781
 30
0.0
 10
73.6439302287
 20
69.0330578877
 30
0.0
 10
73.658373063
 20
69.0293683303
 30
0.0
 10
73.6669970448
 20
69.0246921777
 30
0.0
 10
73.6669970448
 20
69.0223076103
 30
0.0
  0
SPLINE
  5
320
100
AcDbEntity
  8
0
100
AcDbSpline
 62
7
  6
CONTINUOUS
 70
0
 71
3
 72
11
 73
7
 74
0
 42
0.0000001
 43
0.0000001
 44
0.0000000001
 40
0.0
 40
0.0
 40
0.0
 40
0.0
 40
0.0843553172
 40
0.2741194082
 40
0.57905045
 40
1.0
 40
1.0
 40
1.0
 40
1.0
 10
29.0270639148
 20
69.0223076103
 30
0.0
 10
29.0270639148
 20
69.0246781626
 30
0.0
 10
29.0356093297
 20
69.0293406018
 30
0.0
 10
29.0499541187
 20
69.033015488
 30
0.0
 10
29.0760318829
 20
69.0380021433
 30
0.0
 10
29.0960188023
 20
69.0405498815
 30
0.0
 10
29.107765059
 20
69.041950954
 30
0.0
  0
SPLINE
  5
321
100
AcDbEntity
  8
0
100
AcDbSpline
 62
7
  6
CONTINUOUS
 70
0
 71
3
 72
19
 73
15
 74
0
 42
0.0000001
 43
0.0000001
 44
0.0000000001
 40
0.0
 40
0.0
 40
0.0
 40
0.0
 40
0.029985007
 40
0.0720050751
 40
0.1250271058
 40
0.1876831329
 40
0.3352984972
 40
0.4997794008
 40
0.6642905096
 40
0.8119984435
 40
0.8747209393
 40
0.9278212877
 40
0.9699255334
 40
1.0
 40
1.0
 40
1.0
 40
1.0
 10
29.107765059
 20
69.041950954
 30
0.0
 10
29.1458781048
 20
69.0464970099
 30
0.0
 10
29.2377782042
 20
69.0540765573
 30
0.0
 10
29.3975523372
 20
69.0633104129
 30
0.0
 10
29.5992588183
 20
69.0716216972
 30
0.0
 10
29.9361445745
 20
69.0817826102
 30
0.0
 10
30.4158079388
 20
69.0899651833
 30
0.0
 10
31.0259050328
 20
69.0932918963
 30
0.0
 10
31.636120767
 20
69.0899887916
 30
0.0
 10
32.116026675
 20
69.081824928
 30
0.0
 10
32.4532168287
 20
69.0716773904
 30
0.0
 10
32.6552168395
 20
69.0633731563
 30
0.0
 10
32.8153144272
 20
69.0541435702
 30
0.0
 10
32.9074373816
 20
69.046566849
 30
0.0
 10
32.9456663499
 20
69.0420258227
 30
0.0
  0
SPLINE
  5
322
100
AcDbEntity
  8
0
100
AcDbSpline
 62
7
  6
CONTINUOUS
 70
0
 71
3
 72
11
 73
7
 74
0
 42
0.0000001
 43
0.0000001
 44
0.0000000001
 40
0.0
 40
0.0
 40
0.0
 40
0.0
 40
0.4210421362
 40
0.7260231024
 40
0.915776993
 40
1.0
 40
1.0
 40
1.0
 40
1.0
 10
32.9456663499
 20
69.0420258227
 30
0.0
 10
32.9575039024
 20
69.0406196995
 30
0.0
 10
32.9776438769
 20
69.0380624781
 30
0.0
 10
33.0039302287
 20
69.0330578877
 30
0.0
 10
33.018373063
 20
69.0293683303
 30
0.0
 10
33.0269970449
 20
69.0246921777
 30
0.0
 10
33.0269970449
 20
69.0223076103
 30
0.0
  0
SPLINE
  5
323
100
AcDbEntity
  8
0
100
AcDbSpline
 62
7
  6
CONTINUOUS
 70
0
 71
3
 72
11
 73
7
 74
0
 42
0.0000001
 43
0.0000001
 44
0.0000000001
 40
0.0
 40
0.0
 40
0.0
 40
0.0
 40
0.0843553172
 40
0.2741194082
 40
0.57905045
 40
1.0
 40
1.0
 40
1.0
 40
1.0
 10
44.2670639149
 20
69.0223076103
 30
0.0
 10
44.2670639149
 20
69.0246781626
 30
0.0
 10
44.2756093297
 20
69.0293406019
 30
0.0
 10
44.2899541187
 20
69.0330154881
 30
0.0
 10
44.3160318829
 20
69.0380021433
 30
0.0
 10
44.3360188023
 20
69.0405498815
 30
0.0
 10
44.347765059
 20
69.041950954
 30
0.0
  0
SPLINE
  5
324
100
AcDbEntity
  8
0
100
AcDbSpline
 62
7
  6
CONTINUOUS
 70
0
 71
3
 72
19
 73
15
 74
0
 42
0.0000001
 43
0.0000001
 44
0.0000000001
 40
0.0
 40
0.0
 40
0.0
 40
0.0
 40
0.029985007
 40
0.0720050751
 40
0.1250271058
 40
0.1876831329
 40
0.3352984972
 40
0.4997794008
 40
0.6642905096
 40
0.8119984435
 40
0.8747209393
 40
0.9278212877
 40
0.9699255334
 40
1.0
 40
1.0
 40
1.0
 40
1.0
 10
44.347765059
 20
69.041950954
 30
0.0
 10
44.3858781048
 20
69.0464970099
 30
0.0
 10
44.4777782042
 20
69.0540765573
 30
0.0
 10
44.6375523372
 20
69.0633104129
 30
0.0
 10
44.8392588183
 20
69.0716216972
 30
0.0
 10
45.1761445745
 20
69.0817826102
 30
0.0
 10
45.6558079388
 20
69.0899651833
 30
0.0
 10
46.2659050328
 20
69.0932918963
 30
0.0
 10
46.876120767
 20
69.0899887916
 30
0.0
 10
47.356026675
 20
69.081824928
 30
0.0
 10
47.6932168287
 20
69.0716773904
 30
0.0
 10
47.8952168395
 20
69.0633731563
 30
0.0
 10
48.0553144272
 20
69.0541435702
 30
0.0
 10
48.1474373816
 20
69.046566849
 30
0.0
 10
48.1856663499
 20
69.0420258227
 30
0.0
  0
SPLINE
  5
325
100
AcDbEntity
  8
0
100
AcDbSpline
 62
7
  6
CONTINUOUS
 70
0
 71
3
 72
11
 73
7
 74
0
 42
0.0000001
 43
0.0000001
 44
0.0000000001
 40
0.0
 40
0.0
 40
0.0
 40
0.0
 40
0.4210421362
 40
0.7260231024
 40
0.915776993
 40
1.0
 40
1.0
 40
1.0
 40
1.0
 10
48.1856663499
 20
69.0420258227
 30
0.0
 10
48.1975039024
 20
69.0406196995
 30
0.0
 10
48.2176438769
 20
69.0380624781
 30
0.0
 10
48.2439302287
 20
69.0330578877
 30
0.0
 10
48.258373063
 20
69.0293683303
 30
0.0
 10
48.2669970448
 20
69.0246921777
 30
0.0
 10
48.2669970448
 20
69.0223076103
 30
0.0
  0
SPLINE
  5
326
100
AcDbEntity
  8
0
100
AcDbSpline
 62
7
  6
CONTINUOUS
 70
0
 71
3
 72
11
 73
7
 74
0
 42
0.0000001
 43
0.0000001
 44
0.0000000001
 40
0.0
 40
0.0
 40
0.0
 40
0.0
 40
0.0843553171
 40
0.2741194085
 40
0.5790504504
 40
1.0
 40
1.0
 40
1.0
 40
1.0
 10
59.5070639148
 20
69.0223076103
 30
0.0
 10
59.5070639148
 20
69.0246781626
 30
0.0
 10
59.5156093297
 20
69.0293406018
 30
0.0
 10
59.5299541187
 20
69.033015488
 30
0.0
 10
59.5560318829
 20
69.0380021433
 30
0.0
 10
59.5760188024
 20
69.0405498815
 30
0.0
 10
59.5877650591
 20
69.041950954
 30
0.0
  0
SPLINE
  5
327
100
AcDbEntity
  8
0
100
AcDbSpline
 62
7
  6
CONTINUOUS
 70
0
 71
3
 72
19
 73
15
 74
0
 42
0.0000001
 43
0.0000001
 44
0.0000000001
 40
0.0
 40
0.0
 40
0.0
 40
0.0
 40
0.029985007
 40
0.0720050752
 40
0.1250271059
 40
0.187683133
 40
0.3352984973
 40
0.4997794008
 40
0.6642905096
 40
0.8119984435
 40
0.8747209393
 40
0.9278212877
 40
0.9699255334
 40
1.0
 40
1.0
 40
1.0
 40
1.0
 10
59.5877650591
 20
69.041950954
 30
0.0
 10
59.625878105
 20
69.0464970099
 30
0.0
 10
59.7177782044
 20
69.0540765573
 30
0.0
 10
59.8775523376
 20
69.0633104129
 30
0.0
 10
60.0792588186
 20
69.0716216972
 30
0.0
 10
60.4161445749
 20
69.0817826101
 30
0.0
 10
60.8958079391
 20
69.0899651833
 30
0.0
 10
61.505905033
 20
69.0932918962
 30
0.0
 10
62.116120767
 20
69.0899887916
 30
0.0
 10
62.596026675
 20
69.081824928
 30
0.0
 10
62.9332168287
 20
69.0716773904
 30
0.0
 10
63.1352168396
 20
69.0633731563
 30
0.0
 10
63.2953144272
 20
69.0541435702
 30
0.0
 10
63.3874373817
 20
69.046566849
 30
0.0
 10
63.42566635
 20
69.0420258227
 30
0.0
  0
SPLINE
  5
328
100
AcDbEntity
  8
0
100
AcDbSpline
 62
7
  6
CONTINUOUS
 70
0
 71
3
 72
11
 73
7
 74
0
 42
0.0000001
 43
0.0000001
 44
0.0000000001
 40
0.0
 40
0.0
 40
0.0
 40
0.0
 40
0.4210421361
 40
0.7260231023
 40
0.915776993
 40
1.0
 40
1.0
 40
1.0
 40
1.0
 10
63.42566635
 20
69.0420258227
 30
0.0
 10
63.4375039025
 20
69.0406196995
 30
0.0
 10
63.457643877
 20
69.0380624781
 30
0.0
 10
63.4839302288
 20
69.0330578876
 30
0.0
 10
63.4983730631
 20
69.0293683303
 30
0.0
 10
63.5069970449
 20
69.0246921777
 30
0.0
 10
63.5069970449
 20
69.0223076103
 30
0.0
  0
SPLINE
  5
329
100
AcDbEntity
  8
0
100
AcDbSpline
 62
7
  6
CONTINUOUS
 70
0
 71
3
 72
11
 73
7
 74
0
 42
0.0000001
 43
0.0000001
 44
0.0000000001
 40
0.0
 40
0.0
 40
0.0
 40
0.0
 40
0.2963079356
 40
0.5562960688
 40
0.7852631864
 40
1.0
 40
1.0
 40
1.0
 40
1.0
 10
11.2970304799
 20
69.1410382259
 30
0.0
 10
11.198562381
 20
69.1410382259
 30
0.0
 10
11.0108922616
 20
69.0992458074
 30
0.0
 10
10.7968857338
 20
68.9382481488
 30
0.0
 10
10.6736409199
 20
68.7334283643
 30
0.0
 10
10.6470304798
 20
68.5847011678
 30
0.0
 10
10.6470304799
 20
68.5133405215
 30
0.0
  0
SPLINE
  5
32A
100
AcDbEntity
  8
0
100
AcDbSpline
 62
7
  6
CONTINUOUS
 70
0
 71
3
 72
11
 73
7
 74
0
 42
0.0000001
 43
0.0000001
 44
0.0000000001
 40
0.0
 40
0.0
 40
0.0
 40
0.0
 40
0.0829233258
 40
0.2724303499
 40
0.5778348729
 40
1.0
 40
1.0
 40
1.0
 40
1.0
 10
54.3271239925
 20
69.0223088993
 30
0.0
 10
54.3271239925
 20
69.0249636358
 30
0.0
 10
54.3370134224
 20
69.0300265784
 30
0.0
 10
54.3532394327
 20
69.0340640925
 30
0.0
 10
54.3831029939
 20
69.0395146462
 30
0.0
 10
54.4059184677
 20
69.042300627
 30
0.0
 10
54.4193469055
 20
69.0438308378
 30
0.0
  0
SPLINE
  5
32B
100
AcDbEntity
  8
0
100
AcDbSpline
 62
7
  6
CONTINUOUS
 70
0
 71
3
 72
11
 73
7
 74
0
 42
0.0000001
 43
0.0000001
 44
0.0000000001
 40
0.0
 40
0.0
 40
0.0
 40
0.0
 40
0.4222093389
 40
0.7276363851
 40
0.9171378965
 40
1.0
 40
1.0
 40
1.0
 40
1.0
 10
58.4343594332
 20
69.0438698413
 30
0.0
 10
58.447839403
 20
69.0423368188
 30
0.0
 10
58.4707411205
 20
69.0395454498
 30
0.0
 10
58.5007224072
 20
69.0340851462
 30
0.0
 10
58.5170032467
 20
69.0300390262
 30
0.0
 10
58.5269369665
 20
69.0249689298
 30
0.0
 10
58.5269369665
 20
69.02230632
 30
0.0
  0
SPLINE
  5
32C
100
AcDbEntity
  8
0
100
AcDbSpline
 62
7
  6
CONTINUOUS
 70
0
 71
3
 72
11
 73
7
 74
0
 42
0.0000001
 43
0.0000001
 44
0.0000000001
 40
0.0
 40
0.0
 40
0.0
 40
0.0
 40
0.0829233258
 40
0.2724303499
 40
0.5778348728
 40
1.0
 40
1.0
 40
1.0
 40
1.0
 10
44.1671239921
 20
69.0223088993
 30
0.0
 10
44.1671239921
 20
69.0249636358
 30
0.0
 10
44.1770134221
 20
69.0300265784
 30
0.0
 10
44.1932394324
 20
69.0340640925
 30
0.0
 10
44.2231029937
 20
69.0395146462
 30
0.0
 10
44.2459184676
 20
69.042300627
 30
0.0
 10
44.2593469054
 20
69.0438308378
 30
0.0
  0
SPLINE
  5
32D
100
AcDbEntity
  8
0
100
AcDbSpline
 62
7
  6
CONTINUOUS
 70
0
 71
3
 72
11
 73
7
 74
0
 42
0.0000001
 43
0.0000001
 44
0.0000000001
 40
0.0
 40
0.0
 40
0.0
 40
0.0
 40
0.422209339
 40
0.7276363852
 40
0.9171378965
 40
1.0
 40
1.0
 40
1.0
 40
1.0
 10
48.2743594332
 20
69.0438698413
 30
0.0
 10
48.287839403
 20
69.0423368188
 30
0.0
 10
48.3107411205
 20
69.0395454498
 30
0.0
 10
48.3407224072
 20
69.0340851462
 30
0.0
 10
48.3570032467
 20
69.0300390262
 30
0.0
 10
48.3669369666
 20
69.0249689298
 30
0.0
 10
48.3669369666
 20
69.02230632
 30
0.0
  0
SPLINE
  5
32E
100
AcDbEntity
  8
0
100
AcDbSpline
 62
7
  6
CONTINUOUS
 70
0
 71
3
 72
13
 73
9
 74
0
 42
0.0000001
 43
0.0000001
 44
0.0000000001
 40
0.0
 40
0.0
 40
0.0
 40
0.0
 40
0.1521288816
 40
0.297339495
 40
0.4321459018
 40
0.5572596534
 40
0.7857694718
 40
1.0
 40
1.0
 40
1.0
 40
1.0
 10
81.1970304799
 20
69.1410382262
 30
0.0
 10
81.2477354368
 20
69.1410382262
 30
0.0
 10
81.3471176286
 20
69.12874994
 30
0.0
 10
81.4840996982
 20
69.0812409868
 30
0.0
 10
81.6006403564
 20
69.0110123312
 30
0.0
 10
81.7206818332
 20
68.8996765783
 30
0.0
 10
81.8204256342
 20
68.7334898986
 30
0.0
 10
81.8470304799
 20
68.5847441211
 30
0.0
 10
81.8470304799
 20
68.5133405218
 30
0.0
  0
SPLINE
  5
32F
100
AcDbEntity
  8
0
100
AcDbSpline
 62
7
  6
CONTINUOUS
 70
0
 71
3
 72
11
 73
7
 74
0
 42
0.0000001
 43
0.0000001
 44
0.0000000001
 40
0.0
 40
0.0
 40
0.0
 40
0.0
 40
0.0843553163
 40
0.2741194007
 40
0.5790504398
 40
1.0
 40
1.0
 40
1.0
 40
1.0
 10
53.3469970449
 20
69.0223076103
 30
0.0
 10
53.3469970449
 20
69.019937058
 30
0.0
 10
53.3384516309
 20
69.0152746182
 30
0.0
 10
53.3241068417
 20
69.0115997318
 30
0.0
 10
53.2980290776
 20
69.0066130761
 30
0.0
 10
53.2780421578
 20
69.0040653379
 30
0.0
 10
53.2662959007
 20
69.0026642653
 30
0.0
  0
SPLINE
  5
330
100
AcDbEntity
  8
0
100
AcDbSpline
 62
7
  6
CONTINUOUS
 70
0
 71
3
 72
11
 73
7
 74
0
 42
0.0000001
 43
0.0000001
 44
0.0000000001
 40
0.0
 40
0.0
 40
0.0
 40
0.0
 40
0.4210421464
 40
0.7260231099
 40
0.9157769939
 40
1.0
 40
1.0
 40
1.0
 40
1.0
 10
49.4283946097
 20
69.0025893966
 30
0.0
 10
49.4165570569
 20
69.0039955198
 30
0.0
 10
49.396417082
 20
69.0065527413
 30
0.0
 10
49.3701307303
 20
69.0115573322
 30
0.0
 10
49.3556878958
 20
69.0152468897
 30
0.0
 10
49.3470639148
 20
69.0199230429
 30
0.0
 10
49.3470639148
 20
69.0223076103
 30
0.0
  0
SPLINE
  5
331
100
AcDbEntity
  8
0
100
AcDbSpline
 62
7
  6
CONTINUOUS
 70
0
 71
3
 72
11
 73
7
 74
0
 42
0.0000001
 43
0.0000001
 44
0.0000000001
 40
0.0
 40
0.0
 40
0.0
 40
0.0
 40
0.0829233258
 40
0.2724303499
 40
0.5778348728
 40
1.0
 40
1.0
 40
1.0
 40
1.0
 10
49.2471239924
 20
69.0223088993
 30
0.0
 10
49.2471239924
 20
69.0249636358
 30
0.0
 10
49.2570134224
 20
69.0300265784
 30
0.0
 10
49.2732394327
 20
69.0340640925
 30
0.0
 10
49.3031029939
 20
69.0395146462
 30
0.0
 10
49.3259184677
 20
69.042300627
 30
0.0
 10
49.3393469055
 20
69.0438308378
 30
0.0
  0
SPLINE
  5
332
100
AcDbEntity
  8
0
100
AcDbSpline
 62
7
  6
CONTINUOUS
 70
0
 71
3
 72
11
 73
7
 74
0
 42
0.0000001
 43
0.0000001
 44
0.0000000001
 40
0.0
 40
0.0
 40
0.0
 40
0.0
 40
0.422209339
 40
0.7276363852
 40
0.9171378965
 40
1.0
 40
1.0
 40
1.0
 40
1.0
 10
53.3543594331
 20
69.0438698413
 30
0.0
 10
53.367839403
 20
69.0423368188
 30
0.0
 10
53.3907411205
 20
69.0395454498
 30
0.0
 10
53.4207224071
 20
69.0340851462
 30
0.0
 10
53.4370032467
 20
69.0300390262
 30
0.0
 10
53.4469369665
 20
69.0249689298
 30
0.0
 10
53.4469369665
 20
69.02230632
 30
0.0
  0
SPLINE
  5
333
100
AcDbEntity
  8
0
100
AcDbSpline
 62
7
  6
CONTINUOUS
 70
0
 71
3
 72
11
 73
7
 74
0
 42
0.0000001
 43
0.0000001
 44
0.0000000001
 40
0.0
 40
0.0
 40
0.0
 40
0.0
 40
0.0843553163
 40
0.2741194009
 40
0.5790504402
 40
1.0
 40
1.0
 40
1.0
 40
1.0
 10
27.946997045
 20
69.0223076103
 30
0.0
 10
27.946997045
 20
69.019937058
 30
0.0
 10
27.938451631
 20
69.0152746182
 30
0.0
 10
27.9241068417
 20
69.0115997318
 30
0.0
 10
27.8980290775
 20
69.0066130761
 30
0.0
 10
27.8780421577
 20
69.0040653379
 30
0.0
 10
27.8662959006
 20
69.0026642653
 30
0.0
  0
SPLINE
  5
334
100
AcDbEntity
  8
0
100
AcDbSpline
 62
7
  6
CONTINUOUS
 70
0
 71
3
 72
11
 73
7
 74
0
 42
0.0000001
 43
0.0000001
 44
0.0000000001
 40
0.0
 40
0.0
 40
0.0
 40
0.0
 40
0.4210421462
 40
0.7260231098
 40
0.9157769939
 40
1.0
 40
1.0
 40
1.0
 40
1.0
 10
24.0283946097
 20
69.0025893966
 30
0.0
 10
24.0165570568
 20
69.0039955198
 30
0.0
 10
23.996417082
 20
69.0065527413
 30
0.0
 10
23.9701307302
 20
69.0115573322
 30
0.0
 10
23.9556878957
 20
69.0152468897
 30
0.0
 10
23.9470639147
 20
69.0199230429
 30
0.0
 10
23.9470639147
 20
69.0223076103
 30
0.0
  0
SPLINE
  5
335
100
AcDbEntity
  8
0
100
AcDbSpline
 62
7
  6
CONTINUOUS
 70
0
 71
3
 72
11
 73
7
 74
0
 42
0.0000001
 43
0.0000001
 44
0.0000000001
 40
0.0
 40
0.0
 40
0.0
 40
0.0
 40
0.0843553163
 40
0.2741194006
 40
0.5790504397
 40
1.0
 40
1.0
 40
1.0
 40
1.0
 10
58.4269970448
 20
69.0223076103
 30
0.0
 10
58.4269970448
 20
69.019937058
 30
0.0
 10
58.4184516309
 20
69.0152746182
 30
0.0
 10
58.4041068417
 20
69.0115997318
 30
0.0
 10
58.3780290776
 20
69.0066130761
 30
0.0
 10
58.3580421578
 20
69.0040653379
 30
0.0
 10
58.3462959007
 20
69.0026642653
 30
0.0
  0
SPLINE
  5
336
100
AcDbEntity
  8
0
100
AcDbSpline
 62
7
  6
CONTINUOUS
 70
0
 71
3
 72
11
 73
7
 74
0
 42
0.0000001
 43
0.0000001
 44
0.0000000001
 40
0.0
 40
0.0
 40
0.0
 40
0.0
 40
0.4210421465
 40
0.72602311
 40
0.9157769939
 40
1.0
 40
1.0
 40
1.0
 40
1.0
 10
54.5083946097
 20
69.0025893966
 30
0.0
 10
54.4965570569
 20
69.0039955198
 30
0.0
 10
54.476417082
 20
69.0065527413
 30
0.0
 10
54.4501307303
 20
69.0115573322
 30
0.0
 10
54.4356878958
 20
69.0152468897
 30
0.0
 10
54.4270639149
 20
69.0199230429
 30
0.0
 10
54.4270639149
 20
69.0223076103
 30
0.0
  0
SPLINE
  5
337
100
AcDbEntity
  8
0
100
AcDbSpline
 62
7
  6
CONTINUOUS
 70
0
 71
3
 72
11
 73
7
 74
0
 42
0.0000001
 43
0.0000001
 44
0.0000000001
 40
0.0
 40
0.0
 40
0.0
 40
0.0
 40
0.0829233258
 40
0.2724303498
 40
0.5778348727
 40
1.0
 40
1.0
 40
1.0
 40
1.0
 10
39.0871239923
 20
69.0223088993
 30
0.0
 10
39.0871239923
 20
69.0249636358
 30
0.0
 10
39.0970134223
 20
69.0300265784
 30
0.0
 10
39.1132394326
 20
69.0340640925
 30
0.0
 10
39.1431029937
 20
69.0395146462
 30
0.0
 10
39.1659184676
 20
69.042300627
 30
0.0
 10
39.1793469054
 20
69.0438308378
 30
0.0
  0
SPLINE
  5
338
100
AcDbEntity
  8
0
100
AcDbSpline
 62
7
  6
CONTINUOUS
 70
0
 71
3
 72
11
 73
7
 74
0
 42
0.0000001
 43
0.0000001
 44
0.0000000001
 40
0.0
 40
0.0
 40
0.0
 40
0.0
 40
0.4222093391
 40
0.7276363853
 40
0.9171378965
 40
1.0
 40
1.0
 40
1.0
 40
1.0
 10
43.1943594332
 20
69.0438698413
 30
0.0
 10
43.207839403
 20
69.0423368188
 30
0.0
 10
43.2307411204
 20
69.0395454498
 30
0.0
 10
43.2607224071
 20
69.0340851462
 30
0.0
 10
43.2770032466
 20
69.0300390262
 30
0.0
 10
43.2869369664
 20
69.0249689298
 30
0.0
 10
43.2869369664
 20
69.02230632
 30
0.0
  0
SPLINE
  5
339
100
AcDbEntity
  8
0
100
AcDbSpline
 62
7
  6
CONTINUOUS
 70
0
 71
3
 72
11
 73
7
 74
0
 42
0.0000001
 43
0.0000001
 44
0.0000000001
 40
0.0
 40
0.0
 40
0.0
 40
0.0
 40
0.0829233259
 40
0.2724303499
 40
0.5778348728
 40
1.0
 40
1.0
 40
1.0
 40
1.0
 10
28.9271239927
 20
69.0223088993
 30
0.0
 10
28.9271239927
 20
69.0249636357
 30
0.0
 10
28.9370134227
 20
69.0300265783
 30
0.0
 10
28.953239433
 20
69.0340640925
 30
0.0
 10
28.9831029941
 20
69.0395146461
 30
0.0
 10
29.005918468
 20
69.0423006269
 30
0.0
 10
29.0193469058
 20
69.0438308377
 30
0.0
  0
SPLINE
  5
33A
100
AcDbEntity
  8
0
100
AcDbSpline
 62
7
  6
CONTINUOUS
 70
0
 71
3
 72
11
 73
7
 74
0
 42
0.0000001
 43
0.0000001
 44
0.0000000001
 40
0.0
 40
0.0
 40
0.0
 40
0.0
 40
0.4222093391
 40
0.7276363853
 40
0.9171378966
 40
1.0
 40
1.0
 40
1.0
 40
1.0
 10
33.0343594335
 20
69.0438698414
 30
0.0
 10
33.0478394035
 20
69.0423368189
 30
0.0
 10
33.0707411211
 20
69.0395454498
 30
0.0
 10
33.100722408
 20
69.0340851462
 30
0.0
 10
33.1170032477
 20
69.0300390262
 30
0.0
 10
33.1269369676
 20
69.0249689298
 30
0.0
 10
33.1269369676
 20
69.0223063199
 30
0.0
  0
SPLINE
  5
33B
100
AcDbEntity
  8
0
100
AcDbSpline
 62
7
  6
CONTINUOUS
 70
0
 71
3
 72
11
 73
7
 74
0
 42
0.0000001
 43
0.0000001
 44
0.0000000001
 40
0.0
 40
0.0
 40
0.0
 40
0.0
 40
0.0829233258
 40
0.2724303502
 40
0.5778348733
 40
1.0
 40
1.0
 40
1.0
 40
1.0
 10
34.0071239925
 20
69.0223088994
 30
0.0
 10
34.0071239925
 20
69.0249636359
 30
0.0
 10
34.0170134225
 20
69.0300265784
 30
0.0
 10
34.0332394327
 20
69.0340640925
 30
0.0
 10
34.0631029939
 20
69.0395146462
 30
0.0
 10
34.0859184678
 20
69.042300627
 30
0.0
 10
34.0993469056
 20
69.0438308378
 30
0.0
  0
SPLINE
  5
33C
100
AcDbEntity
  8
0
100
AcDbSpline
 62
7
  6
CONTINUOUS
 70
0
 71
3
 72
11
 73
7
 74
0
 42
0.0000001
 43
0.0000001
 44
0.0000000001
 40
0.0
 40
0.0
 40
0.0
 40
0.0
 40
0.4222093387
 40
0.727636385
 40
0.9171378967
 40
1.0
 40
1.0
 40
1.0
 40
1.0
 10
38.1143594338
 20
69.0438698414
 30
0.0
 10
38.1278394038
 20
69.0423368189
 30
0.0
 10
38.1507411214
 20
69.0395454499
 30
0.0
 10
38.1807224084
 20
69.0340851463
 30
0.0
 10
38.197003248
 20
69.0300390263
 30
0.0
 10
38.206936968
 20
69.0249689299
 30
0.0
 10
38.206936968
 20
69.0223063201
 30
0.0
  0
SPLINE
  5
33D
100
AcDbEntity
  8
0
100
AcDbSpline
 62
7
  6
CONTINUOUS
 70
0
 71
3
 72
11
 73
7
 74
0
 42
0.0000001
 43
0.0000001
 44
0.0000000001
 40
0.0
 40
0.0
 40
0.0
 40
0.0
 40
0.0843553163
 40
0.2741194006
 40
0.5790504397
 40
1.0
 40
1.0
 40
1.0
 40
1.0
 10
68.5869970448
 20
69.0223076103
 30
0.0
 10
68.5869970448
 20
69.019937058
 30
0.0
 10
68.5784516309
 20
69.0152746182
 30
0.0
 10
68.5641068417
 20
69.0115997318
 30
0.0
 10
68.5380290776
 20
69.0066130761
 30
0.0
 10
68.5180421578
 20
69.0040653379
 30
0.0
 10
68.5062959007
 20
69.0026642653
 30
0.0
  0
SPLINE
  5
33E
100
AcDbEntity
  8
0
100
AcDbSpline
 62
7
  6
CONTINUOUS
 70
0
 71
3
 72
11
 73
7
 74
0
 42
0.0000001
 43
0.0000001
 44
0.0000000001
 40
0.0
 40
0.0
 40
0.0
 40
0.0
 40
0.4210421465
 40
0.72602311
 40
0.9157769939
 40
1.0
 40
1.0
 40
1.0
 40
1.0
 10
64.6683946097
 20
69.0025893966
 30
0.0
 10
64.6565570569
 20
69.0039955198
 30
0.0
 10
64.636417082
 20
69.0065527413
 30
0.0
 10
64.6101307303
 20
69.0115573322
 30
0.0
 10
64.5956878958
 20
69.0152468897
 30
0.0
 10
64.5870639149
 20
69.0199230429
 30
0.0
 10
64.5870639149
 20
69.0223076103
 30
0.0
  0
SPLINE
  5
33F
100
AcDbEntity
  8
0
100
AcDbSpline
 62
7
  6
CONTINUOUS
 70
0
 71
3
 72
11
 73
7
 74
0
 42
0.0000001
 43
0.0000001
 44
0.0000000001
 40
0.0
 40
0.0
 40
0.0
 40
0.0
 40
0.0829233259
 40
0.27243035
 40
0.577834873
 40
1.0
 40
1.0
 40
1.0
 40
1.0
 10
23.8471239925
 20
69.0223088993
 30
0.0
 10
23.8471239925
 20
69.0249636358
 30
0.0
 10
23.8570134224
 20
69.0300265783
 30
0.0
 10
23.8732394326
 20
69.0340640924
 30
0.0
 10
23.9031029936
 20
69.0395146461
 30
0.0
 10
23.9259184674
 20
69.0423006269
 30
0.0
 10
23.9393469051
 20
69.0438308377
 30
0.0
  0
SPLINE
  5
340
100
AcDbEntity
  8
0
100
AcDbSpline
 62
7
  6
CONTINUOUS
 70
0
 71
3
 72
11
 73
7
 74
0
 42
0.0000001
 43
0.0000001
 44
0.0000000001
 40
0.0
 40
0.0
 40
0.0
 40
0.0
 40
0.422209339
 40
0.7276363853
 40
0.9171378966
 40
1.0
 40
1.0
 40
1.0
 40
1.0
 10
27.9543594336
 20
69.0438698414
 30
0.0
 10
27.9678394036
 20
69.0423368189
 30
0.0
 10
27.9907411212
 20
69.0395454498
 30
0.0
 10
28.0207224081
 20
69.0340851462
 30
0.0
 10
28.0370032477
 20
69.0300390262
 30
0.0
 10
28.0469369677
 20
69.0249689298
 30
0.0
 10
28.0469369677
 20
69.02230632
 30
0.0
  0
SPLINE
  5
341
100
AcDbEntity
  8
0
100
AcDbSpline
 62
7
  6
CONTINUOUS
 70
0
 71
3
 72
11
 73
7
 74
0
 42
0.0000001
 43
0.0000001
 44
0.0000000001
 40
0.0
 40
0.0
 40
0.0
 40
0.0
 40
0.0829233259
 40
0.2724303499
 40
0.5778348729
 40
1.0
 40
1.0
 40
1.0
 40
1.0
 10
69.5671239927
 20
69.0223088994
 30
0.0
 10
69.5671239927
 20
69.0249636358
 30
0.0
 10
69.5770134227
 20
69.0300265784
 30
0.0
 10
69.5932394329
 20
69.0340640925
 30
0.0
 10
69.623102994
 20
69.0395146462
 30
0.0
 10
69.6459184678
 20
69.042300627
 30
0.0
 10
69.6593469055
 20
69.0438308378
 30
0.0
  0
SPLINE
  5
342
100
AcDbEntity
  8
0
100
AcDbSpline
 62
7
  6
CONTINUOUS
 70
0
 71
3
 72
11
 73
7
 74
0
 42
0.0000001
 43
0.0000001
 44
0.0000000001
 40
0.0
 40
0.0
 40
0.0
 40
0.0
 40
0.4222093391
 40
0.7276363853
 40
0.9171378966
 40
1.0
 40
1.0
 40
1.0
 40
1.0
 10
73.6743594335
 20
69.0438698414
 30
0.0
 10
73.6878394034
 20
69.0423368189
 30
0.0
 10
73.7107411209
 20
69.0395454498
 30
0.0
 10
73.7407224076
 20
69.0340851462
 30
0.0
 10
73.7570032472
 20
69.0300390262
 30
0.0
 10
73.7669369671
 20
69.0249689298
 30
0.0
 10
73.7669369671
 20
69.02230632
 30
0.0
  0
SPLINE
  5
343
100
AcDbEntity
  8
0
100
AcDbSpline
 62
7
  6
CONTINUOUS
 70
0
 71
3
 72
11
 73
7
 74
0
 42
0.0000001
 43
0.0000001
 44
0.0000000001
 40
0.0
 40
0.0
 40
0.0
 40
0.0
 40
0.0829233259
 40
0.27243035
 40
0.5778348729
 40
1.0
 40
1.0
 40
1.0
 40
1.0
 10
18.7671239927
 20
69.0223088993
 30
0.0
 10
18.7671239927
 20
69.0249636358
 30
0.0
 10
18.7770134225
 20
69.0300265783
 30
0.0
 10
18.7932394327
 20
69.0340640925
 30
0.0
 10
18.8231029937
 20
69.0395146461
 30
0.0
 10
18.8459184674
 20
69.0423006269
 30
0.0
 10
18.8593469051
 20
69.0438308377
 30
0.0
  0
SPLINE
  5
344
100
AcDbEntity
  8
0
100
AcDbSpline
 62
7
  6
CONTINUOUS
 70
0
 71
3
 72
11
 73
7
 74
0
 42
0.0000001
 43
0.0000001
 44
0.0000000001
 40
0.0
 40
0.0
 40
0.0
 40
0.0
 40
0.4222093391
 40
0.7276363853
 40
0.9171378966
 40
1.0
 40
1.0
 40
1.0
 40
1.0
 10
22.8743594336
 20
69.0438698414
 30
0.0
 10
22.8878394035
 20
69.0423368189
 30
0.0
 10
22.9107411211
 20
69.0395454498
 30
0.0
 10
22.9407224079
 20
69.0340851462
 30
0.0
 10
22.9570032475
 20
69.0300390262
 30
0.0
 10
22.9669369674
 20
69.0249689298
 30
0.0
 10
22.9669369674
 20
69.02230632
 30
0.0
  0
SPLINE
  5
345
100
AcDbEntity
  8
0
100
AcDbSpline
 62
7
  6
CONTINUOUS
 70
0
 71
3
 72
11
 73
7
 74
0
 42
0.0000001
 43
0.0000001
 44
0.0000000001
 40
0.0
 40
0.0
 40
0.0
 40
0.0
 40
0.0843553163
 40
0.2741194007
 40
0.5790504399
 40
1.0
 40
1.0
 40
1.0
 40
1.0
 10
73.6669970448
 20
69.0223076103
 30
0.0
 10
73.6669970448
 20
69.0199370579
 30
0.0
 10
73.6584516309
 20
69.0152746182
 30
0.0
 10
73.6441068417
 20
69.0115997318
 30
0.0
 10
73.6180290776
 20
69.0066130761
 30
0.0
 10
73.5980421578
 20
69.0040653379
 30
0.0
 10
73.5862959007
 20
69.0026642653
 30
0.0
  0
SPLINE
  5
346
100
AcDbEntity
  8
0
100
AcDbSpline
 62
7
  6
CONTINUOUS
 70
0
 71
3
 72
11
 73
7
 74
0
 42
0.0000001
 43
0.0000001
 44
0.0000000001
 40
0.0
 40
0.0
 40
0.0
 40
0.0
 40
0.4210421463
 40
0.7260231099
 40
0.9157769939
 40
1.0
 40
1.0
 40
1.0
 40
1.0
 10
69.7483946097
 20
69.0025893966
 30
0.0
 10
69.7365570569
 20
69.0039955198
 30
0.0
 10
69.716417082
 20
69.0065527413
 30
0.0
 10
69.6901307303
 20
69.0115573322
 30
0.0
 10
69.6756878958
 20
69.0152468897
 30
0.0
 10
69.6670639149
 20
69.0199230429
 30
0.0
 10
69.6670639149
 20
69.0223076103
 30
0.0
  0
SPLINE
  5
347
100
AcDbEntity
  8
0
100
AcDbSpline
 62
7
  6
CONTINUOUS
 70
0
 71
3
 72
11
 73
7
 74
0
 42
0.0000001
 43
0.0000001
 44
0.0000000001
 40
0.0
 40
0.0
 40
0.0
 40
0.0
 40
0.0843553163
 40
0.2741194006
 40
0.5790504397
 40
1.0
 40
1.0
 40
1.0
 40
1.0
 10
38.1069970448
 20
69.0223076103
 30
0.0
 10
38.1069970448
 20
69.019937058
 30
0.0
 10
38.0984516308
 20
69.0152746182
 30
0.0
 10
38.0841068417
 20
69.0115997318
 30
0.0
 10
38.0580290776
 20
69.0066130761
 30
0.0
 10
38.0380421578
 20
69.0040653379
 30
0.0
 10
38.0262959007
 20
69.0026642653
 30
0.0
  0
SPLINE
  5
348
100
AcDbEntity
  8
0
100
AcDbSpline
 62
7
  6
CONTINUOUS
 70
0
 71
3
 72
11
 73
7
 74
0
 42
0.0000001
 43
0.0000001
 44
0.0000000001
 40
0.0
 40
0.0
 40
0.0
 40
0.0
 40
0.4210421465
 40
0.72602311
 40
0.9157769939
 40
1.0
 40
1.0
 40
1.0
 40
1.0
 10
34.1883946097
 20
69.0025893966
 30
0.0
 10
34.1765570569
 20
69.0039955198
 30
0.0
 10
34.156417082
 20
69.0065527413
 30
0.0
 10
34.1301307303
 20
69.0115573322
 30
0.0
 10
34.1156878959
 20
69.0152468897
 30
0.0
 10
34.1070639149
 20
69.0199230429
 30
0.0
 10
34.1070639149
 20
69.0223076103
 30
0.0
  0
SPLINE
  5
349
100
AcDbEntity
  8
0
100
AcDbSpline
 62
7
  6
CONTINUOUS
 70
0
 71
3
 72
11
 73
7
 74
0
 42
0.0000001
 43
0.0000001
 44
0.0000000001
 40
0.0
 40
0.0
 40
0.0
 40
0.0
 40
0.0829233259
 40
0.2724303499
 40
0.5778348728
 40
1.0
 40
1.0
 40
1.0
 40
1.0
 10
59.4071239926
 20
69.0223088993
 30
0.0
 10
59.4071239926
 20
69.0249636358
 30
0.0
 10
59.4170134225
 20
69.0300265783
 30
0.0
 10
59.4332394326
 20
69.0340640925
 30
0.0
 10
59.4631029936
 20
69.0395146461
 30
0.0
 10
59.4859184673
 20
69.0423006269
 30
0.0
 10
59.499346905
 20
69.0438308377
 30
0.0
  0
SPLINE
  5
34A
100
AcDbEntity
  8
0
100
AcDbSpline
 62
7
  6
CONTINUOUS
 70
0
 71
3
 72
11
 73
7
 74
0
 42
0.0000001
 43
0.0000001
 44
0.0000000001
 40
0.0
 40
0.0
 40
0.0
 40
0.0
 40
0.4222093391
 40
0.7276363853
 40
0.9171378965
 40
1.0
 40
1.0
 40
1.0
 40
1.0
 10
63.5143594333
 20
69.0438698413
 30
0.0
 10
63.5278394031
 20
69.0423368188
 30
0.0
 10
63.5507411206
 20
69.0395454498
 30
0.0
 10
63.5807224073
 20
69.0340851462
 30
0.0
 10
63.5970032468
 20
69.0300390262
 30
0.0
 10
63.6069369666
 20
69.0249689298
 30
0.0
 10
63.6069369666
 20
69.02230632
 30
0.0
  0
SPLINE
  5
34B
100
AcDbEntity
  8
0
100
AcDbSpline
 62
7
  6
CONTINUOUS
 70
0
 71
3
 72
11
 73
7
 74
0
 42
0.0000001
 43
0.0000001
 44
0.0000000001
 40
0.0
 40
0.0
 40
0.0
 40
0.0
 40
0.0843553163
 40
0.2741194007
 40
0.5790504399
 40
1.0
 40
1.0
 40
1.0
 40
1.0
 10
33.0269970449
 20
69.0223076103
 30
0.0
 10
33.0269970449
 20
69.0199370579
 30
0.0
 10
33.0184516309
 20
69.0152746182
 30
0.0
 10
33.0041068417
 20
69.0115997318
 30
0.0
 10
32.9780290776
 20
69.0066130761
 30
0.0
 10
32.9580421578
 20
69.0040653379
 30
0.0
 10
32.9462959007
 20
69.0026642653
 30
0.0
  0
SPLINE
  5
34C
100
AcDbEntity
  8
0
100
AcDbSpline
 62
7
  6
CONTINUOUS
 70
0
 71
3
 72
11
 73
7
 74
0
 42
0.0000001
 43
0.0000001
 44
0.0000000001
 40
0.0
 40
0.0
 40
0.0
 40
0.0
 40
0.4210421463
 40
0.7260231099
 40
0.9157769939
 40
1.0
 40
1.0
 40
1.0
 40
1.0
 10
29.1083946097
 20
69.0025893966
 30
0.0
 10
29.0965570569
 20
69.0039955198
 30
0.0
 10
29.076417082
 20
69.0065527413
 30
0.0
 10
29.0501307303
 20
69.0115573322
 30
0.0
 10
29.0356878958
 20
69.0152468897
 30
0.0
 10
29.0270639148
 20
69.0199230429
 30
0.0
 10
29.0270639148
 20
69.0223076103
 30
0.0
  0
SPLINE
  5
34D
100
AcDbEntity
  8
0
100
AcDbSpline
 62
7
  6
CONTINUOUS
 70
0
 71
3
 72
11
 73
7
 74
0
 42
0.0000001
 43
0.0000001
 44
0.0000000001
 40
0.0
 40
0.0
 40
0.0
 40
0.0
 40
0.0829233258
 40
0.2724303499
 40
0.5778348728
 40
1.0
 40
1.0
 40
1.0
 40
1.0
 10
64.4871239926
 20
69.0223088994
 30
0.0
 10
64.4871239926
 20
69.0249636358
 30
0.0
 10
64.4970134225
 20
69.0300265784
 30
0.0
 10
64.5132394328
 20
69.0340640925
 30
0.0
 10
64.5431029939
 20
69.0395146462
 30
0.0
 10
64.5659184677
 20
69.042300627
 30
0.0
 10
64.5793469055
 20
69.0438308378
 30
0.0
  0
SPLINE
  5
34E
100
AcDbEntity
  8
0
100
AcDbSpline
 62
7
  6
CONTINUOUS
 70
0
 71
3
 72
11
 73
7
 74
0
 42
0.0000001
 43
0.0000001
 44
0.0000000001
 40
0.0
 40
0.0
 40
0.0
 40
0.0
 40
0.422209339
 40
0.7276363852
 40
0.9171378966
 40
1.0
 40
1.0
 40
1.0
 40
1.0
 10
68.5943594334
 20
69.0438698414
 30
0.0
 10
68.6078394033
 20
69.0423368189
 30
0.0
 10
68.6307411208
 20
69.0395454498
 30
0.0
 10
68.6607224075
 20
69.0340851462
 30
0.0
 10
68.6770032471
 20
69.0300390262
 30
0.0
 10
68.6869369669
 20
69.0249689298
 30
0.0
 10
68.6869369669
 20
69.02230632
 30
0.0
  0
SPLINE
  5
34F
100
AcDbEntity
  8
0
100
AcDbSpline
 62
7
  6
CONTINUOUS
 70
0
 71
3
 72
11
 73
7
 74
0
 42
0.0000001
 43
0.0000001
 44
0.0000000001
 40
0.0
 40
0.0
 40
0.0
 40
0.0
 40
0.0843553163
 40
0.2741194006
 40
0.5790504397
 40
1.0
 40
1.0
 40
1.0
 40
1.0
 10
48.2669970448
 20
69.0223076103
 30
0.0
 10
48.2669970448
 20
69.019937058
 30
0.0
 10
48.2584516308
 20
69.0152746182
 30
0.0
 10
48.2441068417
 20
69.0115997318
 30
0.0
 10
48.2180290776
 20
69.0066130761
 30
0.0
 10
48.1980421578
 20
69.0040653379
 30
0.0
 10
48.1862959007
 20
69.0026642653
 30
0.0
  0
SPLINE
  5
350
100
AcDbEntity
  8
0
100
AcDbSpline
 62
7
  6
CONTINUOUS
 70
0
 71
3
 72
11
 73
7
 74
0
 42
0.0000001
 43
0.0000001
 44
0.0000000001
 40
0.0
 40
0.0
 40
0.0
 40
0.0
 40
0.4210421465
 40
0.72602311
 40
0.9157769939
 40
1.0
 40
1.0
 40
1.0
 40
1.0
 10
44.3483946097
 20
69.0025893966
 30
0.0
 10
44.3365570569
 20
69.0039955198
 30
0.0
 10
44.3164170821
 20
69.0065527413
 30
0.0
 10
44.2901307303
 20
69.0115573322
 30
0.0
 10
44.2756878959
 20
69.0152468897
 30
0.0
 10
44.2670639149
 20
69.0199230429
 30
0.0
 10
44.2670639149
 20
69.0223076103
 30
0.0
  0
SPLINE
  5
351
100
AcDbEntity
  8
0
100
AcDbSpline
 62
7
  6
CONTINUOUS
 70
0
 71
3
 72
11
 73
7
 74
0
 42
0.0000001
 43
0.0000001
 44
0.0000000001
 40
0.0
 40
0.0
 40
0.0
 40
0.0
 40
0.0843553163
 40
0.2741194009
 40
0.5790504402
 40
1.0
 40
1.0
 40
1.0
 40
1.0
 10
22.8669970449
 20
69.0223076103
 30
0.0
 10
22.8669970449
 20
69.0199370579
 30
0.0
 10
22.8584516309
 20
69.0152746182
 30
0.0
 10
22.8441068417
 20
69.0115997318
 30
0.0
 10
22.8180290775
 20
69.0066130761
 30
0.0
 10
22.7980421577
 20
69.0040653379
 30
0.0
 10
22.7862959006
 20
69.0026642653
 30
0.0
  0
SPLINE
  5
352
100
AcDbEntity
  8
0
100
AcDbSpline
 62
7
  6
CONTINUOUS
 70
0
 71
3
 72
11
 73
7
 74
0
 42
0.0000001
 43
0.0000001
 44
0.0000000001
 40
0.0
 40
0.0
 40
0.0
 40
0.0
 40
0.4210421462
 40
0.7260231098
 40
0.9157769939
 40
1.0
 40
1.0
 40
1.0
 40
1.0
 10
18.9483946097
 20
69.0025893966
 30
0.0
 10
18.9365570568
 20
69.0039955198
 30
0.0
 10
18.916417082
 20
69.0065527413
 30
0.0
 10
18.8901307302
 20
69.0115573322
 30
0.0
 10
18.8756878958
 20
69.0152468897
 30
0.0
 10
18.8670639147
 20
69.0199230429
 30
0.0
 10
18.8670639147
 20
69.0223076103
 30
0.0
  0
SPLINE
  5
353
100
AcDbEntity
  8
0
100
AcDbSpline
 62
7
  6
CONTINUOUS
 70
0
 71
3
 72
11
 73
7
 74
0
 42
0.0000001
 43
0.0000001
 44
0.0000000001
 40
0.0
 40
0.0
 40
0.0
 40
0.0
 40
0.0843553163
 40
0.2741194007
 40
0.5790504398
 40
1.0
 40
1.0
 40
1.0
 40
1.0
 10
43.1869970449
 20
69.0223076103
 30
0.0
 10
43.1869970449
 20
69.019937058
 30
0.0
 10
43.1784516309
 20
69.0152746182
 30
0.0
 10
43.1641068417
 20
69.0115997318
 30
0.0
 10
43.1380290776
 20
69.0066130761
 30
0.0
 10
43.1180421578
 20
69.0040653379
 30
0.0
 10
43.1062959007
 20
69.0026642653
 30
0.0
  0
SPLINE
  5
354
100
AcDbEntity
  8
0
100
AcDbSpline
 62
7
  6
CONTINUOUS
 70
0
 71
3
 72
11
 73
7
 74
0
 42
0.0000001
 43
0.0000001
 44
0.0000000001
 40
0.0
 40
0.0
 40
0.0
 40
0.0
 40
0.4210421464
 40
0.7260231099
 40
0.9157769939
 40
1.0
 40
1.0
 40
1.0
 40
1.0
 10
39.2683946097
 20
69.0025893966
 30
0.0
 10
39.2565570569
 20
69.0039955198
 30
0.0
 10
39.236417082
 20
69.0065527413
 30
0.0
 10
39.2101307303
 20
69.0115573322
 30
0.0
 10
39.1956878958
 20
69.0152468897
 30
0.0
 10
39.1870639148
 20
69.0199230429
 30
0.0
 10
39.1870639148
 20
69.0223076103
 30
0.0
  0
SPLINE
  5
355
100
AcDbEntity
  8
0
100
AcDbSpline
 62
7
  6
CONTINUOUS
 70
0
 71
3
 72
11
 73
7
 74
0
 42
0.0000001
 43
0.0000001
 44
0.0000000001
 40
0.0
 40
0.0
 40
0.0
 40
0.0
 40
0.0843553163
 40
0.2741194008
 40
0.5790504401
 40
1.0
 40
1.0
 40
1.0
 40
1.0
 10
63.5069970449
 20
69.0223076103
 30
0.0
 10
63.5069970449
 20
69.019937058
 30
0.0
 10
63.4984516309
 20
69.0152746182
 30
0.0
 10
63.4841068417
 20
69.0115997318
 30
0.0
 10
63.4580290775
 20
69.0066130761
 30
0.0
 10
63.4380421577
 20
69.0040653379
 30
0.0
 10
63.4262959006
 20
69.0026642653
 30
0.0
  0
SPLINE
  5
356
100
AcDbEntity
  8
0
100
AcDbSpline
 62
7
  6
CONTINUOUS
 70
0
 71
3
 72
11
 73
7
 74
0
 42
0.0000001
 43
0.0000001
 44
0.0000000001
 40
0.0
 40
0.0
 40
0.0
 40
0.0
 40
0.4210421463
 40
0.7260231099
 40
0.9157769939
 40
1.0
 40
1.0
 40
1.0
 40
1.0
 10
59.5883946097
 20
69.0025893966
 30
0.0
 10
59.5765570568
 20
69.0039955198
 30
0.0
 10
59.556417082
 20
69.0065527413
 30
0.0
 10
59.5301307302
 20
69.0115573322
 30
0.0
 10
59.5156878958
 20
69.0152468897
 30
0.0
 10
59.5070639148
 20
69.0199230429
 30
0.0
 10
59.5070639148
 20
69.0223076103
 30
0.0
  0
ENDSEC
  0
SECTION
  2
OBJECTS
  0
DICTIONARY
  5
C
100
AcDbDictionary
280
0
281
1
  3
ACAD_GROUP
350
D
  3
ACAD_MLINESTYLE
350
17
  3
ACAD_LAYOUT
350
1A
  3
ACAD_PLOTSETTINGS
350
19
  3
ACAD_PLOTSTYLENAME
350
E
  0
DICTIONARY
  5
D
102
{ACAD_REACTORS
330
C
102
}
100
AcDbDictionary
280
0
281
1
  0
ACDBDICTIONARYWDFLT
  5
E
102
{ACAD_REACTORS
330
C
102
}
100
AcDbDictionary
281
1
  3
Normal
350
F
100
AcDbDictionaryWithDefault
340
F
  0
DICTIONARY
  5
17
102
{ACAD_REACTORS
330
C
102
}
100
AcDbDictionary
280
0
281
1
  3
Standard
350
18
  0
DICTIONARY
  5
19
102
{ACAD_REACTORS
330
C
102
}
100
AcDbDictionary
281
1
  0
DICTIONARY
  5
1A
102
{ACAD_REACTORS
330
C
102
}
100
AcDbDictionary
281
1
  3
Model
350
357
  3
Layout1
350
358
  0
ACDBPLACEHOLDER
  5
F
102
{ACAD_REACTORS
330
E
102
}
  0
MLINESTYLE
  5
18
102
{ACAD_REACTORS
330
17
102
}
100
AcDbMlineStyle
  2
STANDARD
 70
0
  3

 62
256
 51
90.0
 52
90.0
 71
2
 49
0.5
 62
256
  6
BYLAYER
 49
-0.5
 62
256
  6
BYLAYER
  0
LAYOUT
  5
357
102
{ACAD_REACTORS
330
1A
102
}
100
AcDbPlotSettings
  1

  2
none_device
  4

  6

 40
0.0
 41
0.0
 42
0.0
 43
0.0
 44
210.0
 45
297.0
 46
0.0
 47
0.0
 48
0.0
 49
0.0
140
0.0
141
0.0
142
1.0
143
1.0
 70
1024
 72
1
 73
0
 74
0
  7

 75
0
147
1.0
148
0.0
149
0.0
100
AcDbLayout
  1
Model
 70
0
 71
0
 10
0.0
 20
0.0
 11
210.0
 21
297.0
 12
0.0
 22
0.0
 32
0.0
 14
0.0
 24
0.0
 34
0.0
 15
0.0
 25
0.0
 35
0.0
146
0.0
 13
0.0
 23
0.0
 33
0.0
 16
1.0
 26
0.0
 36
0.0
 17
0.0
 27
1.0
 37
0.0
 76
0
330
210
345
0
346
0
  0
LAYOUT
  5
358
102
{ACAD_REACTORS
330
1A
102
}
100
AcDbPlotSettings
  1

  2
none_device
  4

  6

 40
0.0
 41
0.0
 42
0.0
 43
0.0
 44
210.0
 45
297.0
 46
0.0
 47
0.0
 48
0.0
 49
0.0
140
0.0
141
0.0
142
1.0
143
1.0
 70
0
 72
1
 73
0
 74
0
  7

 75
0
147
1.0
148
0.0
149
0.0
100
AcDbLayout
  1
Layout1
 70
0
 71
1
 10
0.0
 20
0.0
 11
210.0
 21
297.0
 12
0.0
 22
0.0
 32
0.0
 14
0.0
 24
0.0
 34
0.0
 15
0.0
 25
0.0
 35
0.0
146
0.0
 13
0.0
 23
0.0
 33
0.0
 16
1.0
 26
0.0
 36
0.0
 17
0.0
 27
1.0
 37
0.0
 76
0
330
211
345
0
346
0
  0
ENDSEC
  0
EOF
