999
DXF file: C:\Users\sesa63760\Dev\_Creo\CAD\MCADID0005274_3D-CAD\drw0001_6.dxf
999
Pro/ENGINEER 2019471 by Parametric Technology Corporation
  0
SECTION
  2
HEADER
  9
$ACADVER
  1
AC1024
  9
$DWGCODEPAGE
  3
ANSI_1252
  9
$EXTMAX
 10
88.7067569537
 20
125.4566991202
 30
0.0
  9
$EXTMIN
 10
0.0
 20
0.0
 30
0.0
  9
$LIMMIN
 10
0.0
 20
0.0
  9
$LIMMAX
 10
88.7067569537
 20
125.4566991202
  9
$VIEWCTR
 10
44.3533784769
 20
62.7283495601
  9
$VIEWSIZE
 40
125.4566991202
  9
$CLAYER
  8
0
  9
$LTSCALE
 40
8.1779181649
  9
$CELTYPE
  6
BYLAYER
  9
$DIMSCALE
 40
1.0
  9
$DIMASZ
 40
1.0560328209
  9
$DIMEXO
 40
1.0
  9
$DIMDLI
 40
5.6501980048
  9
$DIMEXE
 40
1.0
  9
$DIMCEN
 40
1.3382047906
  9
$DIMLFAC
 40
1.0
  9
$DIMBLK
  1
_FILLED
  9
$DIMALT
 70
0
  9
$DIMALTF
 40
0.0393700787
  9
$DIMTXT
 40
1.4784459492
  9
$DIMTOL
 70
1
  9
$DIMLIM
 70
0
  9
$DIMTFAC
 40
1.0
  9
$DIMTP
 40
0.01
  9
$DIMTM
 40
0.01
  9
$DIMGAP
 40
0.625
  9
$DIMDSEP
 70
46
  9
$AUNITS
 70
0
  9
$PDMODE
 70
3
  9
$PDSIZE
 40
0.3125
  9
$HANDSEED
  5
2E6
  9
$TILEMODE
 70
1
  9
$MEASUREMENT
 70
1
  9
$INSUNITS
 70
4
  0
ENDSEC
  0
SECTION
  2
CLASSES
  0
CLASS
  1
ACDBDICTIONARYWDFLT
  2
AcDbDictionaryWithDefault
  3
AutoCAD 2000
 90
0
 91
1
280
0
281
0
  0
CLASS
  1
ACDBPLACEHOLDER
  2
AcDbPlaceHolder
  3
AutoCAD 2000
 90
0
 91
1
280
0
281
0
  0
CLASS
  1
LAYOUT
  2
AcDbLayout
  3
AutoCAD 2000
 90
0
 91
0
280
0
281
0
  0
ENDSEC
  0
SECTION
  2
TABLES
  0
TABLE
  2
VPORT
  5
8
100
AcDbSymbolTable
 70
2
  0
VPORT
  5
1F4
100
AcDbSymbolTableRecord
100
AcDbViewportTableRecord
  2
*ACTIVE
 70
0
 10
0.0
 20
0.0
 11
1.0
 21
1.0
 12
44.3533784769
 22
62.7283495601
 13
0.0
 23
0.0
 14
1.0
 24
1.0
 15
0.0
 25
0.0
 16
0.0
 26
0.0
 36
1.0
 17
0.0
 27
0.0
 37
0.0
 40
125.4566991202
 41
0.7070707071
 42
50.0
 43
0.0
 44
0.0
 50
0.0
 51
0.0
 71
0
 72
100
 73
1
 74
1
 75
0
 76
0
 77
0
 78
0
  0
ENDTAB
  0
TABLE
  2
LTYPE
  5
5
100
AcDbSymbolTable
 70
6
  0
LTYPE
  5
14
100
AcDbSymbolTableRecord
100
AcDbLinetypeTableRecord
  2
BYBLOCK
 70
0
  3

 72
65
 73
0
 40
0.0
  0
LTYPE
  5
15
100
AcDbSymbolTableRecord
100
AcDbLinetypeTableRecord
  2
BYLAYER
 70
0
  3

 72
65
 73
0
 40
0.0
  0
LTYPE
  5
16
100
AcDbSymbolTableRecord
100
AcDbLinetypeTableRecord
  2
CONTINUOUS
 70
64
  3
Solid line
 72
65
 73
0
 40
0.0
  0
LTYPE
  5
1F5
100
AcDbSymbolTableRecord
100
AcDbLinetypeTableRecord
  2
CENTER
 70
64
  3
____ _ ____ _ ____ _ ____ _ ____ _ ____ _ ____
 72
65
 73
4
 40
0.6
 49
0.375
 74
0
 49
-0.075
 74
0
 49
0.075
 74
0
 49
-0.075
 74
0
  0
LTYPE
  5
1F6
100
AcDbSymbolTableRecord
100
AcDbLinetypeTableRecord
  2
HIDDEN
 70
64
  3
- - - - - - - - - - - - - - - - - - - -
 72
65
 73
2
 40
0.2
 49
0.1
 74
0
 49
-0.1
 74
0
  0
LTYPE
  5
1F7
100
AcDbSymbolTableRecord
100
AcDbLinetypeTableRecord
  2
PHANTOM
 70
64
  3
_____ _ _ _____ _ _ _____ _ _ _____
 72
65
 73
6
 40
0.8
 49
0.45
 74
0
 49
-0.05
 74
0
 49
0.1
 74
0
 49
-0.05
 74
0
 49
0.1
 74
0
 49
-0.05
 74
0
  0
LTYPE
  5
1F8
100
AcDbSymbolTableRecord
100
AcDbLinetypeTableRecord
  2
DOT
 70
64
  3
. . . . . . . . . . . . . . . . . . . .
 72
65
 73
2
 40
0.2
 49
0.1
 74
0
 49
-0.1
 74
0
  0
LTYPE
  5
1F9
100
AcDbSymbolTableRecord
100
AcDbLinetypeTableRecord
  2
DASHED
 70
64
  3
- - - - - - - - - - - - - - - - - - - -
 72
65
 73
2
 40
0.2
 49
0.1
 74
0
 49
-0.1
 74
0
  0
ENDTAB
  0
TABLE
  2
LAYER
  5
2
100
AcDbSymbolTable
 70
36
  0
LAYER
  5
10
100
AcDbSymbolTableRecord
100
AcDbLayerTableRecord
  2
0
 70
0
 62
7
  6
CONTINUOUS
370
-3
390
F
  0
LAYER
  5
1FA
100
AcDbSymbolTableRecord
100
AcDbLayerTableRecord
  2
DEFAULT_1
 70
0
 62
7
  6
CENTER
370
-3
390
F
  0
LAYER
  5
1FB
100
AcDbSymbolTableRecord
100
AcDbLayerTableRecord
  2
DEFAULT_2
 70
0
 62
7
  6
HIDDEN
370
-3
390
F
  0
LAYER
  5
1FC
100
AcDbSymbolTableRecord
100
AcDbLayerTableRecord
  2
DEFAULT_3
 70
0
 62
7
  6
PHANTOM
370
-3
390
F
  0
LAYER
  5
1FD
100
AcDbSymbolTableRecord
100
AcDbLayerTableRecord
  2
00_COMPONENTS
 70
0
 62
7
  6
CONTINUOUS
370
-3
390
F
  0
LAYER
  5
1FE
100
AcDbSymbolTableRecord
100
AcDbLayerTableRecord
  2
00_COMPONENTS_1
 70
0
 62
7
  6
CONTINUOUS
370
-3
390
F
  0
LAYER
  5
1FF
100
AcDbSymbolTableRecord
100
AcDbLayerTableRecord
  2
00_COMPONENTS_2
 70
0
 62
7
  6
CONTINUOUS
370
-3
390
F
  0
LAYER
  5
200
100
AcDbSymbolTableRecord
100
AcDbLayerTableRecord
  2
00_COMPONENTS_3
 70
0
 62
7
  6
CONTINUOUS
370
-3
390
F
  0
LAYER
  5
201
100
AcDbSymbolTableRecord
100
AcDbLayerTableRecord
  2
01_1_DEFAULT_DATUMS
 70
0
 62
7
  6
CONTINUOUS
370
-3
390
F
  0
LAYER
  5
202
100
AcDbSymbolTableRecord
100
AcDbLayerTableRecord
  2
01_PLANES
 70
0
 62
7
  6
CONTINUOUS
370
-3
390
F
  0
LAYER
  5
203
100
AcDbSymbolTableRecord
100
AcDbLayerTableRecord
  2
02_COORD_SYS
 70
0
 62
7
  6
CONTINUOUS
370
-3
390
F
  0
LAYER
  5
204
100
AcDbSymbolTableRecord
100
AcDbLayerTableRecord
  2
03_AXES
 70
0
 62
7
  6
CONTINUOUS
370
-3
390
F
  0
LAYER
  5
205
100
AcDbSymbolTableRecord
100
AcDbLayerTableRecord
  2
04_POINTS
 70
0
 62
7
  6
CONTINUOUS
370
-3
390
F
  0
LAYER
  5
206
100
AcDbSymbolTableRecord
100
AcDbLayerTableRecord
  2
05_CURVES
 70
0
 62
7
  6
CONTINUOUS
370
-3
390
F
  0
LAYER
  5
207
100
AcDbSymbolTableRecord
100
AcDbLayerTableRecord
  2
06_SURFS
 70
0
 62
7
  6
CONTINUOUS
370
-3
390
F
  0
LAYER
  5
208
100
AcDbSymbolTableRecord
100
AcDbLayerTableRecord
  2
07_COSMETICS
 70
0
 62
7
  6
CONTINUOUS
370
-3
390
F
  0
LAYER
  5
209
100
AcDbSymbolTableRecord
100
AcDbLayerTableRecord
  2
10_NOTES
 70
0
 62
7
  6
CONTINUOUS
370
-3
390
F
  0
LAYER
  5
20A
100
AcDbSymbolTableRecord
100
AcDbLayerTableRecord
  2
11_NOTES_PUB
 70
0
 62
7
  6
CONTINUOUS
370
-3
390
F
  0
LAYER
  5
20B
100
AcDbSymbolTableRecord
100
AcDbLayerTableRecord
  2
13_REF_GTOL
 70
0
 62
7
  6
CONTINUOUS
370
-3
390
F
  0
LAYER
  5
20C
100
AcDbSymbolTableRecord
100
AcDbLayerTableRecord
  2
16_MISC
 70
0
 62
7
  6
CONTINUOUS
370
-3
390
F
  0
LAYER
  5
20D
100
AcDbSymbolTableRecord
100
AcDbLayerTableRecord
  2
17_NO_PRINT
 70
0
 62
7
  6
CONTINUOUS
370
-3
390
F
  0
LAYER
  5
20E
100
AcDbSymbolTableRecord
100
AcDbLayerTableRecord
  2
18_DATUM_CAMS_JOINTS
 70
0
 62
7
  6
CONTINUOUS
370
-3
390
F
  0
LAYER
  5
20F
100
AcDbSymbolTableRecord
100
AcDbLayerTableRecord
  2
19_DATUM_FUNCTIONAL
 70
0
 62
7
  6
CONTINUOUS
370
-3
390
F
  0
LAYER
  5
210
100
AcDbSymbolTableRecord
100
AcDbLayerTableRecord
  2
20_DATUM_KINEMATIC_SCHEME
 70
0
 62
7
  6
CONTINUOUS
370
-3
390
F
  0
LAYER
  5
211
100
AcDbSymbolTableRecord
100
AcDbLayerTableRecord
  2
INTF_BLANK
 70
0
 62
7
  6
CONTINUOUS
370
-3
390
F
  0
LAYER
  5
212
100
AcDbSymbolTableRecord
100
AcDbLayerTableRecord
  2
SHELL1
 70
0
 62
7
  6
CONTINUOUS
370
-3
390
F
  0
LAYER
  5
213
100
AcDbSymbolTableRecord
100
AcDbLayerTableRecord
  2
SHELL2
 70
0
 62
7
  6
CONTINUOUS
370
-3
390
F
  0
LAYER
  5
214
100
AcDbSymbolTableRecord
100
AcDbLayerTableRecord
  2
SHELL22
 70
0
 62
7
  6
CONTINUOUS
370
-3
390
F
  0
LAYER
  5
215
100
AcDbSymbolTableRecord
100
AcDbLayerTableRecord
  2
SHELL3
 70
0
 62
7
  6
CONTINUOUS
370
-3
390
F
  0
LAYER
  5
216
100
AcDbSymbolTableRecord
100
AcDbLayerTableRecord
  2
SHELL8
 70
0
 62
7
  6
CONTINUOUS
370
-3
390
F
  0
LAYER
  5
217
100
AcDbSymbolTableRecord
100
AcDbLayerTableRecord
  2
_BLACK_HOLE
 70
0
 62
7
  6
CONTINUOUS
370
-3
390
F
  0
LAYER
  5
218
100
AcDbSymbolTableRecord
100
AcDbLayerTableRecord
  2
black
 70
0
 62
7
  6
CONTINUOUS
370
-3
390
F
  0
ENDTAB
  0
TABLE
  2
STYLE
  5
3
100
AcDbSymbolTable
 70
1
  0
STYLE
  5
11
100
AcDbSymbolTableRecord
100
AcDbTextStyleTableRecord
  2
STANDARD
 70
0
 40
0.0
 41
1.0
 50
0.0
 71
0
 42
0.2
  3
ARIAL.TTF
  4

  0
STYLE
  5
219
100
AcDbSymbolTableRecord
100
AcDbTextStyleTableRecord
  2
TEXTSTYLE_1
 70
0
 40
0.0
 41
0.8
 50
0.0
 71
0
 42
0.2
  3
gdt
  4

  0
ENDTAB
  0
TABLE
  2
VIEW
  5
6
100
AcDbSymbolTable
 70
0
  0
ENDTAB
  0
TABLE
  2
UCS
  5
7
100
AcDbSymbolTable
 70
0
  0
ENDTAB
  0
TABLE
  2
APPID
  5
9
100
AcDbSymbolTable
 70
1
  0
APPID
  5
21A
100
AcDbSymbolTableRecord
100
AcDbRegAppTableRecord
  2
ACAD
 70
0
  0
ENDTAB
  0
TABLE
  2
BLOCK_RECORD
  5
1
100
AcDbSymbolTable
 70
0
  0
BLOCK_RECORD
  5
21B
100
AcDbSymbolTableRecord
100
AcDbBlockTableRecord
  2
*Model_Space
  0
BLOCK_RECORD
  5
21C
100
AcDbSymbolTableRecord
100
AcDbBlockTableRecord
  2
*Paper_Space
  0
BLOCK_RECORD
  5
21D
100
AcDbSymbolTableRecord
100
AcDbBlockTableRecord
  2
_FILLED
  0
ENDTAB
  0
TABLE
  2
DIMSTYLE
  5
A
100
AcDbSymbolTable
 70
1
100
AcDbDimStyleTable
 71
0
  0
DIMSTYLE
105
21E
100
AcDbSymbolTableRecord
100
AcDbDimStyleTableRecord
  2
STANDARD
 70
0
  3

  4

 40
1.0
 41
1.0560328209
 42
1.0
 43
0.38
 44
1.0
 45
0.0
 46
0.0
 47
0.01
 48
0.01
140
1.4784459492
141
0.09
142
0.0
143
25.4
144
1.0
145
0.0
146
1.0
147
0.625
 71
1
 72
0
 73
0
 74
0
 75
0
 76
0
 77
1
 78
8
 79
2
170
0
171
1
172
0
173
0
174
0
175
0
176
0
177
0
178
0
270
2
179
2
271
2
272
2
273
2
274
2
275
0
280
0
281
0
282
0
283
1
284
8
285
0
286
0
287
3
288
0
340
11
278
46
341
21D
342
21D
343
21D
344
21D
  0
ENDTAB
  0
ENDSEC
  0
SECTION
  2
BLOCKS
  0
BLOCK
  5
20
100
AcDbEntity
  8
0
100
AcDbBlockBegin
  2
*Model_Space
 70
0
 10
0.0
 20
0.0
 30
0.0
  3
*Model_Space
  1

  0
ENDBLK
  5
21
100
AcDbEntity
  8
0
100
AcDbBlockEnd
  0
BLOCK
  5
1C
100
AcDbEntity
  8
0
100
AcDbBlockBegin
  2
*Paper_Space
 70
0
 10
0.0
 20
0.0
 30
0.0
  3
*Paper_Space
  1

  0
ENDBLK
  5
1D
100
AcDbEntity
  8
0
100
AcDbBlockEnd
  0
BLOCK
  5
21F
100
AcDbEntity
  8
0
100
AcDbBlockBegin
  2
_FILLED
 70
64
 10
0.0
 20
0.0
  3
_FILLED
  1

  0
SOLID
  5
220
100
AcDbEntity
  8
0
  6
BYBLOCK
 62
0
100
AcDbTrace
 10
0.0
 20
0.0
 11
-1.0
 21
0.25
 12
-1.0
 22
-0.25
 13
-1.0
 23
-0.25
  0
ENDBLK
  5
221
100
AcDbEntity
  8
0
  6
BYBLOCK
 62
0
100
AcDbBlockEnd
  0
ENDSEC
  0
SECTION
  2
ENTITIES
  0
LINE
  5
222
100
AcDbEntity
  8
00_COMPONENTS
100
AcDbLine
 62
7
  6
BYLAYER
 10
24.9211785178
 20
10.3651495601
 11
65.3211561485
 21
10.3651495601
  0
LINE
  5
223
100
AcDbEntity
  8
00_COMPONENTS
100
AcDbLine
 62
7
  6
BYLAYER
 10
24.4211673312
 20
10.8651495627
 11
65.8211673352
 21
10.8651495627
  0
LINE
  5
224
100
AcDbEntity
  8
00_COMPONENTS
100
AcDbLine
 62
7
  6
BYLAYER
 10
65.8211673352
 20
12.8651495571
 11
24.4211673312
 21
12.8651495571
  0
LINE
  5
225
100
AcDbEntity
  8
00_COMPONENTS
100
AcDbLine
 62
7
  6
BYLAYER
 10
65.3211561485
 20
13.3651495583
 11
24.9211785178
 21
13.3651495583
  0
LINE
  5
226
100
AcDbEntity
  8
00_COMPONENTS
100
AcDbLine
 62
7
  6
BYLAYER
 10
28.8848642663
 20
107.2174964223
 11
34.9555174041
 21
113.2881495601
  0
LINE
  5
227
100
AcDbEntity
  8
00_COMPONENTS
100
AcDbLine
 62
7
  6
BYLAYER
 10
38.9562176153
 20
113.2881495601
 11
30.8852143718
 21
105.2171463167
  0
LINE
  5
228
100
AcDbEntity
  8
00_COMPONENTS
100
AcDbLine
 62
7
  6
BYLAYER
 10
24.5743413281
 20
97.9498721053
 11
31.3634149557
 21
104.7389457329
  0
LINE
  5
229
100
AcDbEntity
  8
00_COMPONENTS
100
AcDbLine
 62
7
  6
BYLAYER
 10
29.7200280855
 20
101.2995076385
 11
27.1875958594
 21
98.7670754123
  0
LINE
  5
22A
100
AcDbEntity
  8
00_COMPONENTS
100
AcDbLine
 62
7
  6
BYLAYER
 10
29.3751673292
 20
26.0369495601
 11
29.1211673292
 21
26.2909495601
  0
LINE
  5
22B
100
AcDbEntity
  8
00_COMPONENTS
100
AcDbLine
 62
7
  6
BYLAYER
 10
33.3637650613
 20
102.7385956273
 11
30.822352579
 21
100.197183145
  0
LINE
  5
22C
100
AcDbEntity
  8
00_COMPONENTS
100
AcDbLine
 62
7
  6
BYLAYER
 10
28.2899203529
 20
97.6647509189
 11
25.8761914337
 21
95.2510219997
  0
LINE
  5
22D
100
AcDbEntity
  8
00_COMPONENTS
100
AcDbLine
 62
7
  6
BYLAYER
 10
29.6661465488
 20
96.2885247229
 11
32.1985787749
 21
98.8209569491
  0
LINE
  5
22E
100
AcDbEntity
  8
00_COMPONENTS
100
AcDbLine
 62
7
  6
BYLAYER
 10
31.0101444897
 20
96.3393657824
 11
30.387974095
 21
95.7171953877
  0
LINE
  5
22F
100
AcDbEntity
  8
00_COMPONENTS
100
AcDbLine
 62
7
  6
BYLAYER
 10
29.3753720752
 20
26.0369495601
 11
60.8669625911
 21
26.0369495601
  0
LINE
  5
230
100
AcDbEntity
  8
00_COMPONENTS
100
AcDbLine
 62
7
  6
BYLAYER
 10
29.1211673292
 20
26.2909495601
 11
61.1211673372
 21
26.2909495601
  0
LINE
  5
231
100
AcDbEntity
  8
00_COMPONENTS
100
AcDbLine
 62
7
  6
BYLAYER
 10
30.7437772833
 20
95.2108939884
 11
33.2762095095
 21
97.7433262145
  0
LINE
  5
232
100
AcDbEntity
  8
00_COMPONENTS
100
AcDbLine
 62
7
  6
BYLAYER
 10
31.8214080179
 20
94.1332632539
 11
34.353840244
 21
96.66569548
  0
LINE
  5
233
100
AcDbEntity
  8
00_COMPONENTS
100
AcDbLine
 62
7
  6
BYLAYER
 10
34.80285305
 20
96.216682674
 11
32.2704208239
 21
93.6842504478
  0
LINE
  5
234
100
AcDbEntity
  8
00_COMPONENTS
100
AcDbLine
 62
7
  6
BYLAYER
 10
32.4500259463
 20
93.5046453254
 11
34.9824581725
 21
96.0370775515
  0
LINE
  5
235
100
AcDbEntity
  8
00_COMPONENTS
100
AcDbLine
 62
7
  6
BYLAYER
 10
36.2486742855
 20
96.9440834198
 11
35.1620632949
 21
95.8574724291
  0
LINE
  5
236
100
AcDbEntity
  8
00_COMPONENTS
100
AcDbLine
 62
7
  6
BYLAYER
 10
32.6296310687
 20
93.325040203
 11
31.5430200781
 21
92.2384292123
  0
LINE
  5
237
100
AcDbEntity
  8
00_COMPONENTS
100
AcDbLine
 62
7
  6
BYLAYER
 10
36.0511086509
 20
96.0280972954
 11
32.4590062024
 21
92.435994847
  0
LINE
  5
238
100
AcDbEntity
  8
00_COMPONENTS
100
AcDbLine
 62
7
  6
BYLAYER
 10
28.7274673292
 20
35.5860523611
 11
27.6586673332
 21
36.2031243265
  0
LINE
  5
239
100
AcDbEntity
  8
00_COMPONENTS
100
AcDbLine
 62
7
  6
BYLAYER
 10
33.4288738635
 20
90.3525754269
 11
38.134528071
 21
95.0582296343
  0
LINE
  5
23A
100
AcDbEntity
  8
00_COMPONENTS
100
AcDbLine
 62
7
  6
BYLAYER
 10
58.3939858801
 20
94.1602040222
 11
58.4730700711
 21
94.1854066765
  0
LINE
  5
23B
100
AcDbEntity
  8
00_COMPONENTS
100
AcDbLine
 62
7
  6
BYLAYER
 10
61.1211673372
 20
34.9041439582
 11
29.1211673292
 21
34.9041439582
  0
LINE
  5
23C
100
AcDbEntity
  8
00_COMPONENTS
100
AcDbLine
 62
7
  6
BYLAYER
 10
28.7274673292
 20
35.5860523611
 11
61.5148673372
 21
35.5860523611
  0
LINE
  5
23D
100
AcDbEntity
  8
00_COMPONENTS
100
AcDbLine
 62
7
  6
BYLAYER
 10
24.4211673312
 20
10.8651495627
 11
24.4211673312
 21
12.8651495571
  0
LINE
  5
23E
100
AcDbEntity
  8
00_COMPONENTS
100
AcDbLine
 62
7
  6
BYLAYER
 10
24.5471825884
 20
69.8541495605
 11
24.5471825884
 21
64.3931495627
  0
LINE
  5
23F
100
AcDbEntity
  8
00_COMPONENTS
100
AcDbLine
 62
7
  6
BYLAYER
 10
24.5743413281
 20
96.5528721053
 11
24.5743413281
 21
97.9498721053
  0
LINE
  5
240
100
AcDbEntity
  8
00_COMPONENTS
100
AcDbLine
 62
7
  6
BYLAYER
 10
24.8011673332
 20
59.7957495601
 11
24.8011673332
 21
88.6501495601
  0
LINE
  5
241
100
AcDbEntity
  8
00_COMPONENTS
100
AcDbLine
 62
7
  6
BYLAYER
 10
24.8265673332
 20
59.7957495601
 11
24.8265673332
 21
57.7637495601
  0
LINE
  5
242
100
AcDbEntity
  8
00_COMPONENTS
100
AcDbLine
 62
7
  6
BYLAYER
 10
24.8774305786
 20
59.7957495601
 11
24.8774305786
 21
56.4937495601
  0
LINE
  5
243
100
AcDbEntity
  8
00_COMPONENTS
100
AcDbLine
 62
7
  6
BYLAYER
 10
24.9281673332
 20
113.2881495601
 11
24.9281673332
 21
98.3036981103
  0
LINE
  5
244
100
AcDbEntity
  8
00_COMPONENTS
100
AcDbLine
 62
7
  6
BYLAYER
 10
24.9281673332
 20
96.1990461003
 11
24.9281673332
 21
88.6501495601
  0
LINE
  5
245
100
AcDbEntity
  8
00_COMPONENTS
100
AcDbLine
 62
7
  6
BYLAYER
 10
25.2774173332
 20
43.7661495601
 11
25.2774173332
 21
45.2901495601
  0
LINE
  5
246
100
AcDbEntity
  8
00_COMPONENTS
100
AcDbLine
 62
7
  6
BYLAYER
 10
25.2774173332
 20
51.6401495601
 11
25.2774173332
 21
53.2276495601
  0
LINE
  5
247
100
AcDbEntity
  8
00_COMPONENTS
100
AcDbLine
 62
7
  6
BYLAYER
 10
25.6211673332
 20
55.2276495601
 11
25.6211673332
 21
56.4937495601
  0
LINE
  5
248
100
AcDbEntity
  8
00_COMPONENTS
100
AcDbLine
 62
7
  6
BYLAYER
 10
25.6648094968
 20
59.7957495601
 11
25.6648095016
 21
56.4937495601
  0
LINE
  5
249
100
AcDbEntity
  8
00_COMPONENTS
100
AcDbLine
 62
7
  6
BYLAYER
 10
26.7061673332
 20
42.4961495601
 11
26.7061673332
 21
43.7661495601
  0
LINE
  5
24A
100
AcDbEntity
  8
00_COMPONENTS
100
AcDbLine
 62
7
  6
BYLAYER
 10
61.3574704
 20
107.2174964223
 11
56.878569605
 21
102.7385956273
  0
LINE
  5
24B
100
AcDbEntity
  8
00_COMPONENTS
100
AcDbLine
 62
7
  6
BYLAYER
 10
26.7061673332
 20
42.4961495601
 11
63.7899672139
 21
42.4961495601
  0
LINE
  5
24C
100
AcDbEntity
  8
00_COMPONENTS
100
AcDbLine
 62
7
  6
BYLAYER
 10
25.2774292239
 20
43.7661495601
 11
64.9649054424
 21
43.7661495601
  0
LINE
  5
24D
100
AcDbEntity
  8
00_COMPONENTS
100
AcDbLine
 62
7
  6
BYLAYER
 10
27.1211673332
 20
53.2276495601
 11
27.1211673332
 21
55.2276495601
  0
LINE
  5
24E
100
AcDbEntity
  8
00_COMPONENTS
100
AcDbLine
 62
7
  6
BYLAYER
 10
27.3411673332
 20
56.4937495601
 11
27.3411673332
 21
59.7957495601
  0
LINE
  5
24F
100
AcDbEntity
  8
00_COMPONENTS
100
AcDbLine
 62
7
  6
BYLAYER
 10
27.6586673332
 20
36.2030158571
 11
27.6586673332
 21
42.4961495601
  0
LINE
  5
250
100
AcDbEntity
  8
00_COMPONENTS
100
AcDbLine
 62
7
  6
BYLAYER
 10
28.1285040877
 20
59.7957495601
 11
28.1285040877
 21
56.4937495601
  0
LINE
  5
251
100
AcDbEntity
  8
00_COMPONENTS
100
AcDbLine
 62
7
  6
BYLAYER
 10
29.1211673292
 20
26.2909495601
 11
29.1211673292
 21
34.9041439582
  0
LINE
  5
252
100
AcDbEntity
  8
00_COMPONENTS
100
AcDbLine
 62
7
  6
BYLAYER
 10
29.5001673332
 20
88.6501495601
 11
29.5001673332
 21
59.7957495601
  0
LINE
  5
253
100
AcDbEntity
  8
00_COMPONENTS
100
AcDbLine
 62
7
  6
BYLAYER
 10
30.1351673332
 20
45.2901495601
 11
30.1351673332
 21
51.6401495601
  0
LINE
  5
254
100
AcDbEntity
  8
00_COMPONENTS
100
AcDbLine
 62
7
  6
BYLAYER
 10
53.9936603808
 20
96.9440834198
 11
52.1078065953
 21
95.0582296343
  0
LINE
  5
255
100
AcDbEntity
  8
00_COMPONENTS
100
AcDbLine
 62
7
  6
BYLAYER
 10
52.2155696688
 20
94.9504665609
 11
54.1014234542
 21
96.8363203463
  0
LINE
  5
256
100
AcDbEntity
  8
00_COMPONENTS
100
AcDbLine
 62
7
  6
BYLAYER
 10
54.5504362603
 20
96.3873075403
 11
52.6645824749
 21
94.5014537548
  0
LINE
  5
257
100
AcDbEntity
  8
00_COMPONENTS
100
AcDbLine
 62
7
  6
BYLAYER
 10
55.0802713714
 20
95.8574724291
 11
60.5223065808
 21
101.2995076385
  0
LINE
  5
258
100
AcDbEntity
  8
00_COMPONENTS
100
AcDbLine
 62
7
  6
BYLAYER
 10
55.4664223846
 20
96.1897419056
 11
55.2868172622
 21
96.0101367832
  0
LINE
  5
259
100
AcDbEntity
  8
00_COMPONENTS
100
AcDbLine
 62
7
  6
BYLAYER
 10
54.7480018949
 20
95.4713214159
 11
53.2213583544
 21
93.9446778753
  0
LINE
  5
25A
100
AcDbEntity
  8
00_COMPONENTS
100
AcDbLine
 62
7
  6
BYLAYER
 10
57.4724265561
 20
98.0991294029
 11
58.1190049969
 21
98.7457078436
  0
LINE
  5
25B
100
AcDbEntity
  8
00_COMPONENTS
100
AcDbLine
 62
7
  6
BYLAYER
 10
58.7411753915
 20
98.1235374489
 11
58.0945969508
 21
97.4769590082
  0
LINE
  5
25C
100
AcDbEntity
  8
00_COMPONENTS
100
AcDbLine
 62
7
  6
BYLAYER
 10
25.2774292239
 20
45.2901495601
 11
64.9649054424
 21
45.2901495601
  0
LINE
  5
25D
100
AcDbEntity
  8
00_COMPONENTS
100
AcDbLine
 62
7
  6
BYLAYER
 10
31.9385673332
 20
58.7797495601
 11
31.9385673332
 21
57.7637495601
  0
LINE
  5
25E
100
AcDbEntity
  8
00_COMPONENTS
100
AcDbLine
 62
7
  6
BYLAYER
 10
32.6211673332
 20
13.3651495583
 11
32.6211673332
 21
26.0369495601
  0
LINE
  5
25F
100
AcDbEntity
  8
00_COMPONENTS
100
AcDbLine
 62
7
  6
BYLAYER
 10
32.8645673332
 20
56.4937495601
 11
32.8645673332
 21
58.7797495601
  0
LINE
  5
260
100
AcDbEntity
  8
00_COMPONENTS
100
AcDbLine
 62
7
  6
BYLAYER
 10
55.6999090438
 20
91.4661271859
 11
57.2265525844
 21
92.9927707265
  0
LINE
  5
261
100
AcDbEntity
  8
00_COMPONENTS
100
AcDbLine
 62
7
  6
BYLAYER
 10
57.7653679516
 20
93.5315860938
 11
57.944973074
 21
93.7111912162
  0
LINE
  5
262
100
AcDbEntity
  8
00_COMPONENTS
100
AcDbLine
 62
7
  6
BYLAYER
 10
57.6127035976
 20
93.325040203
 11
63.0547388069
 21
98.7670754123
  0
LINE
  5
263
100
AcDbEntity
  8
00_COMPONENTS
100
AcDbLine
 62
7
  6
BYLAYER
 10
56.2566849233
 20
90.9093513064
 11
58.1425387087
 21
92.7952050918
  0
LINE
  5
264
100
AcDbEntity
  8
00_COMPONENTS
100
AcDbLine
 62
7
  6
BYLAYER
 10
58.5915515148
 20
92.3461922858
 11
56.7056977293
 21
90.4603385004
  0
LINE
  5
265
100
AcDbEntity
  8
00_COMPONENTS
100
AcDbLine
 62
7
  6
BYLAYER
 10
56.8134608028
 20
90.3525754269
 11
58.6993145882
 21
92.2384292123
  0
LINE
  5
266
100
AcDbEntity
  8
00_COMPONENTS
100
AcDbLine
 62
7
  6
BYLAYER
 10
25.2776730898
 20
51.6401495601
 11
64.9646615765
 21
51.6401495601
  0
LINE
  5
267
100
AcDbEntity
  8
00_COMPONENTS
100
AcDbLine
 62
7
  6
BYLAYER
 10
24.8011673332
 20
72.4087475476
 11
24.7173303256
 21
72.5539575043
  0
LINE
  5
268
100
AcDbEntity
  8
00_COMPONENTS
100
AcDbLine
 62
7
  6
BYLAYER
 10
34.4785673332
 20
58.7797495601
 11
34.4785673332
 21
59.7957495601
  0
LINE
  5
269
100
AcDbEntity
  8
00_COMPONENTS
100
AcDbLine
 62
7
  6
BYLAYER
 10
37.8879630002
 20
42.4961495601
 11
37.8879630002
 21
37.0338007658
  0
LINE
  5
26A
100
AcDbEntity
  8
00_COMPONENTS
100
AcDbLine
 62
7
  6
BYLAYER
 10
65.6679933382
 20
96.5528721053
 11
57.8910915373
 21
88.7759703045
  0
LINE
  5
26B
100
AcDbEntity
  8
00_COMPONENTS
100
AcDbLine
 62
7
  6
BYLAYER
 10
64.9646615765
 20
53.2276495601
 11
25.2776730898
 21
53.2276495601
  0
LINE
  5
26C
100
AcDbEntity
  8
00_COMPONENTS
100
AcDbLine
 62
7
  6
BYLAYER
 10
25.6211673332
 20
55.2276495601
 11
64.6211673332
 21
55.2276495601
  0
LINE
  5
26D
100
AcDbEntity
  8
00_COMPONENTS
100
AcDbLine
 62
7
  6
BYLAYER
 10
38.5171673332
 20
56.4937495601
 11
38.5171673332
 21
59.7957495601
  0
LINE
  5
26E
100
AcDbEntity
  8
00_COMPONENTS
100
AcDbLine
 62
7
  6
BYLAYER
 10
39.5649173332
 20
45.2901495601
 11
39.5649173332
 21
43.7661495601
  0
LINE
  5
26F
100
AcDbEntity
  8
00_COMPONENTS
100
AcDbLine
 62
7
  6
BYLAYER
 10
39.5826429034
 20
59.7957495601
 11
39.5826429034
 21
58.2717495601
  0
LINE
  5
270
100
AcDbEntity
  8
00_COMPONENTS
100
AcDbLine
 62
7
  6
BYLAYER
 10
40.0919673306
 20
58.2717495601
 11
40.0919673306
 21
56.4937495601
  0
LINE
  5
271
100
AcDbEntity
  8
00_COMPONENTS
100
AcDbLine
 62
7
  6
BYLAYER
 10
40.3459673332
 20
58.2717495601
 11
40.3459673332
 21
57.9923495601
  0
LINE
  5
272
100
AcDbEntity
  8
00_COMPONENTS
100
AcDbLine
 62
7
  6
BYLAYER
 10
41.8191673332
 20
57.9923495601
 11
41.8191673332
 21
56.4937495601
  0
LINE
  5
273
100
AcDbEntity
  8
00_COMPONENTS
100
AcDbLine
 62
7
  6
BYLAYER
 10
24.8774399742
 20
56.4937495601
 11
65.3648946921
 21
56.4937495601
  0
LINE
  5
274
100
AcDbEntity
  8
00_COMPONENTS
100
AcDbLine
 62
7
  6
BYLAYER
 10
24.8265673332
 20
57.7637495601
 11
24.8774305786
 21
57.7637495601
  0
LINE
  5
275
100
AcDbEntity
  8
00_COMPONENTS
100
AcDbLine
 62
7
  6
BYLAYER
 10
28.1285040877
 20
57.7637495601
 11
31.9385673332
 21
57.7637495601
  0
LINE
  5
276
100
AcDbEntity
  8
00_COMPONENTS
100
AcDbLine
 62
7
  6
BYLAYER
 10
58.3037673332
 20
57.7637495601
 11
62.1138305786
 21
57.7637495601
  0
LINE
  5
277
100
AcDbEntity
  8
00_COMPONENTS
100
AcDbLine
 62
7
  6
BYLAYER
 10
65.3649040877
 20
57.7637495601
 11
65.4157673332
 21
57.7637495601
  0
LINE
  5
278
100
AcDbEntity
  8
00_COMPONENTS
100
AcDbLine
 62
7
  6
BYLAYER
 10
40.3459673332
 20
57.9923495601
 11
49.8963673332
 21
57.9923495601
  0
LINE
  5
279
100
AcDbEntity
  8
00_COMPONENTS
100
AcDbLine
 62
7
  6
BYLAYER
 10
50.659691763
 20
58.2717495601
 11
45.8158468852
 21
58.2717495601
  0
LINE
  5
27A
100
AcDbEntity
  8
00_COMPONENTS
100
AcDbLine
 62
7
  6
BYLAYER
 10
44.4264877811
 20
58.2717495601
 11
39.5826429034
 21
58.2717495601
  0
LINE
  5
27B
100
AcDbEntity
  8
00_COMPONENTS
100
AcDbLine
 62
7
  6
BYLAYER
 10
31.9385673332
 20
58.7797495601
 11
34.4785673332
 21
58.7797495601
  0
LINE
  5
27C
100
AcDbEntity
  8
00_COMPONENTS
100
AcDbLine
 62
7
  6
BYLAYER
 10
55.7637673332
 20
58.7797495601
 11
58.3037673332
 21
58.7797495601
  0
LINE
  5
27D
100
AcDbEntity
  8
00_COMPONENTS
100
AcDbLine
 62
7
  6
BYLAYER
 10
41.8826673332
 20
113.2881495601
 11
41.8826673332
 21
115.0915495601
  0
LINE
  5
27E
100
AcDbEntity
  8
00_COMPONENTS
100
AcDbLine
 62
7
  6
BYLAYER
 10
42.0520736559
 20
43.7661495601
 11
42.0520736559
 21
42.4961495601
  0
LINE
  5
27F
100
AcDbEntity
  8
00_COMPONENTS
100
AcDbLine
 62
7
  6
BYLAYER
 10
44.4264877811
 20
58.2717495601
 11
44.4264877811
 21
59.7957495601
  0
LINE
  5
280
100
AcDbEntity
  8
00_COMPONENTS
100
AcDbLine
 62
7
  6
BYLAYER
 10
55.940637845
 20
96.7178389027
 11
55.9154351907
 21
96.6387547117
  0
LINE
  5
281
100
AcDbEntity
  8
00_COMPONENTS
100
AcDbLine
 62
7
  6
BYLAYER
 10
24.8011673332
 20
59.7957495601
 11
65.4411673332
 21
59.7957495601
  0
LINE
  5
282
100
AcDbEntity
  8
00_COMPONENTS
100
AcDbLine
 62
7
  6
BYLAYER
 10
34.3268994756
 20
96.6387547117
 11
34.3016968213
 21
96.7178389027
  0
LINE
  5
283
100
AcDbEntity
  8
00_COMPONENTS
100
AcDbLine
 62
7
  6
BYLAYER
 10
45.8158468852
 20
59.7957495601
 11
45.8158468852
 21
58.2717495601
  0
LINE
  5
284
100
AcDbEntity
  8
00_COMPONENTS
100
AcDbLine
 62
7
  6
BYLAYER
 10
48.1902610104
 20
42.4961495601
 11
48.1902610104
 21
43.7661495601
  0
LINE
  5
285
100
AcDbEntity
  8
00_COMPONENTS
100
AcDbLine
 62
7
  6
BYLAYER
 10
48.3596673332
 20
113.2881495601
 11
48.3596673332
 21
115.0915495601
  0
LINE
  5
286
100
AcDbEntity
  8
00_COMPONENTS
100
AcDbLine
 62
7
  6
BYLAYER
 10
48.4231673332
 20
57.9923495601
 11
48.4231673332
 21
56.4937495601
  0
LINE
  5
287
100
AcDbEntity
  8
00_COMPONENTS
100
AcDbLine
 62
7
  6
BYLAYER
 10
49.8963673332
 20
57.9923495601
 11
49.8963673332
 21
58.2717495601
  0
LINE
  5
288
100
AcDbEntity
  8
00_COMPONENTS
100
AcDbLine
 62
7
  6
BYLAYER
 10
50.1503673332
 20
56.4937495601
 11
50.1503673332
 21
58.2717495601
  0
LINE
  5
289
100
AcDbEntity
  8
00_COMPONENTS
100
AcDbLine
 62
7
  6
BYLAYER
 10
50.659691763
 20
58.2717495601
 11
50.659691763
 21
59.7957495601
  0
LINE
  5
28A
100
AcDbEntity
  8
00_COMPONENTS
100
AcDbLine
 62
7
  6
BYLAYER
 10
50.6774173332
 20
43.7661495601
 11
50.6774173332
 21
45.2901495601
  0
LINE
  5
28B
100
AcDbEntity
  8
00_COMPONENTS
100
AcDbLine
 62
7
  6
BYLAYER
 10
51.7251673306
 20
59.7957495601
 11
51.7251673306
 21
56.4937495601
  0
LINE
  5
28C
100
AcDbEntity
  8
00_COMPONENTS
100
AcDbLine
 62
7
  6
BYLAYER
 10
52.3543716661
 20
42.4961495601
 11
52.3543716661
 21
37.0338007658
  0
LINE
  5
28D
100
AcDbEntity
  8
00_COMPONENTS
100
AcDbLine
 62
7
  6
BYLAYER
 10
55.7637673332
 20
59.7957495601
 11
55.7637673332
 21
58.7797495601
  0
LINE
  5
28E
100
AcDbEntity
  8
00_COMPONENTS
100
AcDbLine
 62
7
  6
BYLAYER
 10
32.351243129
 20
88.7759703045
 11
24.5743413281
 21
96.5528721053
  0
LINE
  5
28F
100
AcDbEntity
  8
00_COMPONENTS
100
AcDbLine
 62
7
  6
BYLAYER
 10
31.5430200781
 20
92.2384292123
 11
33.4288738635
 21
90.3525754269
  0
LINE
  5
290
100
AcDbEntity
  8
00_COMPONENTS
100
AcDbLine
 62
7
  6
BYLAYER
 10
33.536636937
 20
90.4603385004
 11
31.6507831515
 21
92.3461922858
  0
LINE
  5
291
100
AcDbEntity
  8
00_COMPONENTS
100
AcDbLine
 62
7
  6
BYLAYER
 10
57.6211673331
 20
13.3651495583
 11
57.6211673331
 21
26.0369495601
  0
LINE
  5
292
100
AcDbEntity
  8
00_COMPONENTS
100
AcDbLine
 62
7
  6
BYLAYER
 10
58.3037673332
 20
57.7637495601
 11
58.3037673332
 21
58.7797495601
  0
LINE
  5
293
100
AcDbEntity
  8
00_COMPONENTS
100
AcDbLine
 62
7
  6
BYLAYER
 10
60.1071673332
 20
45.2901495601
 11
60.1071673332
 21
51.6401495601
  0
LINE
  5
294
100
AcDbEntity
  8
00_COMPONENTS
100
AcDbLine
 62
7
  6
BYLAYER
 10
65.5250348512
 20
72.5539575043
 11
65.4411673332
 21
72.408694702
  0
LINE
  5
295
100
AcDbEntity
  8
00_COMPONENTS
100
AcDbLine
 62
7
  6
BYLAYER
 10
32.0997959576
 20
92.7952050918
 11
33.985649743
 21
90.9093513064
  0
LINE
  5
296
100
AcDbEntity
  8
00_COMPONENTS
100
AcDbLine
 62
7
  6
BYLAYER
 10
32.6296310687
 20
93.325040203
 11
27.1875958594
 21
98.7670754123
  0
LINE
  5
297
100
AcDbEntity
  8
00_COMPONENTS
100
AcDbLine
 62
7
  6
BYLAYER
 10
32.2973615923
 20
93.7111912162
 11
32.4769667147
 21
93.5315860938
  0
LINE
  5
298
100
AcDbEntity
  8
00_COMPONENTS
100
AcDbLine
 62
7
  6
BYLAYER
 10
33.015782082
 20
92.9927707265
 11
34.5424256225
 21
91.4661271859
  0
LINE
  5
299
100
AcDbEntity
  8
00_COMPONENTS
100
AcDbLine
 62
7
  6
BYLAYER
 10
30.387974095
 20
95.7171953877
 11
29.7413956543
 21
96.3637738284
  0
LINE
  5
29A
100
AcDbEntity
  8
00_COMPONENTS
100
AcDbLine
 62
7
  6
BYLAYER
 10
30.363566049
 20
96.9859442231
 11
31.0101444897
 21
96.3393657824
  0
LINE
  5
29B
100
AcDbEntity
  8
00_COMPONENTS
100
AcDbLine
 62
7
  6
BYLAYER
 10
60.7421673332
 20
59.7957495601
 11
60.7421673332
 21
88.6501495601
  0
LINE
  5
29C
100
AcDbEntity
  8
00_COMPONENTS
100
AcDbLine
 62
7
  6
BYLAYER
 10
61.1211673372
 20
26.2909495601
 11
61.1211673372
 21
34.9041439582
  0
LINE
  5
29D
100
AcDbEntity
  8
00_COMPONENTS
100
AcDbLine
 62
7
  6
BYLAYER
 10
62.1138305786
 20
59.7957495601
 11
62.1138305786
 21
56.4937495601
  0
LINE
  5
29E
100
AcDbEntity
  8
00_COMPONENTS
100
AcDbLine
 62
7
  6
BYLAYER
 10
62.5836673332
 20
42.4961495601
 11
62.5836673332
 21
36.2030158571
  0
LINE
  5
29F
100
AcDbEntity
  8
00_COMPONENTS
100
AcDbLine
 62
7
  6
BYLAYER
 10
62.9012095023
 20
59.7957495601
 11
62.9012095016
 21
56.4937495601
  0
LINE
  5
2A0
100
AcDbEntity
  8
00_COMPONENTS
100
AcDbLine
 62
7
  6
BYLAYER
 10
63.1211673332
 20
55.2276495601
 11
63.1211673332
 21
53.2276495601
  0
LINE
  5
2A1
100
AcDbEntity
  8
00_COMPONENTS
100
AcDbLine
 62
7
  6
BYLAYER
 10
63.7901673332
 20
42.4961495601
 11
63.7901673332
 21
43.7661495601
  0
LINE
  5
2A2
100
AcDbEntity
  8
00_COMPONENTS
100
AcDbLine
 62
7
  6
BYLAYER
 10
37.020976312
 20
93.9446778753
 11
35.4943327714
 21
95.4713214159
  0
LINE
  5
2A3
100
AcDbEntity
  8
00_COMPONENTS
100
AcDbLine
 62
7
  6
BYLAYER
 10
34.9555174041
 20
96.0101367832
 11
34.7759122817
 21
96.1897419056
  0
LINE
  5
2A4
100
AcDbEntity
  8
00_COMPONENTS
100
AcDbLine
 62
7
  6
BYLAYER
 10
35.1620632949
 20
95.8574724291
 11
29.7200280855
 21
101.2995076385
  0
LINE
  5
2A5
100
AcDbEntity
  8
00_COMPONENTS
100
AcDbLine
 62
7
  6
BYLAYER
 10
37.5777521915
 20
94.5014537548
 11
35.691898406
 21
96.3873075403
  0
LINE
  5
2A6
100
AcDbEntity
  8
00_COMPONENTS
100
AcDbLine
 62
7
  6
BYLAYER
 10
36.1409112121
 20
96.8363203463
 11
38.0267649975
 21
94.9504665609
  0
LINE
  5
2A7
100
AcDbEntity
  8
00_COMPONENTS
100
AcDbLine
 62
7
  6
BYLAYER
 10
38.134528071
 20
95.0582296343
 11
36.2486742855
 21
96.9440834198
  0
LINE
  5
2A8
100
AcDbEntity
  8
00_COMPONENTS
100
AcDbLine
 62
7
  6
BYLAYER
 10
64.5775673284
 20
56.4937495601
 11
64.577567328
 21
59.7957495601
  0
LINE
  5
2A9
100
AcDbEntity
  8
00_COMPONENTS
100
AcDbLine
 62
7
  6
BYLAYER
 10
64.6211673332
 20
56.4937495601
 11
64.6211673332
 21
55.2276495601
  0
LINE
  5
2AA
100
AcDbEntity
  8
00_COMPONENTS
100
AcDbLine
 62
7
  6
BYLAYER
 10
64.9649173332
 20
43.7661495601
 11
64.9649173332
 21
45.2901495601
  0
LINE
  5
2AB
100
AcDbEntity
  8
00_COMPONENTS
100
AcDbLine
 62
7
  6
BYLAYER
 10
64.9649173332
 20
51.6401495601
 11
64.9649173332
 21
53.2276495601
  0
LINE
  5
2AC
100
AcDbEntity
  8
00_COMPONENTS
100
AcDbLine
 62
7
  6
BYLAYER
 10
65.3141673332
 20
88.6501495601
 11
65.3141673332
 21
96.1990461003
  0
LINE
  5
2AD
100
AcDbEntity
  8
00_COMPONENTS
100
AcDbLine
 62
7
  6
BYLAYER
 10
65.3141673332
 20
98.3036981103
 11
65.3141673332
 21
113.2881495601
  0
LINE
  5
2AE
100
AcDbEntity
  8
00_COMPONENTS
100
AcDbLine
 62
7
  6
BYLAYER
 10
65.3649040877
 20
59.7957495601
 11
65.3649040877
 21
56.4937495601
  0
LINE
  5
2AF
100
AcDbEntity
  8
00_COMPONENTS
100
AcDbLine
 62
7
  6
BYLAYER
 10
65.4157673332
 20
57.7637495601
 11
65.4157673332
 21
59.7957495601
  0
LINE
  5
2B0
100
AcDbEntity
  8
00_COMPONENTS
100
AcDbLine
 62
7
  6
BYLAYER
 10
65.4411673332
 20
88.6501495601
 11
65.4411673332
 21
59.7957495601
  0
LINE
  5
2B1
100
AcDbEntity
  8
00_COMPONENTS
100
AcDbLine
 62
7
  6
BYLAYER
 10
65.6679933382
 20
97.9498721053
 11
65.6679933382
 21
96.5528721053
  0
LINE
  5
2B2
100
AcDbEntity
  8
00_COMPONENTS
100
AcDbLine
 62
7
  6
BYLAYER
 10
65.6951825884
 20
64.3931495627
 11
65.6951825884
 21
69.8541495605
  0
LINE
  5
2B3
100
AcDbEntity
  8
00_COMPONENTS
100
AcDbLine
 62
7
  6
BYLAYER
 10
65.8211673352
 20
10.8651495627
 11
65.8211673352
 21
12.8651495571
  0
LINE
  5
2B4
100
AcDbEntity
  8
00_COMPONENTS
100
AcDbLine
 62
7
  6
BYLAYER
 10
33.3637650613
 20
102.7385956273
 11
28.8848642663
 21
107.2174964223
  0
LINE
  5
2B5
100
AcDbEntity
  8
00_COMPONENTS
100
AcDbLine
 62
7
  6
BYLAYER
 10
65.4411673332
 20
88.6501495601
 11
24.8011673332
 21
88.6501495601
  0
LINE
  5
2B6
100
AcDbEntity
  8
00_COMPONENTS
100
AcDbLine
 62
7
  6
BYLAYER
 10
57.8910915373
 20
88.7759703045
 11
32.351243129
 21
88.7759703045
  0
LINE
  5
2B7
100
AcDbEntity
  8
00_COMPONENTS
100
AcDbLine
 62
7
  6
BYLAYER
 10
31.7692645952
 20
94.1854066765
 11
31.8483487862
 21
94.1602040222
  0
LINE
  5
2B8
100
AcDbEntity
  8
00_COMPONENTS
100
AcDbLine
 62
7
  6
BYLAYER
 10
52.1078065953
 20
95.0582296343
 11
56.8134608028
 21
90.3525754269
  0
LINE
  5
2B9
100
AcDbEntity
  8
00_COMPONENTS
100
AcDbLine
 62
7
  6
BYLAYER
 10
57.7833284639
 20
92.435994847
 11
54.1912260154
 21
96.0280972954
  0
LINE
  5
2BA
100
AcDbEntity
  8
00_COMPONENTS
100
AcDbLine
 62
7
  6
BYLAYER
 10
58.6993145882
 20
92.2384292123
 11
57.6127035976
 21
93.325040203
  0
LINE
  5
2BB
100
AcDbEntity
  8
00_COMPONENTS
100
AcDbLine
 62
7
  6
BYLAYER
 10
55.0802713714
 20
95.8574724291
 11
53.9936603808
 21
96.9440834198
  0
LINE
  5
2BC
100
AcDbEntity
  8
00_COMPONENTS
100
AcDbLine
 62
7
  6
BYLAYER
 10
61.5148673372
 20
35.5860523611
 11
62.5836673332
 21
36.2031243265
  0
LINE
  5
2BD
100
AcDbEntity
  8
00_COMPONENTS
100
AcDbLine
 62
7
  6
BYLAYER
 10
55.2598764938
 20
96.0370775515
 11
57.79230872
 21
93.5046453254
  0
LINE
  5
2BE
100
AcDbEntity
  8
00_COMPONENTS
100
AcDbLine
 62
7
  6
BYLAYER
 10
57.9719138424
 20
93.6842504478
 11
55.4394816163
 21
96.216682674
  0
LINE
  5
2BF
100
AcDbEntity
  8
00_COMPONENTS
100
AcDbLine
 62
7
  6
BYLAYER
 10
55.8884944223
 20
96.66569548
 11
58.4209266485
 21
94.1332632539
  0
LINE
  5
2C0
100
AcDbEntity
  8
00_COMPONENTS
100
AcDbLine
 62
7
  6
BYLAYER
 10
56.9661251568
 20
97.7433262145
 11
59.498557383
 21
95.2108939884
  0
LINE
  5
2C1
100
AcDbEntity
  8
00_COMPONENTS
100
AcDbLine
 62
7
  6
BYLAYER
 10
58.0945969508
 20
97.4769590082
 11
57.4724265561
 21
98.0991294029
  0
LINE
  5
2C2
100
AcDbEntity
  8
00_COMPONENTS
100
AcDbLine
 62
7
  6
BYLAYER
 10
60.8671673372
 20
26.0369495601
 11
61.1211673372
 21
26.2909495601
  0
LINE
  5
2C3
100
AcDbEntity
  8
00_COMPONENTS
100
AcDbLine
 62
7
  6
BYLAYER
 10
60.5761881175
 20
96.2885247229
 11
58.0437558914
 21
98.8209569491
  0
LINE
  5
2C4
100
AcDbEntity
  8
00_COMPONENTS
100
AcDbLine
 62
7
  6
BYLAYER
 10
64.3661432326
 20
95.2510219997
 11
61.9524143135
 21
97.6647509189
  0
LINE
  5
2C5
100
AcDbEntity
  8
00_COMPONENTS
100
AcDbLine
 62
7
  6
BYLAYER
 10
59.4199820873
 20
100.197183145
 11
56.8785696051
 21
102.7385956273
  0
LINE
  5
2C6
100
AcDbEntity
  8
00_COMPONENTS
100
AcDbLine
 62
7
  6
BYLAYER
 10
63.0547388069
 20
98.7670754123
 11
60.5223065808
 21
101.2995076385
  0
LINE
  5
2C7
100
AcDbEntity
  8
00_COMPONENTS
100
AcDbLine
 62
7
  6
BYLAYER
 10
58.8789197106
 20
104.7389457329
 11
65.6679933382
 21
97.9498721053
  0
LINE
  5
2C8
100
AcDbEntity
  8
00_COMPONENTS
100
AcDbLine
 62
7
  6
BYLAYER
 10
59.3571202945
 20
105.2171463167
 11
51.286117051
 21
113.2881495601
  0
LINE
  5
2C9
100
AcDbEntity
  8
00_COMPONENTS
100
AcDbLine
 62
7
  6
BYLAYER
 10
55.2868172622
 20
113.2881495601
 11
61.3574704
 21
107.2174964223
  0
LINE
  5
2CA
100
AcDbEntity
  8
00_COMPONENTS
100
AcDbLine
 62
7
  6
BYLAYER
 10
24.9281673332
 20
113.2881495601
 11
65.3141673332
 21
113.2881495601
  0
LINE
  5
2CB
100
AcDbEntity
  8
00_COMPONENTS
100
AcDbLine
 62
7
  6
BYLAYER
 10
48.3596673332
 20
115.0915495601
 11
41.8826673332
 21
115.0915495601
  0
ARC
  5
2CC
100
AcDbEntity
  8
00_COMPONENTS
100
AcDbCircle
 62
7
  6
BYLAYER
 10
62.6471825884
 20
64.3931495627
 40
3.048
100
AcDbArc
 50
336.5159756509
 51
360.0
  0
ARC
  5
2CD
100
AcDbEntity
  8
00_COMPONENTS
100
AcDbCircle
 62
7
  6
BYLAYER
 10
27.5951825884
 20
64.3931495627
 40
3.048
100
AcDbArc
 50
180.0
 51
203.4830933658
  0
ARC
  5
2CE
100
AcDbEntity
  8
00_COMPONENTS
100
AcDbCircle
 62
7
  6
BYLAYER
 10
64.4251825884
 20
73.1889575043
 40
1.27
100
AcDbArc
 50
329.9999999985
 51
35.3811909722
  0
ARC
  5
2CF
100
AcDbEntity
  8
00_COMPONENTS
100
AcDbCircle
 62
7
  6
BYLAYER
 10
64.4251825884
 20
69.8541495605
 40
1.27
100
AcDbArc
 50
0.0
 51
36.4223645272
  0
ARC
  5
2D0
100
AcDbEntity
  8
00_COMPONENTS
100
AcDbCircle
 62
7
  6
BYLAYER
 10
25.8171825884
 20
69.8541495605
 40
1.27
100
AcDbArc
 50
143.5801657356
 51
180.0
  0
ARC
  5
2D1
100
AcDbEntity
  8
00_COMPONENTS
100
AcDbCircle
 62
7
  6
BYLAYER
 10
25.8171825884
 20
73.1889575043
 40
1.27
100
AcDbArc
 50
144.621333628
 51
209.9999999983
  0
ARC
  5
2D2
100
AcDbEntity
  8
00_COMPONENTS
100
AcDbCircle
 62
7
  6
BYLAYER
 10
61.9085673372
 20
34.9041439582
 40
0.7874
100
AcDbArc
 50
120.0
 51
180.0
  0
ARC
  5
2D3
100
AcDbEntity
  8
00_COMPONENTS
100
AcDbCircle
 62
7
  6
BYLAYER
 10
28.3337673292
 20
34.9041439582
 40
0.7874
100
AcDbArc
 50
0.0
 51
60.0
  0
ARC
  5
2D4
100
AcDbEntity
  8
00_COMPONENTS
100
AcDbCircle
 62
7
  6
BYLAYER
 10
65.3211673326
 20
10.8651495627
 40
0.5
100
AcDbArc
 50
270.0000002911
 51
360.0
  0
ARC
  5
2D5
100
AcDbEntity
  8
00_COMPONENTS
100
AcDbCircle
 62
7
  6
BYLAYER
 10
24.9211673337
 20
10.8651495627
 40
0.5
100
AcDbArc
 50
180.0
 51
269.9999997089
  0
ARC
  5
2D6
100
AcDbEntity
  8
00_COMPONENTS
100
AcDbCircle
 62
7
  6
BYLAYER
 10
65.3211673326
 20
12.8651495571
 40
0.5
100
AcDbArc
 50
0.0
 51
89.9999997089
  0
ARC
  5
2D7
100
AcDbEntity
  8
00_COMPONENTS
100
AcDbCircle
 62
7
  6
BYLAYER
 10
24.9211673337
 20
12.8651495571
 40
0.5
100
AcDbArc
 50
90.0000002911
 51
180.0
  0
SPLINE
  5
2D8
100
AcDbEntity
  8
00_COMPONENTS
100
AcDbSpline
 62
7
  6
BYLAYER
 70
0
 71
3
 72
15
 73
11
 74
0
 42
0.0000001
 43
0.0000001
 44
0.0000000001
 40
0.0
 40
0.0
 40
0.0
 40
0.0
 40
0.0762796551
 40
0.1604963053
 40
0.2581855293
 40
0.3724034092
 40
0.5042198134
 40
0.6535053273
 40
0.8193679375
 40
1.0
 40
1.0
 40
1.0
 40
1.0
 10
59.652587055
 20
102.4413654838
 30
0.0
 10
59.6204525568
 20
102.4092309856
 30
0.0
 10
59.5653300981
 20
102.3282611988
 30
0.0
 10
59.5241200346
 20
102.1779880852
 30
0.0
 10
59.5201112549
 20
102.000344368
 30
0.0
 10
59.5517726088
 20
101.7972602055
 30
0.0
 10
59.6181545257
 20
101.5707669457
 30
0.0
 10
59.7184422592
 20
101.323705766
 30
0.0
 10
59.8512217499
 20
101.0595836659
 30
0.0
 10
59.9560312532
 20
100.8815643299
 30
0.0
 10
60.0131710291
 20
100.7903720868
 30
0.0
  0
SPLINE
  5
2D9
100
AcDbEntity
  8
00_COMPONENTS
100
AcDbSpline
 62
7
  6
BYLAYER
 70
0
 71
3
 72
15
 73
11
 74
0
 42
0.0000001
 43
0.0000001
 44
0.0000000001
 40
0.0
 40
0.0
 40
0.0
 40
0.0
 40
0.1806320625
 40
0.3464946727
 40
0.4957801866
 40
0.6275965908
 40
0.7418144707
 40
0.8395036947
 40
0.9237203449
 40
1.0
 40
1.0
 40
1.0
 40
1.0
 10
62.5456032553
 20
98.2579398607
 30
0.0
 10
62.6367954984
 20
98.2008000848
 30
0.0
 10
62.8148148344
 20
98.0959905815
 30
0.0
 10
63.0789369344
 20
97.9632110907
 30
0.0
 10
63.3259981141
 20
97.8629233572
 30
0.0
 10
63.552491374
 20
97.7965414404
 30
0.0
 10
63.7555755365
 20
97.7648800865
 30
0.0
 10
63.9332192536
 20
97.7688888662
 30
0.0
 10
64.0834923672
 20
97.8100989297
 30
0.0
 10
64.164462154
 20
97.8652213883
 30
0.0
 10
64.1965966522
 20
97.8973558865
 30
0.0
  0
SPLINE
  5
2DA
100
AcDbEntity
  8
00_COMPONENTS
100
AcDbSpline
 62
7
  6
BYLAYER
 70
0
 71
3
 72
15
 73
11
 74
0
 42
0.0000001
 43
0.0000001
 44
0.0000000001
 40
0.0
 40
0.0
 40
0.0
 40
0.0
 40
0.0762796551
 40
0.1604963053
 40
0.2581855293
 40
0.3724034092
 40
0.5042198134
 40
0.6535053273
 40
0.8193679375
 40
1.0
 40
1.0
 40
1.0
 40
1.0
 10
26.0457380141
 20
97.8973558865
 30
0.0
 10
26.0778725123
 20
97.8652213883
 30
0.0
 10
26.1588422991
 20
97.8100989297
 30
0.0
 10
26.3091154127
 20
97.7688888662
 30
0.0
 10
26.4867591298
 20
97.7648800865
 30
0.0
 10
26.6898432924
 20
97.7965414404
 30
0.0
 10
26.9163365522
 20
97.8629233572
 30
0.0
 10
27.1633977319
 20
97.9632110907
 30
0.0
 10
27.427519832
 20
98.0959905815
 30
0.0
 10
27.6055391679
 20
98.2008000848
 30
0.0
 10
27.696731411
 20
98.2579398607
 30
0.0
  0
SPLINE
  5
2DB
100
AcDbEntity
  8
00_COMPONENTS
100
AcDbSpline
 62
7
  6
BYLAYER
 70
0
 71
3
 72
15
 73
11
 74
0
 42
0.0000001
 43
0.0000001
 44
0.0000000001
 40
0.0
 40
0.0
 40
0.0
 40
0.0
 40
0.1806320625
 40
0.3464946727
 40
0.4957801866
 40
0.6275965908
 40
0.7418144707
 40
0.8395036947
 40
0.9237203449
 40
1.0
 40
1.0
 40
1.0
 40
1.0
 10
30.2291636372
 20
100.7903720868
 30
0.0
 10
30.2863034131
 20
100.8815643299
 30
0.0
 10
30.3911129164
 20
101.0595836659
 30
0.0
 10
30.5238924071
 20
101.323705766
 30
0.0
 10
30.6241801406
 20
101.5707669456
 30
0.0
 10
30.6905620575
 20
101.7972602055
 30
0.0
 10
30.7222234114
 20
102.000344368
 30
0.0
 10
30.7182146317
 20
102.1779880852
 30
0.0
 10
30.6770045682
 20
102.3282611988
 30
0.0
 10
30.6218821095
 20
102.4092309856
 30
0.0
 10
30.5897476113
 20
102.4413654838
 30
0.0
  0
SPLINE
  5
2DC
100
AcDbEntity
  8
00_COMPONENTS
100
AcDbSpline
 62
7
  6
BYLAYER
 70
0
 71
3
 72
18
 73
14
 74
0
 42
0.0000001
 43
0.0000001
 44
0.0000000001
 40
0.0
 40
0.0
 40
0.0
 40
0.0
 40
0.0320502393
 40
0.0658354606
 40
0.1027430072
 40
0.1437865228
 40
0.1896179225
 40
0.2405849253
 40
0.35813741
 40
0.4957588799
 40
0.6510061269
 40
0.8204831006
 40
1.0
 40
1.0
 40
1.0
 40
1.0
 10
64.1965966522
 20
97.8973558865
 30
0.0
 10
64.2189619537
 20
97.919721188
 30
0.0
 10
64.2591053511
 20
97.9718179332
 30
0.0
 10
64.3003424674
 20
98.0653326761
 30
0.0
 10
64.3233133905
 20
98.173847572
 30
0.0
 10
64.3283364726
 20
98.2963474076
 30
0.0
 10
64.3157170309
 20
98.4321186112
 30
0.0
 10
64.2735249644
 20
98.6397291185
 30
0.0
 10
64.1736464402
 20
98.9261926431
 30
0.0
 10
63.9953962513
 20
99.2905617886
 30
0.0
 10
63.7578382157
 20
99.680764079
 30
0.0
 10
63.4676332597
 20
100.0854588385
 30
0.0
 10
63.2489085598
 20
100.3518444564
 30
0.0
 10
63.1324868156
 20
100.4853786279
 30
0.0
  0
SPLINE
  5
2DD
100
AcDbEntity
  8
00_COMPONENTS
100
AcDbSpline
 62
7
  6
BYLAYER
 70
0
 71
3
 72
18
 73
14
 74
0
 42
0.0000001
 43
0.0000001
 44
0.0000000001
 40
0.0
 40
0.0
 40
0.0
 40
0.0
 40
0.1795168994
 40
0.3489938731
 40
0.5042411201
 40
0.64186259
 40
0.7594150747
 40
0.8103820775
 40
0.8562134772
 40
0.8972569928
 40
0.9341645394
 40
0.9679497607
 40
1.0
 40
1.0
 40
1.0
 40
1.0
 10
27.1098478507
 20
100.4853786279
 30
0.0
 10
26.9934261065
 20
100.3518444564
 30
0.0
 10
26.7747014066
 20
100.0854588385
 30
0.0
 10
26.4844964506
 20
99.680764079
 30
0.0
 10
26.2469384151
 20
99.2905617886
 30
0.0
 10
26.0686882261
 20
98.9261926431
 30
0.0
 10
25.9688097019
 20
98.6397291185
 30
0.0
 10
25.9266176354
 20
98.4321186112
 30
0.0
 10
25.9139981937
 20
98.2963474076
 30
0.0
 10
25.9190212758
 20
98.173847572
 30
0.0
 10
25.9419921989
 20
98.0653326761
 30
0.0
 10
25.9832293152
 20
97.9718179332
 30
0.0
 10
26.0233727126
 20
97.919721188
 30
0.0
 10
26.0457380141
 20
97.8973558865
 30
0.0
  0
SPLINE
  5
2DE
100
AcDbEntity
  8
00_COMPONENTS
100
AcDbSpline
 62
7
  6
BYLAYER
 70
0
 71
3
 72
18
 73
14
 74
0
 42
0.0000001
 43
0.0000001
 44
0.0000000001
 40
0.0
 40
0.0
 40
0.0
 40
0.0
 40
0.1795168994
 40
0.3489938731
 40
0.5042411201
 40
0.64186259
 40
0.7594150747
 40
0.8103820775
 40
0.8562134772
 40
0.8972569928
 40
0.9341645394
 40
0.9679497607
 40
1.0
 40
1.0
 40
1.0
 40
1.0
 10
62.2406097963
 20
101.3772556472
 30
0.0
 10
62.1070756248
 20
101.4936773914
 30
0.0
 10
61.8406900069
 20
101.7124020913
 30
0.0
 10
61.4359952474
 20
102.0026070472
 30
0.0
 10
61.045792957
 20
102.2401650828
 30
0.0
 10
60.6814238115
 20
102.4184152718
 30
0.0
 10
60.394960287
 20
102.5182937959
 30
0.0
 10
60.1873497797
 20
102.5604858624
 30
0.0
 10
60.051578576
 20
102.5731053041
 30
0.0
 10
59.9290787404
 20
102.5680822221
 30
0.0
 10
59.8205638445
 20
102.5451112989
 30
0.0
 10
59.7270491016
 20
102.5038741826
 30
0.0
 10
59.6749523565
 20
102.4637307853
 30
0.0
 10
59.652587055
 20
102.4413654838
 30
0.0
  0
SPLINE
  5
2DF
100
AcDbEntity
  8
00_COMPONENTS
100
AcDbSpline
 62
7
  6
BYLAYER
 70
0
 71
3
 72
18
 73
14
 74
0
 42
0.0000001
 43
0.0000001
 44
0.0000000001
 40
0.0
 40
0.0
 40
0.0
 40
0.0
 40
0.0320502393
 40
0.0658354606
 40
0.1027430072
 40
0.1437865228
 40
0.1896179225
 40
0.2405849253
 40
0.35813741
 40
0.4957588799
 40
0.6510061269
 40
0.8204831006
 40
1.0
 40
1.0
 40
1.0
 40
1.0
 10
30.5897476113
 20
102.4413654838
 30
0.0
 10
30.5673823099
 20
102.4637307853
 30
0.0
 10
30.5152855647
 20
102.5038741826
 30
0.0
 10
30.4217708218
 20
102.5451112989
 30
0.0
 10
30.3132559259
 20
102.5680822221
 30
0.0
 10
30.1907560903
 20
102.5731053041
 30
0.0
 10
30.0549848866
 20
102.5604858624
 30
0.0
 10
29.8473743793
 20
102.5182937959
 30
0.0
 10
29.5609108548
 20
102.4184152718
 30
0.0
 10
29.1965417093
 20
102.2401650828
 30
0.0
 10
28.8063394189
 20
102.0026070472
 30
0.0
 10
28.4016446594
 20
101.7124020913
 30
0.0
 10
28.1352590415
 20
101.4936773914
 30
0.0
 10
28.00172487
 20
101.3772556472
 30
0.0
  0
SPLINE
  5
2E0
100
AcDbEntity
  8
00_COMPONENTS
100
AcDbSpline
 62
7
  6
BYLAYER
 70
0
 71
3
 72
13
 73
9
 74
0
 42
0.0000001
 43
0.0000001
 44
0.0000000001
 40
0.0
 40
0.0
 40
0.0
 40
0.0
 40
0.2514377003
 40
0.3759344879
 40
0.5
 40
0.6240655121
 40
0.7485622997
 40
1.0
 40
1.0
 40
1.0
 40
1.0
 10
27.6586673332
 20
37.0338007658
 30
0.0
 10
28.4905063531
 20
36.7738845835
 30
0.0
 10
29.7605499471
 20
36.458689675
 30
0.0
 10
31.4813364733
 20
36.2400943529
 30
0.0
 10
32.7733151667
 20
36.1846901379
 30
0.0
 10
34.0652938601
 20
36.2400943529
 30
0.0
 10
35.7860803863
 20
36.458689675
 30
0.0
 10
37.0561239803
 20
36.7738845835
 30
0.0
 10
37.8879630002
 20
37.0338007658
 30
0.0
  0
SPLINE
  5
2E1
100
AcDbEntity
  8
00_COMPONENTS
100
AcDbSpline
 62
7
  6
BYLAYER
 70
0
 71
3
 72
11
 73
7
 74
0
 42
0.0000001
 43
0.0000001
 44
0.0000000001
 40
0.0
 40
0.0
 40
0.0
 40
0.0
 40
0.2499944956
 40
0.4999965072
 40
0.7500029812
 40
1.0
 40
1.0
 40
1.0
 40
1.0
 10
37.8879630002
 20
37.0338007658
 30
0.0
 10
38.4815061364
 20
36.9026619311
 30
0.0
 10
39.6746320568
 20
36.6665894526
 30
0.0
 10
41.4799469098
 20
36.4029547048
 30
0.0
 10
43.297244789
 20
36.2399660974
 30
0.0
 10
44.5133036092
 20
36.2031243265
 30
0.0
 10
45.1211673332
 20
36.2031243265
 30
0.0
  0
SPLINE
  5
2E2
100
AcDbEntity
  8
00_COMPONENTS
100
AcDbSpline
 62
7
  6
BYLAYER
 70
0
 71
3
 72
10
 73
6
 74
0
 42
0.0000001
 43
0.0000001
 44
0.0000000001
 40
0.0
 40
0.0
 40
0.0
 40
0.0
 40
0.2500381947
 40
0.5000769298
 40
1.0
 40
1.0
 40
1.0
 40
1.0
 10
45.1211673332
 20
36.2031243265
 30
0.0
 10
45.7290359659
 20
36.2031243265
 30
0.0
 10
46.9451203774
 20
36.2400614472
 30
0.0
 10
49.367557348
 20
36.4569369106
 30
0.0
 10
51.1676277838
 20
36.7715987448
 30
0.0
 10
52.3543716661
 20
37.0338007658
 30
0.0
  0
SPLINE
  5
2E3
100
AcDbEntity
  8
00_COMPONENTS
100
AcDbSpline
 62
7
  6
BYLAYER
 70
0
 71
3
 72
13
 73
9
 74
0
 42
0.0000001
 43
0.0000001
 44
0.0000000001
 40
0.0
 40
0.0
 40
0.0
 40
0.0
 40
0.2514377003
 40
0.3759344879
 40
0.5
 40
0.6240655121
 40
0.7485622997
 40
1.0
 40
1.0
 40
1.0
 40
1.0
 10
52.3543716661
 20
37.0338007658
 30
0.0
 10
53.186210686
 20
36.7738845835
 30
0.0
 10
54.45625428
 20
36.458689675
 30
0.0
 10
56.1770408063
 20
36.2400943529
 30
0.0
 10
57.4690194996
 20
36.1846901379
 30
0.0
 10
58.760998193
 20
36.2400943529
 30
0.0
 10
60.4817847192
 20
36.458689675
 30
0.0
 10
61.7518283132
 20
36.7738845835
 30
0.0
 10
62.5836673332
 20
37.0338007658
 30
0.0
  0
ENDSEC
  0
SECTION
  2
OBJECTS
  0
DICTIONARY
  5
C
100
AcDbDictionary
280
0
281
1
  3
ACAD_GROUP
350
D
  3
ACAD_MLINESTYLE
350
17
  3
ACAD_LAYOUT
350
1A
  3
ACAD_PLOTSETTINGS
350
19
  3
ACAD_PLOTSTYLENAME
350
E
  0
DICTIONARY
  5
D
102
{ACAD_REACTORS
330
C
102
}
100
AcDbDictionary
280
0
281
1
  0
ACDBDICTIONARYWDFLT
  5
E
102
{ACAD_REACTORS
330
C
102
}
100
AcDbDictionary
281
1
  3
Normal
350
F
100
AcDbDictionaryWithDefault
340
F
  0
DICTIONARY
  5
17
102
{ACAD_REACTORS
330
C
102
}
100
AcDbDictionary
280
0
281
1
  3
Standard
350
18
  0
DICTIONARY
  5
19
102
{ACAD_REACTORS
330
C
102
}
100
AcDbDictionary
281
1
  0
DICTIONARY
  5
1A
102
{ACAD_REACTORS
330
C
102
}
100
AcDbDictionary
281
1
  3
Model
350
2E4
  3
Layout1
350
2E5
  0
ACDBPLACEHOLDER
  5
F
102
{ACAD_REACTORS
330
E
102
}
  0
MLINESTYLE
  5
18
102
{ACAD_REACTORS
330
17
102
}
100
AcDbMlineStyle
  2
STANDARD
 70
0
  3

 62
256
 51
90.0
 52
90.0
 71
2
 49
0.5
 62
256
  6
BYLAYER
 49
-0.5
 62
256
  6
BYLAYER
  0
LAYOUT
  5
2E4
102
{ACAD_REACTORS
330
1A
102
}
100
AcDbPlotSettings
  1

  2
none_device
  4

  6

 40
0.0
 41
0.0
 42
0.0
 43
0.0
 44
210.0
 45
297.0
 46
0.0
 47
0.0
 48
0.0
 49
0.0
140
0.0
141
0.0
142
1.0
143
1.0
 70
1024
 72
1
 73
0
 74
0
  7

 75
0
147
1.0
148
0.0
149
0.0
100
AcDbLayout
  1
Model
 70
0
 71
0
 10
0.0
 20
0.0
 11
210.0
 21
297.0
 12
0.0
 22
0.0
 32
0.0
 14
0.0
 24
0.0
 34
0.0
 15
0.0
 25
0.0
 35
0.0
146
0.0
 13
0.0
 23
0.0
 33
0.0
 16
1.0
 26
0.0
 36
0.0
 17
0.0
 27
1.0
 37
0.0
 76
0
330
21B
345
0
346
0
  0
LAYOUT
  5
2E5
102
{ACAD_REACTORS
330
1A
102
}
100
AcDbPlotSettings
  1

  2
none_device
  4

  6

 40
0.0
 41
0.0
 42
0.0
 43
0.0
 44
210.0
 45
297.0
 46
0.0
 47
0.0
 48
0.0
 49
0.0
140
0.0
141
0.0
142
1.0
143
1.0
 70
0
 72
1
 73
0
 74
0
  7

 75
0
147
1.0
148
0.0
149
0.0
100
AcDbLayout
  1
Layout1
 70
0
 71
1
 10
0.0
 20
0.0
 11
210.0
 21
297.0
 12
0.0
 22
0.0
 32
0.0
 14
0.0
 24
0.0
 34
0.0
 15
0.0
 25
0.0
 35
0.0
146
0.0
 13
0.0
 23
0.0
 33
0.0
 16
1.0
 26
0.0
 36
0.0
 17
0.0
 27
1.0
 37
0.0
 76
0
330
21C
345
0
346
0
  0
ENDSEC
  0
EOF
