999
DXF file: C:\Users\sesa63760\Dev\_Creo\CAD\MCADID0000722_3D-CAD\drw0001_6.dxf
999
Pro/ENGINEER 2019471 by Parametric Technology Corporation
  0
SECTION
  2
HEADER
  9
$ACADVER
  1
AC1024
  9
$DWGCODEPAGE
  3
ANSI_1252
  9
$EXTMAX
 10
95.9423778243
 20
135.6899343514
 30
0.0
  9
$EXTMIN
 10
0.0
 20
0.0
 30
0.0
  9
$LIMMIN
 10
0.0
 20
0.0
  9
$LIMMAX
 10
95.9423778243
 20
135.6899343514
  9
$VIEWCTR
 10
47.9711889121
 20
67.8449671757
  9
$VIEWSIZE
 40
135.6899343514
  9
$CLAYER
  8
0
  9
$LTSCALE
 40
8.8449734985
  9
$CELTYPE
  6
BYLAYER
  9
$DIMSCALE
 40
1.0
  9
$DIMASZ
 40
1.1421711646
  9
$DIMEXO
 40
1.0
  9
$DIMDLI
 40
6.1110725989
  9
$DIMEXE
 40
1.0
  9
$DIMCEN
 40
1.4473592997
  9
$DIMLFAC
 40
1.0
  9
$DIMBLK
  1
_FILLED
  9
$DIMALT
 70
0
  9
$DIMALTF
 40
0.0393700787
  9
$DIMTXT
 40
1.5990396304
  9
$DIMTOL
 70
1
  9
$DIMLIM
 70
0
  9
$DIMTFAC
 40
1.0
  9
$DIMTP
 40
0.01
  9
$DIMTM
 40
0.01
  9
$DIMGAP
 40
0.625
  9
$DIMDSEP
 70
46
  9
$AUNITS
 70
0
  9
$PDMODE
 70
3
  9
$PDSIZE
 40
0.3125
  9
$HANDSEED
  5
39C
  9
$TILEMODE
 70
1
  9
$MEASUREMENT
 70
1
  9
$INSUNITS
 70
4
  0
ENDSEC
  0
SECTION
  2
CLASSES
  0
CLASS
  1
ACDBDICTIONARYWDFLT
  2
AcDbDictionaryWithDefault
  3
AutoCAD 2000
 90
0
 91
1
280
0
281
0
  0
CLASS
  1
ACDBPLACEHOLDER
  2
AcDbPlaceHolder
  3
AutoCAD 2000
 90
0
 91
1
280
0
281
0
  0
CLASS
  1
LAYOUT
  2
AcDbLayout
  3
AutoCAD 2000
 90
0
 91
0
280
0
281
0
  0
ENDSEC
  0
SECTION
  2
TABLES
  0
TABLE
  2
VPORT
  5
8
100
AcDbSymbolTable
 70
2
  0
VPORT
  5
1F4
100
AcDbSymbolTableRecord
100
AcDbViewportTableRecord
  2
*ACTIVE
 70
0
 10
0.0
 20
0.0
 11
1.0
 21
1.0
 12
47.9711889121
 22
67.8449671757
 13
0.0
 23
0.0
 14
1.0
 24
1.0
 15
0.0
 25
0.0
 16
0.0
 26
0.0
 36
1.0
 17
0.0
 27
0.0
 37
0.0
 40
135.6899343514
 41
0.7070707071
 42
50.0
 43
0.0
 44
0.0
 50
0.0
 51
0.0
 71
0
 72
100
 73
1
 74
1
 75
0
 76
0
 77
0
 78
0
  0
ENDTAB
  0
TABLE
  2
LTYPE
  5
5
100
AcDbSymbolTable
 70
6
  0
LTYPE
  5
14
100
AcDbSymbolTableRecord
100
AcDbLinetypeTableRecord
  2
BYBLOCK
 70
0
  3

 72
65
 73
0
 40
0.0
  0
LTYPE
  5
15
100
AcDbSymbolTableRecord
100
AcDbLinetypeTableRecord
  2
BYLAYER
 70
0
  3

 72
65
 73
0
 40
0.0
  0
LTYPE
  5
16
100
AcDbSymbolTableRecord
100
AcDbLinetypeTableRecord
  2
CONTINUOUS
 70
64
  3
Solid line
 72
65
 73
0
 40
0.0
  0
LTYPE
  5
1F5
100
AcDbSymbolTableRecord
100
AcDbLinetypeTableRecord
  2
CENTER
 70
64
  3
____ _ ____ _ ____ _ ____ _ ____ _ ____ _ ____
 72
65
 73
4
 40
0.6
 49
0.375
 74
0
 49
-0.075
 74
0
 49
0.075
 74
0
 49
-0.075
 74
0
  0
LTYPE
  5
1F6
100
AcDbSymbolTableRecord
100
AcDbLinetypeTableRecord
  2
HIDDEN
 70
64
  3
- - - - - - - - - - - - - - - - - - - -
 72
65
 73
2
 40
0.2
 49
0.1
 74
0
 49
-0.1
 74
0
  0
LTYPE
  5
1F7
100
AcDbSymbolTableRecord
100
AcDbLinetypeTableRecord
  2
PHANTOM
 70
64
  3
_____ _ _ _____ _ _ _____ _ _ _____
 72
65
 73
6
 40
0.8
 49
0.45
 74
0
 49
-0.05
 74
0
 49
0.1
 74
0
 49
-0.05
 74
0
 49
0.1
 74
0
 49
-0.05
 74
0
  0
LTYPE
  5
1F8
100
AcDbSymbolTableRecord
100
AcDbLinetypeTableRecord
  2
DOT
 70
64
  3
. . . . . . . . . . . . . . . . . . . .
 72
65
 73
2
 40
0.2
 49
0.1
 74
0
 49
-0.1
 74
0
  0
LTYPE
  5
1F9
100
AcDbSymbolTableRecord
100
AcDbLinetypeTableRecord
  2
DASHED
 70
64
  3
- - - - - - - - - - - - - - - - - - - -
 72
65
 73
2
 40
0.2
 49
0.1
 74
0
 49
-0.1
 74
0
  0
ENDTAB
  0
TABLE
  2
LAYER
  5
2
100
AcDbSymbolTable
 70
36
  0
LAYER
  5
10
100
AcDbSymbolTableRecord
100
AcDbLayerTableRecord
  2
0
 70
0
 62
7
  6
CONTINUOUS
370
-3
390
F
  0
LAYER
  5
1FA
100
AcDbSymbolTableRecord
100
AcDbLayerTableRecord
  2
DEFAULT_1
 70
0
 62
7
  6
CENTER
370
-3
390
F
  0
LAYER
  5
1FB
100
AcDbSymbolTableRecord
100
AcDbLayerTableRecord
  2
DEFAULT_2
 70
0
 62
8
  6
HIDDEN
370
-3
390
F
  0
LAYER
  5
1FC
100
AcDbSymbolTableRecord
100
AcDbLayerTableRecord
  2
DEFAULT_3
 70
0
 62
7
  6
PHANTOM
370
-3
390
F
  0
LAYER
  5
1FD
100
AcDbSymbolTableRecord
100
AcDbLayerTableRecord
  2
00_COMPONENTS
 70
0
 62
7
  6
CONTINUOUS
370
-3
390
F
  0
LAYER
  5
1FE
100
AcDbSymbolTableRecord
100
AcDbLayerTableRecord
  2
01_1_DEFAULT_DATUMS
 70
0
 62
7
  6
CONTINUOUS
370
-3
390
F
  0
LAYER
  5
1FF
100
AcDbSymbolTableRecord
100
AcDbLayerTableRecord
  2
01_PLANES
 70
0
 62
7
  6
CONTINUOUS
370
-3
390
F
  0
LAYER
  5
200
100
AcDbSymbolTableRecord
100
AcDbLayerTableRecord
  2
02_COORD_SYS
 70
0
 62
7
  6
CONTINUOUS
370
-3
390
F
  0
LAYER
  5
201
100
AcDbSymbolTableRecord
100
AcDbLayerTableRecord
  2
03_AXES
 70
0
 62
7
  6
CONTINUOUS
370
-3
390
F
  0
LAYER
  5
202
100
AcDbSymbolTableRecord
100
AcDbLayerTableRecord
  2
04_POINTS
 70
0
 62
7
  6
CONTINUOUS
370
-3
390
F
  0
LAYER
  5
203
100
AcDbSymbolTableRecord
100
AcDbLayerTableRecord
  2
05_CURVES
 70
0
 62
7
  6
CONTINUOUS
370
-3
390
F
  0
LAYER
  5
204
100
AcDbSymbolTableRecord
100
AcDbLayerTableRecord
  2
06_SURFS
 70
0
 62
7
  6
CONTINUOUS
370
-3
390
F
  0
LAYER
  5
205
100
AcDbSymbolTableRecord
100
AcDbLayerTableRecord
  2
07_COSMETICS
 70
0
 62
7
  6
CONTINUOUS
370
-3
390
F
  0
LAYER
  5
206
100
AcDbSymbolTableRecord
100
AcDbLayerTableRecord
  2
10_NOTES
 70
0
 62
7
  6
CONTINUOUS
370
-3
390
F
  0
LAYER
  5
207
100
AcDbSymbolTableRecord
100
AcDbLayerTableRecord
  2
11_NOTES_PUB
 70
0
 62
7
  6
CONTINUOUS
370
-3
390
F
  0
LAYER
  5
208
100
AcDbSymbolTableRecord
100
AcDbLayerTableRecord
  2
13_REF_GTOL
 70
0
 62
7
  6
CONTINUOUS
370
-3
390
F
  0
LAYER
  5
209
100
AcDbSymbolTableRecord
100
AcDbLayerTableRecord
  2
16_MISC
 70
0
 62
7
  6
CONTINUOUS
370
-3
390
F
  0
LAYER
  5
20A
100
AcDbSymbolTableRecord
100
AcDbLayerTableRecord
  2
17_NO_PRINT
 70
0
 62
7
  6
CONTINUOUS
370
-3
390
F
  0
LAYER
  5
20B
100
AcDbSymbolTableRecord
100
AcDbLayerTableRecord
  2
18_DATUM_CAMS_JOINTS
 70
0
 62
7
  6
CONTINUOUS
370
-3
390
F
  0
LAYER
  5
20C
100
AcDbSymbolTableRecord
100
AcDbLayerTableRecord
  2
19_DATUM_FUNCTIONAL
 70
0
 62
7
  6
CONTINUOUS
370
-3
390
F
  0
LAYER
  5
20D
100
AcDbSymbolTableRecord
100
AcDbLayerTableRecord
  2
20_DATUM_KINEMATIC_SCHEME
 70
0
 62
7
  6
CONTINUOUS
370
-3
390
F
  0
ENDTAB
  0
TABLE
  2
STYLE
  5
3
100
AcDbSymbolTable
 70
1
  0
STYLE
  5
11
100
AcDbSymbolTableRecord
100
AcDbTextStyleTableRecord
  2
STANDARD
 70
0
 40
0.0
 41
0.8
 50
0.0
 71
0
 42
0.2
  3
txt
  4

  0
STYLE
  5
20E
100
AcDbSymbolTableRecord
100
AcDbTextStyleTableRecord
  2
TEXTSTYLE_1
 70
0
 40
0.0
 41
0.8
 50
0.0
 71
0
 42
0.2
  3
gdt
  4

  0
ENDTAB
  0
TABLE
  2
VIEW
  5
6
100
AcDbSymbolTable
 70
0
  0
ENDTAB
  0
TABLE
  2
UCS
  5
7
100
AcDbSymbolTable
 70
0
  0
ENDTAB
  0
TABLE
  2
APPID
  5
9
100
AcDbSymbolTable
 70
1
  0
APPID
  5
20F
100
AcDbSymbolTableRecord
100
AcDbRegAppTableRecord
  2
ACAD
 70
0
  0
ENDTAB
  0
TABLE
  2
BLOCK_RECORD
  5
1
100
AcDbSymbolTable
 70
0
  0
BLOCK_RECORD
  5
210
100
AcDbSymbolTableRecord
100
AcDbBlockTableRecord
  2
*Model_Space
  0
BLOCK_RECORD
  5
211
100
AcDbSymbolTableRecord
100
AcDbBlockTableRecord
  2
*Paper_Space
  0
BLOCK_RECORD
  5
212
100
AcDbSymbolTableRecord
100
AcDbBlockTableRecord
  2
_FILLED
  0
ENDTAB
  0
TABLE
  2
DIMSTYLE
  5
A
100
AcDbSymbolTable
 70
1
100
AcDbDimStyleTable
 71
0
  0
DIMSTYLE
105
213
100
AcDbSymbolTableRecord
100
AcDbDimStyleTableRecord
  2
STANDARD
 70
0
  3

  4

 40
1.0
 41
1.1421711646
 42
1.0
 43
0.38
 44
1.0
 45
0.0
 46
0.0
 47
0.01
 48
0.01
140
1.5990396304
141
0.09
142
0.0
143
25.4
144
1.0
145
0.0
146
1.0
147
0.625
 71
1
 72
0
 73
0
 74
0
 75
0
 76
0
 77
1
 78
8
 79
2
170
0
171
1
172
0
173
0
174
0
175
0
176
0
177
0
178
0
270
2
179
2
271
2
272
2
273
2
274
2
275
0
280
0
281
0
282
0
283
1
284
8
285
0
286
0
287
3
288
0
340
11
278
46
341
212
342
212
343
212
344
212
  0
ENDTAB
  0
ENDSEC
  0
SECTION
  2
BLOCKS
  0
BLOCK
  5
20
100
AcDbEntity
  8
0
100
AcDbBlockBegin
  2
*Model_Space
 70
0
 10
0.0
 20
0.0
 30
0.0
  3
*Model_Space
  1

  0
ENDBLK
  5
21
100
AcDbEntity
  8
0
100
AcDbBlockEnd
  0
BLOCK
  5
1C
100
AcDbEntity
  8
0
100
AcDbBlockBegin
  2
*Paper_Space
 70
0
 10
0.0
 20
0.0
 30
0.0
  3
*Paper_Space
  1

  0
ENDBLK
  5
1D
100
AcDbEntity
  8
0
100
AcDbBlockEnd
  0
BLOCK
  5
214
100
AcDbEntity
  8
0
100
AcDbBlockBegin
  2
_FILLED
 70
64
 10
0.0
 20
0.0
  3
_FILLED
  1

  0
SOLID
  5
215
100
AcDbEntity
  8
0
  6
BYBLOCK
 62
0
100
AcDbTrace
 10
0.0
 20
0.0
 11
-1.0
 21
0.25
 12
-1.0
 22
-0.25
 13
-1.0
 23
-0.25
  0
ENDBLK
  5
216
100
AcDbEntity
  8
0
  6
BYBLOCK
 62
0
100
AcDbBlockEnd
  0
ENDSEC
  0
SECTION
  2
ENTITIES
  0
LINE
  5
217
100
AcDbEntity
  8
0
100
AcDbLine
 62
7
  6
CONTINUOUS
 10
80.7196211796
 20
15.7472197243
 11
84.8995780707
 21
16.4845107978
  0
LINE
  5
218
100
AcDbEntity
  8
0
100
AcDbLine
 62
7
  6
CONTINUOUS
 10
18.8516046679
 20
115.6449669092
 11
14.8516046679
 21
111.6449669092
  0
LINE
  5
219
100
AcDbEntity
  8
0
100
AcDbLine
 62
7
  6
CONTINUOUS
 10
11.0516046679
 20
107.8449669092
 11
10.8516046679
 21
107.6449669092
  0
LINE
  5
21A
100
AcDbEntity
  8
0
100
AcDbLine
 62
7
  6
CONTINUOUS
 10
79.7717741298
 20
14.7462948581
 11
70.2517741409
 21
14.745738462
  0
LINE
  5
21B
100
AcDbEntity
  8
0
100
AcDbLine
 62
7
  6
CONTINUOUS
 10
86.2517419745
 20
15.2966735782
 11
85.7517419754
 21
15.2966443558
  0
LINE
  5
21C
100
AcDbEntity
  8
0
100
AcDbLine
 62
7
  6
CONTINUOUS
 10
66.1017110351
 20
15.8254959137
 11
66.9017110325
 21
15.8255426695
  0
LINE
  5
21D
100
AcDbEntity
  8
0
100
AcDbLine
 62
7
  6
CONTINUOUS
 10
57.0516046675
 20
16.3449669092
 11
54.4516046679
 21
16.3449669092
  0
LINE
  5
21E
100
AcDbEntity
  8
0
100
AcDbLine
 62
7
  6
CONTINUOUS
 10
57.6016730605
 20
16.4749991324
 11
66.101673046
 21
16.475495913
  0
LINE
  5
21F
100
AcDbEntity
  8
0
100
AcDbLine
 62
7
  6
CONTINUOUS
 10
68.2754117509
 20
16.4756229566
 11
68.7516730396
 21
16.4756507916
  0
LINE
  5
220
100
AcDbEntity
  8
0
100
AcDbLine
 62
7
  6
CONTINUOUS
 10
10.8516046679
 20
17.6449669092
 11
80.8516046679
 21
17.6449669092
  0
LINE
  5
221
100
AcDbEntity
  8
0
100
AcDbLine
 62
7
  6
CONTINUOUS
 10
80.8516046679
 20
18.1449669095
 11
75.8516046679
 21
18.1449669095
  0
LINE
  5
222
100
AcDbEntity
  8
0
100
AcDbLine
 62
7
  6
CONTINUOUS
 10
45.5516046672
 20
22.6449669092
 11
36.1516046679
 21
22.6449669092
  0
LINE
  5
223
100
AcDbEntity
  8
0
100
AcDbLine
 62
7
  6
CONTINUOUS
 10
28.8516046679
 20
22.7449669092
 11
17.8516046679
 21
22.7449669092
  0
LINE
  5
224
100
AcDbEntity
  8
0
100
AcDbLine
 62
7
  6
CONTINUOUS
 10
86.5512861037
 20
23.0966910972
 11
86.651286105
 21
23.0966969417
  0
LINE
  5
225
100
AcDbEntity
  8
0
100
AcDbLine
 62
7
  6
CONTINUOUS
 10
32.8516046686
 20
24.7449669088
 11
28.8516046679
 21
24.7449669088
  0
LINE
  5
226
100
AcDbEntity
  8
0
100
AcDbLine
 62
7
  6
CONTINUOUS
 10
20.7516046679
 20
25.2449669092
 11
25.9516046679
 21
25.2449669092
  0
LINE
  5
227
100
AcDbEntity
  8
0
100
AcDbLine
 62
7
  6
CONTINUOUS
 10
75.8516046679
 20
25.7449669091
 11
80.8516046679
 21
25.7449669091
  0
LINE
  5
228
100
AcDbEntity
  8
0
100
AcDbLine
 62
7
  6
CONTINUOUS
 10
25.0516046678
 20
26.0699669092
 11
23.5516046678
 21
26.0699669092
  0
LINE
  5
229
100
AcDbEntity
  8
0
100
AcDbLine
 62
7
  6
CONTINUOUS
 10
80.8660216836
 20
26.2466151134
 11
85.2511020056
 21
26.2466151134
  0
LINE
  5
22A
100
AcDbEntity
  8
0
100
AcDbLine
 62
7
  6
CONTINUOUS
 10
23.5516046682
 20
26.2699669096
 11
25.0516046682
 21
26.2699669096
  0
LINE
  5
22B
100
AcDbEntity
  8
0
100
AcDbLine
 62
7
  6
CONTINUOUS
 10
23.1516046678
 20
26.7449669092
 11
21.6516046678
 21
26.7449669092
  0
LINE
  5
22C
100
AcDbEntity
  8
0
100
AcDbLine
 62
7
  6
CONTINUOUS
 10
21.6516046679
 20
26.9449669085
 11
23.1516046714
 21
26.9449669085
  0
LINE
  5
22D
100
AcDbEntity
  8
0
100
AcDbLine
 62
7
  6
CONTINUOUS
 10
24.1166046677
 20
27.0851592887
 11
22.5866046684
 21
27.0851592887
  0
LINE
  5
22E
100
AcDbEntity
  8
0
100
AcDbLine
 62
7
  6
CONTINUOUS
 10
85.7101565891
 20
27.144966909
 11
85.9921427565
 21
27.144966909
  0
LINE
  5
22F
100
AcDbEntity
  8
0
100
AcDbLine
 62
7
  6
CONTINUOUS
 10
26.3516046674
 20
27.3449669091
 11
25.2516046677
 21
27.3449669095
  0
LINE
  5
230
100
AcDbEntity
  8
0
100
AcDbLine
 62
7
  6
CONTINUOUS
 10
21.4516046681
 20
27.3449669111
 11
20.3516046683
 21
27.3449669115
  0
LINE
  5
231
100
AcDbEntity
  8
0
100
AcDbLine
 62
7
  6
CONTINUOUS
 10
22.7866046685
 20
27.5949669094
 11
23.9166046674
 21
27.5949669094
  0
LINE
  5
232
100
AcDbEntity
  8
0
100
AcDbLine
 62
7
  6
CONTINUOUS
 10
24.5516046682
 20
28.3949669096
 11
24.1166046677
 21
28.3949669096
  0
LINE
  5
233
100
AcDbEntity
  8
0
100
AcDbLine
 62
7
  6
CONTINUOUS
 10
22.5866046684
 20
28.3949669096
 11
22.1516046679
 21
28.3949669096
  0
LINE
  5
234
100
AcDbEntity
  8
0
100
AcDbLine
 62
7
  6
CONTINUOUS
 10
80.8516046679
 20
28.4449669092
 11
75.8516046679
 21
28.4449669092
  0
LINE
  5
235
100
AcDbEntity
  8
0
100
AcDbLine
 62
7
  6
CONTINUOUS
 10
36.1516046679
 20
28.6449669092
 11
45.5516046672
 21
28.6449669092
  0
LINE
  5
236
100
AcDbEntity
  8
0
100
AcDbLine
 62
7
  6
CONTINUOUS
 10
22.1516046679
 20
28.6949669085
 11
22.5866046684
 21
28.6949669085
  0
LINE
  5
237
100
AcDbEntity
  8
0
100
AcDbLine
 62
7
  6
CONTINUOUS
 10
24.1166046677
 20
28.6949669085
 11
24.5516046682
 21
28.6949669085
  0
LINE
  5
238
100
AcDbEntity
  8
0
100
AcDbLine
 62
7
  6
CONTINUOUS
 10
24.5516046682
 20
29.1949669085
 11
24.1166046677
 21
29.1949669085
  0
LINE
  5
239
100
AcDbEntity
  8
0
100
AcDbLine
 62
7
  6
CONTINUOUS
 10
22.5866046684
 20
29.1949669085
 11
22.1516046679
 21
29.1949669085
  0
LINE
  5
23A
100
AcDbEntity
  8
0
100
AcDbLine
 62
7
  6
CONTINUOUS
 10
10.8516046679
 20
17.6449669092
 11
10.8516046679
 21
44.9949669088
  0
LINE
  5
23B
100
AcDbEntity
  8
0
100
AcDbLine
 62
7
  6
CONTINUOUS
 10
10.8516046679
 20
80.2949669096
 11
10.8516046679
 21
107.6449669092
  0
LINE
  5
23C
100
AcDbEntity
  8
0
100
AcDbLine
 62
7
  6
CONTINUOUS
 10
11.0516046679
 20
107.6449669092
 11
11.0516046679
 21
112.1161301678
  0
LINE
  5
23D
100
AcDbEntity
  8
0
100
AcDbLine
 62
7
  6
CONTINUOUS
 10
11.5516046679
 20
107.6449669092
 11
11.5516046679
 21
112.6161301678
  0
LINE
  5
23E
100
AcDbEntity
  8
0
100
AcDbLine
 62
7
  6
CONTINUOUS
 10
13.8516046679
 20
104.3949669092
 11
13.8516046679
 21
102.8949669092
  0
LINE
  5
23F
100
AcDbEntity
  8
0
100
AcDbLine
 62
7
  6
CONTINUOUS
 10
22.1516046679
 20
29.4949669093
 11
22.5866046684
 21
29.4949669093
  0
LINE
  5
240
100
AcDbEntity
  8
0
100
AcDbLine
 62
7
  6
CONTINUOUS
 10
24.1166046677
 20
29.4949669093
 11
24.5516046682
 21
29.4949669093
  0
LINE
  5
241
100
AcDbEntity
  8
0
100
AcDbLine
 62
7
  6
CONTINUOUS
 10
24.5516046682
 20
29.9949669093
 11
24.1166046677
 21
29.9949669093
  0
LINE
  5
242
100
AcDbEntity
  8
0
100
AcDbLine
 62
7
  6
CONTINUOUS
 10
22.5866046684
 20
29.9949669093
 11
22.1516046679
 21
29.9949669093
  0
LINE
  5
243
100
AcDbEntity
  8
0
100
AcDbLine
 62
7
  6
CONTINUOUS
 10
22.1516046679
 20
30.29496691
 11
22.5866046684
 21
30.29496691
  0
LINE
  5
244
100
AcDbEntity
  8
0
100
AcDbLine
 62
7
  6
CONTINUOUS
 10
24.1166046677
 20
30.29496691
 11
24.5516046682
 21
30.29496691
  0
LINE
  5
245
100
AcDbEntity
  8
0
100
AcDbLine
 62
7
  6
CONTINUOUS
 10
51.5516046671
 20
30.6449669092
 11
47.5516046671
 21
30.6449669092
  0
LINE
  5
246
100
AcDbEntity
  8
0
100
AcDbLine
 62
7
  6
CONTINUOUS
 10
24.5516046682
 20
30.79496691
 11
24.1166046677
 21
30.79496691
  0
LINE
  5
247
100
AcDbEntity
  8
0
100
AcDbLine
 62
7
  6
CONTINUOUS
 10
22.5866046684
 20
30.79496691
 11
22.1516046679
 21
30.79496691
  0
LINE
  5
248
100
AcDbEntity
  8
0
100
AcDbLine
 62
7
  6
CONTINUOUS
 10
22.1516046679
 20
31.0949669089
 11
22.5866046684
 21
31.0949669089
  0
LINE
  5
249
100
AcDbEntity
  8
0
100
AcDbLine
 62
7
  6
CONTINUOUS
 10
24.1166046677
 20
31.0949669089
 11
24.5516046682
 21
31.0949669089
  0
LINE
  5
24A
100
AcDbEntity
  8
0
100
AcDbLine
 62
7
  6
CONTINUOUS
 10
24.5516046682
 20
31.5949669089
 11
24.1166046677
 21
31.5949669089
  0
LINE
  5
24B
100
AcDbEntity
  8
0
100
AcDbLine
 62
7
  6
CONTINUOUS
 10
22.5866046684
 20
31.5949669089
 11
22.1516046679
 21
31.5949669089
  0
LINE
  5
24C
100
AcDbEntity
  8
0
100
AcDbLine
 62
7
  6
CONTINUOUS
 10
22.1516046679
 20
31.8949669096
 11
22.5866046684
 21
31.8949669096
  0
LINE
  5
24D
100
AcDbEntity
  8
0
100
AcDbLine
 62
7
  6
CONTINUOUS
 10
24.1166046677
 20
31.8949669096
 11
24.5516046682
 21
31.8949669096
  0
LINE
  5
24E
100
AcDbEntity
  8
0
100
AcDbLine
 62
7
  6
CONTINUOUS
 10
24.5516046682
 20
32.3949669096
 11
24.1166046677
 21
32.3949669096
  0
LINE
  5
24F
100
AcDbEntity
  8
0
100
AcDbLine
 62
7
  6
CONTINUOUS
 10
22.5866046684
 20
32.3949669096
 11
22.1516046679
 21
32.3949669096
  0
LINE
  5
250
100
AcDbEntity
  8
0
100
AcDbLine
 62
7
  6
CONTINUOUS
 10
22.1516046679
 20
32.6949669085
 11
22.5866046684
 21
32.6949669085
  0
LINE
  5
251
100
AcDbEntity
  8
0
100
AcDbLine
 62
7
  6
CONTINUOUS
 10
24.1166046677
 20
32.6949669085
 11
24.5516046682
 21
32.6949669085
  0
LINE
  5
252
100
AcDbEntity
  8
0
100
AcDbLine
 62
7
  6
CONTINUOUS
 10
24.5516046682
 20
33.1949669085
 11
24.1166046677
 21
33.1949669085
  0
LINE
  5
253
100
AcDbEntity
  8
0
100
AcDbLine
 62
7
  6
CONTINUOUS
 10
22.5866046684
 20
33.1949669085
 11
22.1516046679
 21
33.1949669085
  0
LINE
  5
254
100
AcDbEntity
  8
0
100
AcDbLine
 62
7
  6
CONTINUOUS
 10
22.1516046679
 20
33.4949669093
 11
22.5866046684
 21
33.4949669093
  0
LINE
  5
255
100
AcDbEntity
  8
0
100
AcDbLine
 62
7
  6
CONTINUOUS
 10
24.1166046677
 20
33.4949669093
 11
24.5516046682
 21
33.4949669093
  0
LINE
  5
256
100
AcDbEntity
  8
0
100
AcDbLine
 62
7
  6
CONTINUOUS
 10
14.8516046679
 20
112.6161301678
 11
14.8516046679
 21
107.6449669092
  0
LINE
  5
257
100
AcDbEntity
  8
0
100
AcDbLine
 62
7
  6
CONTINUOUS
 10
14.8516046679
 20
44.9949669088
 11
14.8516046679
 21
80.2949669096
  0
LINE
  5
258
100
AcDbEntity
  8
0
100
AcDbLine
 62
7
  6
CONTINUOUS
 10
17.8516046679
 20
22.7449669092
 11
17.8516046679
 21
49.5449669092
  0
LINE
  5
259
100
AcDbEntity
  8
0
100
AcDbLine
 62
7
  6
CONTINUOUS
 10
24.5516046682
 20
33.9949669093
 11
24.1166046677
 21
33.9949669093
  0
LINE
  5
25A
100
AcDbEntity
  8
0
100
AcDbLine
 62
7
  6
CONTINUOUS
 10
22.5866046684
 20
33.9949669093
 11
22.1516046679
 21
33.9949669093
  0
LINE
  5
25B
100
AcDbEntity
  8
0
100
AcDbLine
 62
7
  6
CONTINUOUS
 10
22.1516046679
 20
34.29496691
 11
22.5866046684
 21
34.29496691
  0
LINE
  5
25C
100
AcDbEntity
  8
0
100
AcDbLine
 62
7
  6
CONTINUOUS
 10
24.1166046677
 20
34.29496691
 11
24.5516046682
 21
34.29496691
  0
LINE
  5
25D
100
AcDbEntity
  8
0
100
AcDbLine
 62
7
  6
CONTINUOUS
 10
24.5516046682
 20
34.79496691
 11
24.1166046677
 21
34.79496691
  0
LINE
  5
25E
100
AcDbEntity
  8
0
100
AcDbLine
 62
7
  6
CONTINUOUS
 10
22.5866046684
 20
34.79496691
 11
22.1516046679
 21
34.79496691
  0
LINE
  5
25F
100
AcDbEntity
  8
0
100
AcDbLine
 62
7
  6
CONTINUOUS
 10
22.1516046679
 20
35.0949669089
 11
22.5866046684
 21
35.0949669089
  0
LINE
  5
260
100
AcDbEntity
  8
0
100
AcDbLine
 62
7
  6
CONTINUOUS
 10
24.1166046677
 20
35.0949669089
 11
24.5516046682
 21
35.0949669089
  0
LINE
  5
261
100
AcDbEntity
  8
0
100
AcDbLine
 62
7
  6
CONTINUOUS
 10
24.5516046682
 20
35.5949669089
 11
24.1166046677
 21
35.5949669089
  0
LINE
  5
262
100
AcDbEntity
  8
0
100
AcDbLine
 62
7
  6
CONTINUOUS
 10
22.5866046684
 20
35.5949669089
 11
22.1516046679
 21
35.5949669089
  0
LINE
  5
263
100
AcDbEntity
  8
0
100
AcDbLine
 62
7
  6
CONTINUOUS
 10
22.1516046679
 20
35.8949669096
 11
22.5866046684
 21
35.8949669096
  0
LINE
  5
264
100
AcDbEntity
  8
0
100
AcDbLine
 62
7
  6
CONTINUOUS
 10
24.1166046677
 20
35.8949669096
 11
24.5516046682
 21
35.8949669096
  0
LINE
  5
265
100
AcDbEntity
  8
0
100
AcDbLine
 62
7
  6
CONTINUOUS
 10
24.5516046682
 20
36.3949669096
 11
24.1166046677
 21
36.3949669096
  0
LINE
  5
266
100
AcDbEntity
  8
0
100
AcDbLine
 62
7
  6
CONTINUOUS
 10
22.5866046684
 20
36.3949669096
 11
22.1516046679
 21
36.3949669096
  0
LINE
  5
267
100
AcDbEntity
  8
0
100
AcDbLine
 62
7
  6
CONTINUOUS
 10
22.1516046679
 20
36.6949669085
 11
22.5866046684
 21
36.6949669085
  0
LINE
  5
268
100
AcDbEntity
  8
0
100
AcDbLine
 62
7
  6
CONTINUOUS
 10
24.1166046677
 20
36.6949669085
 11
24.5516046682
 21
36.6949669085
  0
LINE
  5
269
100
AcDbEntity
  8
0
100
AcDbLine
 62
7
  6
CONTINUOUS
 10
22.1516046679
 20
37.1949669099
 11
22.5866046684
 21
37.1949669099
  0
LINE
  5
26A
100
AcDbEntity
  8
0
100
AcDbLine
 62
7
  6
CONTINUOUS
 10
24.1166046677
 20
37.1949669099
 11
24.5516046682
 21
37.1949669099
  0
LINE
  5
26B
100
AcDbEntity
  8
0
100
AcDbLine
 62
7
  6
CONTINUOUS
 10
22.1516046679
 20
37.4949669093
 11
22.5866046684
 21
37.4949669093
  0
LINE
  5
26C
100
AcDbEntity
  8
0
100
AcDbLine
 62
7
  6
CONTINUOUS
 10
24.1166046677
 20
37.4949669093
 11
24.5516046682
 21
37.4949669093
  0
LINE
  5
26D
100
AcDbEntity
  8
0
100
AcDbLine
 62
7
  6
CONTINUOUS
 10
57.051640916
 20
17.0249669876
 11
57.6016730605
 21
16.4749991324
  0
LINE
  5
26E
100
AcDbEntity
  8
0
100
AcDbLine
 62
7
  6
CONTINUOUS
 10
20.3516046731
 20
46.6449669352
 11
20.3516046727
 21
44.944966909
  0
LINE
  5
26F
100
AcDbEntity
  8
0
100
AcDbLine
 62
7
  6
CONTINUOUS
 10
20.3516046683
 20
27.3449669115
 11
20.3516046679
 21
25.6449669094
  0
LINE
  5
270
100
AcDbEntity
  8
0
100
AcDbLine
 62
7
  6
CONTINUOUS
 10
20.9516046675
 20
53.3949669092
 11
20.9516046675
 21
57.8949669092
  0
LINE
  5
271
100
AcDbEntity
  8
0
100
AcDbLine
 62
7
  6
CONTINUOUS
 10
20.9516046675
 20
70.3949669092
 11
20.9516046675
 21
74.8949669092
  0
LINE
  5
272
100
AcDbEntity
  8
0
100
AcDbLine
 62
7
  6
CONTINUOUS
 10
21.4516046681
 20
26.9449669085
 11
21.4516046681
 21
27.3449669111
  0
LINE
  5
273
100
AcDbEntity
  8
0
100
AcDbLine
 62
7
  6
CONTINUOUS
 10
21.451604668
 20
44.944966909
 11
21.451604668
 21
45.3449669093
  0
LINE
  5
274
100
AcDbEntity
  8
0
100
AcDbLine
 62
7
  6
CONTINUOUS
 10
21.6516046679
 20
45.3449669089
 11
21.6516046679
 21
26.9449669085
  0
LINE
  5
275
100
AcDbEntity
  8
0
100
AcDbLine
 62
7
  6
CONTINUOUS
 10
21.9516046675
 20
115.6449669092
 11
21.9516046675
 21
107.6449669092
  0
LINE
  5
276
100
AcDbEntity
  8
0
100
AcDbLine
 62
7
  6
CONTINUOUS
 10
21.9516046675
 20
73.8949669092
 11
21.9516046675
 21
71.3949669092
  0
LINE
  5
277
100
AcDbEntity
  8
0
100
AcDbLine
 62
7
  6
CONTINUOUS
 10
21.9516046675
 20
56.8949669092
 11
21.9516046675
 21
54.3949669092
  0
LINE
  5
278
100
AcDbEntity
  8
0
100
AcDbLine
 62
7
  6
CONTINUOUS
 10
22.1516046679
 20
28.3949669096
 11
22.1516046679
 21
28.6949669085
  0
LINE
  5
279
100
AcDbEntity
  8
0
100
AcDbLine
 62
7
  6
CONTINUOUS
 10
22.1516046679
 20
29.1949669085
 11
22.1516046679
 21
29.4949669093
  0
LINE
  5
27A
100
AcDbEntity
  8
0
100
AcDbLine
 62
7
  6
CONTINUOUS
 10
22.1516046679
 20
29.9949669093
 11
22.1516046679
 21
30.29496691
  0
LINE
  5
27B
100
AcDbEntity
  8
0
100
AcDbLine
 62
7
  6
CONTINUOUS
 10
22.1516046679
 20
30.79496691
 11
22.1516046679
 21
31.0949669089
  0
LINE
  5
27C
100
AcDbEntity
  8
0
100
AcDbLine
 62
7
  6
CONTINUOUS
 10
22.1516046679
 20
31.5949669089
 11
22.1516046679
 21
31.8949669096
  0
LINE
  5
27D
100
AcDbEntity
  8
0
100
AcDbLine
 62
7
  6
CONTINUOUS
 10
22.1516046679
 20
32.3949669096
 11
22.1516046679
 21
32.6949669085
  0
LINE
  5
27E
100
AcDbEntity
  8
0
100
AcDbLine
 62
7
  6
CONTINUOUS
 10
22.1516046679
 20
33.1949669085
 11
22.1516046679
 21
33.4949669093
  0
LINE
  5
27F
100
AcDbEntity
  8
0
100
AcDbLine
 62
7
  6
CONTINUOUS
 10
22.1516046679
 20
33.9949669093
 11
22.1516046679
 21
34.29496691
  0
LINE
  5
280
100
AcDbEntity
  8
0
100
AcDbLine
 62
7
  6
CONTINUOUS
 10
22.1516046679
 20
34.79496691
 11
22.1516046679
 21
35.0949669089
  0
LINE
  5
281
100
AcDbEntity
  8
0
100
AcDbLine
 62
7
  6
CONTINUOUS
 10
22.1516046679
 20
35.5949669089
 11
22.1516046679
 21
35.8949669096
  0
LINE
  5
282
100
AcDbEntity
  8
0
100
AcDbLine
 62
7
  6
CONTINUOUS
 10
22.1516046679
 20
36.3949669096
 11
22.1516046679
 21
36.6949669085
  0
LINE
  5
283
100
AcDbEntity
  8
0
100
AcDbLine
 62
7
  6
CONTINUOUS
 10
22.1516046679
 20
37.1949669099
 11
22.1516046679
 21
37.4949669093
  0
LINE
  5
284
100
AcDbEntity
  8
0
100
AcDbLine
 62
7
  6
CONTINUOUS
 10
22.1516046679
 20
37.9949669093
 11
22.1516046679
 21
38.29496691
  0
LINE
  5
285
100
AcDbEntity
  8
0
100
AcDbLine
 62
7
  6
CONTINUOUS
 10
22.1516046679
 20
38.79496691
 11
22.1516046679
 21
39.0949669089
  0
LINE
  5
286
100
AcDbEntity
  8
0
100
AcDbLine
 62
7
  6
CONTINUOUS
 10
22.1516046679
 20
39.5949669089
 11
22.1516046679
 21
39.8949669096
  0
LINE
  5
287
100
AcDbEntity
  8
0
100
AcDbLine
 62
7
  6
CONTINUOUS
 10
22.1516046679
 20
40.3949669096
 11
22.1516046679
 21
40.6949669085
  0
LINE
  5
288
100
AcDbEntity
  8
0
100
AcDbLine
 62
7
  6
CONTINUOUS
 10
22.1516046679
 20
41.1949669085
 11
22.1516046679
 21
41.4949669093
  0
LINE
  5
289
100
AcDbEntity
  8
0
100
AcDbLine
 62
7
  6
CONTINUOUS
 10
22.1516046679
 20
41.9949669093
 11
22.1516046679
 21
42.29496691
  0
LINE
  5
28A
100
AcDbEntity
  8
0
100
AcDbLine
 62
7
  6
CONTINUOUS
 10
22.1516046679
 20
42.79496691
 11
22.1516046679
 21
43.0949669089
  0
LINE
  5
28B
100
AcDbEntity
  8
0
100
AcDbLine
 62
7
  6
CONTINUOUS
 10
22.1516046679
 20
43.5949669089
 11
22.1516046679
 21
43.8949669096
  0
LINE
  5
28C
100
AcDbEntity
  8
0
100
AcDbLine
 62
7
  6
CONTINUOUS
 10
22.5866046684
 20
27.0851592887
 11
22.5866046684
 21
28.3949669096
  0
LINE
  5
28D
100
AcDbEntity
  8
0
100
AcDbLine
 62
7
  6
CONTINUOUS
 10
22.5866046684
 20
28.6949669085
 11
22.5866046684
 21
29.1949669085
  0
LINE
  5
28E
100
AcDbEntity
  8
0
100
AcDbLine
 62
7
  6
CONTINUOUS
 10
22.5866046684
 20
29.4949669093
 11
22.5866046684
 21
29.9949669093
  0
LINE
  5
28F
100
AcDbEntity
  8
0
100
AcDbLine
 62
7
  6
CONTINUOUS
 10
22.5866046684
 20
30.29496691
 11
22.5866046684
 21
30.79496691
  0
LINE
  5
290
100
AcDbEntity
  8
0
100
AcDbLine
 62
7
  6
CONTINUOUS
 10
22.5866046684
 20
31.0949669089
 11
22.5866046684
 21
31.5949669089
  0
LINE
  5
291
100
AcDbEntity
  8
0
100
AcDbLine
 62
7
  6
CONTINUOUS
 10
22.5866046684
 20
31.8949669096
 11
22.5866046684
 21
32.3949669096
  0
LINE
  5
292
100
AcDbEntity
  8
0
100
AcDbLine
 62
7
  6
CONTINUOUS
 10
22.5866046684
 20
32.6949669085
 11
22.5866046684
 21
33.1949669085
  0
LINE
  5
293
100
AcDbEntity
  8
0
100
AcDbLine
 62
7
  6
CONTINUOUS
 10
22.5866046684
 20
33.4949669093
 11
22.5866046684
 21
33.9949669093
  0
LINE
  5
294
100
AcDbEntity
  8
0
100
AcDbLine
 62
7
  6
CONTINUOUS
 10
22.5866046684
 20
34.29496691
 11
22.5866046684
 21
34.79496691
  0
LINE
  5
295
100
AcDbEntity
  8
0
100
AcDbLine
 62
7
  6
CONTINUOUS
 10
22.5866046684
 20
35.0949669089
 11
22.5866046684
 21
35.5949669089
  0
LINE
  5
296
100
AcDbEntity
  8
0
100
AcDbLine
 62
7
  6
CONTINUOUS
 10
22.5866046684
 20
35.8949669096
 11
22.5866046684
 21
36.3949669096
  0
LINE
  5
297
100
AcDbEntity
  8
0
100
AcDbLine
 62
7
  6
CONTINUOUS
 10
22.5866046684
 20
36.6949669085
 11
22.5866046684
 21
37.1949669099
  0
LINE
  5
298
100
AcDbEntity
  8
0
100
AcDbLine
 62
7
  6
CONTINUOUS
 10
22.5866046684
 20
37.4949669093
 11
22.5866046684
 21
37.9949669093
  0
LINE
  5
299
100
AcDbEntity
  8
0
100
AcDbLine
 62
7
  6
CONTINUOUS
 10
22.5866046684
 20
38.29496691
 11
22.5866046684
 21
38.79496691
  0
LINE
  5
29A
100
AcDbEntity
  8
0
100
AcDbLine
 62
7
  6
CONTINUOUS
 10
22.5866046684
 20
39.0949669089
 11
22.5866046684
 21
39.5949669089
  0
LINE
  5
29B
100
AcDbEntity
  8
0
100
AcDbLine
 62
7
  6
CONTINUOUS
 10
22.5866046684
 20
39.8949669096
 11
22.5866046684
 21
40.3949669096
  0
LINE
  5
29C
100
AcDbEntity
  8
0
100
AcDbLine
 62
7
  6
CONTINUOUS
 10
22.5866046684
 20
40.6949669085
 11
22.5866046684
 21
41.1949669085
  0
LINE
  5
29D
100
AcDbEntity
  8
0
100
AcDbLine
 62
7
  6
CONTINUOUS
 10
22.5866046684
 20
41.4949669093
 11
22.5866046684
 21
41.9949669093
  0
LINE
  5
29E
100
AcDbEntity
  8
0
100
AcDbLine
 62
7
  6
CONTINUOUS
 10
22.5866046684
 20
42.29496691
 11
22.5866046684
 21
42.79496691
  0
LINE
  5
29F
100
AcDbEntity
  8
0
100
AcDbLine
 62
7
  6
CONTINUOUS
 10
22.5866046684
 20
43.0949669089
 11
22.5866046684
 21
43.5949669089
  0
LINE
  5
2A0
100
AcDbEntity
  8
0
100
AcDbLine
 62
7
  6
CONTINUOUS
 10
22.5866046684
 20
43.8949669096
 11
22.5866046684
 21
45.2047745306
  0
LINE
  5
2A1
100
AcDbEntity
  8
0
100
AcDbLine
 62
7
  6
CONTINUOUS
 10
22.7866046685
 20
44.694966909
 11
22.7866046685
 21
27.5949669094
  0
LINE
  5
2A2
100
AcDbEntity
  8
0
100
AcDbLine
 62
7
  6
CONTINUOUS
 10
23.1516046679
 20
119.4449669092
 11
23.1516046679
 21
107.6449669092
  0
LINE
  5
2A3
100
AcDbEntity
  8
0
100
AcDbLine
 62
7
  6
CONTINUOUS
 10
24.5516046682
 20
37.9949669093
 11
24.1166046677
 21
37.9949669093
  0
LINE
  5
2A4
100
AcDbEntity
  8
0
100
AcDbLine
 62
7
  6
CONTINUOUS
 10
22.5866046684
 20
37.9949669093
 11
22.1516046679
 21
37.9949669093
  0
LINE
  5
2A5
100
AcDbEntity
  8
0
100
AcDbLine
 62
7
  6
CONTINUOUS
 10
22.1516046679
 20
38.29496691
 11
22.5866046684
 21
38.29496691
  0
LINE
  5
2A6
100
AcDbEntity
  8
0
100
AcDbLine
 62
7
  6
CONTINUOUS
 10
24.1166046677
 20
38.29496691
 11
24.5516046682
 21
38.29496691
  0
LINE
  5
2A7
100
AcDbEntity
  8
0
100
AcDbLine
 62
7
  6
CONTINUOUS
 10
24.5516046682
 20
38.79496691
 11
24.1166046677
 21
38.79496691
  0
LINE
  5
2A8
100
AcDbEntity
  8
0
100
AcDbLine
 62
7
  6
CONTINUOUS
 10
22.5866046684
 20
38.79496691
 11
22.1516046679
 21
38.79496691
  0
LINE
  5
2A9
100
AcDbEntity
  8
0
100
AcDbLine
 62
7
  6
CONTINUOUS
 10
22.1516046679
 20
39.0949669089
 11
22.5866046684
 21
39.0949669089
  0
LINE
  5
2AA
100
AcDbEntity
  8
0
100
AcDbLine
 62
7
  6
CONTINUOUS
 10
24.1166046677
 20
39.0949669089
 11
24.5516046682
 21
39.0949669089
  0
LINE
  5
2AB
100
AcDbEntity
  8
0
100
AcDbLine
 62
7
  6
CONTINUOUS
 10
38.8516046679
 20
39.2449669088
 11
34.1516046675
 21
39.2449669088
  0
LINE
  5
2AC
100
AcDbEntity
  8
0
100
AcDbLine
 62
7
  6
CONTINUOUS
 10
24.5516046682
 20
39.5949669089
 11
24.1166046677
 21
39.5949669089
  0
LINE
  5
2AD
100
AcDbEntity
  8
0
100
AcDbLine
 62
7
  6
CONTINUOUS
 10
22.5866046684
 20
39.5949669089
 11
22.1516046679
 21
39.5949669089
  0
LINE
  5
2AE
100
AcDbEntity
  8
0
100
AcDbLine
 62
7
  6
CONTINUOUS
 10
47.5516046671
 20
39.6449669092
 11
51.5516046671
 21
39.6449669092
  0
LINE
  5
2AF
100
AcDbEntity
  8
0
100
AcDbLine
 62
7
  6
CONTINUOUS
 10
22.1516046679
 20
39.8949669096
 11
22.5866046684
 21
39.8949669096
  0
LINE
  5
2B0
100
AcDbEntity
  8
0
100
AcDbLine
 62
7
  6
CONTINUOUS
 10
24.1166046677
 20
39.8949669096
 11
24.5516046682
 21
39.8949669096
  0
LINE
  5
2B1
100
AcDbEntity
  8
0
100
AcDbLine
 62
7
  6
CONTINUOUS
 10
24.5516046682
 20
40.3949669096
 11
24.1166046677
 21
40.3949669096
  0
LINE
  5
2B2
100
AcDbEntity
  8
0
100
AcDbLine
 62
7
  6
CONTINUOUS
 10
22.5866046684
 20
40.3949669096
 11
22.1516046679
 21
40.3949669096
  0
LINE
  5
2B3
100
AcDbEntity
  8
0
100
AcDbLine
 62
7
  6
CONTINUOUS
 10
22.1516046679
 20
40.6949669085
 11
22.5866046684
 21
40.6949669085
  0
LINE
  5
2B4
100
AcDbEntity
  8
0
100
AcDbLine
 62
7
  6
CONTINUOUS
 10
24.1166046677
 20
40.6949669085
 11
24.5516046682
 21
40.6949669085
  0
LINE
  5
2B5
100
AcDbEntity
  8
0
100
AcDbLine
 62
7
  6
CONTINUOUS
 10
24.5516046682
 20
41.1949669085
 11
24.1166046677
 21
41.1949669085
  0
LINE
  5
2B6
100
AcDbEntity
  8
0
100
AcDbLine
 62
7
  6
CONTINUOUS
 10
22.5866046684
 20
41.1949669085
 11
22.1516046679
 21
41.1949669085
  0
LINE
  5
2B7
100
AcDbEntity
  8
0
100
AcDbLine
 62
7
  6
CONTINUOUS
 10
22.1516046679
 20
41.4949669093
 11
22.5866046684
 21
41.4949669093
  0
LINE
  5
2B8
100
AcDbEntity
  8
0
100
AcDbLine
 62
7
  6
CONTINUOUS
 10
24.1166046677
 20
41.4949669093
 11
24.5516046682
 21
41.4949669093
  0
LINE
  5
2B9
100
AcDbEntity
  8
0
100
AcDbLine
 62
7
  6
CONTINUOUS
 10
24.5516046682
 20
41.9949669093
 11
24.1166046677
 21
41.9949669093
  0
LINE
  5
2BA
100
AcDbEntity
  8
0
100
AcDbLine
 62
7
  6
CONTINUOUS
 10
22.5866046684
 20
41.9949669093
 11
22.1516046679
 21
41.9949669093
  0
LINE
  5
2BB
100
AcDbEntity
  8
0
100
AcDbLine
 62
7
  6
CONTINUOUS
 10
22.1516046679
 20
42.29496691
 11
22.5866046684
 21
42.29496691
  0
LINE
  5
2BC
100
AcDbEntity
  8
0
100
AcDbLine
 62
7
  6
CONTINUOUS
 10
24.1166046677
 20
42.29496691
 11
24.5516046682
 21
42.29496691
  0
LINE
  5
2BD
100
AcDbEntity
  8
0
100
AcDbLine
 62
7
  6
CONTINUOUS
 10
23.3516046679
 20
26.2699669087
 11
23.3516046679
 21
26.5449669089
  0
LINE
  5
2BE
100
AcDbEntity
  8
0
100
AcDbLine
 62
7
  6
CONTINUOUS
 10
23.3516046679
 20
45.7449669087
 11
23.3516046679
 21
46.0199669089
  0
LINE
  5
2BF
100
AcDbEntity
  8
0
100
AcDbLine
 62
7
  6
CONTINUOUS
 10
23.5516046682
 20
46.0199669096
 11
23.5516046682
 21
45.7449669107
  0
LINE
  5
2C0
100
AcDbEntity
  8
0
100
AcDbLine
 62
7
  6
CONTINUOUS
 10
23.5516046682
 20
26.5449669085
 11
23.5516046682
 21
26.2699669096
  0
LINE
  5
2C1
100
AcDbEntity
  8
0
100
AcDbLine
 62
7
  6
CONTINUOUS
 10
23.7516046679
 20
107.6449669092
 11
23.7516046679
 21
119.4449669092
  0
LINE
  5
2C2
100
AcDbEntity
  8
0
100
AcDbLine
 62
7
  6
CONTINUOUS
 10
23.9166046674
 20
27.5949669094
 11
23.9166046674
 21
44.694966909
  0
LINE
  5
2C3
100
AcDbEntity
  8
0
100
AcDbLine
 62
7
  6
CONTINUOUS
 10
24.1166046677
 20
45.2047745306
 11
24.1166046677
 21
43.8949669096
  0
LINE
  5
2C4
100
AcDbEntity
  8
0
100
AcDbLine
 62
7
  6
CONTINUOUS
 10
24.1166046677
 20
43.5949669089
 11
24.1166046677
 21
43.0949669089
  0
LINE
  5
2C5
100
AcDbEntity
  8
0
100
AcDbLine
 62
7
  6
CONTINUOUS
 10
24.1166046677
 20
42.79496691
 11
24.1166046677
 21
42.29496691
  0
LINE
  5
2C6
100
AcDbEntity
  8
0
100
AcDbLine
 62
7
  6
CONTINUOUS
 10
24.1166046677
 20
41.9949669093
 11
24.1166046677
 21
41.4949669093
  0
LINE
  5
2C7
100
AcDbEntity
  8
0
100
AcDbLine
 62
7
  6
CONTINUOUS
 10
24.1166046677
 20
41.1949669085
 11
24.1166046677
 21
40.6949669085
  0
LINE
  5
2C8
100
AcDbEntity
  8
0
100
AcDbLine
 62
7
  6
CONTINUOUS
 10
24.1166046677
 20
40.3949669096
 11
24.1166046677
 21
39.8949669096
  0
LINE
  5
2C9
100
AcDbEntity
  8
0
100
AcDbLine
 62
7
  6
CONTINUOUS
 10
24.1166046677
 20
39.5949669089
 11
24.1166046677
 21
39.0949669089
  0
LINE
  5
2CA
100
AcDbEntity
  8
0
100
AcDbLine
 62
7
  6
CONTINUOUS
 10
24.1166046677
 20
38.79496691
 11
24.1166046677
 21
38.29496691
  0
LINE
  5
2CB
100
AcDbEntity
  8
0
100
AcDbLine
 62
7
  6
CONTINUOUS
 10
24.1166046677
 20
37.9949669093
 11
24.1166046677
 21
37.4949669093
  0
LINE
  5
2CC
100
AcDbEntity
  8
0
100
AcDbLine
 62
7
  6
CONTINUOUS
 10
24.1166046677
 20
37.1949669099
 11
24.1166046677
 21
36.6949669085
  0
LINE
  5
2CD
100
AcDbEntity
  8
0
100
AcDbLine
 62
7
  6
CONTINUOUS
 10
24.1166046677
 20
36.3949669096
 11
24.1166046677
 21
35.8949669096
  0
LINE
  5
2CE
100
AcDbEntity
  8
0
100
AcDbLine
 62
7
  6
CONTINUOUS
 10
24.1166046677
 20
35.5949669089
 11
24.1166046677
 21
35.0949669089
  0
LINE
  5
2CF
100
AcDbEntity
  8
0
100
AcDbLine
 62
7
  6
CONTINUOUS
 10
24.1166046677
 20
34.79496691
 11
24.1166046677
 21
34.29496691
  0
LINE
  5
2D0
100
AcDbEntity
  8
0
100
AcDbLine
 62
7
  6
CONTINUOUS
 10
24.1166046677
 20
33.9949669093
 11
24.1166046677
 21
33.4949669093
  0
LINE
  5
2D1
100
AcDbEntity
  8
0
100
AcDbLine
 62
7
  6
CONTINUOUS
 10
24.1166046677
 20
33.1949669085
 11
24.1166046677
 21
32.6949669085
  0
LINE
  5
2D2
100
AcDbEntity
  8
0
100
AcDbLine
 62
7
  6
CONTINUOUS
 10
24.1166046677
 20
32.3949669096
 11
24.1166046677
 21
31.8949669096
  0
LINE
  5
2D3
100
AcDbEntity
  8
0
100
AcDbLine
 62
7
  6
CONTINUOUS
 10
24.1166046677
 20
31.5949669089
 11
24.1166046677
 21
31.0949669089
  0
LINE
  5
2D4
100
AcDbEntity
  8
0
100
AcDbLine
 62
7
  6
CONTINUOUS
 10
24.1166046677
 20
30.79496691
 11
24.1166046677
 21
30.29496691
  0
LINE
  5
2D5
100
AcDbEntity
  8
0
100
AcDbLine
 62
7
  6
CONTINUOUS
 10
24.1166046677
 20
29.9949669093
 11
24.1166046677
 21
29.4949669093
  0
LINE
  5
2D6
100
AcDbEntity
  8
0
100
AcDbLine
 62
7
  6
CONTINUOUS
 10
24.1166046677
 20
29.1949669085
 11
24.1166046677
 21
28.6949669085
  0
LINE
  5
2D7
100
AcDbEntity
  8
0
100
AcDbLine
 62
7
  6
CONTINUOUS
 10
24.1166046677
 20
28.3949669096
 11
24.1166046677
 21
27.0851592887
  0
LINE
  5
2D8
100
AcDbEntity
  8
0
100
AcDbLine
 62
7
  6
CONTINUOUS
 10
24.5516046682
 20
43.8949669096
 11
24.5516046682
 21
43.5949669089
  0
LINE
  5
2D9
100
AcDbEntity
  8
0
100
AcDbLine
 62
7
  6
CONTINUOUS
 10
24.5516046682
 20
43.0949669089
 11
24.5516046682
 21
42.79496691
  0
LINE
  5
2DA
100
AcDbEntity
  8
0
100
AcDbLine
 62
7
  6
CONTINUOUS
 10
24.5516046682
 20
42.29496691
 11
24.5516046682
 21
41.9949669093
  0
LINE
  5
2DB
100
AcDbEntity
  8
0
100
AcDbLine
 62
7
  6
CONTINUOUS
 10
24.5516046682
 20
41.4949669093
 11
24.5516046682
 21
41.1949669085
  0
LINE
  5
2DC
100
AcDbEntity
  8
0
100
AcDbLine
 62
7
  6
CONTINUOUS
 10
24.5516046682
 20
40.6949669085
 11
24.5516046682
 21
40.3949669096
  0
LINE
  5
2DD
100
AcDbEntity
  8
0
100
AcDbLine
 62
7
  6
CONTINUOUS
 10
24.5516046682
 20
39.8949669096
 11
24.5516046682
 21
39.5949669089
  0
LINE
  5
2DE
100
AcDbEntity
  8
0
100
AcDbLine
 62
7
  6
CONTINUOUS
 10
24.5516046682
 20
39.0949669089
 11
24.5516046682
 21
38.79496691
  0
LINE
  5
2DF
100
AcDbEntity
  8
0
100
AcDbLine
 62
7
  6
CONTINUOUS
 10
24.5516046682
 20
38.29496691
 11
24.5516046682
 21
37.9949669093
  0
LINE
  5
2E0
100
AcDbEntity
  8
0
100
AcDbLine
 62
7
  6
CONTINUOUS
 10
24.5516046682
 20
37.4949669093
 11
24.5516046682
 21
37.1949669099
  0
LINE
  5
2E1
100
AcDbEntity
  8
0
100
AcDbLine
 62
7
  6
CONTINUOUS
 10
24.5516046682
 20
36.6949669085
 11
24.5516046682
 21
36.3949669096
  0
LINE
  5
2E2
100
AcDbEntity
  8
0
100
AcDbLine
 62
7
  6
CONTINUOUS
 10
24.5516046682
 20
35.8949669096
 11
24.5516046682
 21
35.5949669089
  0
LINE
  5
2E3
100
AcDbEntity
  8
0
100
AcDbLine
 62
7
  6
CONTINUOUS
 10
24.5516046682
 20
35.0949669089
 11
24.5516046682
 21
34.79496691
  0
LINE
  5
2E4
100
AcDbEntity
  8
0
100
AcDbLine
 62
7
  6
CONTINUOUS
 10
24.5516046682
 20
34.29496691
 11
24.5516046682
 21
33.9949669093
  0
LINE
  5
2E5
100
AcDbEntity
  8
0
100
AcDbLine
 62
7
  6
CONTINUOUS
 10
24.5516046682
 20
33.4949669093
 11
24.5516046682
 21
33.1949669085
  0
LINE
  5
2E6
100
AcDbEntity
  8
0
100
AcDbLine
 62
7
  6
CONTINUOUS
 10
24.5516046682
 20
32.6949669085
 11
24.5516046682
 21
32.3949669096
  0
LINE
  5
2E7
100
AcDbEntity
  8
0
100
AcDbLine
 62
7
  6
CONTINUOUS
 10
24.5516046682
 20
31.8949669096
 11
24.5516046682
 21
31.5949669089
  0
LINE
  5
2E8
100
AcDbEntity
  8
0
100
AcDbLine
 62
7
  6
CONTINUOUS
 10
24.5516046682
 20
31.0949669089
 11
24.5516046682
 21
30.79496691
  0
LINE
  5
2E9
100
AcDbEntity
  8
0
100
AcDbLine
 62
7
  6
CONTINUOUS
 10
24.5516046682
 20
30.29496691
 11
24.5516046682
 21
29.9949669093
  0
LINE
  5
2EA
100
AcDbEntity
  8
0
100
AcDbLine
 62
7
  6
CONTINUOUS
 10
24.5516046682
 20
29.4949669093
 11
24.5516046682
 21
29.1949669085
  0
LINE
  5
2EB
100
AcDbEntity
  8
0
100
AcDbLine
 62
7
  6
CONTINUOUS
 10
24.5516046682
 20
28.6949669085
 11
24.5516046682
 21
28.3949669096
  0
LINE
  5
2EC
100
AcDbEntity
  8
0
100
AcDbLine
 62
7
  6
CONTINUOUS
 10
25.0516046682
 20
26.2699669096
 11
25.0516046682
 21
46.0199669096
  0
LINE
  5
2ED
100
AcDbEntity
  8
0
100
AcDbLine
 62
7
  6
CONTINUOUS
 10
25.2516046652
 20
46.019966919
 11
25.2516046654
 21
44.944966909
  0
LINE
  5
2EE
100
AcDbEntity
  8
0
100
AcDbLine
 62
7
  6
CONTINUOUS
 10
25.2516046677
 20
27.3449669095
 11
25.2516046679
 21
26.269966909
  0
LINE
  5
2EF
100
AcDbEntity
  8
0
100
AcDbLine
 62
7
  6
CONTINUOUS
 10
26.351604668
 20
25.64496691
 11
26.3516046674
 21
27.3449669091
  0
LINE
  5
2F0
100
AcDbEntity
  8
0
100
AcDbLine
 62
7
  6
CONTINUOUS
 10
26.3516046609
 20
44.944966909
 11
26.3516046603
 21
46.6449669469
  0
LINE
  5
2F1
100
AcDbEntity
  8
0
100
AcDbLine
 62
7
  6
CONTINUOUS
 10
57.6016046687
 20
108.8149669095
 11
57.0516046679
 21
108.2649669087
  0
LINE
  5
2F2
100
AcDbEntity
  8
0
100
AcDbLine
 62
7
  6
CONTINUOUS
 10
24.5516046682
 20
42.79496691
 11
24.1166046677
 21
42.79496691
  0
LINE
  5
2F3
100
AcDbEntity
  8
0
100
AcDbLine
 62
7
  6
CONTINUOUS
 10
22.5866046684
 20
42.79496691
 11
22.1516046679
 21
42.79496691
  0
LINE
  5
2F4
100
AcDbEntity
  8
0
100
AcDbLine
 62
7
  6
CONTINUOUS
 10
22.1516046679
 20
43.0949669089
 11
22.5866046684
 21
43.0949669089
  0
LINE
  5
2F5
100
AcDbEntity
  8
0
100
AcDbLine
 62
7
  6
CONTINUOUS
 10
24.1166046677
 20
43.0949669089
 11
24.5516046682
 21
43.0949669089
  0
LINE
  5
2F6
100
AcDbEntity
  8
0
100
AcDbLine
 62
7
  6
CONTINUOUS
 10
24.5516046682
 20
43.5949669089
 11
24.1166046677
 21
43.5949669089
  0
LINE
  5
2F7
100
AcDbEntity
  8
0
100
AcDbLine
 62
7
  6
CONTINUOUS
 10
22.5866046684
 20
43.5949669089
 11
22.1516046679
 21
43.5949669089
  0
LINE
  5
2F8
100
AcDbEntity
  8
0
100
AcDbLine
 62
7
  6
CONTINUOUS
 10
75.8516046679
 20
43.6449669092
 11
80.8516046679
 21
43.6449669092
  0
LINE
  5
2F9
100
AcDbEntity
  8
0
100
AcDbLine
 62
7
  6
CONTINUOUS
 10
22.1516046679
 20
43.8949669096
 11
22.5866046684
 21
43.8949669096
  0
LINE
  5
2FA
100
AcDbEntity
  8
0
100
AcDbLine
 62
7
  6
CONTINUOUS
 10
24.1166046677
 20
43.8949669096
 11
24.5516046682
 21
43.8949669096
  0
LINE
  5
2FB
100
AcDbEntity
  8
0
100
AcDbLine
 62
7
  6
CONTINUOUS
 10
57.2516046683
 20
44.4449669099
 11
55.4516046675
 21
44.4449669099
  0
LINE
  5
2FC
100
AcDbEntity
  8
0
100
AcDbLine
 62
7
  6
CONTINUOUS
 10
23.9166046674
 20
44.694966909
 11
22.7866046685
 21
44.694966909
  0
LINE
  5
2FD
100
AcDbEntity
  8
0
100
AcDbLine
 62
7
  6
CONTINUOUS
 10
20.3516046727
 20
44.944966909
 11
21.451604668
 21
44.944966909
  0
LINE
  5
2FE
100
AcDbEntity
  8
0
100
AcDbLine
 62
7
  6
CONTINUOUS
 10
25.2516046654
 20
44.944966909
 11
26.3516046609
 21
44.944966909
  0
LINE
  5
2FF
100
AcDbEntity
  8
0
100
AcDbLine
 62
7
  6
CONTINUOUS
 10
14.8516046679
 20
44.9949669088
 11
10.8516046679
 21
44.9949669088
  0
LINE
  5
300
100
AcDbEntity
  8
0
100
AcDbLine
 62
7
  6
CONTINUOUS
 10
22.5866046684
 20
45.2047745306
 11
24.1166046677
 21
45.2047745306
  0
LINE
  5
301
100
AcDbEntity
  8
0
100
AcDbLine
 62
7
  6
CONTINUOUS
 10
23.1516046664
 20
45.3449669089
 11
21.6516046679
 21
45.3449669089
  0
LINE
  5
302
100
AcDbEntity
  8
0
100
AcDbLine
 62
7
  6
CONTINUOUS
 10
21.651604668
 20
45.5449669092
 11
23.151604668
 21
45.5449669092
  0
LINE
  5
303
100
AcDbEntity
  8
0
100
AcDbLine
 62
7
  6
CONTINUOUS
 10
25.0516046682
 20
46.0199669096
 11
23.5516046682
 21
46.0199669096
  0
LINE
  5
304
100
AcDbEntity
  8
0
100
AcDbLine
 62
7
  6
CONTINUOUS
 10
23.551604668
 20
46.2199669092
 11
25.051604668
 21
46.2199669092
  0
LINE
  5
305
100
AcDbEntity
  8
0
100
AcDbLine
 62
7
  6
CONTINUOUS
 10
27.9516046675
 20
74.8949669092
 11
27.9516046675
 21
73.8949669092
  0
LINE
  5
306
100
AcDbEntity
  8
0
100
AcDbLine
 62
7
  6
CONTINUOUS
 10
27.9516046675
 20
71.3949669092
 11
27.9516046675
 21
70.3949669092
  0
LINE
  5
307
100
AcDbEntity
  8
0
100
AcDbLine
 62
7
  6
CONTINUOUS
 10
27.9516046675
 20
57.8949669092
 11
27.9516046675
 21
56.8949669092
  0
LINE
  5
308
100
AcDbEntity
  8
0
100
AcDbLine
 62
7
  6
CONTINUOUS
 10
27.9516046675
 20
54.3949669092
 11
27.9516046675
 21
53.3949669092
  0
LINE
  5
309
100
AcDbEntity
  8
0
100
AcDbLine
 62
7
  6
CONTINUOUS
 10
28.8516046679
 20
49.5449669092
 11
28.8516046679
 21
47.5449669096
  0
LINE
  5
30A
100
AcDbEntity
  8
0
100
AcDbLine
 62
7
  6
CONTINUOUS
 10
28.8516046679
 20
24.7449669088
 11
28.8516046679
 21
22.7449669092
  0
LINE
  5
30B
100
AcDbEntity
  8
0
100
AcDbLine
 62
7
  6
CONTINUOUS
 10
25.9516046679
 20
47.0449669092
 11
20.7516046679
 21
47.0449669092
  0
LINE
  5
30C
100
AcDbEntity
  8
0
100
AcDbLine
 62
7
  6
CONTINUOUS
 10
28.8516046679
 20
47.5449669096
 11
32.8516046686
 21
47.5449669096
  0
LINE
  5
30D
100
AcDbEntity
  8
0
100
AcDbLine
 62
7
  6
CONTINUOUS
 10
80.8516046679
 20
48.6449669092
 11
75.8516046679
 21
48.6449669092
  0
LINE
  5
30E
100
AcDbEntity
  8
0
100
AcDbLine
 62
7
  6
CONTINUOUS
 10
17.8516046679
 20
49.5449669092
 11
28.8516046679
 21
49.5449669092
  0
LINE
  5
30F
100
AcDbEntity
  8
0
100
AcDbLine
 62
7
  6
CONTINUOUS
 10
55.4516046675
 20
50.8449669085
 11
57.2516046683
 21
50.8449669085
  0
LINE
  5
310
100
AcDbEntity
  8
0
100
AcDbLine
 62
7
  6
CONTINUOUS
 10
69.0823079088
 20
17.6449669092
 11
69.7516438174
 21
16.9757092362
  0
LINE
  5
311
100
AcDbEntity
  8
0
100
AcDbLine
 62
7
  6
CONTINUOUS
 10
32.8516046686
 20
47.5449669096
 11
32.8516046686
 21
24.7449669088
  0
LINE
  5
312
100
AcDbEntity
  8
0
100
AcDbLine
 62
7
  6
CONTINUOUS
 10
34.1516046675
 20
39.2449669088
 11
34.1516046675
 21
51.2449669088
  0
LINE
  5
313
100
AcDbEntity
  8
0
100
AcDbLine
 62
7
  6
CONTINUOUS
 10
36.1516046679
 20
22.6449669092
 11
36.1516046679
 21
28.6449669092
  0
LINE
  5
314
100
AcDbEntity
  8
0
100
AcDbLine
 62
7
  6
CONTINUOUS
 10
36.1516046686
 20
89.6449669092
 11
36.1516046686
 21
95.6449669092
  0
LINE
  5
315
100
AcDbEntity
  8
0
100
AcDbLine
 62
7
  6
CONTINUOUS
 10
69.7516046679
 20
108.3149669088
 11
69.0816046665
 21
107.6449669092
  0
LINE
  5
316
100
AcDbEntity
  8
0
100
AcDbLine
 62
7
  6
CONTINUOUS
 10
34.1516046675
 20
51.2449669088
 11
38.8516046679
 21
51.2449669088
  0
LINE
  5
317
100
AcDbEntity
  8
0
100
AcDbLine
 62
7
  6
CONTINUOUS
 10
27.9516046675
 20
53.3949669092
 11
20.9516046675
 21
53.3949669092
  0
LINE
  5
318
100
AcDbEntity
  8
0
100
AcDbLine
 62
7
  6
CONTINUOUS
 10
21.9516046675
 20
54.3949669092
 11
27.9516046675
 21
54.3949669092
  0
LINE
  5
319
100
AcDbEntity
  8
0
100
AcDbLine
 62
7
  6
CONTINUOUS
 10
38.5516046679
 20
119.4449669092
 11
38.5516046679
 21
107.6449669092
  0
LINE
  5
31A
100
AcDbEntity
  8
0
100
AcDbLine
 62
7
  6
CONTINUOUS
 10
38.8516046679
 20
51.2449669088
 11
38.8516046679
 21
39.2449669088
  0
LINE
  5
31B
100
AcDbEntity
  8
0
100
AcDbLine
 62
7
  6
CONTINUOUS
 10
39.1516046679
 20
107.6449669092
 11
39.1516046679
 21
119.4449669092
  0
LINE
  5
31C
100
AcDbEntity
  8
0
100
AcDbLine
 62
7
  6
CONTINUOUS
 10
27.9516046675
 20
56.8949669092
 11
21.9516046675
 21
56.8949669092
  0
LINE
  5
31D
100
AcDbEntity
  8
0
100
AcDbLine
 62
7
  6
CONTINUOUS
 10
20.9516046675
 20
57.8949669092
 11
27.9516046675
 21
57.8949669092
  0
LINE
  5
31E
100
AcDbEntity
  8
0
100
AcDbLine
 62
7
  6
CONTINUOUS
 10
45.5516046672
 20
95.6449669092
 11
45.5516046672
 21
89.6449669092
  0
LINE
  5
31F
100
AcDbEntity
  8
0
100
AcDbLine
 62
7
  6
CONTINUOUS
 10
45.5516046672
 20
28.6449669092
 11
45.5516046672
 21
22.6449669092
  0
LINE
  5
320
100
AcDbEntity
  8
0
100
AcDbLine
 62
7
  6
CONTINUOUS
 10
47.5516046671
 20
30.6449669092
 11
47.5516046671
 21
39.6449669092
  0
LINE
  5
321
100
AcDbEntity
  8
0
100
AcDbLine
 62
7
  6
CONTINUOUS
 10
47.5516046671
 20
85.6449669092
 11
47.5516046671
 21
94.6449669092
  0
LINE
  5
322
100
AcDbEntity
  8
0
100
AcDbLine
 62
7
  6
CONTINUOUS
 10
51.5516046679
 20
94.6449669092
 11
51.5516046679
 21
85.6449669092
  0
LINE
  5
323
100
AcDbEntity
  8
0
100
AcDbLine
 62
7
  6
CONTINUOUS
 10
51.5516046671
 20
39.6449669092
 11
51.5516046671
 21
30.6449669092
  0
LINE
  5
324
100
AcDbEntity
  8
0
100
AcDbLine
 62
7
  6
CONTINUOUS
 10
27.9516046675
 20
70.3949669092
 11
20.9516046675
 21
70.3949669092
  0
LINE
  5
325
100
AcDbEntity
  8
0
100
AcDbLine
 62
7
  6
CONTINUOUS
 10
21.9516046675
 20
71.3949669092
 11
27.9516046675
 21
71.3949669092
  0
LINE
  5
326
100
AcDbEntity
  8
0
100
AcDbLine
 62
7
  6
CONTINUOUS
 10
54.4516046679
 20
108.9449669099
 11
54.4516046679
 21
107.6449669092
  0
LINE
  5
327
100
AcDbEntity
  8
0
100
AcDbLine
 62
7
  6
CONTINUOUS
 10
54.4516046679
 20
17.6449669092
 11
54.4516046679
 21
16.3449669092
  0
LINE
  5
328
100
AcDbEntity
  8
0
100
AcDbLine
 62
7
  6
CONTINUOUS
 10
55.4516046675
 20
44.4449669099
 11
55.4516046675
 21
50.8449669085
  0
LINE
  5
329
100
AcDbEntity
  8
0
100
AcDbLine
 62
7
  6
CONTINUOUS
 10
55.4516046675
 20
74.4449669099
 11
55.4516046675
 21
80.8449669085
  0
LINE
  5
32A
100
AcDbEntity
  8
0
100
AcDbLine
 62
7
  6
CONTINUOUS
 10
57.0516046679
 20
108.9449669099
 11
57.0516046679
 21
108.2649669088
  0
LINE
  5
32B
100
AcDbEntity
  8
0
100
AcDbLine
 62
7
  6
CONTINUOUS
 10
57.2516046683
 20
80.8449669085
 11
57.2516046683
 21
74.4449669099
  0
LINE
  5
32C
100
AcDbEntity
  8
0
100
AcDbLine
 62
7
  6
CONTINUOUS
 10
57.2516046683
 20
50.8449669085
 11
57.2516046683
 21
44.4449669099
  0
LINE
  5
32D
100
AcDbEntity
  8
0
100
AcDbLine
 62
7
  6
CONTINUOUS
 10
57.0516046675
 20
16.3449669092
 11
57.051640916
 21
17.0249669876
  0
LINE
  5
32E
100
AcDbEntity
  8
0
100
AcDbLine
 62
7
  6
CONTINUOUS
 10
27.9516046675
 20
73.8949669092
 11
21.9516046675
 21
73.8949669092
  0
LINE
  5
32F
100
AcDbEntity
  8
0
100
AcDbLine
 62
7
  6
CONTINUOUS
 10
57.2516046683
 20
74.4449669099
 11
55.4516046675
 21
74.4449669099
  0
LINE
  5
330
100
AcDbEntity
  8
0
100
AcDbLine
 62
7
  6
CONTINUOUS
 10
20.9516046675
 20
74.8949669092
 11
27.9516046675
 21
74.8949669092
  0
LINE
  5
331
100
AcDbEntity
  8
0
100
AcDbLine
 62
7
  6
CONTINUOUS
 10
14.8516046679
 20
80.2949669096
 11
10.8516046679
 21
80.2949669096
  0
LINE
  5
332
100
AcDbEntity
  8
0
100
AcDbLine
 62
7
  6
CONTINUOUS
 10
75.8516046679
 20
80.6449669092
 11
80.8516046679
 21
80.6449669092
  0
LINE
  5
333
100
AcDbEntity
  8
0
100
AcDbLine
 62
7
  6
CONTINUOUS
 10
55.4516046675
 20
80.8449669085
 11
57.2516046683
 21
80.8449669085
  0
LINE
  5
334
100
AcDbEntity
  8
0
100
AcDbLine
 62
7
  6
CONTINUOUS
 10
66.101673046
 20
16.475495913
 11
66.1017110351
 21
15.8254959137
  0
LINE
  5
335
100
AcDbEntity
  8
0
100
AcDbLine
 62
7
  6
CONTINUOUS
 10
66.1016046686
 20
108.8149669095
 11
66.1016046686
 21
109.4649669099
  0
LINE
  5
336
100
AcDbEntity
  8
0
100
AcDbLine
 62
7
  6
CONTINUOUS
 10
80.8516046679
 20
85.6449669092
 11
75.8516046679
 21
85.6449669092
  0
LINE
  5
337
100
AcDbEntity
  8
0
100
AcDbLine
 62
7
  6
CONTINUOUS
 10
51.5516046679
 20
85.6449669092
 11
47.5516046671
 21
85.6449669092
  0
LINE
  5
338
100
AcDbEntity
  8
0
100
AcDbLine
 62
7
  6
CONTINUOUS
 10
69.0516047005
 20
17.6449669092
 11
69.0516555068
 21
16.7756683253
  0
LINE
  5
339
100
AcDbEntity
  8
0
100
AcDbLine
 62
7
  6
CONTINUOUS
 10
69.0516046679
 20
108.5149669088
 11
69.0516046685
 21
107.6449669092
  0
LINE
  5
33A
100
AcDbEntity
  8
0
100
AcDbLine
 62
7
  6
CONTINUOUS
 10
69.7517449268
 20
15.2457092388
 11
69.7516438174
 21
16.9757092363
  0
LINE
  5
33B
100
AcDbEntity
  8
0
100
AcDbLine
 62
7
  6
CONTINUOUS
 10
69.7516046679
 20
108.3149669088
 11
69.7516046679
 21
110.1449669088
  0
LINE
  5
33C
100
AcDbEntity
  8
0
100
AcDbLine
 62
7
  6
CONTINUOUS
 10
45.5516046672
 20
89.6449669092
 11
36.1516046686
 21
89.6449669092
  0
LINE
  5
33D
100
AcDbEntity
  8
0
100
AcDbLine
 62
7
  6
CONTINUOUS
 10
75.8516046679
 20
107.6449669092
 11
75.8516046679
 21
17.6449669092
  0
LINE
  5
33E
100
AcDbEntity
  8
0
100
AcDbLine
 62
7
  6
CONTINUOUS
 10
47.5516046671
 20
94.6449669092
 11
51.5516046679
 21
94.6449669092
  0
LINE
  5
33F
100
AcDbEntity
  8
0
100
AcDbLine
 62
7
  6
CONTINUOUS
 10
36.1516046686
 20
95.6449669092
 11
45.5516046672
 21
95.6449669092
  0
LINE
  5
340
100
AcDbEntity
  8
0
100
AcDbLine
 62
7
  6
CONTINUOUS
 10
75.8516046679
 20
96.8449669092
 11
80.8448633349
 21
96.8449669092
  0
LINE
  5
341
100
AcDbEntity
  8
0
100
AcDbLine
 62
7
  6
CONTINUOUS
 10
85.7516046658
 20
98.1449669108
 11
85.9516046659
 21
98.1449669108
  0
LINE
  5
342
100
AcDbEntity
  8
0
100
AcDbLine
 62
7
  6
CONTINUOUS
 10
80.8516046679
 20
107.6449669092
 11
80.8448633349
 21
96.8449669092
  0
LINE
  5
343
100
AcDbEntity
  8
0
100
AcDbLine
 62
7
  6
CONTINUOUS
 10
80.8516046679
 20
28.4449669092
 11
80.8516046679
 21
17.6449669092
  0
LINE
  5
344
100
AcDbEntity
  8
0
100
AcDbLine
 62
7
  6
CONTINUOUS
 10
80.8516046679
 20
43.6449669092
 11
80.8516046679
 21
85.6449669092
  0
LINE
  5
345
100
AcDbEntity
  8
0
100
AcDbLine
 62
7
  6
CONTINUOUS
 10
85.251604667
 20
99.0449669111
 11
80.8448633349
 21
99.0449669111
  0
LINE
  5
346
100
AcDbEntity
  8
0
100
AcDbLine
 62
7
  6
CONTINUOUS
 10
80.8516046679
 20
99.5449669092
 11
75.8516046679
 21
99.5449669092
  0
LINE
  5
347
100
AcDbEntity
  8
0
100
AcDbLine
 62
7
  6
CONTINUOUS
 10
86.6516046664
 20
102.1949669096
 11
86.5516046666
 21
102.1949669096
  0
LINE
  5
348
100
AcDbEntity
  8
0
100
AcDbLine
 62
7
  6
CONTINUOUS
 10
85.2510786276
 20
26.6466151114
 11
85.2511020055
 21
26.2466151134
  0
LINE
  5
349
100
AcDbEntity
  8
0
100
AcDbLine
 62
7
  6
CONTINUOUS
 10
85.2516898155
 20
16.1890890546
 11
85.2517127535
 21
15.7966151343
  0
LINE
  5
34A
100
AcDbEntity
  8
0
100
AcDbLine
 62
7
  6
CONTINUOUS
 10
85.251604667
 20
98.6449669107
 11
85.251604667
 21
99.0449669111
  0
LINE
  5
34B
100
AcDbEntity
  8
0
100
AcDbLine
 62
7
  6
CONTINUOUS
 10
85.251604667
 20
109.1024929873
 11
85.251604667
 21
109.4949669103
  0
LINE
  5
34C
100
AcDbEntity
  8
0
100
AcDbLine
 62
7
  6
CONTINUOUS
 10
86.4510786252
 20
26.6466852474
 11
86.4512802597
 21
23.1966852532
  0
LINE
  5
34D
100
AcDbEntity
  8
0
100
AcDbLine
 62
7
  6
CONTINUOUS
 10
86.4516046671
 20
102.0949669099
 11
86.4516046671
 21
98.6449669107
  0
LINE
  5
34E
100
AcDbEntity
  8
0
100
AcDbLine
 62
7
  6
CONTINUOUS
 10
86.7516046662
 20
22.9967027867
 11
86.7516046662
 21
15.7862777038
  0
LINE
  5
34F
100
AcDbEntity
  8
0
100
AcDbLine
 62
7
  6
CONTINUOUS
 10
86.7516046662
 20
102.2949669117
 11
86.7516046662
 21
109.4949669092
  0
LINE
  5
350
100
AcDbEntity
  8
0
100
AcDbLine
 62
7
  6
CONTINUOUS
 10
75.8516046679
 20
107.1449669088
 11
80.8516046679
 21
107.1449669088
  0
LINE
  5
351
100
AcDbEntity
  8
0
100
AcDbLine
 62
7
  6
CONTINUOUS
 10
10.8516046679
 20
107.6449669092
 11
80.8516046679
 21
107.6449669092
  0
LINE
  5
352
100
AcDbEntity
  8
0
100
AcDbLine
 62
7
  6
CONTINUOUS
 10
57.6016046686
 20
108.8149669095
 11
66.1016046686
 21
108.8149669095
  0
LINE
  5
353
100
AcDbEntity
  8
0
100
AcDbLine
 62
7
  6
CONTINUOUS
 10
68.2753433774
 20
108.8149669095
 11
68.7516046672
 21
108.8149669095
  0
LINE
  5
354
100
AcDbEntity
  8
0
100
AcDbLine
 62
7
  6
CONTINUOUS
 10
54.4516046679
 20
108.9449669099
 11
57.0516046679
 21
108.9449669099
  0
LINE
  5
355
100
AcDbEntity
  8
0
100
AcDbLine
 62
7
  6
CONTINUOUS
 10
66.1016046686
 20
109.4649669099
 11
66.9016046675
 21
109.4649669099
  0
LINE
  5
356
100
AcDbEntity
  8
0
100
AcDbLine
 62
7
  6
CONTINUOUS
 10
85.751604666
 20
109.9949669103
 11
86.251604666
 21
109.9949669103
  0
LINE
  5
357
100
AcDbEntity
  8
0
100
AcDbLine
 62
7
  6
CONTINUOUS
 10
70.1516046682
 20
110.5449669092
 11
79.7716046674
 21
110.5449669092
  0
LINE
  5
358
100
AcDbEntity
  8
0
100
AcDbLine
 62
7
  6
CONTINUOUS
 10
11.5516046679
 20
111.5582919351
 11
14.8516046679
 21
111.5582919351
  0
LINE
  5
359
100
AcDbEntity
  8
0
100
AcDbLine
 62
7
  6
CONTINUOUS
 10
14.8516046679
 20
112.1107448844
 11
11.5516046679
 21
112.1107448844
  0
LINE
  5
35A
100
AcDbEntity
  8
0
100
AcDbLine
 62
7
  6
CONTINUOUS
 10
14.8516046679
 20
112.6161301678
 11
11.5516046679
 21
112.6161301678
  0
LINE
  5
35B
100
AcDbEntity
  8
0
100
AcDbLine
 62
7
  6
CONTINUOUS
 10
18.8516046679
 20
115.6449669092
 11
21.9516046675
 21
115.6449669092
  0
LINE
  5
35C
100
AcDbEntity
  8
0
100
AcDbLine
 62
7
  6
CONTINUOUS
 10
84.8995101998
 20
108.8070506636
 11
80.7195102105
 21
109.5440974419
  0
LINE
  5
35D
100
AcDbEntity
  8
0
100
AcDbLine
 62
7
  6
CONTINUOUS
 10
68.2753433773
 20
108.8149669095
 11
66.9016046674
 21
109.4649669099
  0
LINE
  5
35E
100
AcDbEntity
  8
0
100
AcDbLine
 62
7
  6
CONTINUOUS
 10
23.1516046679
 20
119.4449669092
 11
39.1516046679
 21
119.4449669092
  0
LINE
  5
35F
100
AcDbEntity
  8
0
100
AcDbLine
 62
7
  6
CONTINUOUS
 10
66.9017110325
 20
15.8255426695
 11
68.2754117509
 21
16.4756229566
  0
LINE
  5
360
100
AcDbEntity
  8
0
100
AcDbLine
 62
7
  6
CONTINUOUS
 10
37.6516046679
 20
120.9449669092
 11
24.6516046679
 21
120.9449669092
  0
CIRCLE
  5
361
100
AcDbEntity
  8
0
100
AcDbCircle
 62
7
  6
CONTINUOUS
 10
14.8516046679
 20
21.6449669092
 40
1.25
  0
ARC
  5
362
100
AcDbEntity
  8
0
100
AcDbCircle
 62
7
  6
CONTINUOUS
 10
20.7516325933
 20
25.6449948346
 40
0.4000279264
100
AcDbArc
 50
180.003999706
 51
269.9960002586
  0
ARC
  5
363
100
AcDbEntity
  8
0
100
AcDbCircle
 62
7
  6
CONTINUOUS
 10
25.9515767425
 20
25.6449948346
 40
0.4000279264
100
AcDbArc
 50
270.0039997414
 51
359.9960003667
  0
ARC
  5
364
100
AcDbEntity
  8
0
100
AcDbCircle
 62
7
  6
CONTINUOUS
 10
25.9515767424
 20
46.6449389837
 40
0.4000279265
100
AcDbArc
 50
0.0040051559
 51
89.9960002494
  0
ARC
  5
365
100
AcDbEntity
  8
0
100
AcDbCircle
 62
7
  6
CONTINUOUS
 10
20.7516325933
 20
46.6449389837
 40
0.4000279264
100
AcDbArc
 50
90.0039997475
 51
179.9959965333
  0
ARC
  5
366
100
AcDbEntity
  8
0
100
AcDbCircle
 62
7
  6
CONTINUOUS
 10
23.1516046679
 20
45.7449669092
 40
0.4
100
AcDbArc
 50
269.9999997851
 51
0.0000002149
  0
ARC
  5
367
100
AcDbEntity
  8
0
100
AcDbCircle
 62
7
  6
CONTINUOUS
 10
23.1516046679
 20
26.5449669092
 40
0.4
100
AcDbArc
 50
359.9999999004
 51
89.9999995002
  0
ARC
  5
368
100
AcDbEntity
  8
0
100
AcDbCircle
 62
7
  6
CONTINUOUS
 10
24.6516046679
 20
119.4449669092
 40
1.5
100
AcDbArc
 50
90.0
 51
180.0
  0
ARC
  5
369
100
AcDbEntity
  8
0
100
AcDbCircle
 62
7
  6
CONTINUOUS
 10
37.6516046679
 20
119.4449669092
 40
1.5
100
AcDbArc
 50
0.0
 51
90.0
  0
CIRCLE
  5
36A
100
AcDbEntity
  8
0
100
AcDbCircle
 62
7
  6
CONTINUOUS
 10
14.8516046679
 20
103.6449669092
 40
1.25
  0
ARC
  5
36B
100
AcDbEntity
  8
0
100
AcDbCircle
 62
7
  6
CONTINUOUS
 10
11.5516046679
 20
112.1161301678
 40
0.5
100
AcDbArc
 50
90.0
 51
180.0
  0
CIRCLE
  5
36C
100
AcDbEntity
  8
0
100
AcDbCircle
 62
7
  6
CONTINUOUS
 10
52.8516046679
 20
21.6449669092
 40
1.25
  0
ARC
  5
36D
100
AcDbEntity
  8
0
100
AcDbCircle
 62
7
  6
CONTINUOUS
 10
79.7717332204
 20
15.446294855
 40
0.6999999981
100
AcDbArc
 50
270.0033484801
 51
0.3142979849
  0
ARC
  5
36E
100
AcDbEntity
  8
0
100
AcDbCircle
 62
7
  6
CONTINUOUS
 10
85.7510786288
 20
26.6466443345
 40
0.5000000016
100
AcDbArc
 50
94.6945713514
 51
180.003348716
  0
ARC
  5
36F
100
AcDbEntity
  8
0
100
AcDbCircle
 62
7
  6
CONTINUOUS
 10
85.9510786245
 20
26.6466560235
 40
0.5000000016
100
AcDbArc
 50
0.0033487895
 51
85.2890910501
  0
ARC
  5
370
100
AcDbEntity
  8
0
100
AcDbCircle
 62
7
  6
CONTINUOUS
 10
86.2517127506
 20
15.796673579
 40
0.5000000016
100
AcDbArc
 50
270.0033487735
 51
358.8086345691
  0
ARC
  5
371
100
AcDbEntity
  8
0
100
AcDbCircle
 62
7
  6
CONTINUOUS
 10
85.7517127546
 20
15.7966443566
 40
0.5000000016
100
AcDbArc
 50
180.0033486243
 51
270.0000005262
  0
ARC
  5
372
100
AcDbEntity
  8
0
100
AcDbCircle
 62
7
  6
CONTINUOUS
 10
70.2517449244
 20
15.2457384596
 40
0.4999999984
100
AcDbArc
 50
180.0033484441
 51
270.0000004944
  0
ARC
  5
373
100
AcDbEntity
  8
0
100
AcDbCircle
 62
7
  6
CONTINUOUS
 10
68.7516555063
 20
16.7756507921
 40
0.3000000009
100
AcDbArc
 50
270.0033486263
 51
0.0000003807
  0
ARC
  5
374
100
AcDbEntity
  8
0
100
AcDbCircle
 62
7
  6
CONTINUOUS
 10
84.9516898159
 20
16.1890715207
 40
0.3
100
AcDbArc
 50
0.0033487309
 51
100.0033534361
  0
ARC
  5
375
100
AcDbEntity
  8
0
100
AcDbCircle
 62
7
  6
CONTINUOUS
 10
80.7717329001
 20
15.4517804436
 40
0.3
100
AcDbArc
 50
100.0033486389
 51
180.314298112
  0
ARC
  5
376
100
AcDbEntity
  8
0
100
AcDbCircle
 62
7
  6
CONTINUOUS
 10
86.6512919488
 20
22.9966969416
 40
0.1000000003
100
AcDbArc
 50
0.0033490335
 51
90.0033482508
  0
ARC
  5
377
100
AcDbEntity
  8
0
100
AcDbCircle
 62
7
  6
CONTINUOUS
 10
86.5512802598
 20
23.1966910977
 40
0.1
100
AcDbArc
 50
180.0033481602
 51
270.0033496701
  0
CIRCLE
  5
378
100
AcDbEntity
  8
0
100
AcDbCircle
 62
7
  6
CONTINUOUS
 10
52.8516046679
 20
103.6449669092
 40
1.25
  0
ARC
  5
379
100
AcDbEntity
  8
0
100
AcDbCircle
 62
7
  6
CONTINUOUS
 10
79.7716046678
 20
109.8449669103
 40
0.6999999989
100
AcDbArc
 50
359.6359090512
 51
90.0000000336
  0
ARC
  5
37A
100
AcDbEntity
  8
0
100
AcDbCircle
 62
7
  6
CONTINUOUS
 10
85.9516046655
 20
98.6449669123
 40
0.5000000016
100
AcDbArc
 50
270.0000000457
 51
359.9999998281
  0
ARC
  5
37B
100
AcDbEntity
  8
0
100
AcDbCircle
 62
7
  6
CONTINUOUS
 10
86.2516046644
 20
109.4949669087
 40
0.5000000016
100
AcDbArc
 50
0.0000000577
 51
90.0000000114
  0
ARC
  5
37C
100
AcDbEntity
  8
0
100
AcDbCircle
 62
7
  6
CONTINUOUS
 10
85.7516046676
 20
109.4949669087
 40
0.5000000016
100
AcDbArc
 50
89.9999999886
 51
179.9999998281
  0
ARC
  5
37D
100
AcDbEntity
  8
0
100
AcDbCircle
 62
7
  6
CONTINUOUS
 10
85.7516046663
 20
98.6449669091
 40
0.4999999984
100
AcDbArc
 50
179.9999993031
 51
269.9999999423
  0
ARC
  5
37E
100
AcDbEntity
  8
0
100
AcDbCircle
 62
7
  6
CONTINUOUS
 10
70.1516046691
 20
110.1449669079
 40
0.4000000013
100
AcDbArc
 50
89.9999999743
 51
179.9999998254
  0
ARC
  5
37F
100
AcDbEntity
  8
0
100
AcDbCircle
 62
7
  6
CONTINUOUS
 10
68.751604667
 20
108.5149669085
 40
0.3000000009
100
AcDbArc
 50
0.0000000302
 51
90.0000000369
  0
ARC
  5
380
100
AcDbEntity
  8
0
100
AcDbCircle
 62
7
  6
CONTINUOUS
 10
84.9516046663
 20
109.1024929876
 40
0.3
100
AcDbArc
 50
259.9999974477
 51
359.999999787
  0
ARC
  5
381
100
AcDbEntity
  8
0
100
AcDbCircle
 62
7
  6
CONTINUOUS
 10
80.7716046667
 20
109.8395397665
 40
0.3
100
AcDbArc
 50
179.8130504725
 51
260.0000000041
  0
ARC
  5
382
100
AcDbEntity
  8
0
100
AcDbCircle
 62
7
  6
CONTINUOUS
 10
86.6516046657
 20
102.2949669099
 40
0.1000000003
100
AcDbArc
 50
270.0000004362
 51
0.0000010577
  0
ARC
  5
383
100
AcDbEntity
  8
0
100
AcDbCircle
 62
7
  6
CONTINUOUS
 10
86.5516046666
 20
102.0949669104
 40
0.1
100
AcDbArc
 50
90.0000015893
 51
179.9999989227
  0
SPLINE
  5
384
100
AcDbEntity
  8
0
100
AcDbSpline
 62
7
  6
CONTINUOUS
 70
0
 71
3
 72
8
 73
4
 74
0
 42
0.0000001
 43
0.0000001
 44
0.0000000001
 40
0.0
 40
0.0
 40
0.0
 40
0.0
 40
1.0
 40
1.0
 40
1.0
 40
1.0
 10
25.2516046679
 20
26.269966909
 30
0.0
 10
25.2516046678
 20
26.1829635912
 30
0.0
 10
25.1858362706
 20
26.1024760151
 30
0.0
 10
25.1035277963
 20
26.0777325006
 30
0.0
  0
SPLINE
  5
385
100
AcDbEntity
  8
0
100
AcDbSpline
 62
7
  6
CONTINUOUS
 70
0
 71
3
 72
8
 73
4
 74
0
 42
0.0000001
 43
0.0000001
 44
0.0000000001
 40
0.0
 40
0.0
 40
0.0
 40
0.0
 40
1.0
 40
1.0
 40
1.0
 40
1.0
 10
25.1035277963
 20
26.0777325006
 30
0.0
 10
25.0867673674
 20
26.0726939925
 30
0.0
 10
25.069321105
 20
26.0699669092
 30
0.0
 10
25.0516046678
 20
26.0699669092
 30
0.0
  0
SPLINE
  5
386
100
AcDbEntity
  8
0
100
AcDbSpline
 62
7
  6
CONTINUOUS
 70
0
 71
3
 72
8
 73
4
 74
0
 42
0.0000001
 43
0.0000001
 44
0.0000000001
 40
0.0
 40
0.0
 40
0.0
 40
0.0
 40
1.0
 40
1.0
 40
1.0
 40
1.0
 10
23.5516046678
 20
26.0699669092
 30
0.0
 10
23.4646013499
 20
26.0699669092
 30
0.0
 10
23.3841137734
 20
26.1357353068
 30
0.0
 10
23.3593702591
 20
26.2180437811
 30
0.0
  0
SPLINE
  5
387
100
AcDbEntity
  8
0
100
AcDbSpline
 62
7
  6
CONTINUOUS
 70
0
 71
3
 72
8
 73
4
 74
0
 42
0.0000001
 43
0.0000001
 44
0.0000000001
 40
0.0
 40
0.0
 40
0.0
 40
0.0
 40
1.0
 40
1.0
 40
1.0
 40
1.0
 10
23.3593702591
 20
26.2180437811
 30
0.0
 10
23.3543317512
 20
26.2348042097
 30
0.0
 10
23.3516046679
 20
26.2522504717
 30
0.0
 10
23.3516046679
 20
26.2699669087
 30
0.0
  0
SPLINE
  5
388
100
AcDbEntity
  8
0
100
AcDbSpline
 62
7
  6
CONTINUOUS
 70
0
 71
3
 72
8
 73
4
 74
0
 42
0.0000001
 43
0.0000001
 44
0.0000000001
 40
0.0
 40
0.0
 40
0.0
 40
0.0
 40
1.0
 40
1.0
 40
1.0
 40
1.0
 10
23.3516046679
 20
26.5449669089
 30
0.0
 10
23.3516046679
 20
26.6144943872
 30
0.0
 10
23.3096037693
 20
26.6798607938
 30
0.0
 10
23.2507252904
 20
26.7159428105
 30
0.0
  0
SPLINE
  5
389
100
AcDbEntity
  8
0
100
AcDbSpline
 62
7
  6
CONTINUOUS
 70
0
 71
3
 72
8
 73
4
 74
0
 42
0.0000001
 43
0.0000001
 44
0.0000000001
 40
0.0
 40
0.0
 40
0.0
 40
0.0
 40
1.0
 40
1.0
 40
1.0
 40
1.0
 10
23.2507252904
 20
26.7159428105
 30
0.0
 10
23.2209231489
 20
26.7342062132
 30
0.0
 10
23.1867969449
 20
26.7449669092
 30
0.0
 10
23.1516046678
 20
26.7449669092
 30
0.0
  0
SPLINE
  5
38A
100
AcDbEntity
  8
0
100
AcDbSpline
 62
7
  6
CONTINUOUS
 70
0
 71
3
 72
8
 73
4
 74
0
 42
0.0000001
 43
0.0000001
 44
0.0000000001
 40
0.0
 40
0.0
 40
0.0
 40
0.0
 40
1.0
 40
1.0
 40
1.0
 40
1.0
 10
21.6516046678
 20
26.7449669092
 30
0.0
 10
21.5646013501
 20
26.7449669092
 30
0.0
 10
21.484113774
 20
26.8107353062
 30
0.0
 10
21.4593702594
 20
26.8930437805
 30
0.0
  0
SPLINE
  5
38B
100
AcDbEntity
  8
0
100
AcDbSpline
 62
7
  6
CONTINUOUS
 70
0
 71
3
 72
8
 73
4
 74
0
 42
0.0000001
 43
0.0000001
 44
0.0000000001
 40
0.0
 40
0.0
 40
0.0
 40
0.0
 40
1.0
 40
1.0
 40
1.0
 40
1.0
 10
21.4593702594
 20
26.8930437805
 30
0.0
 10
21.4543317513
 20
26.9098042092
 30
0.0
 10
21.451604668
 20
26.9272504714
 30
0.0
 10
21.4516046679
 20
26.9449669085
 30
0.0
  0
SPLINE
  5
38C
100
AcDbEntity
  8
0
100
AcDbSpline
 62
7
  6
CONTINUOUS
 70
0
 71
3
 72
8
 73
4
 74
0
 42
0.0000001
 43
0.0000001
 44
0.0000000001
 40
0.0
 40
0.0
 40
0.0
 40
0.0
 40
1.0
 40
1.0
 40
1.0
 40
1.0
 10
21.4516046679
 20
45.3449669093
 30
0.0
 10
21.4516046681
 20
45.4319702274
 30
0.0
 10
21.5173730654
 20
45.5124578035
 30
0.0
 10
21.5996815397
 20
45.5372013178
 30
0.0
  0
SPLINE
  5
38D
100
AcDbEntity
  8
0
100
AcDbSpline
 62
7
  6
CONTINUOUS
 70
0
 71
3
 72
8
 73
4
 74
0
 42
0.0000001
 43
0.0000001
 44
0.0000000001
 40
0.0
 40
0.0
 40
0.0
 40
0.0
 40
1.0
 40
1.0
 40
1.0
 40
1.0
 10
21.5996815397
 20
45.5372013178
 30
0.0
 10
21.6164419685
 20
45.5422398259
 30
0.0
 10
21.6338882308
 20
45.5449669092
 30
0.0
 10
21.651604668
 20
45.5449669092
 30
0.0
  0
SPLINE
  5
38E
100
AcDbEntity
  8
0
100
AcDbSpline
 62
7
  6
CONTINUOUS
 70
0
 71
3
 72
8
 73
4
 74
0
 42
0.0000001
 43
0.0000001
 44
0.0000000001
 40
0.0
 40
0.0
 40
0.0
 40
0.0
 40
1.0
 40
1.0
 40
1.0
 40
1.0
 10
23.151604668
 20
45.5449669092
 30
0.0
 10
23.2211321459
 20
45.5449669092
 30
0.0
 10
23.2864985524
 20
45.5869678078
 30
0.0
 10
23.3225805691
 20
45.6458462864
 30
0.0
  0
SPLINE
  5
38F
100
AcDbEntity
  8
0
100
AcDbSpline
 62
7
  6
CONTINUOUS
 70
0
 71
3
 72
8
 73
4
 74
0
 42
0.0000001
 43
0.0000001
 44
0.0000000001
 40
0.0
 40
0.0
 40
0.0
 40
0.0
 40
1.0
 40
1.0
 40
1.0
 40
1.0
 10
23.3225805691
 20
45.6458462864
 30
0.0
 10
23.3408439718
 20
45.6756484279
 30
0.0
 10
23.3516046679
 20
45.7097746318
 30
0.0
 10
23.3516046679
 20
45.7449669087
 30
0.0
  0
SPLINE
  5
390
100
AcDbEntity
  8
0
100
AcDbSpline
 62
7
  6
CONTINUOUS
 70
0
 71
3
 72
8
 73
4
 74
0
 42
0.0000001
 43
0.0000001
 44
0.0000000001
 40
0.0
 40
0.0
 40
0.0
 40
0.0
 40
1.0
 40
1.0
 40
1.0
 40
1.0
 10
23.3516046679
 20
46.0199669089
 30
0.0
 10
23.3516046679
 20
46.1069702273
 30
0.0
 10
23.4173730655
 20
46.1874578038
 30
0.0
 10
23.4996815402
 20
46.212201318
 30
0.0
  0
SPLINE
  5
391
100
AcDbEntity
  8
0
100
AcDbSpline
 62
7
  6
CONTINUOUS
 70
0
 71
3
 72
8
 73
4
 74
0
 42
0.0000001
 43
0.0000001
 44
0.0000000001
 40
0.0
 40
0.0
 40
0.0
 40
0.0
 40
1.0
 40
1.0
 40
1.0
 40
1.0
 10
23.4996815402
 20
46.212201318
 30
0.0
 10
23.5164419688
 20
46.2172398259
 30
0.0
 10
23.533888231
 20
46.2199669092
 30
0.0
 10
23.551604668
 20
46.2199669092
 30
0.0
  0
SPLINE
  5
392
100
AcDbEntity
  8
0
100
AcDbSpline
 62
7
  6
CONTINUOUS
 70
0
 71
3
 72
8
 73
4
 74
0
 42
0.0000001
 43
0.0000001
 44
0.0000000001
 40
0.0
 40
0.0
 40
0.0
 40
0.0
 40
1.0
 40
1.0
 40
1.0
 40
1.0
 10
25.051604668
 20
46.2199669092
 30
0.0
 10
25.1386079857
 20
46.2199669092
 30
0.0
 10
25.219095562
 20
46.1541985119
 30
0.0
 10
25.2438390765
 20
46.0718900375
 30
0.0
  0
SPLINE
  5
393
100
AcDbEntity
  8
0
100
AcDbSpline
 62
7
  6
CONTINUOUS
 70
0
 71
3
 72
8
 73
4
 74
0
 42
0.0000001
 43
0.0000001
 44
0.0000000001
 40
0.0
 40
0.0
 40
0.0
 40
0.0
 40
1.0
 40
1.0
 40
1.0
 40
1.0
 10
25.2438390765
 20
46.0718900375
 30
0.0
 10
25.2488775836
 20
46.0551296118
 30
0.0
 10
25.2516046669
 20
46.0376833528
 30
0.0
 10
25.2516046679
 20
46.019966919
 30
0.0
  0
SPLINE
  5
394
100
AcDbEntity
  8
0
100
AcDbSpline
 62
7
  6
CONTINUOUS
 70
0
 71
3
 72
10
 73
6
 74
0
 42
0.0000001
 43
0.0000001
 44
0.0000000001
 40
0.0
 40
0.0
 40
0.0
 40
0.0
 40
0.1908178423
 40
0.5392239884
 40
1.0
 40
1.0
 40
1.0
 40
1.0
 10
11.0516046679
 20
111.3511515921
 30
0.0
 10
11.0516046679
 20
111.3649763677
 30
0.0
 10
11.0620327241
 20
111.4042749612
 30
0.0
 10
11.1148204913
 20
111.4579075313
 30
0.0
 10
11.1672984815
 20
111.484888098
 30
0.0
 10
11.1981421613
 20
111.4976595751
 30
0.0
  0
SPLINE
  5
395
100
AcDbEntity
  8
0
100
AcDbSpline
 62
7
  6
CONTINUOUS
 70
0
 71
3
 72
9
 73
5
 74
0
 42
0.0000001
 43
0.0000001
 44
0.0000000001
 40
0.0
 40
0.0
 40
0.0
 40
0.0
 40
0.4671936802
 40
1.0
 40
1.0
 40
1.0
 40
1.0
 10
11.1981421613
 20
111.4976595751
 30
0.0
 10
11.2499698584
 20
111.5191199277
 30
0.0
 10
11.3674536702
 20
111.5489817128
 30
0.0
 10
11.4876316107
 20
111.5582919351
 30
0.0
 10
11.5516046679
 20
111.5582919351
 30
0.0
  0
SPLINE
  5
396
100
AcDbEntity
  8
0
100
AcDbSpline
 62
7
  6
CONTINUOUS
 70
0
 71
3
 72
13
 73
9
 74
0
 42
0.0000001
 43
0.0000001
 44
0.0000000001
 40
0.0
 40
0.0
 40
0.0
 40
0.0
 40
0.0867530277
 40
0.1791479363
 40
0.2818925546
 40
0.3982883234
 40
0.6757556138
 40
1.0
 40
1.0
 40
1.0
 40
1.0
 10
37.6516046679
 20
120.9449669092
 30
0.0
 10
37.7068001164
 20
120.9449669092
 30
0.0
 10
37.8214317337
 20
120.926919562
 30
0.0
 10
37.984816628
 20
120.8479115255
 30
0.0
 10
38.1373890615
 20
120.7185885834
 30
0.0
 10
38.3313235605
 20
120.4667751761
 30
0.0
 10
38.505219632
 20
120.0356528615
 30
0.0
 10
38.5516046679
 20
119.6512630444
 30
0.0
 10
38.5516046679
 20
119.4449669092
 30
0.0
  0
SPLINE
  5
397
100
AcDbEntity
  8
0
100
AcDbSpline
 62
7
  6
CONTINUOUS
 70
0
 71
3
 72
13
 73
9
 74
0
 42
0.0000001
 43
0.0000001
 44
0.0000000001
 40
0.0
 40
0.0
 40
0.0
 40
0.0
 40
0.0867530277
 40
0.1791479363
 40
0.2818925546
 40
0.3982883234
 40
0.6757556138
 40
1.0
 40
1.0
 40
1.0
 40
1.0
 10
24.6516046679
 20
120.9449669092
 30
0.0
 10
24.5964092194
 20
120.9449669092
 30
0.0
 10
24.4817776021
 20
120.926919562
 30
0.0
 10
24.3183927078
 20
120.8479115255
 30
0.0
 10
24.1658202742
 20
120.7185885834
 30
0.0
 10
23.9718857753
 20
120.4667751761
 30
0.0
 10
23.7979897038
 20
120.0356528616
 30
0.0
 10
23.7516046679
 20
119.6512630444
 30
0.0
 10
23.7516046679
 20
119.4449669092
 30
0.0
  0
SPLINE
  5
398
100
AcDbEntity
  8
0
100
AcDbSpline
 62
7
  6
CONTINUOUS
 70
0
 71
3
 72
9
 73
5
 74
0
 42
0.0000001
 43
0.0000001
 44
0.0000000001
 40
0.0
 40
0.0
 40
0.0
 40
0.0
 40
0.5011062569
 40
1.0
 40
1.0
 40
1.0
 40
1.0
 10
11.5516395747
 20
112.1107449112
 30
0.0
 10
11.4866294919
 20
112.1107449112
 30
0.0
 10
11.3556388776
 20
112.0854282734
 30
0.0
 10
11.2441127282
 20
112.0120553458
 30
0.0
 10
11.1979706423
 20
111.966668336
 30
0.0
  0
SPLINE
  5
399
100
AcDbEntity
  8
0
100
AcDbSpline
 62
7
  6
CONTINUOUS
 70
0
 71
3
 72
9
 73
5
 74
0
 42
0.0000001
 43
0.0000001
 44
0.0000000001
 40
0.0
 40
0.0
 40
0.0
 40
0.0
 40
0.5011929473
 40
1.0
 40
1.0
 40
1.0
 40
1.0
 10
11.1979706423
 20
111.966668336
 30
0.0
 10
11.1521616378
 20
111.9216089571
 30
0.0
 10
11.0776434596
 20
111.812635283
 30
0.0
 10
11.0516092087
 20
111.68312604
 30
0.0
 10
11.0516046679
 20
111.6191760891
 30
0.0
  0
ENDSEC
  0
SECTION
  2
OBJECTS
  0
DICTIONARY
  5
C
100
AcDbDictionary
280
0
281
1
  3
ACAD_GROUP
350
D
  3
ACAD_MLINESTYLE
350
17
  3
ACAD_LAYOUT
350
1A
  3
ACAD_PLOTSETTINGS
350
19
  3
ACAD_PLOTSTYLENAME
350
E
  0
DICTIONARY
  5
D
102
{ACAD_REACTORS
330
C
102
}
100
AcDbDictionary
280
0
281
1
  0
ACDBDICTIONARYWDFLT
  5
E
102
{ACAD_REACTORS
330
C
102
}
100
AcDbDictionary
281
1
  3
Normal
350
F
100
AcDbDictionaryWithDefault
340
F
  0
DICTIONARY
  5
17
102
{ACAD_REACTORS
330
C
102
}
100
AcDbDictionary
280
0
281
1
  3
Standard
350
18
  0
DICTIONARY
  5
19
102
{ACAD_REACTORS
330
C
102
}
100
AcDbDictionary
281
1
  0
DICTIONARY
  5
1A
102
{ACAD_REACTORS
330
C
102
}
100
AcDbDictionary
281
1
  3
Model
350
39A
  3
Layout1
350
39B
  0
ACDBPLACEHOLDER
  5
F
102
{ACAD_REACTORS
330
E
102
}
  0
MLINESTYLE
  5
18
102
{ACAD_REACTORS
330
17
102
}
100
AcDbMlineStyle
  2
STANDARD
 70
0
  3

 62
256
 51
90.0
 52
90.0
 71
2
 49
0.5
 62
256
  6
BYLAYER
 49
-0.5
 62
256
  6
BYLAYER
  0
LAYOUT
  5
39A
102
{ACAD_REACTORS
330
1A
102
}
100
AcDbPlotSettings
  1

  2
none_device
  4

  6

 40
0.0
 41
0.0
 42
0.0
 43
0.0
 44
210.0
 45
297.0
 46
0.0
 47
0.0
 48
0.0
 49
0.0
140
0.0
141
0.0
142
1.0
143
1.0
 70
1024
 72
1
 73
0
 74
0
  7

 75
0
147
1.0
148
0.0
149
0.0
100
AcDbLayout
  1
Model
 70
0
 71
0
 10
0.0
 20
0.0
 11
210.0
 21
297.0
 12
0.0
 22
0.0
 32
0.0
 14
0.0
 24
0.0
 34
0.0
 15
0.0
 25
0.0
 35
0.0
146
0.0
 13
0.0
 23
0.0
 33
0.0
 16
1.0
 26
0.0
 36
0.0
 17
0.0
 27
1.0
 37
0.0
 76
0
330
210
345
0
346
0
  0
LAYOUT
  5
39B
102
{ACAD_REACTORS
330
1A
102
}
100
AcDbPlotSettings
  1

  2
none_device
  4

  6

 40
0.0
 41
0.0
 42
0.0
 43
0.0
 44
210.0
 45
297.0
 46
0.0
 47
0.0
 48
0.0
 49
0.0
140
0.0
141
0.0
142
1.0
143
1.0
 70
0
 72
1
 73
0
 74
0
  7

 75
0
147
1.0
148
0.0
149
0.0
100
AcDbLayout
  1
Layout1
 70
0
 71
1
 10
0.0
 20
0.0
 11
210.0
 21
297.0
 12
0.0
 22
0.0
 32
0.0
 14
0.0
 24
0.0
 34
0.0
 15
0.0
 25
0.0
 35
0.0
146
0.0
 13
0.0
 23
0.0
 33
0.0
 16
1.0
 26
0.0
 36
0.0
 17
0.0
 27
1.0
 37
0.0
 76
0
330
211
345
0
346
0
  0
ENDSEC
  0
EOF
