999
DXF file: C:\Users\sesa63760\Dev\_Creo\CAD\MCADID0005129_3D-CAD\drw0001_7.dxf
999
Pro/ENGINEER 2019471 by Parametric Technology Corporation
  0
SECTION
  2
HEADER
  9
$ACADVER
  1
AC1024
  9
$DWGCODEPAGE
  3
ANSI_1252
  9
$EXTMAX
 10
57.8986615071
 20
81.8852498457
 30
0.0
  9
$EXTMIN
 10
0.0
 20
0.0
 30
0.0
  9
$LIMMIN
 10
0.0
 20
0.0
  9
$LIMMAX
 10
57.8986615071
 20
81.8852498457
  9
$VIEWCTR
 10
28.9493307535
 20
40.9426249229
  9
$VIEWSIZE
 40
81.8852498457
  9
$CLAYER
  8
0
  9
$LTSCALE
 40
5.3377051751
  9
$CELTYPE
  6
BYLAYER
  9
$DIMSCALE
 40
1.0
  9
$DIMASZ
 40
0.6892697798
  9
$DIMEXO
 40
1.0
  9
$DIMDLI
 40
3.6878690301
  9
$DIMEXE
 40
1.0
  9
$DIMCEN
 40
0.873442665
  9
$DIMLFAC
 40
1.0
  9
$DIMBLK
  1
_FILLED
  9
$DIMALT
 70
0
  9
$DIMALTF
 40
0.0393700787
  9
$DIMTXT
 40
0.9649776918
  9
$DIMTOL
 70
1
  9
$DIMLIM
 70
0
  9
$DIMTFAC
 40
1.0
  9
$DIMTP
 40
0.01
  9
$DIMTM
 40
0.01
  9
$DIMGAP
 40
0.625
  9
$DIMDSEP
 70
46
  9
$AUNITS
 70
0
  9
$PDMODE
 70
3
  9
$PDSIZE
 40
0.3125
  9
$HANDSEED
  5
2A9
  9
$TILEMODE
 70
1
  9
$MEASUREMENT
 70
1
  9
$INSUNITS
 70
4
  0
ENDSEC
  0
SECTION
  2
CLASSES
  0
CLASS
  1
ACDBDICTIONARYWDFLT
  2
AcDbDictionaryWithDefault
  3
AutoCAD 2000
 90
0
 91
1
280
0
281
0
  0
CLASS
  1
ACDBPLACEHOLDER
  2
AcDbPlaceHolder
  3
AutoCAD 2000
 90
0
 91
1
280
0
281
0
  0
CLASS
  1
LAYOUT
  2
AcDbLayout
  3
AutoCAD 2000
 90
0
 91
0
280
0
281
0
  0
ENDSEC
  0
SECTION
  2
TABLES
  0
TABLE
  2
VPORT
  5
8
100
AcDbSymbolTable
 70
2
  0
VPORT
  5
1F4
100
AcDbSymbolTableRecord
100
AcDbViewportTableRecord
  2
*ACTIVE
 70
0
 10
0.0
 20
0.0
 11
1.0
 21
1.0
 12
28.9493307535
 22
40.9426249229
 13
0.0
 23
0.0
 14
1.0
 24
1.0
 15
0.0
 25
0.0
 16
0.0
 26
0.0
 36
1.0
 17
0.0
 27
0.0
 37
0.0
 40
81.8852498457
 41
0.7070707071
 42
50.0
 43
0.0
 44
0.0
 50
0.0
 51
0.0
 71
0
 72
100
 73
1
 74
1
 75
0
 76
0
 77
0
 78
0
  0
ENDTAB
  0
TABLE
  2
LTYPE
  5
5
100
AcDbSymbolTable
 70
6
  0
LTYPE
  5
14
100
AcDbSymbolTableRecord
100
AcDbLinetypeTableRecord
  2
BYBLOCK
 70
0
  3

 72
65
 73
0
 40
0.0
  0
LTYPE
  5
15
100
AcDbSymbolTableRecord
100
AcDbLinetypeTableRecord
  2
BYLAYER
 70
0
  3

 72
65
 73
0
 40
0.0
  0
LTYPE
  5
16
100
AcDbSymbolTableRecord
100
AcDbLinetypeTableRecord
  2
CONTINUOUS
 70
64
  3
Solid line
 72
65
 73
0
 40
0.0
  0
LTYPE
  5
1F5
100
AcDbSymbolTableRecord
100
AcDbLinetypeTableRecord
  2
CENTER
 70
64
  3
____ _ ____ _ ____ _ ____ _ ____ _ ____ _ ____
 72
65
 73
4
 40
0.6
 49
0.375
 74
0
 49
-0.075
 74
0
 49
0.075
 74
0
 49
-0.075
 74
0
  0
LTYPE
  5
1F6
100
AcDbSymbolTableRecord
100
AcDbLinetypeTableRecord
  2
HIDDEN
 70
64
  3
- - - - - - - - - - - - - - - - - - - -
 72
65
 73
2
 40
0.2
 49
0.1
 74
0
 49
-0.1
 74
0
  0
LTYPE
  5
1F7
100
AcDbSymbolTableRecord
100
AcDbLinetypeTableRecord
  2
PHANTOM
 70
64
  3
_____ _ _ _____ _ _ _____ _ _ _____
 72
65
 73
6
 40
0.8
 49
0.45
 74
0
 49
-0.05
 74
0
 49
0.1
 74
0
 49
-0.05
 74
0
 49
0.1
 74
0
 49
-0.05
 74
0
  0
LTYPE
  5
1F8
100
AcDbSymbolTableRecord
100
AcDbLinetypeTableRecord
  2
DOT
 70
64
  3
. . . . . . . . . . . . . . . . . . . .
 72
65
 73
2
 40
0.2
 49
0.1
 74
0
 49
-0.1
 74
0
  0
LTYPE
  5
1F9
100
AcDbSymbolTableRecord
100
AcDbLinetypeTableRecord
  2
DASHED
 70
64
  3
- - - - - - - - - - - - - - - - - - - -
 72
65
 73
2
 40
0.2
 49
0.1
 74
0
 49
-0.1
 74
0
  0
ENDTAB
  0
TABLE
  2
LAYER
  5
2
100
AcDbSymbolTable
 70
36
  0
LAYER
  5
10
100
AcDbSymbolTableRecord
100
AcDbLayerTableRecord
  2
0
 70
0
 62
7
  6
CONTINUOUS
370
-3
390
F
  0
LAYER
  5
1FA
100
AcDbSymbolTableRecord
100
AcDbLayerTableRecord
  2
DEFAULT_1
 70
0
 62
7
  6
CENTER
370
-3
390
F
  0
LAYER
  5
1FB
100
AcDbSymbolTableRecord
100
AcDbLayerTableRecord
  2
DEFAULT_2
 70
0
 62
7
  6
HIDDEN
370
-3
390
F
  0
LAYER
  5
1FC
100
AcDbSymbolTableRecord
100
AcDbLayerTableRecord
  2
DEFAULT_3
 70
0
 62
7
  6
PHANTOM
370
-3
390
F
  0
LAYER
  5
1FD
100
AcDbSymbolTableRecord
100
AcDbLayerTableRecord
  2
00_COMPONENTS
 70
0
 62
7
  6
CONTINUOUS
370
-3
390
F
  0
LAYER
  5
1FE
100
AcDbSymbolTableRecord
100
AcDbLayerTableRecord
  2
01_1_DEFAULT_DATUMS
 70
0
 62
7
  6
CONTINUOUS
370
-3
390
F
  0
LAYER
  5
1FF
100
AcDbSymbolTableRecord
100
AcDbLayerTableRecord
  2
01_PLANES
 70
0
 62
7
  6
CONTINUOUS
370
-3
390
F
  0
LAYER
  5
200
100
AcDbSymbolTableRecord
100
AcDbLayerTableRecord
  2
02_COORD_SYS
 70
0
 62
7
  6
CONTINUOUS
370
-3
390
F
  0
LAYER
  5
201
100
AcDbSymbolTableRecord
100
AcDbLayerTableRecord
  2
03_AXES
 70
0
 62
7
  6
CONTINUOUS
370
-3
390
F
  0
LAYER
  5
202
100
AcDbSymbolTableRecord
100
AcDbLayerTableRecord
  2
04_POINTS
 70
0
 62
7
  6
CONTINUOUS
370
-3
390
F
  0
LAYER
  5
203
100
AcDbSymbolTableRecord
100
AcDbLayerTableRecord
  2
05_CURVES
 70
0
 62
7
  6
CONTINUOUS
370
-3
390
F
  0
LAYER
  5
204
100
AcDbSymbolTableRecord
100
AcDbLayerTableRecord
  2
06_SURFS
 70
0
 62
7
  6
CONTINUOUS
370
-3
390
F
  0
LAYER
  5
205
100
AcDbSymbolTableRecord
100
AcDbLayerTableRecord
  2
07_COSMETICS
 70
0
 62
7
  6
CONTINUOUS
370
-3
390
F
  0
LAYER
  5
206
100
AcDbSymbolTableRecord
100
AcDbLayerTableRecord
  2
10_NOTES
 70
0
 62
7
  6
CONTINUOUS
370
-3
390
F
  0
LAYER
  5
207
100
AcDbSymbolTableRecord
100
AcDbLayerTableRecord
  2
11_NOTES_PUB
 70
0
 62
7
  6
CONTINUOUS
370
-3
390
F
  0
LAYER
  5
208
100
AcDbSymbolTableRecord
100
AcDbLayerTableRecord
  2
13_REF_GTOL
 70
0
 62
7
  6
CONTINUOUS
370
-3
390
F
  0
LAYER
  5
209
100
AcDbSymbolTableRecord
100
AcDbLayerTableRecord
  2
16_MISC
 70
0
 62
7
  6
CONTINUOUS
370
-3
390
F
  0
LAYER
  5
20A
100
AcDbSymbolTableRecord
100
AcDbLayerTableRecord
  2
17_NO_PRINT
 70
0
 62
7
  6
CONTINUOUS
370
-3
390
F
  0
LAYER
  5
20B
100
AcDbSymbolTableRecord
100
AcDbLayerTableRecord
  2
18_DATUM_CAMS_JOINTS
 70
0
 62
7
  6
CONTINUOUS
370
-3
390
F
  0
LAYER
  5
20C
100
AcDbSymbolTableRecord
100
AcDbLayerTableRecord
  2
19_DATUM_FUNCTIONAL
 70
0
 62
7
  6
CONTINUOUS
370
-3
390
F
  0
LAYER
  5
20D
100
AcDbSymbolTableRecord
100
AcDbLayerTableRecord
  2
20_DATUM_KINEMATIC_SCHEME
 70
0
 62
7
  6
CONTINUOUS
370
-3
390
F
  0
ENDTAB
  0
TABLE
  2
STYLE
  5
3
100
AcDbSymbolTable
 70
1
  0
STYLE
  5
11
100
AcDbSymbolTableRecord
100
AcDbTextStyleTableRecord
  2
STANDARD
 70
0
 40
0.0
 41
1.0
 50
0.0
 71
0
 42
0.2
  3
ARIAL.TTF
  4

  0
STYLE
  5
20E
100
AcDbSymbolTableRecord
100
AcDbTextStyleTableRecord
  2
TEXTSTYLE_1
 70
0
 40
0.0
 41
0.8
 50
0.0
 71
0
 42
0.2
  3
gdt
  4

  0
ENDTAB
  0
TABLE
  2
VIEW
  5
6
100
AcDbSymbolTable
 70
0
  0
ENDTAB
  0
TABLE
  2
UCS
  5
7
100
AcDbSymbolTable
 70
0
  0
ENDTAB
  0
TABLE
  2
APPID
  5
9
100
AcDbSymbolTable
 70
1
  0
APPID
  5
20F
100
AcDbSymbolTableRecord
100
AcDbRegAppTableRecord
  2
ACAD
 70
0
  0
ENDTAB
  0
TABLE
  2
BLOCK_RECORD
  5
1
100
AcDbSymbolTable
 70
0
  0
BLOCK_RECORD
  5
210
100
AcDbSymbolTableRecord
100
AcDbBlockTableRecord
  2
*Model_Space
  0
BLOCK_RECORD
  5
211
100
AcDbSymbolTableRecord
100
AcDbBlockTableRecord
  2
*Paper_Space
  0
BLOCK_RECORD
  5
212
100
AcDbSymbolTableRecord
100
AcDbBlockTableRecord
  2
_FILLED
  0
ENDTAB
  0
TABLE
  2
DIMSTYLE
  5
A
100
AcDbSymbolTable
 70
1
100
AcDbDimStyleTable
 71
0
  0
DIMSTYLE
105
213
100
AcDbSymbolTableRecord
100
AcDbDimStyleTableRecord
  2
STANDARD
 70
0
  3

  4

 40
1.0
 41
0.6892697798
 42
1.0
 43
0.38
 44
1.0
 45
0.0
 46
0.0
 47
0.01
 48
0.01
140
0.9649776918
141
0.09
142
0.0
143
25.4
144
1.0
145
0.0
146
1.0
147
0.625
 71
1
 72
0
 73
0
 74
0
 75
0
 76
0
 77
1
 78
8
 79
2
170
0
171
1
172
0
173
0
174
0
175
0
176
0
177
0
178
0
270
2
179
2
271
2
272
2
273
2
274
2
275
0
280
0
281
0
282
0
283
1
284
8
285
0
286
0
287
3
288
0
340
11
278
46
341
212
342
212
343
212
344
212
  0
ENDTAB
  0
ENDSEC
  0
SECTION
  2
BLOCKS
  0
BLOCK
  5
20
100
AcDbEntity
  8
0
100
AcDbBlockBegin
  2
*Model_Space
 70
0
 10
0.0
 20
0.0
 30
0.0
  3
*Model_Space
  1

  0
ENDBLK
  5
21
100
AcDbEntity
  8
0
100
AcDbBlockEnd
  0
BLOCK
  5
1C
100
AcDbEntity
  8
0
100
AcDbBlockBegin
  2
*Paper_Space
 70
0
 10
0.0
 20
0.0
 30
0.0
  3
*Paper_Space
  1

  0
ENDBLK
  5
1D
100
AcDbEntity
  8
0
100
AcDbBlockEnd
  0
BLOCK
  5
214
100
AcDbEntity
  8
0
100
AcDbBlockBegin
  2
_FILLED
 70
64
 10
0.0
 20
0.0
  3
_FILLED
  1

  0
SOLID
  5
215
100
AcDbEntity
  8
0
  6
BYBLOCK
 62
0
100
AcDbTrace
 10
0.0
 20
0.0
 11
-1.0
 21
0.25
 12
-1.0
 22
-0.25
 13
-1.0
 23
-0.25
  0
ENDBLK
  5
216
100
AcDbEntity
  8
0
  6
BYBLOCK
 62
0
100
AcDbBlockEnd
  0
ENDSEC
  0
SECTION
  2
ENTITIES
  0
LINE
  5
217
100
AcDbEntity
  8
0
100
AcDbLine
 62
7
  6
BYLAYER
 10
24.7536999288
 20
6.0637180111
 11
29.2666006144
 21
6.0637180111
  0
LINE
  5
218
100
AcDbEntity
  8
0
100
AcDbLine
 62
7
  6
BYLAYER
 10
14.5407284147
 20
21.5424390381
 11
45.9838430158
 21
21.5424390381
  0
LINE
  5
219
100
AcDbEntity
  8
0
100
AcDbLine
 62
7
  6
BYLAYER
 10
12.7652718138
 20
22.1424390381
 11
41.2652718139
 21
22.1424390381
  0
LINE
  5
21A
100
AcDbEntity
  8
0
100
AcDbLine
 62
7
  6
BYLAYER
 10
12.1152719793
 20
47.8624390856
 11
12.1152719793
 21
56.0424392063
  0
LINE
  5
21B
100
AcDbEntity
  8
0
100
AcDbLine
 62
7
  6
BYLAYER
 10
12.7652718138
 20
22.1424390381
 11
12.7652718138
 21
32.3424390381
  0
LINE
  5
21C
100
AcDbEntity
  8
0
100
AcDbLine
 62
7
  6
BYLAYER
 10
12.9652718139
 20
52.8424392361
 11
12.9652718139
 21
56.0424392063
  0
LINE
  5
21D
100
AcDbEntity
  8
0
100
AcDbLine
 62
7
  6
BYLAYER
 10
13.2152719733
 20
52.8424392407
 11
13.2152719733
 21
47.8624390856
  0
LINE
  5
21E
100
AcDbEntity
  8
0
100
AcDbLine
 62
7
  6
BYLAYER
 10
13.2195153019
 20
41.3424390986
 11
13.2195153019
 21
45.8324390856
  0
LINE
  5
21F
100
AcDbEntity
  8
0
100
AcDbLine
 62
7
  6
BYLAYER
 10
13.7152717034
 20
50.162439299
 11
13.7152717034
 21
47.8624390856
  0
LINE
  5
220
100
AcDbEntity
  8
0
100
AcDbLine
 62
7
  6
BYLAYER
 10
12.3073395651
 20
41.3424390986
 11
12.2652717244
 21
39.8424390856
  0
LINE
  5
221
100
AcDbEntity
  8
0
100
AcDbLine
 62
7
  6
BYLAYER
 10
14.3652718824
 20
39.8424390856
 11
14.3652718824
 21
38.8424390381
  0
LINE
  5
222
100
AcDbEntity
  8
0
100
AcDbLine
 62
7
  6
BYLAYER
 10
14.4152718139
 20
32.3424390381
 11
14.4152718139
 21
33.5924390381
  0
LINE
  5
223
100
AcDbEntity
  8
0
100
AcDbLine
 62
7
  6
BYLAYER
 10
14.5407284147
 20
21.5424390381
 11
14.5407284147
 21
22.1424390381
  0
LINE
  5
224
100
AcDbEntity
  8
0
100
AcDbLine
 62
7
  6
BYLAYER
 10
14.9416836249
 20
21.5424390381
 11
14.9416836249
 21
7.9195268924
  0
LINE
  5
225
100
AcDbEntity
  8
0
100
AcDbLine
 62
7
  6
BYLAYER
 10
15.2404010069
 20
8.0550612453
 11
15.2404010069
 21
21.5424390381
  0
LINE
  5
226
100
AcDbEntity
  8
0
100
AcDbLine
 62
7
  6
BYLAYER
 10
15.7195153356
 20
45.8324390856
 11
15.7195153356
 21
41.3424390986
  0
LINE
  5
227
100
AcDbEntity
  8
0
100
AcDbLine
 62
7
  6
BYLAYER
 10
15.9152718139
 20
33.5924390381
 11
15.9152718139
 21
38.8424390381
  0
LINE
  5
228
100
AcDbEntity
  8
0
100
AcDbLine
 62
7
  6
BYLAYER
 10
16.3329618944
 20
47.8624390856
 11
16.3329618944
 21
50.1624393263
  0
LINE
  5
229
100
AcDbEntity
  8
0
100
AcDbLine
 62
7
  6
BYLAYER
 10
13.2195153019
 20
41.6737666427
 11
13.0922149577
 21
41.3424390986
  0
LINE
  5
22A
100
AcDbEntity
  8
0
100
AcDbLine
 62
7
  6
BYLAYER
 10
16.8227434707
 20
46.2624390856
 11
16.8227434707
 21
47.7624390856
  0
LINE
  5
22B
100
AcDbEntity
  8
0
100
AcDbLine
 62
7
  6
BYLAYER
 10
18.6402718139
 20
44.2424389951
 11
18.6402718139
 21
46.2624390856
  0
LINE
  5
22C
100
AcDbEntity
  8
0
100
AcDbLine
 62
7
  6
BYLAYER
 10
18.6402718139
 20
47.7624390856
 11
18.6402718139
 21
47.8624390856
  0
LINE
  5
22D
100
AcDbEntity
  8
0
100
AcDbLine
 62
7
  6
BYLAYER
 10
18.9751015811
 20
8.0571183022
 11
18.9751015811
 21
21.5424390381
  0
LINE
  5
22E
100
AcDbEntity
  8
0
100
AcDbLine
 62
7
  6
BYLAYER
 10
19.5727434707
 20
47.7624390856
 11
19.5727434707
 21
46.2624390856
  0
LINE
  5
22F
100
AcDbEntity
  8
0
100
AcDbLine
 62
7
  6
BYLAYER
 10
20.8152718139
 20
50.1624392521
 11
20.8152718139
 21
52.8424392631
  0
LINE
  5
230
100
AcDbEntity
  8
0
100
AcDbLine
 62
7
  6
BYLAYER
 10
21.0652718139
 20
52.84243922
 11
21.0652718139
 21
56.0424392063
  0
LINE
  5
231
100
AcDbEntity
  8
0
100
AcDbLine
 62
7
  6
BYLAYER
 10
21.3625410866
 20
7.5344634909
 11
21.3625410866
 21
21.5424390381
  0
LINE
  5
232
100
AcDbEntity
  8
0
100
AcDbLine
 62
7
  6
BYLAYER
 10
41.2652718139
 20
32.3424390381
 11
12.7652718138
 21
32.3424390381
  0
LINE
  5
233
100
AcDbEntity
  8
0
100
AcDbLine
 62
7
  6
BYLAYER
 10
39.6152718138
 20
33.5924390381
 11
14.4152718139
 21
33.5924390381
  0
LINE
  5
234
100
AcDbEntity
  8
0
100
AcDbLine
 62
7
  6
BYLAYER
 10
22.9652718139
 20
52.8424392088
 11
22.9652718139
 21
56.0424392063
  0
LINE
  5
235
100
AcDbEntity
  8
0
100
AcDbLine
 62
7
  6
BYLAYER
 10
23.1978758667
 20
47.8624390856
 11
23.1978758667
 21
50.1624393412
  0
LINE
  5
236
100
AcDbEntity
  8
0
100
AcDbLine
 62
7
  6
BYLAYER
 10
23.2152718139
 20
53.5424392622
 11
23.2152718139
 21
50.1624392521
  0
LINE
  5
237
100
AcDbEntity
  8
0
100
AcDbLine
 62
7
  6
BYLAYER
 10
23.3563612822
 20
46.2624390856
 11
23.3563612822
 21
47.7624390856
  0
LINE
  5
238
100
AcDbEntity
  8
0
100
AcDbLine
 62
7
  6
BYLAYER
 10
24.1152718139
 20
47.8624390856
 11
24.1152718139
 21
47.7624390856
  0
LINE
  5
239
100
AcDbEntity
  8
0
100
AcDbLine
 62
7
  6
BYLAYER
 10
24.1152718139
 20
44.2424389951
 11
24.1152718139
 21
46.2624390856
  0
LINE
  5
23A
100
AcDbEntity
  8
0
100
AcDbLine
 62
7
  6
BYLAYER
 10
24.1152718139
 20
50.1624392893
 11
24.1152718139
 21
53.1082352817
  0
LINE
  5
23B
100
AcDbEntity
  8
0
100
AcDbLine
 62
7
  6
BYLAYER
 10
24.5152718697
 20
41.3424390986
 11
24.5152718697
 21
45.8324390856
  0
LINE
  5
23C
100
AcDbEntity
  8
0
100
AcDbLine
 62
7
  6
BYLAYER
 10
24.5152718139
 20
46.2424394292
 11
24.5152718139
 21
46.2624390856
  0
LINE
  5
23D
100
AcDbEntity
  8
0
100
AcDbLine
 62
7
  6
BYLAYER
 10
24.5152718139
 20
47.7624390856
 11
24.5152718139
 21
47.8624390856
  0
LINE
  5
23E
100
AcDbEntity
  8
0
100
AcDbLine
 62
7
  6
BYLAYER
 10
14.3652839369
 20
38.8424390381
 11
39.6652578697
 21
38.8424390381
  0
LINE
  5
23F
100
AcDbEntity
  8
0
100
AcDbLine
 62
7
  6
BYLAYER
 10
27.0152718139
 20
46.2624390856
 11
27.0152718139
 21
47.7624390856
  0
LINE
  5
240
100
AcDbEntity
  8
0
100
AcDbLine
 62
7
  6
BYLAYER
 10
12.265461886
 20
39.8424390856
 11
41.7650817417
 21
39.8424390856
  0
LINE
  5
241
100
AcDbEntity
  8
0
100
AcDbLine
 62
7
  6
BYLAYER
 10
41.7230143013
 20
41.3424390986
 11
12.3075293264
 21
41.3424390986
  0
LINE
  5
242
100
AcDbEntity
  8
0
100
AcDbLine
 62
7
  6
BYLAYER
 10
29.5152718143
 20
45.8324390856
 11
29.5152718143
 21
41.3424390986
  0
LINE
  5
243
100
AcDbEntity
  8
0
100
AcDbLine
 62
7
  6
BYLAYER
 10
29.5152718139
 20
46.2424394292
 11
29.5152718139
 21
46.2624390856
  0
LINE
  5
244
100
AcDbEntity
  8
0
100
AcDbLine
 62
7
  6
BYLAYER
 10
29.5152718139
 20
47.7624390856
 11
29.5152718139
 21
47.8624390856
  0
LINE
  5
245
100
AcDbEntity
  8
0
100
AcDbLine
 62
7
  6
BYLAYER
 10
29.9152718139
 20
53.1082352817
 11
29.9152718139
 21
50.1624392893
  0
LINE
  5
246
100
AcDbEntity
  8
0
100
AcDbLine
 62
7
  6
BYLAYER
 10
29.9152718139
 20
44.2424389951
 11
29.9152718139
 21
46.2624390856
  0
LINE
  5
247
100
AcDbEntity
  8
0
100
AcDbLine
 62
7
  6
BYLAYER
 10
29.9152718139
 20
47.7624390856
 11
29.9152718139
 21
47.8624390856
  0
LINE
  5
248
100
AcDbEntity
  8
0
100
AcDbLine
 62
7
  6
BYLAYER
 10
30.6741823455
 20
46.2624390856
 11
30.6741823455
 21
47.7624390856
  0
LINE
  5
249
100
AcDbEntity
  8
0
100
AcDbLine
 62
7
  6
BYLAYER
 10
30.8152718139
 20
50.1624392521
 11
30.8152718139
 21
53.5424392622
  0
LINE
  5
24A
100
AcDbEntity
  8
0
100
AcDbLine
 62
7
  6
BYLAYER
 10
30.832667761
 20
50.1624393412
 11
30.832667761
 21
47.8624390856
  0
LINE
  5
24B
100
AcDbEntity
  8
0
100
AcDbLine
 62
7
  6
BYLAYER
 10
31.0652718139
 20
52.8424392088
 11
31.0652718139
 21
56.0424392063
  0
LINE
  5
24C
100
AcDbEntity
  8
0
100
AcDbLine
 62
7
  6
BYLAYER
 10
32.2152718139
 20
52.7224388531
 11
32.2152718139
 21
76.2224388099
  0
LINE
  5
24D
100
AcDbEntity
  8
0
100
AcDbLine
 62
7
  6
BYLAYER
 10
33.0152718139
 20
52.7224388531
 11
33.0152718139
 21
54.2424395132
  0
LINE
  5
24E
100
AcDbEntity
  8
0
100
AcDbLine
 62
7
  6
BYLAYER
 10
33.2152718139
 20
52.8424392631
 11
33.2152718139
 21
50.1624392521
  0
LINE
  5
24F
100
AcDbEntity
  8
0
100
AcDbLine
 62
7
  6
BYLAYER
 10
33.6152718139
 20
66.6824390856
 11
33.6152718139
 21
72.1124390856
  0
LINE
  5
250
100
AcDbEntity
  8
0
100
AcDbLine
 62
7
  6
BYLAYER
 10
34.2652718139
 20
55.0424390856
 11
34.2652718139
 21
66.0224390856
  0
LINE
  5
251
100
AcDbEntity
  8
0
100
AcDbLine
 62
7
  6
BYLAYER
 10
34.457800157
 20
46.2624390856
 11
34.457800157
 21
47.7624390856
  0
LINE
  5
252
100
AcDbEntity
  8
0
100
AcDbLine
 62
7
  6
BYLAYER
 10
35.3902718139
 20
44.2424389951
 11
29.9152718139
 21
44.2424389951
  0
LINE
  5
253
100
AcDbEntity
  8
0
100
AcDbLine
 62
7
  6
BYLAYER
 10
24.1152718139
 20
44.2424389951
 11
18.6402718139
 21
44.2424389951
  0
LINE
  5
254
100
AcDbEntity
  8
0
100
AcDbLine
 62
7
  6
BYLAYER
 10
36.1684475903
 20
45.6450451294
 11
35.3902718139
 21
45.6450451294
  0
LINE
  5
255
100
AcDbEntity
  8
0
100
AcDbLine
 62
7
  6
BYLAYER
 10
29.9152718139
 20
45.6450451294
 11
29.5152718135
 21
45.6450451294
  0
LINE
  5
256
100
AcDbEntity
  8
0
100
AcDbLine
 62
7
  6
BYLAYER
 10
24.5152718697
 20
45.6450451294
 11
24.1152718139
 21
45.6450451294
  0
LINE
  5
257
100
AcDbEntity
  8
0
100
AcDbLine
 62
7
  6
BYLAYER
 10
18.6402718139
 20
45.6450451294
 11
17.8620960374
 21
45.6450451294
  0
LINE
  5
258
100
AcDbEntity
  8
0
100
AcDbLine
 62
7
  6
BYLAYER
 10
40.811028422
 20
45.8324390856
 11
35.9853032459
 21
45.8324390856
  0
LINE
  5
259
100
AcDbEntity
  8
0
100
AcDbLine
 62
7
  6
BYLAYER
 10
29.5152718141
 20
45.8324390856
 11
24.5152718697
 21
45.8324390856
  0
LINE
  5
25A
100
AcDbEntity
  8
0
100
AcDbLine
 62
7
  6
BYLAYER
 10
18.0452403818
 20
45.8324390856
 11
13.2195153019
 21
45.8324390856
  0
LINE
  5
25B
100
AcDbEntity
  8
0
100
AcDbLine
 62
7
  6
BYLAYER
 10
39.0100603472
 20
45.8424391377
 11
35.3902718139
 21
45.8424391377
  0
LINE
  5
25C
100
AcDbEntity
  8
0
100
AcDbLine
 62
7
  6
BYLAYER
 10
29.9152718139
 20
45.8424391377
 11
24.1152718139
 21
45.8424391377
  0
LINE
  5
25D
100
AcDbEntity
  8
0
100
AcDbLine
 62
7
  6
BYLAYER
 10
18.6402718139
 20
45.8424391377
 11
15.0204832805
 21
45.8424391377
  0
LINE
  5
25E
100
AcDbEntity
  8
0
100
AcDbLine
 62
7
  6
BYLAYER
 10
18.6402718139
 20
46.0280921728
 11
24.1152718139
 21
46.0280921728
  0
LINE
  5
25F
100
AcDbEntity
  8
0
100
AcDbLine
 62
7
  6
BYLAYER
 10
29.9152718139
 20
46.0280921728
 11
35.3902718139
 21
46.0280921728
  0
LINE
  5
260
100
AcDbEntity
  8
0
100
AcDbLine
 62
7
  6
BYLAYER
 10
18.6402718139
 20
46.2424393138
 11
35.3902718139
 21
46.2424393138
  0
LINE
  5
261
100
AcDbEntity
  8
0
100
AcDbLine
 62
7
  6
BYLAYER
 10
16.8227434742
 20
46.2624390856
 11
37.207800157
 21
46.2624390856
  0
LINE
  5
262
100
AcDbEntity
  8
0
100
AcDbLine
 62
7
  6
BYLAYER
 10
35.3902718139
 20
47.8624390856
 11
35.3902718139
 21
47.7624390856
  0
LINE
  5
263
100
AcDbEntity
  8
0
100
AcDbLine
 62
7
  6
BYLAYER
 10
35.3902718139
 20
44.2424389951
 11
35.3902718139
 21
46.2624390856
  0
LINE
  5
264
100
AcDbEntity
  8
0
100
AcDbLine
 62
7
  6
BYLAYER
 10
16.8227434707
 20
47.7624390856
 11
37.2078001535
 21
47.7624390856
  0
LINE
  5
265
100
AcDbEntity
  8
0
100
AcDbLine
 62
7
  6
BYLAYER
 10
12.1152719793
 20
47.8624390856
 11
41.9152716485
 21
47.8624390856
  0
LINE
  5
266
100
AcDbEntity
  8
0
100
AcDbLine
 62
7
  6
BYLAYER
 10
37.207800157
 20
46.2624390856
 11
37.207800157
 21
47.7624390856
  0
LINE
  5
267
100
AcDbEntity
  8
0
100
AcDbLine
 62
7
  6
BYLAYER
 10
37.6975803733
 20
47.8624390856
 11
37.6975803733
 21
50.1624393263
  0
LINE
  5
268
100
AcDbEntity
  8
0
100
AcDbLine
 62
7
  6
BYLAYER
 10
38.1152718139
 20
33.5924390381
 11
38.1152718139
 21
38.8424390381
  0
LINE
  5
269
100
AcDbEntity
  8
0
100
AcDbLine
 62
7
  6
BYLAYER
 10
38.3110282921
 20
41.3424390986
 11
38.3110282921
 21
45.8324390856
  0
LINE
  5
26A
100
AcDbEntity
  8
0
100
AcDbLine
 62
7
  6
BYLAYER
 10
39.4898152131
 20
21.5424390381
 11
39.4898152131
 21
22.1424390381
  0
LINE
  5
26B
100
AcDbEntity
  8
0
100
AcDbLine
 62
7
  6
BYLAYER
 10
39.6152718138
 20
33.5924390381
 11
39.6152718138
 21
32.3424390381
  0
LINE
  5
26C
100
AcDbEntity
  8
0
100
AcDbLine
 62
7
  6
BYLAYER
 10
39.6652717453
 20
39.8424390856
 11
39.6652717453
 21
38.8424390381
  0
LINE
  5
26D
100
AcDbEntity
  8
0
100
AcDbLine
 62
7
  6
BYLAYER
 10
13.2892012571
 20
50.1624392821
 11
40.7413424111
 21
50.1624392821
  0
LINE
  5
26E
100
AcDbEntity
  8
0
100
AcDbLine
 62
7
  6
BYLAYER
 10
12.1152719793
 20
51.4924390856
 11
13.2152719113
 21
51.4924390856
  0
LINE
  5
26F
100
AcDbEntity
  8
0
100
AcDbLine
 62
7
  6
BYLAYER
 10
20.8152718139
 20
51.4924390856
 11
23.2152718139
 21
51.4924390856
  0
LINE
  5
270
100
AcDbEntity
  8
0
100
AcDbLine
 62
7
  6
BYLAYER
 10
30.8152718139
 20
51.4924390856
 11
33.2152718139
 21
51.4924390856
  0
LINE
  5
271
100
AcDbEntity
  8
0
100
AcDbLine
 62
7
  6
BYLAYER
 10
40.8152717164
 20
51.4924390856
 11
41.9152716485
 21
51.4924390856
  0
LINE
  5
272
100
AcDbEntity
  8
0
100
AcDbLine
 62
7
  6
BYLAYER
 10
12.1152719793
 20
51.8424391208
 11
13.2152719379
 21
51.8424391208
  0
LINE
  5
273
100
AcDbEntity
  8
0
100
AcDbLine
 62
7
  6
BYLAYER
 10
20.8152718139
 20
51.8424390856
 11
23.2152718139
 21
51.8424390856
  0
LINE
  5
274
100
AcDbEntity
  8
0
100
AcDbLine
 62
7
  6
BYLAYER
 10
30.8152718139
 20
51.8424390856
 11
33.2152718139
 21
51.8424390856
  0
LINE
  5
275
100
AcDbEntity
  8
0
100
AcDbLine
 62
7
  6
BYLAYER
 10
40.8152716898
 20
51.8424391208
 11
41.9152716485
 21
51.8424391208
  0
LINE
  5
276
100
AcDbEntity
  8
0
100
AcDbLine
 62
7
  6
BYLAYER
 10
41.7232040626
 20
41.3424390986
 11
41.7652719033
 21
39.8424390856
  0
LINE
  5
277
100
AcDbEntity
  8
0
100
AcDbLine
 62
7
  6
BYLAYER
 10
39.9652718139
 20
55.0424390856
 11
39.9652718139
 21
66.0224390856
  0
LINE
  5
278
100
AcDbEntity
  8
0
100
AcDbLine
 62
7
  6
BYLAYER
 10
40.3152722706
 20
47.8624390856
 11
40.3152722706
 21
50.162439299
  0
LINE
  5
279
100
AcDbEntity
  8
0
100
AcDbLine
 62
7
  6
BYLAYER
 10
40.6152718139
 20
66.6824390856
 11
40.6152718139
 21
72.1124390856
  0
LINE
  5
27A
100
AcDbEntity
  8
0
100
AcDbLine
 62
7
  6
BYLAYER
 10
40.811028422
 20
45.8324390856
 11
40.811028422
 21
41.3424390986
  0
LINE
  5
27B
100
AcDbEntity
  8
0
100
AcDbLine
 62
7
  6
BYLAYER
 10
40.8152716544
 20
47.8624390856
 11
40.8152716544
 21
52.8424392407
  0
LINE
  5
27C
100
AcDbEntity
  8
0
100
AcDbLine
 62
7
  6
BYLAYER
 10
41.2152718139
 20
54.2424395132
 11
41.2152718139
 21
52.7224388531
  0
LINE
  5
27D
100
AcDbEntity
  8
0
100
AcDbLine
 62
7
  6
BYLAYER
 10
41.2652718139
 20
22.1424390381
 11
41.2652718139
 21
32.3424390381
  0
LINE
  5
27E
100
AcDbEntity
  8
0
100
AcDbLine
 62
7
  6
BYLAYER
 10
41.9152716485
 20
47.8624390856
 11
41.9152716485
 21
52.7224388531
  0
LINE
  5
27F
100
AcDbEntity
  8
0
100
AcDbLine
 62
7
  6
BYLAYER
 10
42.0152718139
 20
52.7224388531
 11
42.0152718139
 21
76.2224388099
  0
LINE
  5
280
100
AcDbEntity
  8
0
100
AcDbLine
 62
7
  6
BYLAYER
 10
32.2152718139
 20
52.7224388531
 11
33.0152718139
 21
52.7224388531
  0
LINE
  5
281
100
AcDbEntity
  8
0
100
AcDbLine
 62
7
  6
BYLAYER
 10
41.2152718139
 20
52.7224388531
 11
42.0152718139
 21
52.7224388531
  0
LINE
  5
282
100
AcDbEntity
  8
0
100
AcDbLine
 62
7
  6
BYLAYER
 10
41.2152718139
 20
52.8424392872
 11
33.0152718139
 21
52.8424392872
  0
LINE
  5
283
100
AcDbEntity
  8
0
100
AcDbLine
 62
7
  6
BYLAYER
 10
32.2152718139
 20
52.8424392872
 11
30.8152718139
 21
52.8424392872
  0
LINE
  5
284
100
AcDbEntity
  8
0
100
AcDbLine
 62
7
  6
BYLAYER
 10
12.1152719793
 20
52.8424392872
 11
23.2152718139
 21
52.8424392872
  0
LINE
  5
285
100
AcDbEntity
  8
0
100
AcDbLine
 62
7
  6
BYLAYER
 10
24.1152718139
 20
53.1082352817
 11
29.9152718139
 21
53.1082352817
  0
LINE
  5
286
100
AcDbEntity
  8
0
100
AcDbLine
 62
7
  6
BYLAYER
 10
23.2152718139
 20
53.5424392622
 11
30.8152718139
 21
53.5424392622
  0
LINE
  5
287
100
AcDbEntity
  8
0
100
AcDbLine
 62
7
  6
BYLAYER
 10
33.0152718139
 20
54.2424395132
 11
41.2152718139
 21
54.2424395132
  0
LINE
  5
288
100
AcDbEntity
  8
0
100
AcDbLine
 62
7
  6
BYLAYER
 10
40.811028422
 20
41.6737663925
 11
40.93832867
 21
41.3424390986
  0
LINE
  5
289
100
AcDbEntity
  8
0
100
AcDbLine
 62
7
  6
BYLAYER
 10
32.2152718139
 20
55.0424390856
 11
42.0152718139
 21
55.0424390856
  0
LINE
  5
28A
100
AcDbEntity
  8
0
100
AcDbLine
 62
7
  6
BYLAYER
 10
42.0152718139
 20
55.5224385834
 11
39.9652718139
 21
55.5224385834
  0
LINE
  5
28B
100
AcDbEntity
  8
0
100
AcDbLine
 62
7
  6
BYLAYER
 10
32.2152718139
 20
55.5224385834
 11
34.2652718139
 21
55.5224385834
  0
LINE
  5
28C
100
AcDbEntity
  8
0
100
AcDbLine
 62
7
  6
BYLAYER
 10
12.1152719793
 20
56.0424392063
 11
32.2152718139
 21
56.0424392063
  0
LINE
  5
28D
100
AcDbEntity
  8
0
100
AcDbLine
 62
7
  6
BYLAYER
 10
45.3209073681
 20
11.0748304578
 11
45.3209073681
 21
21.5424390381
  0
LINE
  5
28E
100
AcDbEntity
  8
0
100
AcDbLine
 62
7
  6
BYLAYER
 10
45.9838430158
 20
21.5424390381
 11
45.9838430158
 21
11.8027941976
  0
LINE
  5
28F
100
AcDbEntity
  8
0
100
AcDbLine
 62
7
  6
BYLAYER
 10
34.2652718139
 20
58.4424390856
 11
39.9652718139
 21
58.4424390856
  0
LINE
  5
290
100
AcDbEntity
  8
0
100
AcDbLine
 62
7
  6
BYLAYER
 10
34.2652718139
 20
66.0224390856
 11
39.9652718139
 21
66.0224390856
  0
LINE
  5
291
100
AcDbEntity
  8
0
100
AcDbLine
 62
7
  6
BYLAYER
 10
33.6152718139
 20
66.6824390856
 11
40.6152718139
 21
66.6824390856
  0
LINE
  5
292
100
AcDbEntity
  8
0
100
AcDbLine
 62
7
  6
BYLAYER
 10
33.6152718139
 20
69.3024390856
 11
40.6152718139
 21
69.3024390856
  0
LINE
  5
293
100
AcDbEntity
  8
0
100
AcDbLine
 62
7
  6
BYLAYER
 10
32.2152718139
 20
72.1012227959
 11
33.6152718139
 21
72.1012227959
  0
LINE
  5
294
100
AcDbEntity
  8
0
100
AcDbLine
 62
7
  6
BYLAYER
 10
40.6152718139
 20
72.1012227959
 11
42.0152718139
 21
72.1012227959
  0
LINE
  5
295
100
AcDbEntity
  8
0
100
AcDbLine
 62
7
  6
BYLAYER
 10
40.6152718139
 20
72.1124390856
 11
33.6152718139
 21
72.1124390856
  0
LINE
  5
296
100
AcDbEntity
  8
0
100
AcDbLine
 62
7
  6
BYLAYER
 10
42.0152718139
 20
76.2224388099
 11
32.2152718139
 21
76.2224388099
  0
ARC
  5
297
100
AcDbEntity
  8
0
100
AcDbCircle
 62
7
  6
BYLAYER
 10
15.0302537748
 20
45.5383542632
 40
0.3042422165
100
AcDbArc
 50
91.8427603144
 51
100.1966852405
  0
ARC
  5
298
100
AcDbEntity
  8
0
100
AcDbCircle
 62
7
  6
BYLAYER
 10
39.0002898529
 20
45.5383542632
 40
0.3042422165
100
AcDbArc
 50
79.8033147595
 51
88.1572396856
  0
SPLINE
  5
299
100
AcDbEntity
  8
0
100
AcDbSpline
 62
7
  6
BYLAYER
 70
0
 71
3
 72
16
 73
12
 74
0
 42
0.0000001
 43
0.0000001
 44
0.0000000001
 40
0.0
 40
0.0
 40
0.0
 40
0.0
 40
0.0542901367
 40
0.0872379078
 40
0.1250554359
 40
0.2167528107
 40
0.3308937143
 40
0.4673779669
 40
0.6253846932
 40
0.8036168489
 40
1.0
 40
1.0
 40
1.0
 40
1.0
 10
14.9416836249
 20
7.9195263273
 30
0.0
 10
14.9416836249
 20
7.9055664284
 30
0.0
 10
14.9489526115
 20
7.8831789355
 30
0.0
 10
14.9665639341
 20
7.8563145136
 30
0.0
 10
14.9941319551
 20
7.8247219543
 30
0.0
 10
15.042822593
 20
7.7847902094
 30
0.0
 10
15.11735277
 20
7.7377436404
 30
0.0
 10
15.2108425985
 20
7.6895511648
 30
0.0
 10
15.3222463106
 20
7.6407819779
 30
0.0
 10
15.450320099
 20
7.5921374418
 30
0.0
 10
15.5416888241
 20
7.5615538008
 30
0.0
 10
15.5898311091
 20
7.5463134848
 30
0.0
  0
SPLINE
  5
29A
100
AcDbEntity
  8
0
100
AcDbSpline
 62
7
  6
BYLAYER
 70
0
 71
3
 72
13
 73
9
 74
0
 42
0.0000001
 43
0.0000001
 44
0.0000000001
 40
0.0
 40
0.0
 40
0.0
 40
0.0
 40
0.1678879111
 40
0.2717573639
 40
0.389968177
 40
0.5224888525
 40
0.668927064
 40
1.0
 40
1.0
 40
1.0
 40
1.0
 10
45.9838430158
 20
11.8027924292
 30
0.0
 10
45.9838430158
 20
11.7460125178
 30
0.0
 10
45.9521442092
 20
11.6549052806
 30
0.0
 10
45.8812138961
 20
11.5441689003
 30
0.0
 10
45.8041509475
 20
11.4516894789
 30
0.0
 10
45.7083323276
 20
11.3573977137
 30
0.0
 10
45.5501859692
 20
11.2246267533
 30
0.0
 10
45.4162389554
 20
11.1335587533
 30
0.0
 10
45.3209073681
 20
11.0748304578
 30
0.0
  0
SPLINE
  5
29B
100
AcDbEntity
  8
0
100
AcDbSpline
 62
7
  6
BYLAYER
 70
0
 71
3
 72
12
 73
8
 74
0
 42
0.0000001
 43
0.0000001
 44
0.0000000001
 40
0.0
 40
0.0
 40
0.0
 40
0.0
 40
0.2583971135
 40
0.3854334813
 40
0.5110297822
 40
0.7580755696
 40
1.0
 40
1.0
 40
1.0
 40
1.0
 10
15.5898311091
 20
7.5466607233
 30
0.0
 10
16.3549661012
 20
7.3044433238
 30
0.0
 10
17.5091036812
 20
6.9815674099
 30
0.0
 10
19.0592076999
 20
6.6390304528
 30
0.0
 10
20.5865224045
 20
6.3616689116
 30
0.0
 10
22.4829912574
 20
6.1283760999
 30
0.0
 10
24.0023037317
 20
6.0637754602
 30
0.0
 10
24.7536999356
 20
6.0637548045
 30
0.0
  0
SPLINE
  5
29C
100
AcDbEntity
  8
0
100
AcDbSpline
 62
7
  6
BYLAYER
 70
0
 71
3
 72
13
 73
9
 74
0
 42
0.0000001
 43
0.0000001
 44
0.0000000001
 40
0.0
 40
0.0
 40
0.0
 40
0.0
 40
0.2685103045
 40
0.5243448104
 40
0.6476008037
 40
0.7678273385
 40
0.8852070529
 40
1.0
 40
1.0
 40
1.0
 40
1.0
 10
45.320907368
 20
11.0748304578
 30
0.0
 10
44.0236116472
 20
10.2756413482
 30
0.0
 10
41.4005770879
 20
8.854407805
 30
0.0
 10
37.9671985355
 20
7.5129868977
 30
0.0
 10
35.2333230949
 20
6.7604880507
 30
0.0
 10
33.2230918765
 20
6.3601537302
 30
0.0
 10
31.2360824378
 20
6.1187188255
 30
0.0
 10
29.9180152745
 20
6.0637219184
 30
0.0
 10
29.2666038447
 20
6.0637281995
 30
0.0
  0
SPLINE
  5
29D
100
AcDbEntity
  8
0
100
AcDbSpline
 62
7
  6
BYLAYER
 70
0
 71
3
 72
9
 73
5
 74
0
 42
0.0000001
 43
0.0000001
 44
0.0000000001
 40
0.0
 40
0.0
 40
0.0
 40
0.0
 40
0.2499865452
 40
1.0
 40
1.0
 40
1.0
 40
1.0
 10
36.1684475903
 20
45.6450451294
 30
0.0
 10
36.2902684991
 20
45.2866087834
 30
0.0
 10
36.7772144095
 20
43.8526625525
 30
0.0
 10
37.2631084077
 20
42.4183591937
 30
0.0
 10
37.6270227033
 20
41.3424390986
 30
0.0
  0
SPLINE
  5
29E
100
AcDbEntity
  8
0
100
AcDbSpline
 62
7
  6
BYLAYER
 70
0
 71
3
 72
11
 73
7
 74
0
 42
0.0000001
 43
0.0000001
 44
0.0000000001
 40
0.0
 40
0.0
 40
0.0
 40
0.0
 40
0.2553559332
 40
0.5062696687
 40
0.7540352364
 40
1.0
 40
1.0
 40
1.0
 40
1.0
 10
29.2666038447
 20
6.0637281995
 30
0.0
 10
28.5784419835
 20
6.063734835
 30
0.0
 10
27.2132180972
 20
6.1238825612
 30
0.0
 10
25.1971938029
 20
6.400807416
 30
0.0
 10
23.2410857226
 20
6.8618531084
 30
0.0
 10
21.9790788848
 20
7.2910381795
 30
0.0
 10
21.3625410866
 20
7.5344634909
 30
0.0
  0
SPLINE
  5
29F
100
AcDbEntity
  8
0
100
AcDbSpline
 62
7
  6
BYLAYER
 70
0
 71
3
 72
11
 73
7
 74
0
 42
0.0000001
 43
0.0000001
 44
0.0000000001
 40
0.0
 40
0.0
 40
0.0
 40
0.0
 40
0.2139102321
 40
0.4531533664
 40
0.7159295806
 40
1.0
 40
1.0
 40
1.0
 40
1.0
 10
15.2404133118
 20
8.0550718068
 30
0.0
 10
15.5057303194
 20
8.08072247
 30
0.0
 10
16.0694939461
 20
8.1178853288
 30
0.0
 10
16.9616941715
 20
8.1349030187
 30
0.0
 10
17.9412575099
 20
8.1155099511
 30
0.0
 10
18.6218732363
 20
8.0800727226
 30
0.0
 10
18.975108803
 20
8.0571145703
 30
0.0
  0
SPLINE
  5
2A0
100
AcDbEntity
  8
0
100
AcDbSpline
 62
7
  6
BYLAYER
 70
0
 71
3
 72
11
 73
7
 74
0
 42
0.0000001
 43
0.0000001
 44
0.0000000001
 40
0.0
 40
0.0
 40
0.0
 40
0.0
 40
0.2382877323
 40
0.4839670609
 40
0.7381537281
 40
1.0
 40
1.0
 40
1.0
 40
1.0
 10
35.9853032459
 20
45.8324390856
 30
0.0
 10
36.0059757018
 20
45.826248718
 30
0.0
 10
36.0464414429
 20
45.8079697601
 30
0.0
 10
36.0990853433
 20
45.765723076
 30
0.0
 10
36.1414110585
 20
45.7104810631
 30
0.0
 10
36.1609913924
 20
45.6675552582
 30
0.0
 10
36.1684475903
 20
45.6450451294
 30
0.0
  0
SPLINE
  5
2A1
100
AcDbEntity
  8
0
100
AcDbSpline
 62
7
  6
BYLAYER
 70
0
 71
3
 72
9
 73
5
 74
0
 42
0.0000001
 43
0.0000001
 44
0.0000000001
 40
0.0
 40
0.0
 40
0.0
 40
0.0
 40
0.7500134548
 40
1.0
 40
1.0
 40
1.0
 40
1.0
 10
16.4035209244
 20
41.3424390986
 30
0.0
 10
16.76743522
 20
42.4183591937
 30
0.0
 10
17.2533292182
 20
43.8526625525
 30
0.0
 10
17.7402751286
 20
45.2866087834
 30
0.0
 10
17.8620960374
 20
45.6450451294
 30
0.0
  0
SPLINE
  5
2A2
100
AcDbEntity
  8
0
100
AcDbSpline
 62
7
  6
BYLAYER
 70
0
 71
3
 72
15
 73
11
 74
0
 42
0.0000001
 43
0.0000001
 44
0.0000000001
 40
0.0
 40
0.0
 40
0.0
 40
0.0
 40
0.0987211293
 40
0.2128917269
 40
0.3388986631
 40
0.4729329006
 40
0.6107211481
 40
0.7476795566
 40
0.8790957915
 40
1.0
 40
1.0
 40
1.0
 40
1.0
 10
21.3625410867
 20
7.5344634909
 30
0.0
 10
21.2875126649
 20
7.5640866818
 30
0.0
 10
21.1236287356
 20
7.6226887214
 30
0.0
 10
20.8591605302
 20
7.7049442375
 30
0.0
 10
20.5641833662
 20
7.785669845
 30
0.0
 10
20.2481119046
 20
7.8618127585
 30
0.0
 10
19.9211106707
 20
7.930154736
 30
0.0
 10
19.5941793869
 20
7.9876063116
 30
0.0
 10
19.2790381398
 20
8.0312556141
 30
0.0
 10
19.0736840311
 20
8.0507110456
 30
0.0
 10
18.9751015811
 20
8.0571183022
 30
0.0
  0
SPLINE
  5
2A3
100
AcDbEntity
  8
0
100
AcDbSpline
 62
7
  6
BYLAYER
 70
0
 71
3
 72
11
 73
7
 74
0
 42
0.0000001
 43
0.0000001
 44
0.0000000001
 40
0.0
 40
0.0
 40
0.0
 40
0.0
 40
0.2618463687
 40
0.5160331509
 40
0.7617123618
 40
1.0
 40
1.0
 40
1.0
 40
1.0
 10
17.8620960374
 20
45.6450451294
 30
0.0
 10
17.869552238
 20
45.6675552666
 30
0.0
 10
17.8891325928
 20
45.7104810833
 30
0.0
 10
17.9314583101
 20
45.7657231039
 30
0.0
 10
17.9841022062
 20
45.8079697817
 30
0.0
 10
18.0245679341
 20
45.8262487205
 30
0.0
 10
18.0452403818
 20
45.8324390856
 30
0.0
  0
SPLINE
  5
2A4
100
AcDbEntity
  8
0
100
AcDbSpline
 62
7
  6
BYLAYER
 70
0
 71
3
 72
14
 73
10
 74
0
 42
0.0000001
 43
0.0000001
 44
0.0000000001
 40
0.0
 40
0.0
 40
0.0
 40
0.0
 40
0.3731388374
 40
0.5253802746
 40
0.6548738092
 40
0.7630626381
 40
0.852730031
 40
0.9290117452
 40
1.0
 40
1.0
 40
1.0
 40
1.0
 10
15.2404010069
 20
8.0550759994
 30
0.0
 10
15.1970528632
 20
8.0508851311
 30
0.0
 10
15.1360817157
 20
8.0425775985
 30
0.0
 10
15.061998458
 20
8.0234231998
 30
0.0
 10
15.0192231172
 20
8.0075830205
 30
0.0
 10
14.9854317231
 20
7.989396888
 30
0.0
 10
14.9606132669
 20
7.9687159582
 30
0.0
 10
14.9450871718
 20
7.9451940162
 30
0.0
 10
14.9416836249
 20
7.9278115994
 30
0.0
 10
14.9416836249
 20
7.9195263273
 30
0.0
  0
ELLIPSE
  5
2A5
100
AcDbEntity
  8
0
100
AcDbEllipse
 62
7
  6
BYLAYER
 10
39.8152731455
 20
51.0734686499
 30
0.0
 11
0.0
 21
2.4142809917
 31
0.0
 40
0.414201376
 41
-1.9577295904
 42
-1.5707963268
  0
ELLIPSE
  5
2A6
100
AcDbEntity
  8
0
100
AcDbEllipse
 62
7
  6
BYLAYER
 10
14.2152714334
 20
51.073469339
 30
0.0
 11
0.0
 21
2.4142832882
 31
0.0
 40
0.414201376
 41
1.5707963268
 42
1.957729511
  0
ENDSEC
  0
SECTION
  2
OBJECTS
  0
DICTIONARY
  5
C
100
AcDbDictionary
280
0
281
1
  3
ACAD_GROUP
350
D
  3
ACAD_MLINESTYLE
350
17
  3
ACAD_LAYOUT
350
1A
  3
ACAD_PLOTSETTINGS
350
19
  3
ACAD_PLOTSTYLENAME
350
E
  0
DICTIONARY
  5
D
102
{ACAD_REACTORS
330
C
102
}
100
AcDbDictionary
280
0
281
1
  0
ACDBDICTIONARYWDFLT
  5
E
102
{ACAD_REACTORS
330
C
102
}
100
AcDbDictionary
281
1
  3
Normal
350
F
100
AcDbDictionaryWithDefault
340
F
  0
DICTIONARY
  5
17
102
{ACAD_REACTORS
330
C
102
}
100
AcDbDictionary
280
0
281
1
  3
Standard
350
18
  0
DICTIONARY
  5
19
102
{ACAD_REACTORS
330
C
102
}
100
AcDbDictionary
281
1
  0
DICTIONARY
  5
1A
102
{ACAD_REACTORS
330
C
102
}
100
AcDbDictionary
281
1
  3
Model
350
2A7
  3
Layout1
350
2A8
  0
ACDBPLACEHOLDER
  5
F
102
{ACAD_REACTORS
330
E
102
}
  0
MLINESTYLE
  5
18
102
{ACAD_REACTORS
330
17
102
}
100
AcDbMlineStyle
  2
STANDARD
 70
0
  3

 62
256
 51
90.0
 52
90.0
 71
2
 49
0.5
 62
256
  6
BYLAYER
 49
-0.5
 62
256
  6
BYLAYER
  0
LAYOUT
  5
2A7
102
{ACAD_REACTORS
330
1A
102
}
100
AcDbPlotSettings
  1

  2
none_device
  4

  6

 40
0.0
 41
0.0
 42
0.0
 43
0.0
 44
210.0
 45
297.0
 46
0.0
 47
0.0
 48
0.0
 49
0.0
140
0.0
141
0.0
142
1.0
143
1.0
 70
1024
 72
1
 73
0
 74
0
  7

 75
0
147
1.0
148
0.0
149
0.0
100
AcDbLayout
  1
Model
 70
0
 71
0
 10
0.0
 20
0.0
 11
210.0
 21
297.0
 12
0.0
 22
0.0
 32
0.0
 14
0.0
 24
0.0
 34
0.0
 15
0.0
 25
0.0
 35
0.0
146
0.0
 13
0.0
 23
0.0
 33
0.0
 16
1.0
 26
0.0
 36
0.0
 17
0.0
 27
1.0
 37
0.0
 76
0
330
210
345
0
346
0
  0
LAYOUT
  5
2A8
102
{ACAD_REACTORS
330
1A
102
}
100
AcDbPlotSettings
  1

  2
none_device
  4

  6

 40
0.0
 41
0.0
 42
0.0
 43
0.0
 44
210.0
 45
297.0
 46
0.0
 47
0.0
 48
0.0
 49
0.0
140
0.0
141
0.0
142
1.0
143
1.0
 70
0
 72
1
 73
0
 74
0
  7

 75
0
147
1.0
148
0.0
149
0.0
100
AcDbLayout
  1
Layout1
 70
0
 71
1
 10
0.0
 20
0.0
 11
210.0
 21
297.0
 12
0.0
 22
0.0
 32
0.0
 14
0.0
 24
0.0
 34
0.0
 15
0.0
 25
0.0
 35
0.0
146
0.0
 13
0.0
 23
0.0
 33
0.0
 16
1.0
 26
0.0
 36
0.0
 17
0.0
 27
1.0
 37
0.0
 76
0
330
211
345
0
346
0
  0
ENDSEC
  0
EOF
