999
DXF file: C:\Users\sesa63760\Dev\_Creo\CAD\MCADPP0003161_3D-CAD\drw0001_1.dxf
999
Pro/ENGINEER 2019471 by Parametric Technology Corporation
  0
SECTION
  2
HEADER
  9
$ACADVER
  1
AC1024
  9
$DWGCODEPAGE
  3
ANSI_1252
  9
$EXTMAX
 10
934.0758613252
 20
1321.0501467313
 30
0.0
  9
$EXTMIN
 10
0.0
 20
0.0
 30
0.0
  9
$LIMMIN
 10
0.0
 20
0.0
  9
$LIMMAX
 10
934.0758613252
 20
1321.0501467313
  9
$VIEWCTR
 10
467.0379306626
 20
660.5250733656
  9
$VIEWSIZE
 40
1321.0501467313
  9
$CLAYER
  8
0
  9
$LTSCALE
 40
86.1128984536
  9
$CELTYPE
  6
BYLAYER
  9
$DIMSCALE
 40
1.0
  9
$DIMASZ
 40
11.1199507301
  9
$DIMEXO
 40
1.0
  9
$DIMDLI
 40
59.4961843861
  9
$DIMEXE
 40
1.0
  9
$DIMCEN
 40
14.0912015651
  9
$DIMLFAC
 40
1.0
  9
$DIMBLK
  1
_FILLED
  9
$DIMALT
 70
0
  9
$DIMALTF
 40
0.0393700787
  9
$DIMTXT
 40
15.5679310221
  9
$DIMTOL
 70
1
  9
$DIMLIM
 70
0
  9
$DIMTFAC
 40
1.0
  9
$DIMTP
 40
0.01
  9
$DIMTM
 40
0.01
  9
$DIMGAP
 40
0.625
  9
$DIMDSEP
 70
46
  9
$AUNITS
 70
0
  9
$PDMODE
 70
3
  9
$PDSIZE
 40
0.3125
  9
$HANDSEED
  5
554
  9
$TILEMODE
 70
1
  9
$MEASUREMENT
 70
1
  9
$INSUNITS
 70
4
  0
ENDSEC
  0
SECTION
  2
CLASSES
  0
CLASS
  1
ACDBDICTIONARYWDFLT
  2
AcDbDictionaryWithDefault
  3
AutoCAD 2000
 90
0
 91
1
280
0
281
0
  0
CLASS
  1
ACDBPLACEHOLDER
  2
AcDbPlaceHolder
  3
AutoCAD 2000
 90
0
 91
1
280
0
281
0
  0
CLASS
  1
LAYOUT
  2
AcDbLayout
  3
AutoCAD 2000
 90
0
 91
0
280
0
281
0
  0
ENDSEC
  0
SECTION
  2
TABLES
  0
TABLE
  2
VPORT
  5
8
100
AcDbSymbolTable
 70
2
  0
VPORT
  5
1F4
100
AcDbSymbolTableRecord
100
AcDbViewportTableRecord
  2
*ACTIVE
 70
0
 10
0.0
 20
0.0
 11
1.0
 21
1.0
 12
467.0379306626
 22
660.5250733656
 13
0.0
 23
0.0
 14
1.0
 24
1.0
 15
0.0
 25
0.0
 16
0.0
 26
0.0
 36
1.0
 17
0.0
 27
0.0
 37
0.0
 40
1321.0501467313
 41
0.7070707071
 42
50.0
 43
0.0
 44
0.0
 50
0.0
 51
0.0
 71
0
 72
100
 73
1
 74
1
 75
0
 76
0
 77
0
 78
0
  0
ENDTAB
  0
TABLE
  2
LTYPE
  5
5
100
AcDbSymbolTable
 70
6
  0
LTYPE
  5
14
100
AcDbSymbolTableRecord
100
AcDbLinetypeTableRecord
  2
BYBLOCK
 70
0
  3

 72
65
 73
0
 40
0.0
  0
LTYPE
  5
15
100
AcDbSymbolTableRecord
100
AcDbLinetypeTableRecord
  2
BYLAYER
 70
0
  3

 72
65
 73
0
 40
0.0
  0
LTYPE
  5
16
100
AcDbSymbolTableRecord
100
AcDbLinetypeTableRecord
  2
CONTINUOUS
 70
64
  3
Solid line
 72
65
 73
0
 40
0.0
  0
LTYPE
  5
1F5
100
AcDbSymbolTableRecord
100
AcDbLinetypeTableRecord
  2
CENTER
 70
64
  3
____ _ ____ _ ____ _ ____ _ ____ _ ____ _ ____
 72
65
 73
4
 40
0.6
 49
0.375
 74
0
 49
-0.075
 74
0
 49
0.075
 74
0
 49
-0.075
 74
0
  0
LTYPE
  5
1F6
100
AcDbSymbolTableRecord
100
AcDbLinetypeTableRecord
  2
HIDDEN
 70
64
  3
- - - - - - - - - - - - - - - - - - - -
 72
65
 73
2
 40
0.2
 49
0.1
 74
0
 49
-0.1
 74
0
  0
LTYPE
  5
1F7
100
AcDbSymbolTableRecord
100
AcDbLinetypeTableRecord
  2
PHANTOM
 70
64
  3
_____ _ _ _____ _ _ _____ _ _ _____
 72
65
 73
6
 40
0.8
 49
0.45
 74
0
 49
-0.05
 74
0
 49
0.1
 74
0
 49
-0.05
 74
0
 49
0.1
 74
0
 49
-0.05
 74
0
  0
LTYPE
  5
1F8
100
AcDbSymbolTableRecord
100
AcDbLinetypeTableRecord
  2
DOT
 70
64
  3
. . . . . . . . . . . . . . . . . . . .
 72
65
 73
2
 40
0.2
 49
0.1
 74
0
 49
-0.1
 74
0
  0
LTYPE
  5
1F9
100
AcDbSymbolTableRecord
100
AcDbLinetypeTableRecord
  2
DASHED
 70
64
  3
- - - - - - - - - - - - - - - - - - - -
 72
65
 73
2
 40
0.2
 49
0.1
 74
0
 49
-0.1
 74
0
  0
ENDTAB
  0
TABLE
  2
LAYER
  5
2
100
AcDbSymbolTable
 70
36
  0
LAYER
  5
10
100
AcDbSymbolTableRecord
100
AcDbLayerTableRecord
  2
0
 70
0
 62
7
  6
CONTINUOUS
370
-3
390
F
  0
LAYER
  5
1FA
100
AcDbSymbolTableRecord
100
AcDbLayerTableRecord
  2
DEFAULT_1
 70
0
 62
7
  6
CENTER
370
-3
390
F
  0
LAYER
  5
1FB
100
AcDbSymbolTableRecord
100
AcDbLayerTableRecord
  2
DEFAULT_2
 70
0
 62
8
  6
HIDDEN
370
-3
390
F
  0
LAYER
  5
1FC
100
AcDbSymbolTableRecord
100
AcDbLayerTableRecord
  2
DEFAULT_3
 70
0
 62
7
  6
PHANTOM
370
-3
390
F
  0
LAYER
  5
1FD
100
AcDbSymbolTableRecord
100
AcDbLayerTableRecord
  2
00_COMPONENTS
 70
0
 62
7
  6
CONTINUOUS
370
-3
390
F
  0
LAYER
  5
1FE
100
AcDbSymbolTableRecord
100
AcDbLayerTableRecord
  2
01_1_DEFAULT_DATUMS
 70
0
 62
7
  6
CONTINUOUS
370
-3
390
F
  0
LAYER
  5
1FF
100
AcDbSymbolTableRecord
100
AcDbLayerTableRecord
  2
01_PLANES
 70
0
 62
7
  6
CONTINUOUS
370
-3
390
F
  0
LAYER
  5
200
100
AcDbSymbolTableRecord
100
AcDbLayerTableRecord
  2
02_COORD_SYS
 70
0
 62
7
  6
CONTINUOUS
370
-3
390
F
  0
LAYER
  5
201
100
AcDbSymbolTableRecord
100
AcDbLayerTableRecord
  2
03_AXES
 70
0
 62
7
  6
CONTINUOUS
370
-3
390
F
  0
LAYER
  5
202
100
AcDbSymbolTableRecord
100
AcDbLayerTableRecord
  2
04_POINTS
 70
0
 62
7
  6
CONTINUOUS
370
-3
390
F
  0
LAYER
  5
203
100
AcDbSymbolTableRecord
100
AcDbLayerTableRecord
  2
05_CURVES
 70
0
 62
7
  6
CONTINUOUS
370
-3
390
F
  0
LAYER
  5
204
100
AcDbSymbolTableRecord
100
AcDbLayerTableRecord
  2
06_SURFS
 70
0
 62
7
  6
CONTINUOUS
370
-3
390
F
  0
LAYER
  5
205
100
AcDbSymbolTableRecord
100
AcDbLayerTableRecord
  2
07_COSMETICS
 70
0
 62
7
  6
CONTINUOUS
370
-3
390
F
  0
LAYER
  5
206
100
AcDbSymbolTableRecord
100
AcDbLayerTableRecord
  2
10_NOTES
 70
0
 62
7
  6
CONTINUOUS
370
-3
390
F
  0
LAYER
  5
207
100
AcDbSymbolTableRecord
100
AcDbLayerTableRecord
  2
11_NOTES_PUB
 70
0
 62
7
  6
CONTINUOUS
370
-3
390
F
  0
LAYER
  5
208
100
AcDbSymbolTableRecord
100
AcDbLayerTableRecord
  2
13_REF_GTOL
 70
0
 62
7
  6
CONTINUOUS
370
-3
390
F
  0
LAYER
  5
209
100
AcDbSymbolTableRecord
100
AcDbLayerTableRecord
  2
16_MISC
 70
0
 62
7
  6
CONTINUOUS
370
-3
390
F
  0
LAYER
  5
20A
100
AcDbSymbolTableRecord
100
AcDbLayerTableRecord
  2
17_NO_PRINT
 70
0
 62
7
  6
CONTINUOUS
370
-3
390
F
  0
LAYER
  5
20B
100
AcDbSymbolTableRecord
100
AcDbLayerTableRecord
  2
18_DATUM_CAMS_JOINTS
 70
0
 62
7
  6
CONTINUOUS
370
-3
390
F
  0
LAYER
  5
20C
100
AcDbSymbolTableRecord
100
AcDbLayerTableRecord
  2
19_DATUM_FUNCTIONAL
 70
0
 62
7
  6
CONTINUOUS
370
-3
390
F
  0
LAYER
  5
20D
100
AcDbSymbolTableRecord
100
AcDbLayerTableRecord
  2
20_DATUM_KINEMATIC_SCHEME
 70
0
 62
7
  6
CONTINUOUS
370
-3
390
F
  0
LAYER
  5
20E
100
AcDbSymbolTableRecord
100
AcDbLayerTableRecord
  2
SHELL177
 70
0
 62
7
  6
CONTINUOUS
370
-3
390
F
  0
ENDTAB
  0
TABLE
  2
STYLE
  5
3
100
AcDbSymbolTable
 70
1
  0
STYLE
  5
11
100
AcDbSymbolTableRecord
100
AcDbTextStyleTableRecord
  2
STANDARD
 70
0
 40
0.0
 41
0.8
 50
0.0
 71
0
 42
0.2
  3
txt
  4

  0
STYLE
  5
20F
100
AcDbSymbolTableRecord
100
AcDbTextStyleTableRecord
  2
TEXTSTYLE_1
 70
0
 40
0.0
 41
0.8
 50
0.0
 71
0
 42
0.2
  3
gdt
  4

  0
ENDTAB
  0
TABLE
  2
VIEW
  5
6
100
AcDbSymbolTable
 70
0
  0
ENDTAB
  0
TABLE
  2
UCS
  5
7
100
AcDbSymbolTable
 70
0
  0
ENDTAB
  0
TABLE
  2
APPID
  5
9
100
AcDbSymbolTable
 70
1
  0
APPID
  5
210
100
AcDbSymbolTableRecord
100
AcDbRegAppTableRecord
  2
ACAD
 70
0
  0
ENDTAB
  0
TABLE
  2
BLOCK_RECORD
  5
1
100
AcDbSymbolTable
 70
0
  0
BLOCK_RECORD
  5
211
100
AcDbSymbolTableRecord
100
AcDbBlockTableRecord
  2
*Model_Space
  0
BLOCK_RECORD
  5
212
100
AcDbSymbolTableRecord
100
AcDbBlockTableRecord
  2
*Paper_Space
  0
BLOCK_RECORD
  5
213
100
AcDbSymbolTableRecord
100
AcDbBlockTableRecord
  2
_FILLED
  0
ENDTAB
  0
TABLE
  2
DIMSTYLE
  5
A
100
AcDbSymbolTable
 70
1
100
AcDbDimStyleTable
 71
0
  0
DIMSTYLE
105
214
100
AcDbSymbolTableRecord
100
AcDbDimStyleTableRecord
  2
STANDARD
 70
0
  3

  4

 40
1.0
 41
11.1199507301
 42
1.0
 43
0.38
 44
1.0
 45
0.0
 46
0.0
 47
0.01
 48
0.01
140
15.5679310221
141
0.09
142
0.0
143
25.4
144
1.0
145
0.0
146
1.0
147
0.625
 71
1
 72
0
 73
0
 74
0
 75
0
 76
0
 77
1
 78
8
 79
2
170
0
171
1
172
0
173
0
174
0
175
0
176
0
177
0
178
0
270
2
179
2
271
2
272
2
273
2
274
2
275
0
280
0
281
0
282
0
283
1
284
8
285
0
286
0
287
3
288
0
340
11
278
46
341
213
342
213
343
213
344
213
  0
ENDTAB
  0
ENDSEC
  0
SECTION
  2
BLOCKS
  0
BLOCK
  5
20
100
AcDbEntity
  8
0
100
AcDbBlockBegin
  2
*Model_Space
 70
0
 10
0.0
 20
0.0
 30
0.0
  3
*Model_Space
  1

  0
ENDBLK
  5
21
100
AcDbEntity
  8
0
100
AcDbBlockEnd
  0
BLOCK
  5
1C
100
AcDbEntity
  8
0
100
AcDbBlockBegin
  2
*Paper_Space
 70
0
 10
0.0
 20
0.0
 30
0.0
  3
*Paper_Space
  1

  0
ENDBLK
  5
1D
100
AcDbEntity
  8
0
100
AcDbBlockEnd
  0
BLOCK
  5
215
100
AcDbEntity
  8
0
100
AcDbBlockBegin
  2
_FILLED
 70
64
 10
0.0
 20
0.0
  3
_FILLED
  1

  0
SOLID
  5
216
100
AcDbEntity
  8
0
  6
BYBLOCK
 62
0
100
AcDbTrace
 10
0.0
 20
0.0
 11
-1.0
 21
0.25
 12
-1.0
 22
-0.25
 13
-1.0
 23
-0.25
  0
ENDBLK
  5
217
100
AcDbEntity
  8
0
  6
BYBLOCK
 62
0
100
AcDbBlockEnd
  0
ENDSEC
  0
SECTION
  2
ENTITIES
  0
LINE
  5
218
100
AcDbEntity
  8
0
100
AcDbLine
 62
7
  6
CONTINUOUS
 10
108.3635467117
 20
857.0555637097
 11
108.3635467117
 21
857.8720661268
  0
LINE
  5
219
100
AcDbEntity
  8
0
100
AcDbLine
 62
7
  6
CONTINUOUS
 10
111.1919620606
 20
859.6683432257
 11
111.1919620606
 21
863.8325055531
  0
LINE
  5
21A
100
AcDbEntity
  8
0
100
AcDbLine
 62
7
  6
CONTINUOUS
 10
121.7985431705
 20
867.2617886699
 11
121.7985431705
 21
867.6700311281
  0
LINE
  5
21B
100
AcDbEntity
  8
0
100
AcDbLine
 62
7
  6
CONTINUOUS
 10
125.3340623566
 20
869.7112518975
 11
125.3340623566
 21
868.8947494803
  0
LINE
  5
21C
100
AcDbEntity
  8
0
100
AcDbLine
 62
7
  6
CONTINUOUS
 10
126.0411691378
 20
868.89475118
 11
126.0411691378
 21
869.7112535972
  0
LINE
  5
21D
100
AcDbEntity
  8
0
100
AcDbLine
 62
7
  6
CONTINUOUS
 10
138.0620344653
 20
862.7711607703
 11
138.0620344653
 21
862.3629183125
  0
LINE
  5
21E
100
AcDbEntity
  8
0
100
AcDbLine
 62
7
  6
CONTINUOUS
 10
112.0404866653
 20
865.3022014383
 11
114.7274812467
 21
866.853529223
  0
LINE
  5
21F
100
AcDbEntity
  8
0
100
AcDbLine
 62
7
  6
CONTINUOUS
 10
118.2630004327
 20
868.8947499923
 11
123.2127272932
 21
871.7524590694
  0
LINE
  5
220
100
AcDbEntity
  8
0
100
AcDbLine
 62
7
  6
CONTINUOUS
 10
126.7482464793
 20
873.7936798388
 11
129.4352410607
 21
875.3450076235
  0
LINE
  5
221
100
AcDbEntity
  8
0
100
AcDbLine
 62
7
  6
CONTINUOUS
 10
125.3340623566
 20
869.7112518975
 11
121.7985431705
 21
867.6700311281
  0
LINE
  5
222
100
AcDbEntity
  8
0
100
AcDbLine
 62
7
  6
CONTINUOUS
 10
122.1521131963
 20
867.057661242
 11
125.3340623566
 21
868.8947494803
  0
LINE
  5
223
100
AcDbEntity
  8
0
100
AcDbLine
 62
7
  6
CONTINUOUS
 10
108.3635467117
 20
857.8720661268
 11
111.0505412932
 21
859.4233939115
  0
LINE
  5
224
100
AcDbEntity
  8
0
100
AcDbLine
 62
7
  6
CONTINUOUS
 10
134.5265182232
 20
860.3216975468
 11
138.0620374092
 21
862.3629183161
  0
LINE
  5
225
100
AcDbEntity
  8
0
100
AcDbLine
 62
7
  6
CONTINUOUS
 10
143.0118054853
 20
859.5052330345
 11
139.4762862992
 21
857.4640122651
  0
LINE
  5
226
100
AcDbEntity
  8
0
100
AcDbLine
 62
7
  6
CONTINUOUS
 10
139.829856325
 20
856.851642379
 11
143.0118054853
 21
858.6887306173
  0
LINE
  5
227
100
AcDbEntity
  8
0
100
AcDbLine
 62
7
  6
CONTINUOUS
 10
139.4762862992
 20
857.0557698069
 11
139.4762862992
 21
857.4640122651
  0
LINE
  5
228
100
AcDbEntity
  8
0
100
AcDbLine
 62
7
  6
CONTINUOUS
 10
143.0118054853
 20
859.5052330345
 11
143.0118054853
 21
858.6887306173
  0
LINE
  5
229
100
AcDbEntity
  8
0
100
AcDbLine
 62
7
  6
CONTINUOUS
 10
143.7189122665
 20
858.688732317
 11
143.7189122665
 21
859.5052347341
  0
LINE
  5
22A
100
AcDbEntity
  8
0
100
AcDbLine
 62
7
  6
CONTINUOUS
 10
155.739777594
 20
852.5651419073
 11
155.739777594
 21
852.1568994495
  0
LINE
  5
22B
100
AcDbEntity
  8
0
100
AcDbLine
 62
7
  6
CONTINUOUS
 10
157.1540294279
 20
846.8497509439
 11
157.1540294279
 21
847.2579934021
  0
LINE
  5
22C
100
AcDbEntity
  8
0
100
AcDbLine
 62
7
  6
CONTINUOUS
 10
160.689548614
 20
849.2992141715
 11
160.689548614
 21
848.4827117543
  0
LINE
  5
22D
100
AcDbEntity
  8
0
100
AcDbLine
 62
7
  6
CONTINUOUS
 10
161.3966553951
 20
848.482713454
 11
161.3966553951
 21
849.2992158711
  0
LINE
  5
22E
100
AcDbEntity
  8
0
100
AcDbLine
 62
7
  6
CONTINUOUS
 10
152.2042613519
 20
850.1156786837
 11
155.7397805379
 21
852.1568994531
  0
LINE
  5
22F
100
AcDbEntity
  8
0
100
AcDbLine
 62
7
  6
CONTINUOUS
 10
160.689548614
 20
849.2992141715
 11
157.1540294279
 21
847.2579934021
  0
LINE
  5
230
100
AcDbEntity
  8
0
100
AcDbLine
 62
7
  6
CONTINUOUS
 10
157.5075994537
 20
846.645623516
 11
160.689548614
 21
848.4827117543
  0
LINE
  5
231
100
AcDbEntity
  8
0
100
AcDbLine
 62
7
  6
CONTINUOUS
 10
173.4175207226
 20
842.3591230443
 11
173.4175207226
 21
841.9508805865
  0
LINE
  5
232
100
AcDbEntity
  8
0
100
AcDbLine
 62
7
  6
CONTINUOUS
 10
174.8317725566
 20
836.6437320809
 11
174.8317725566
 21
837.0519745391
  0
LINE
  5
233
100
AcDbEntity
  8
0
100
AcDbLine
 62
7
  6
CONTINUOUS
 10
178.3672917426
 20
839.0931953085
 11
178.3672917426
 21
838.2766928913
  0
LINE
  5
234
100
AcDbEntity
  8
0
100
AcDbLine
 62
7
  6
CONTINUOUS
 10
179.0743985238
 20
838.276694591
 11
179.0743985238
 21
839.0931970081
  0
LINE
  5
235
100
AcDbEntity
  8
0
100
AcDbLine
 62
7
  6
CONTINUOUS
 10
191.0952638513
 20
832.1531041813
 11
191.0952638513
 21
831.7448617234
  0
LINE
  5
236
100
AcDbEntity
  8
0
100
AcDbLine
 62
7
  6
CONTINUOUS
 10
192.5095156852
 20
826.4377132179
 11
192.5095156852
 21
826.8459556761
  0
LINE
  5
237
100
AcDbEntity
  8
0
100
AcDbLine
 62
7
  6
CONTINUOUS
 10
169.8820044805
 20
839.9096598207
 11
173.4175236666
 21
841.9508805901
  0
LINE
  5
238
100
AcDbEntity
  8
0
100
AcDbLine
 62
7
  6
CONTINUOUS
 10
178.3672917426
 20
839.0931953085
 11
174.8317725566
 21
837.0519745391
  0
LINE
  5
239
100
AcDbEntity
  8
0
100
AcDbLine
 62
7
  6
CONTINUOUS
 10
175.1853425823
 20
836.439604653
 11
178.3672917426
 21
838.2766928913
  0
LINE
  5
23A
100
AcDbEntity
  8
0
100
AcDbLine
 62
7
  6
CONTINUOUS
 10
187.5597476092
 20
829.7036409577
 11
191.0952667953
 21
831.7448617271
  0
LINE
  5
23B
100
AcDbEntity
  8
0
100
AcDbLine
 62
7
  6
CONTINUOUS
 10
196.0450348713
 20
828.8871764454
 11
192.5095156852
 21
826.8459556761
  0
LINE
  5
23C
100
AcDbEntity
  8
0
100
AcDbLine
 62
7
  6
CONTINUOUS
 10
192.863085711
 20
826.23358579
 11
196.0450348713
 21
828.0706740283
  0
LINE
  5
23D
100
AcDbEntity
  8
0
100
AcDbLine
 62
7
  6
CONTINUOUS
 10
196.0450348713
 20
828.8871764454
 11
196.0450348713
 21
828.0706740283
  0
LINE
  5
23E
100
AcDbEntity
  8
0
100
AcDbLine
 62
7
  6
CONTINUOUS
 10
196.7521416525
 20
828.070675728
 11
196.7521416525
 21
828.8871781451
  0
LINE
  5
23F
100
AcDbEntity
  8
0
100
AcDbLine
 62
7
  6
CONTINUOUS
 10
208.77300698
 20
821.9470853183
 11
208.77300698
 21
821.5388428604
  0
LINE
  5
240
100
AcDbEntity
  8
0
100
AcDbLine
 62
7
  6
CONTINUOUS
 10
210.1872588139
 20
816.2316943549
 11
210.1872588139
 21
816.6399368131
  0
LINE
  5
241
100
AcDbEntity
  8
0
100
AcDbLine
 62
7
  6
CONTINUOUS
 10
213.722778
 20
818.6811575824
 11
213.722778
 21
817.8646551653
  0
LINE
  5
242
100
AcDbEntity
  8
0
100
AcDbLine
 62
7
  6
CONTINUOUS
 10
214.4298847812
 20
817.864656865
 11
214.4298847812
 21
818.6811592821
  0
LINE
  5
243
100
AcDbEntity
  8
0
100
AcDbLine
 62
7
  6
CONTINUOUS
 10
205.2374907379
 20
819.4976220947
 11
208.7730099239
 21
821.5388428641
  0
LINE
  5
244
100
AcDbEntity
  8
0
100
AcDbLine
 62
7
  6
CONTINUOUS
 10
213.722778
 20
818.6811575824
 11
210.1872588139
 21
816.6399368131
  0
LINE
  5
245
100
AcDbEntity
  8
0
100
AcDbLine
 62
7
  6
CONTINUOUS
 10
210.5408288397
 20
816.027566927
 11
213.722778
 21
817.8646551653
  0
LINE
  5
246
100
AcDbEntity
  8
0
100
AcDbLine
 62
7
  6
CONTINUOUS
 10
222.9152338666
 20
809.2916032317
 11
226.4507530526
 21
811.3328240011
  0
LINE
  5
247
100
AcDbEntity
  8
0
100
AcDbLine
 62
7
  6
CONTINUOUS
 10
226.4507501087
 20
811.7410664553
 11
226.4507501087
 21
811.3328239974
  0
LINE
  5
248
100
AcDbEntity
  8
0
100
AcDbLine
 62
7
  6
CONTINUOUS
 10
227.8650019426
 20
806.0256754919
 11
227.8650019426
 21
806.4339179501
  0
LINE
  5
249
100
AcDbEntity
  8
0
100
AcDbLine
 62
7
  6
CONTINUOUS
 10
231.4005211287
 20
808.4751387194
 11
231.4005211287
 21
807.6586363023
  0
LINE
  5
24A
100
AcDbEntity
  8
0
100
AcDbLine
 62
7
  6
CONTINUOUS
 10
232.1076279098
 20
807.658638002
 11
232.1076279098
 21
808.4751404191
  0
LINE
  5
24B
100
AcDbEntity
  8
0
100
AcDbLine
 62
7
  6
CONTINUOUS
 10
244.1284932373
 20
801.5350475923
 11
244.1284932373
 21
801.1268051344
  0
LINE
  5
24C
100
AcDbEntity
  8
0
100
AcDbLine
 62
7
  6
CONTINUOUS
 10
245.5427450713
 20
795.8196566289
 11
245.5427450713
 21
796.2278990871
  0
LINE
  5
24D
100
AcDbEntity
  8
0
100
AcDbLine
 62
7
  6
CONTINUOUS
 10
249.0782642573
 20
798.2691198564
 11
249.0782642573
 21
797.4526174393
  0
LINE
  5
24E
100
AcDbEntity
  8
0
100
AcDbLine
 62
7
  6
CONTINUOUS
 10
249.7853710385
 20
797.452619139
 11
249.7853710385
 21
798.2691215561
  0
LINE
  5
24F
100
AcDbEntity
  8
0
100
AcDbLine
 62
7
  6
CONTINUOUS
 10
231.4005211287
 20
808.4751387194
 11
227.8650019426
 21
806.4339179501
  0
LINE
  5
250
100
AcDbEntity
  8
0
100
AcDbLine
 62
7
  6
CONTINUOUS
 10
228.2185719684
 20
805.821548064
 11
231.4005211287
 21
807.6586363023
  0
LINE
  5
251
100
AcDbEntity
  8
0
100
AcDbLine
 62
7
  6
CONTINUOUS
 10
240.5929769952
 20
799.0855843687
 11
244.1284961813
 21
801.1268051381
  0
LINE
  5
252
100
AcDbEntity
  8
0
100
AcDbLine
 62
7
  6
CONTINUOUS
 10
249.0782642573
 20
798.2691198564
 11
245.5427450713
 21
796.2278990871
  0
LINE
  5
253
100
AcDbEntity
  8
0
100
AcDbLine
 62
7
  6
CONTINUOUS
 10
245.896315097
 20
795.615529201
 11
249.0782642573
 21
797.4526174393
  0
LINE
  5
254
100
AcDbEntity
  8
0
100
AcDbLine
 62
7
  6
CONTINUOUS
 10
261.806236366
 20
791.3290287293
 11
261.806236366
 21
790.9207862714
  0
LINE
  5
255
100
AcDbEntity
  8
0
100
AcDbLine
 62
7
  6
CONTINUOUS
 10
263.2204881999
 20
785.6136377659
 11
263.2204881999
 21
786.0218802241
  0
LINE
  5
256
100
AcDbEntity
  8
0
100
AcDbLine
 62
7
  6
CONTINUOUS
 10
266.756007386
 20
788.0631009934
 11
266.756007386
 21
787.2465985763
  0
LINE
  5
257
100
AcDbEntity
  8
0
100
AcDbLine
 62
7
  6
CONTINUOUS
 10
267.4631141672
 20
787.246600276
 11
267.4631141672
 21
788.0631026931
  0
LINE
  5
258
100
AcDbEntity
  8
0
100
AcDbLine
 62
7
  6
CONTINUOUS
 10
279.4839794947
 20
781.1230098662
 11
279.4839794947
 21
780.7147674084
  0
LINE
  5
259
100
AcDbEntity
  8
0
100
AcDbLine
 62
7
  6
CONTINUOUS
 10
258.2707201239
 20
788.8795655057
 11
261.80623931
 21
790.9207862751
  0
LINE
  5
25A
100
AcDbEntity
  8
0
100
AcDbLine
 62
7
  6
CONTINUOUS
 10
266.756007386
 20
788.0631009934
 11
263.2204881999
 21
786.0218802241
  0
LINE
  5
25B
100
AcDbEntity
  8
0
100
AcDbLine
 62
7
  6
CONTINUOUS
 10
263.5740582257
 20
785.409510338
 11
266.756007386
 21
787.2465985763
  0
LINE
  5
25C
100
AcDbEntity
  8
0
100
AcDbLine
 62
7
  6
CONTINUOUS
 10
275.9484632526
 20
778.6735466427
 11
279.4839824386
 21
780.714767412
  0
LINE
  5
25D
100
AcDbEntity
  8
0
100
AcDbLine
 62
7
  6
CONTINUOUS
 10
284.4337505147
 20
777.8570821304
 11
280.8982313286
 21
775.815861361
  0
LINE
  5
25E
100
AcDbEntity
  8
0
100
AcDbLine
 62
7
  6
CONTINUOUS
 10
281.2518013544
 20
775.203491475
 11
284.4337505147
 21
777.0405797133
  0
LINE
  5
25F
100
AcDbEntity
  8
0
100
AcDbLine
 62
7
  6
CONTINUOUS
 10
280.8982313286
 20
775.4076189029
 11
280.8982313286
 21
775.815861361
  0
LINE
  5
260
100
AcDbEntity
  8
0
100
AcDbLine
 62
7
  6
CONTINUOUS
 10
284.4337505147
 20
777.8570821304
 11
284.4337505147
 21
777.0405797133
  0
LINE
  5
261
100
AcDbEntity
  8
0
100
AcDbLine
 62
7
  6
CONTINUOUS
 10
285.1408572959
 20
777.040581413
 11
285.1408572959
 21
777.8570838301
  0
LINE
  5
262
100
AcDbEntity
  8
0
100
AcDbLine
 62
7
  6
CONTINUOUS
 10
297.1617226234
 20
770.9169910032
 11
297.1617226234
 21
770.5087485454
  0
LINE
  5
263
100
AcDbEntity
  8
0
100
AcDbLine
 62
7
  6
CONTINUOUS
 10
298.5759744573
 20
765.2016000399
 11
298.5759744573
 21
765.609842498
  0
LINE
  5
264
100
AcDbEntity
  8
0
100
AcDbLine
 62
7
  6
CONTINUOUS
 10
302.1114936434
 20
767.6510632674
 11
302.1114936434
 21
766.8345608503
  0
LINE
  5
265
100
AcDbEntity
  8
0
100
AcDbLine
 62
7
  6
CONTINUOUS
 10
302.8186004245
 20
766.8345625499
 11
302.8186004245
 21
767.6510649671
  0
LINE
  5
266
100
AcDbEntity
  8
0
100
AcDbLine
 62
7
  6
CONTINUOUS
 10
293.6262063813
 20
768.4675277797
 11
297.1617255673
 21
770.508748549
  0
LINE
  5
267
100
AcDbEntity
  8
0
100
AcDbLine
 62
7
  6
CONTINUOUS
 10
302.1114936434
 20
767.6510632674
 11
298.5759744573
 21
765.609842498
  0
LINE
  5
268
100
AcDbEntity
  8
0
100
AcDbLine
 62
7
  6
CONTINUOUS
 10
298.9295444831
 20
764.997472612
 11
302.1114936434
 21
766.8345608503
  0
LINE
  5
269
100
AcDbEntity
  8
0
100
AcDbLine
 62
7
  6
CONTINUOUS
 10
314.839465752
 20
760.7109721402
 11
314.839465752
 21
760.3027296824
  0
LINE
  5
26A
100
AcDbEntity
  8
0
100
AcDbLine
 62
7
  6
CONTINUOUS
 10
316.253717586
 20
754.9955811769
 11
316.253717586
 21
755.403823635
  0
LINE
  5
26B
100
AcDbEntity
  8
0
100
AcDbLine
 62
7
  6
CONTINUOUS
 10
319.789236772
 20
757.4450444044
 11
319.789236772
 21
756.6285419873
  0
LINE
  5
26C
100
AcDbEntity
  8
0
100
AcDbLine
 62
7
  6
CONTINUOUS
 10
320.4963435532
 20
756.6285436869
 11
320.4963435532
 21
757.4450461041
  0
LINE
  5
26D
100
AcDbEntity
  8
0
100
AcDbLine
 62
7
  6
CONTINUOUS
 10
332.5172088807
 20
750.5049532772
 11
332.5172088807
 21
750.0967108194
  0
LINE
  5
26E
100
AcDbEntity
  8
0
100
AcDbLine
 62
7
  6
CONTINUOUS
 10
333.9314607146
 20
744.7895623139
 11
333.9314607146
 21
745.197804772
  0
LINE
  5
26F
100
AcDbEntity
  8
0
100
AcDbLine
 62
7
  6
CONTINUOUS
 10
311.3039495099
 20
758.2615089167
 11
314.839468696
 21
760.302729686
  0
LINE
  5
270
100
AcDbEntity
  8
0
100
AcDbLine
 62
7
  6
CONTINUOUS
 10
319.789236772
 20
757.4450444044
 11
316.253717586
 21
755.403823635
  0
LINE
  5
271
100
AcDbEntity
  8
0
100
AcDbLine
 62
7
  6
CONTINUOUS
 10
316.6072876117
 20
754.791453749
 11
319.789236772
 21
756.6285419873
  0
LINE
  5
272
100
AcDbEntity
  8
0
100
AcDbLine
 62
7
  6
CONTINUOUS
 10
328.9816926386
 20
748.0554900537
 11
332.5172118247
 21
750.096710823
  0
LINE
  5
273
100
AcDbEntity
  8
0
100
AcDbLine
 62
7
  6
CONTINUOUS
 10
337.4669799007
 20
747.2390255414
 11
333.9314607146
 21
745.197804772
  0
LINE
  5
274
100
AcDbEntity
  8
0
100
AcDbLine
 62
7
  6
CONTINUOUS
 10
334.2850307404
 20
744.5854348859
 11
337.4669799007
 21
746.4225231243
  0
LINE
  5
275
100
AcDbEntity
  8
0
100
AcDbLine
 62
7
  6
CONTINUOUS
 10
337.4669799007
 20
747.2390255414
 11
337.4669799007
 21
746.4225231243
  0
LINE
  5
276
100
AcDbEntity
  8
0
100
AcDbLine
 62
7
  6
CONTINUOUS
 10
338.1740866819
 20
746.4225248239
 11
338.1740866819
 21
747.2390272411
  0
LINE
  5
277
100
AcDbEntity
  8
0
100
AcDbLine
 62
7
  6
CONTINUOUS
 10
350.1949520094
 20
740.2989344142
 11
350.1949520094
 21
739.8906919564
  0
LINE
  5
278
100
AcDbEntity
  8
0
100
AcDbLine
 62
7
  6
CONTINUOUS
 10
351.6092038433
 20
734.5835434508
 11
351.6092038433
 21
734.991785909
  0
LINE
  5
279
100
AcDbEntity
  8
0
100
AcDbLine
 62
7
  6
CONTINUOUS
 10
355.1447230294
 20
737.0330066784
 11
355.1447230294
 21
736.2165042612
  0
LINE
  5
27A
100
AcDbEntity
  8
0
100
AcDbLine
 62
7
  6
CONTINUOUS
 10
355.8518298106
 20
736.2165059609
 11
355.8518298106
 21
737.0330083781
  0
LINE
  5
27B
100
AcDbEntity
  8
0
100
AcDbLine
 62
7
  6
CONTINUOUS
 10
346.6594357673
 20
737.8494711907
 11
350.1949549533
 21
739.89069196
  0
LINE
  5
27C
100
AcDbEntity
  8
0
100
AcDbLine
 62
7
  6
CONTINUOUS
 10
355.1447230294
 20
737.0330066784
 11
351.6092038433
 21
734.991785909
  0
LINE
  5
27D
100
AcDbEntity
  8
0
100
AcDbLine
 62
7
  6
CONTINUOUS
 10
351.9627738691
 20
734.3794160229
 11
355.1447230294
 21
736.2165042612
  0
LINE
  5
27E
100
AcDbEntity
  8
0
100
AcDbLine
 62
7
  6
CONTINUOUS
 10
364.337178896
 20
727.6434523277
 11
367.872698082
 21
729.684673097
  0
LINE
  5
27F
100
AcDbEntity
  8
0
100
AcDbLine
 62
7
  6
CONTINUOUS
 10
367.8726951381
 20
730.0929155512
 11
367.8726951381
 21
729.6846730934
  0
LINE
  5
280
100
AcDbEntity
  8
0
100
AcDbLine
 62
7
  6
CONTINUOUS
 10
369.286946972
 20
724.3775245878
 11
369.286946972
 21
724.785767046
  0
LINE
  5
281
100
AcDbEntity
  8
0
100
AcDbLine
 62
7
  6
CONTINUOUS
 10
372.822466158
 20
726.8269878154
 11
372.822466158
 21
726.0104853982
  0
LINE
  5
282
100
AcDbEntity
  8
0
100
AcDbLine
 62
7
  6
CONTINUOUS
 10
373.5295729392
 20
726.0104870979
 11
373.5295729392
 21
726.826989515
  0
LINE
  5
283
100
AcDbEntity
  8
0
100
AcDbLine
 62
7
  6
CONTINUOUS
 10
385.5504382667
 20
719.8868966882
 11
385.5504382667
 21
719.4786542304
  0
LINE
  5
284
100
AcDbEntity
  8
0
100
AcDbLine
 62
7
  6
CONTINUOUS
 10
386.9646901007
 20
714.1715057248
 11
386.9646901007
 21
714.579748183
  0
LINE
  5
285
100
AcDbEntity
  8
0
100
AcDbLine
 62
7
  6
CONTINUOUS
 10
390.5002092867
 20
716.6209689524
 11
390.5002092867
 21
715.8044665352
  0
LINE
  5
286
100
AcDbEntity
  8
0
100
AcDbLine
 62
7
  6
CONTINUOUS
 10
391.2073160679
 20
715.8044682349
 11
391.2073160679
 21
716.620970652
  0
LINE
  5
287
100
AcDbEntity
  8
0
100
AcDbLine
 62
7
  6
CONTINUOUS
 10
372.822466158
 20
726.8269878154
 11
369.286946972
 21
724.785767046
  0
LINE
  5
288
100
AcDbEntity
  8
0
100
AcDbLine
 62
7
  6
CONTINUOUS
 10
369.6405169978
 20
724.1733971599
 11
372.822466158
 21
726.0104853982
  0
LINE
  5
289
100
AcDbEntity
  8
0
100
AcDbLine
 62
7
  6
CONTINUOUS
 10
382.0149220246
 20
717.4374334646
 11
385.5504412107
 21
719.478654234
  0
LINE
  5
28A
100
AcDbEntity
  8
0
100
AcDbLine
 62
7
  6
CONTINUOUS
 10
390.5002092867
 20
716.6209689524
 11
386.9646901007
 21
714.579748183
  0
LINE
  5
28B
100
AcDbEntity
  8
0
100
AcDbLine
 62
7
  6
CONTINUOUS
 10
387.3182601264
 20
713.9673782969
 11
390.5002092867
 21
715.8044665352
  0
LINE
  5
28C
100
AcDbEntity
  8
0
100
AcDbLine
 62
7
  6
CONTINUOUS
 10
403.2281813954
 20
709.6808778252
 11
403.2281813954
 21
709.2726353674
  0
LINE
  5
28D
100
AcDbEntity
  8
0
100
AcDbLine
 62
7
  6
CONTINUOUS
 10
404.6424332293
 20
703.9654868618
 11
404.6424332293
 21
704.37372932
  0
LINE
  5
28E
100
AcDbEntity
  8
0
100
AcDbLine
 62
7
  6
CONTINUOUS
 10
408.1779524154
 20
706.4149500894
 11
408.1779524154
 21
705.5984476722
  0
LINE
  5
28F
100
AcDbEntity
  8
0
100
AcDbLine
 62
7
  6
CONTINUOUS
 10
408.8850591966
 20
705.5984493719
 11
408.8850591966
 21
706.414951789
  0
LINE
  5
290
100
AcDbEntity
  8
0
100
AcDbLine
 62
7
  6
CONTINUOUS
 10
420.9059245241
 20
699.4748589622
 11
420.9059245241
 21
699.0666165043
  0
LINE
  5
291
100
AcDbEntity
  8
0
100
AcDbLine
 62
7
  6
CONTINUOUS
 10
399.6926651533
 20
707.2314146016
 11
403.2281843394
 21
709.272635371
  0
LINE
  5
292
100
AcDbEntity
  8
0
100
AcDbLine
 62
7
  6
CONTINUOUS
 10
408.1779524154
 20
706.4149500894
 11
404.6424332293
 21
704.37372932
  0
LINE
  5
293
100
AcDbEntity
  8
0
100
AcDbLine
 62
7
  6
CONTINUOUS
 10
404.9960032551
 20
703.7613594339
 11
408.1779524154
 21
705.5984476722
  0
LINE
  5
294
100
AcDbEntity
  8
0
100
AcDbLine
 62
7
  6
CONTINUOUS
 10
417.370408282
 20
697.0253957386
 11
420.905927468
 21
699.066616508
  0
LINE
  5
295
100
AcDbEntity
  8
0
100
AcDbLine
 62
7
  6
CONTINUOUS
 10
425.8556955441
 20
696.2089312263
 11
422.320176358
 21
694.167710457
  0
LINE
  5
296
100
AcDbEntity
  8
0
100
AcDbLine
 62
7
  6
CONTINUOUS
 10
422.6737463838
 20
693.5553405709
 11
425.8556955441
 21
695.3924288092
  0
LINE
  5
297
100
AcDbEntity
  8
0
100
AcDbLine
 62
7
  6
CONTINUOUS
 10
422.320176358
 20
693.7594679988
 11
422.320176358
 21
694.167710457
  0
LINE
  5
298
100
AcDbEntity
  8
0
100
AcDbLine
 62
7
  6
CONTINUOUS
 10
425.8556955441
 20
696.2089312263
 11
425.8556955441
 21
695.3924288092
  0
LINE
  5
299
100
AcDbEntity
  8
0
100
AcDbLine
 62
7
  6
CONTINUOUS
 10
426.5628023253
 20
695.3924305089
 11
426.5628023253
 21
696.208932926
  0
LINE
  5
29A
100
AcDbEntity
  8
0
100
AcDbLine
 62
7
  6
CONTINUOUS
 10
438.5836676528
 20
689.2688400992
 11
438.5836676528
 21
688.8605976413
  0
LINE
  5
29B
100
AcDbEntity
  8
0
100
AcDbLine
 62
7
  6
CONTINUOUS
 10
439.9979194867
 20
683.5534491358
 11
439.9979194867
 21
683.961691594
  0
LINE
  5
29C
100
AcDbEntity
  8
0
100
AcDbLine
 62
7
  6
CONTINUOUS
 10
443.5334386727
 20
686.0029123633
 11
443.5334386727
 21
685.1864099462
  0
LINE
  5
29D
100
AcDbEntity
  8
0
100
AcDbLine
 62
7
  6
CONTINUOUS
 10
444.2405454539
 20
685.1864116459
 11
444.2405454539
 21
686.002914063
  0
LINE
  5
29E
100
AcDbEntity
  8
0
100
AcDbLine
 62
7
  6
CONTINUOUS
 10
435.0481514106
 20
686.8193768756
 11
438.5836705967
 21
688.860597645
  0
LINE
  5
29F
100
AcDbEntity
  8
0
100
AcDbLine
 62
7
  6
CONTINUOUS
 10
443.5334386727
 20
686.0029123633
 11
439.9979194867
 21
683.961691594
  0
LINE
  5
2A0
100
AcDbEntity
  8
0
100
AcDbLine
 62
7
  6
CONTINUOUS
 10
440.3514895125
 20
683.3493217079
 11
443.5334386727
 21
685.1864099462
  0
LINE
  5
2A1
100
AcDbEntity
  8
0
100
AcDbLine
 62
7
  6
CONTINUOUS
 10
456.2614107814
 20
679.0628212362
 11
456.2614107814
 21
678.6545787783
  0
LINE
  5
2A2
100
AcDbEntity
  8
0
100
AcDbLine
 62
7
  6
CONTINUOUS
 10
457.6756626154
 20
673.3474302728
 11
457.6756626154
 21
673.755672731
  0
LINE
  5
2A3
100
AcDbEntity
  8
0
100
AcDbLine
 62
7
  6
CONTINUOUS
 10
461.2111818014
 20
675.7968935003
 11
461.2111818014
 21
674.9803910832
  0
LINE
  5
2A4
100
AcDbEntity
  8
0
100
AcDbLine
 62
7
  6
CONTINUOUS
 10
461.9182885826
 20
674.9803927829
 11
461.9182885826
 21
675.7968952
  0
LINE
  5
2A5
100
AcDbEntity
  8
0
100
AcDbLine
 62
7
  6
CONTINUOUS
 10
473.9391539101
 20
668.8568023732
 11
473.9391539101
 21
668.4485599153
  0
LINE
  5
2A6
100
AcDbEntity
  8
0
100
AcDbLine
 62
7
  6
CONTINUOUS
 10
475.353405744
 20
663.1414114098
 11
475.353405744
 21
663.549653868
  0
LINE
  5
2A7
100
AcDbEntity
  8
0
100
AcDbLine
 62
7
  6
CONTINUOUS
 10
452.7258945393
 20
676.6133580126
 11
456.2614137254
 21
678.654578782
  0
LINE
  5
2A8
100
AcDbEntity
  8
0
100
AcDbLine
 62
7
  6
CONTINUOUS
 10
461.2111818014
 20
675.7968935003
 11
457.6756626154
 21
673.755672731
  0
LINE
  5
2A9
100
AcDbEntity
  8
0
100
AcDbLine
 62
7
  6
CONTINUOUS
 10
458.0292326411
 20
673.1433028449
 11
461.2111818014
 21
674.9803910832
  0
LINE
  5
2AA
100
AcDbEntity
  8
0
100
AcDbLine
 62
7
  6
CONTINUOUS
 10
470.403637668
 20
666.4073391496
 11
473.9391568541
 21
668.448559919
  0
LINE
  5
2AB
100
AcDbEntity
  8
0
100
AcDbLine
 62
7
  6
CONTINUOUS
 10
478.8889249301
 20
665.5908746373
 11
475.353405744
 21
663.549653868
  0
LINE
  5
2AC
100
AcDbEntity
  8
0
100
AcDbLine
 62
7
  6
CONTINUOUS
 10
475.7069757698
 20
662.9372839819
 11
478.8889249301
 21
664.7743722202
  0
LINE
  5
2AD
100
AcDbEntity
  8
0
100
AcDbLine
 62
7
  6
CONTINUOUS
 10
815.4718576393
 20
448.8156256709
 11
108.3635467117
 21
857.0555637097
  0
LINE
  5
2AE
100
AcDbEntity
  8
0
100
AcDbLine
 62
7
  6
CONTINUOUS
 10
815.4718576393
 20
449.632128088
 11
108.3635467117
 21
857.8720661268
  0
LINE
  5
2AF
100
AcDbEntity
  8
0
100
AcDbLine
 62
7
  6
CONTINUOUS
 10
111.0505412932
 20
859.4233939115
 11
818.1588522207
 21
451.1834558727
  0
LINE
  5
2B0
100
AcDbEntity
  8
0
100
AcDbLine
 62
7
  6
CONTINUOUS
 10
818.3002729881
 20
451.4284051869
 11
111.1919620606
 21
859.6683432257
  0
LINE
  5
2B1
100
AcDbEntity
  8
0
100
AcDbLine
 62
7
  6
CONTINUOUS
 10
111.1919620606
 20
863.8325055531
 11
818.3002729881
 21
455.5925675143
  0
LINE
  5
2B2
100
AcDbEntity
  8
0
100
AcDbLine
 62
7
  6
CONTINUOUS
 10
819.1487975928
 20
457.0622633995
 11
112.0404866653
 21
865.3022014383
  0
LINE
  5
2B3
100
AcDbEntity
  8
0
100
AcDbLine
 62
7
  6
CONTINUOUS
 10
114.7274812467
 20
866.853529223
 11
821.8357921742
 21
458.6135911842
  0
LINE
  5
2B4
100
AcDbEntity
  8
0
100
AcDbLine
 62
7
  6
CONTINUOUS
 10
825.3713113603
 20
460.6548119535
 11
118.2630004327
 21
868.8947499923
  0
LINE
  5
2B5
100
AcDbEntity
  8
0
100
AcDbLine
 62
7
  6
CONTINUOUS
 10
121.7985461145
 20
867.2617886739
 11
133.819411442
 21
860.3216958471
  0
LINE
  5
2B6
100
AcDbEntity
  8
0
100
AcDbLine
 62
7
  6
CONTINUOUS
 10
139.4762892432
 20
857.0557698109
 11
151.4971545707
 21
850.1156769841
  0
LINE
  5
2B7
100
AcDbEntity
  8
0
100
AcDbLine
 62
7
  6
CONTINUOUS
 10
157.1540323718
 20
846.8497509479
 11
169.1748976993
 21
839.9096581211
  0
LINE
  5
2B8
100
AcDbEntity
  8
0
100
AcDbLine
 62
7
  6
CONTINUOUS
 10
174.8317755005
 20
836.6437320849
 11
186.852640828
 21
829.7036392581
  0
LINE
  5
2B9
100
AcDbEntity
  8
0
100
AcDbLine
 62
7
  6
CONTINUOUS
 10
192.5095186292
 20
826.4377132219
 11
204.5303839567
 21
819.497620395
  0
LINE
  5
2BA
100
AcDbEntity
  8
0
100
AcDbLine
 62
7
  6
CONTINUOUS
 10
210.1872617579
 20
816.2316943589
 11
222.2081270854
 21
809.291601532
  0
LINE
  5
2BB
100
AcDbEntity
  8
0
100
AcDbLine
 62
7
  6
CONTINUOUS
 10
227.8650048865
 20
806.0256754959
 11
239.885870214
 21
799.085582669
  0
LINE
  5
2BC
100
AcDbEntity
  8
0
100
AcDbLine
 62
7
  6
CONTINUOUS
 10
245.5427480152
 20
795.8196566329
 11
257.5636133427
 21
788.879563806
  0
LINE
  5
2BD
100
AcDbEntity
  8
0
100
AcDbLine
 62
7
  6
CONTINUOUS
 10
263.2204911439
 20
785.6136377699
 11
275.2413564714
 21
778.673544943
  0
LINE
  5
2BE
100
AcDbEntity
  8
0
100
AcDbLine
 62
7
  6
CONTINUOUS
 10
280.8982342726
 20
775.4076189069
 11
292.9190996001
 21
768.46752608
  0
LINE
  5
2BF
100
AcDbEntity
  8
0
100
AcDbLine
 62
7
  6
CONTINUOUS
 10
298.5759774012
 20
765.2016000438
 11
310.5968427287
 21
758.261507217
  0
LINE
  5
2C0
100
AcDbEntity
  8
0
100
AcDbLine
 62
7
  6
CONTINUOUS
 10
316.2537205299
 20
754.9955811808
 11
328.2745858574
 21
748.055488354
  0
LINE
  5
2C1
100
AcDbEntity
  8
0
100
AcDbLine
 62
7
  6
CONTINUOUS
 10
333.9314636586
 20
744.7895623178
 11
345.9523289861
 21
737.849469491
  0
LINE
  5
2C2
100
AcDbEntity
  8
0
100
AcDbLine
 62
7
  6
CONTINUOUS
 10
351.6092067873
 20
734.5835434548
 11
363.6300721148
 21
727.643450628
  0
LINE
  5
2C3
100
AcDbEntity
  8
0
100
AcDbLine
 62
7
  6
CONTINUOUS
 10
369.2869499159
 20
724.3775245918
 11
381.3078152434
 21
717.437431765
  0
LINE
  5
2C4
100
AcDbEntity
  8
0
100
AcDbLine
 62
7
  6
CONTINUOUS
 10
386.9646930446
 20
714.1715057288
 11
398.9855583721
 21
707.231412902
  0
LINE
  5
2C5
100
AcDbEntity
  8
0
100
AcDbLine
 62
7
  6
CONTINUOUS
 10
404.6424361733
 20
703.9654868658
 11
416.6633015008
 21
697.025394039
  0
LINE
  5
2C6
100
AcDbEntity
  8
0
100
AcDbLine
 62
7
  6
CONTINUOUS
 10
422.320179302
 20
693.7594680028
 11
434.3410446295
 21
686.8193751759
  0
LINE
  5
2C7
100
AcDbEntity
  8
0
100
AcDbLine
 62
7
  6
CONTINUOUS
 10
439.9979224306
 20
683.5534491398
 11
452.0187877581
 21
676.6133563129
  0
LINE
  5
2C8
100
AcDbEntity
  8
0
100
AcDbLine
 62
7
  6
CONTINUOUS
 10
457.6756655593
 20
673.3474302768
 11
469.6965308868
 21
666.4073374499
  0
LINE
  5
2C9
100
AcDbEntity
  8
0
100
AcDbLine
 62
7
  6
CONTINUOUS
 10
475.353408688
 20
663.1414114138
 11
487.3742740155
 21
656.2013185869
  0
LINE
  5
2CA
100
AcDbEntity
  8
0
100
AcDbLine
 62
7
  6
CONTINUOUS
 10
493.0311518167
 20
652.9353925508
 11
505.0520171442
 21
645.9952997239
  0
LINE
  5
2CB
100
AcDbEntity
  8
0
100
AcDbLine
 62
7
  6
CONTINUOUS
 10
510.7088949453
 20
642.7293736878
 11
522.7297602728
 21
635.7892808609
  0
LINE
  5
2CC
100
AcDbEntity
  8
0
100
AcDbLine
 62
7
  6
CONTINUOUS
 10
528.386638074
 20
632.5233548247
 11
540.4075034015
 21
625.5832619979
  0
LINE
  5
2CD
100
AcDbEntity
  8
0
100
AcDbLine
 62
7
  6
CONTINUOUS
 10
546.0643812027
 20
622.3173359617
 11
558.0852465302
 21
615.3772431349
  0
LINE
  5
2CE
100
AcDbEntity
  8
0
100
AcDbLine
 62
7
  6
CONTINUOUS
 10
563.7421243314
 20
612.1113170987
 11
575.7629896589
 21
605.1712242719
  0
LINE
  5
2CF
100
AcDbEntity
  8
0
100
AcDbLine
 62
7
  6
CONTINUOUS
 10
581.41986746
 20
601.9052982357
 11
593.4407327875
 21
594.9652054089
  0
LINE
  5
2D0
100
AcDbEntity
  8
0
100
AcDbLine
 62
7
  6
CONTINUOUS
 10
599.0976105887
 20
591.6992793727
 11
611.1184759162
 21
584.7591865459
  0
LINE
  5
2D1
100
AcDbEntity
  8
0
100
AcDbLine
 62
7
  6
CONTINUOUS
 10
616.7753537174
 20
581.4932605097
 11
628.7962190449
 21
574.5531676829
  0
LINE
  5
2D2
100
AcDbEntity
  8
0
100
AcDbLine
 62
7
  6
CONTINUOUS
 10
634.4530968461
 20
571.2872416467
 11
646.4739621736
 21
564.3471488199
  0
LINE
  5
2D3
100
AcDbEntity
  8
0
100
AcDbLine
 62
7
  6
CONTINUOUS
 10
652.1308399747
 20
561.0812227837
 11
664.1517053022
 21
554.1411299568
  0
LINE
  5
2D4
100
AcDbEntity
  8
0
100
AcDbLine
 62
7
  6
CONTINUOUS
 10
669.8085831034
 20
550.8752039207
 11
681.8294484309
 21
543.9351110938
  0
LINE
  5
2D5
100
AcDbEntity
  8
0
100
AcDbLine
 62
7
  6
CONTINUOUS
 10
687.4863262321
 20
540.6691850577
 11
699.5071915596
 21
533.7290922308
  0
LINE
  5
2D6
100
AcDbEntity
  8
0
100
AcDbLine
 62
7
  6
CONTINUOUS
 10
705.1640693608
 20
530.4631661947
 11
717.1849346883
 21
523.5230733678
  0
LINE
  5
2D7
100
AcDbEntity
  8
0
100
AcDbLine
 62
7
  6
CONTINUOUS
 10
722.8418124894
 20
520.2571473317
 11
734.8626778169
 21
513.3170545048
  0
LINE
  5
2D8
100
AcDbEntity
  8
0
100
AcDbLine
 62
7
  6
CONTINUOUS
 10
740.5195556181
 20
510.0511284687
 11
752.5404209456
 21
503.1110356418
  0
LINE
  5
2D9
100
AcDbEntity
  8
0
100
AcDbLine
 62
7
  6
CONTINUOUS
 10
758.1972987468
 20
499.8451096056
 11
770.2181640743
 21
492.9050167788
  0
LINE
  5
2DA
100
AcDbEntity
  8
0
100
AcDbLine
 62
7
  6
CONTINUOUS
 10
775.8750418755
 20
489.6390907426
 11
787.895907203
 21
482.6989979158
  0
LINE
  5
2DB
100
AcDbEntity
  8
0
100
AcDbLine
 62
7
  6
CONTINUOUS
 10
793.5527850041
 20
479.4330718796
 11
805.5736503316
 21
472.4929790528
  0
LINE
  5
2DC
100
AcDbEntity
  8
0
100
AcDbLine
 62
7
  6
CONTINUOUS
 10
811.2305281328
 20
469.2270530166
 11
823.2513934603
 21
462.2869601898
  0
LINE
  5
2DD
100
AcDbEntity
  8
0
100
AcDbLine
 62
7
  6
CONTINUOUS
 10
478.8889249301
 20
665.5908746373
 11
478.8889249301
 21
664.7743722202
  0
LINE
  5
2DE
100
AcDbEntity
  8
0
100
AcDbLine
 62
7
  6
CONTINUOUS
 10
479.5960317113
 20
664.7743739199
 11
479.5960317113
 21
665.590876337
  0
LINE
  5
2DF
100
AcDbEntity
  8
0
100
AcDbLine
 62
7
  6
CONTINUOUS
 10
491.6168970388
 20
658.6507835102
 11
491.6168970388
 21
658.2425410523
  0
LINE
  5
2E0
100
AcDbEntity
  8
0
100
AcDbLine
 62
7
  6
CONTINUOUS
 10
493.0311488727
 20
652.9353925468
 11
493.0311488727
 21
653.343635005
  0
LINE
  5
2E1
100
AcDbEntity
  8
0
100
AcDbLine
 62
7
  6
CONTINUOUS
 10
496.5666680588
 20
655.3848557743
 11
496.5666680588
 21
654.5683533572
  0
LINE
  5
2E2
100
AcDbEntity
  8
0
100
AcDbLine
 62
7
  6
CONTINUOUS
 10
497.27377484
 20
654.5683550569
 11
497.27377484
 21
655.384857474
  0
LINE
  5
2E3
100
AcDbEntity
  8
0
100
AcDbLine
 62
7
  6
CONTINUOUS
 10
488.0813807967
 20
656.2013202866
 11
491.6168999827
 21
658.242541056
  0
LINE
  5
2E4
100
AcDbEntity
  8
0
100
AcDbLine
 62
7
  6
CONTINUOUS
 10
496.5666680588
 20
655.3848557743
 11
493.0311488727
 21
653.343635005
  0
LINE
  5
2E5
100
AcDbEntity
  8
0
100
AcDbLine
 62
7
  6
CONTINUOUS
 10
493.3847188985
 20
652.7312651189
 11
496.5666680588
 21
654.5683533572
  0
LINE
  5
2E6
100
AcDbEntity
  8
0
100
AcDbLine
 62
7
  6
CONTINUOUS
 10
505.7591239253
 20
645.9953014236
 11
509.2946431114
 21
648.0365221929
  0
LINE
  5
2E7
100
AcDbEntity
  8
0
100
AcDbLine
 62
7
  6
CONTINUOUS
 10
126.0411691378
 20
868.89475118
 11
137.7084673835
 21
862.1587857851
  0
LINE
  5
2E8
100
AcDbEntity
  8
0
100
AcDbLine
 62
7
  6
CONTINUOUS
 10
143.7189122665
 20
858.688732317
 11
155.3862105121
 21
851.952766922
  0
LINE
  5
2E9
100
AcDbEntity
  8
0
100
AcDbLine
 62
7
  6
CONTINUOUS
 10
161.3966553951
 20
848.482713454
 11
173.0639536408
 21
841.746748059
  0
LINE
  5
2EA
100
AcDbEntity
  8
0
100
AcDbLine
 62
7
  6
CONTINUOUS
 10
179.0743985238
 20
838.276694591
 11
190.7416967695
 21
831.540729196
  0
LINE
  5
2EB
100
AcDbEntity
  8
0
100
AcDbLine
 62
7
  6
CONTINUOUS
 10
196.7521416525
 20
828.070675728
 11
208.4194398982
 21
821.334710333
  0
LINE
  5
2EC
100
AcDbEntity
  8
0
100
AcDbLine
 62
7
  6
CONTINUOUS
 10
214.4298847812
 20
817.864656865
 11
226.0971830268
 21
811.12869147
  0
LINE
  5
2ED
100
AcDbEntity
  8
0
100
AcDbLine
 62
7
  6
CONTINUOUS
 10
232.1076279098
 20
807.658638002
 11
243.7749261555
 21
800.922672607
  0
LINE
  5
2EE
100
AcDbEntity
  8
0
100
AcDbLine
 62
7
  6
CONTINUOUS
 10
249.7853710385
 20
797.452619139
 11
261.4526692842
 21
790.716653744
  0
LINE
  5
2EF
100
AcDbEntity
  8
0
100
AcDbLine
 62
7
  6
CONTINUOUS
 10
267.4631141672
 20
787.246600276
 11
279.1304124129
 21
780.510634881
  0
LINE
  5
2F0
100
AcDbEntity
  8
0
100
AcDbLine
 62
7
  6
CONTINUOUS
 10
285.1408572959
 20
777.040581413
 11
296.8081555415
 21
770.304616018
  0
LINE
  5
2F1
100
AcDbEntity
  8
0
100
AcDbLine
 62
7
  6
CONTINUOUS
 10
302.8186004245
 20
766.8345625499
 11
314.4858986702
 21
760.098597155
  0
LINE
  5
2F2
100
AcDbEntity
  8
0
100
AcDbLine
 62
7
  6
CONTINUOUS
 10
320.4963435532
 20
756.6285436869
 11
332.1636417989
 21
749.892578292
  0
LINE
  5
2F3
100
AcDbEntity
  8
0
100
AcDbLine
 62
7
  6
CONTINUOUS
 10
338.1740866819
 20
746.4225248239
 11
349.8413849276
 21
739.686559429
  0
LINE
  5
2F4
100
AcDbEntity
  8
0
100
AcDbLine
 62
7
  6
CONTINUOUS
 10
355.8518298106
 20
736.2165059609
 11
367.5191280562
 21
729.480540566
  0
LINE
  5
2F5
100
AcDbEntity
  8
0
100
AcDbLine
 62
7
  6
CONTINUOUS
 10
373.5295729392
 20
726.0104870979
 11
385.1968711849
 21
719.2745217029
  0
LINE
  5
2F6
100
AcDbEntity
  8
0
100
AcDbLine
 62
7
  6
CONTINUOUS
 10
391.2073160679
 20
715.8044682349
 11
402.8746143136
 21
709.0685028399
  0
LINE
  5
2F7
100
AcDbEntity
  8
0
100
AcDbLine
 62
7
  6
CONTINUOUS
 10
408.8850591966
 20
705.5984493719
 11
420.5523574423
 21
698.8624839769
  0
LINE
  5
2F8
100
AcDbEntity
  8
0
100
AcDbLine
 62
7
  6
CONTINUOUS
 10
426.5628023253
 20
695.3924305089
 11
438.2301005709
 21
688.6564651139
  0
LINE
  5
2F9
100
AcDbEntity
  8
0
100
AcDbLine
 62
7
  6
CONTINUOUS
 10
444.2405454539
 20
685.1864116459
 11
455.9078436996
 21
678.4504462509
  0
LINE
  5
2FA
100
AcDbEntity
  8
0
100
AcDbLine
 62
7
  6
CONTINUOUS
 10
461.9182885826
 20
674.9803927829
 11
473.5855868283
 21
668.2444273879
  0
LINE
  5
2FB
100
AcDbEntity
  8
0
100
AcDbLine
 62
7
  6
CONTINUOUS
 10
479.5960317113
 20
664.7743739199
 11
491.263329957
 21
658.0384085249
  0
LINE
  5
2FC
100
AcDbEntity
  8
0
100
AcDbLine
 62
7
  6
CONTINUOUS
 10
497.27377484
 20
654.5683550569
 11
508.9410730856
 21
647.8323896619
  0
LINE
  5
2FD
100
AcDbEntity
  8
0
100
AcDbLine
 62
7
  6
CONTINUOUS
 10
514.9515179686
 20
644.3623361939
 11
526.6188162143
 21
637.6263707989
  0
LINE
  5
2FE
100
AcDbEntity
  8
0
100
AcDbLine
 62
7
  6
CONTINUOUS
 10
532.6292610973
 20
634.1563173308
 11
544.296559343
 21
627.4203519359
  0
LINE
  5
2FF
100
AcDbEntity
  8
0
100
AcDbLine
 62
7
  6
CONTINUOUS
 10
550.307004226
 20
623.9502984678
 11
561.9743024717
 21
617.2143330729
  0
LINE
  5
300
100
AcDbEntity
  8
0
100
AcDbLine
 62
7
  6
CONTINUOUS
 10
567.9847473547
 20
613.7442796048
 11
579.6520456003
 21
607.0083142099
  0
LINE
  5
301
100
AcDbEntity
  8
0
100
AcDbLine
 62
7
  6
CONTINUOUS
 10
585.6624904833
 20
603.5382607418
 11
597.329788729
 21
596.8022953469
  0
LINE
  5
302
100
AcDbEntity
  8
0
100
AcDbLine
 62
7
  6
CONTINUOUS
 10
603.340233612
 20
593.3322418788
 11
615.0075318577
 21
586.5962764839
  0
LINE
  5
303
100
AcDbEntity
  8
0
100
AcDbLine
 62
7
  6
CONTINUOUS
 10
621.0179767407
 20
583.1262230158
 11
632.6852749864
 21
576.3902576208
  0
LINE
  5
304
100
AcDbEntity
  8
0
100
AcDbLine
 62
7
  6
CONTINUOUS
 10
638.6957198693
 20
572.9202041528
 11
650.363018115
 21
566.1842387578
  0
LINE
  5
305
100
AcDbEntity
  8
0
100
AcDbLine
 62
7
  6
CONTINUOUS
 10
656.373462998
 20
562.7141852898
 11
668.0407612437
 21
555.9782198948
  0
LINE
  5
306
100
AcDbEntity
  8
0
100
AcDbLine
 62
7
  6
CONTINUOUS
 10
674.0512061267
 20
552.5081664268
 11
685.7185043724
 21
545.7722010318
  0
LINE
  5
307
100
AcDbEntity
  8
0
100
AcDbLine
 62
7
  6
CONTINUOUS
 10
691.7289492554
 20
542.3021475638
 11
703.3962475011
 21
535.5661821688
  0
LINE
  5
308
100
AcDbEntity
  8
0
100
AcDbLine
 62
7
  6
CONTINUOUS
 10
709.406692384
 20
532.0961287008
 11
721.0739906297
 21
525.3601633058
  0
LINE
  5
309
100
AcDbEntity
  8
0
100
AcDbLine
 62
7
  6
CONTINUOUS
 10
727.0844355127
 20
521.8901098378
 11
738.7517337584
 21
515.1541444428
  0
LINE
  5
30A
100
AcDbEntity
  8
0
100
AcDbLine
 62
7
  6
CONTINUOUS
 10
744.7621786414
 20
511.6840909748
 11
756.4294768871
 21
504.9481255798
  0
LINE
  5
30B
100
AcDbEntity
  8
0
100
AcDbLine
 62
7
  6
CONTINUOUS
 10
762.4399217701
 20
501.4780721117
 11
774.1072200158
 21
494.7421067168
  0
LINE
  5
30C
100
AcDbEntity
  8
0
100
AcDbLine
 62
7
  6
CONTINUOUS
 10
780.1176648987
 20
491.2720532487
 11
791.7849631444
 21
484.5360878538
  0
LINE
  5
30D
100
AcDbEntity
  8
0
100
AcDbLine
 62
7
  6
CONTINUOUS
 10
797.7954080274
 20
481.0660343857
 11
809.4627062731
 21
474.3300689908
  0
LINE
  5
30E
100
AcDbEntity
  8
0
100
AcDbLine
 62
7
  6
CONTINUOUS
 10
815.4731511561
 20
470.8600155227
 11
827.1404494018
 21
464.1240501278
  0
LINE
  5
30F
100
AcDbEntity
  8
0
100
AcDbLine
 62
7
  6
CONTINUOUS
 10
827.4940164836
 20
464.736425113
 11
815.4731511561
 21
471.6765179399
  0
LINE
  5
310
100
AcDbEntity
  8
0
100
AcDbLine
 62
7
  6
CONTINUOUS
 10
809.8162733549
 20
474.942443976
 11
797.7954080274
 21
481.8825368029
  0
LINE
  5
311
100
AcDbEntity
  8
0
100
AcDbLine
 62
7
  6
CONTINUOUS
 10
792.1385302262
 20
485.148462839
 11
780.1176648987
 21
492.0885556659
  0
LINE
  5
312
100
AcDbEntity
  8
0
100
AcDbLine
 62
7
  6
CONTINUOUS
 10
774.4607870976
 20
495.354481702
 11
762.4399217701
 21
502.2945745289
  0
LINE
  5
313
100
AcDbEntity
  8
0
100
AcDbLine
 62
7
  6
CONTINUOUS
 10
756.7830439689
 20
505.560500565
 11
744.7621786414
 21
512.5005933919
  0
LINE
  5
314
100
AcDbEntity
  8
0
100
AcDbLine
 62
7
  6
CONTINUOUS
 10
739.1053008402
 20
515.766519428
 11
727.0844355127
 21
522.7066122549
  0
LINE
  5
315
100
AcDbEntity
  8
0
100
AcDbLine
 62
7
  6
CONTINUOUS
 10
721.4275577115
 20
525.9725382911
 11
709.406692384
 21
532.9126311179
  0
LINE
  5
316
100
AcDbEntity
  8
0
100
AcDbLine
 62
7
  6
CONTINUOUS
 10
703.7498145829
 20
536.1785571541
 11
691.7289492554
 21
543.1186499809
  0
LINE
  5
317
100
AcDbEntity
  8
0
100
AcDbLine
 62
7
  6
CONTINUOUS
 10
686.0720714542
 20
546.3845760171
 11
674.0512061267
 21
553.3246688439
  0
LINE
  5
318
100
AcDbEntity
  8
0
100
AcDbLine
 62
7
  6
CONTINUOUS
 10
668.3943283255
 20
556.5905948801
 11
656.373462998
 21
563.5306877069
  0
LINE
  5
319
100
AcDbEntity
  8
0
100
AcDbLine
 62
7
  6
CONTINUOUS
 10
650.7165851968
 20
566.7966137431
 11
638.6957198693
 21
573.7367065699
  0
LINE
  5
31A
100
AcDbEntity
  8
0
100
AcDbLine
 62
7
  6
CONTINUOUS
 10
633.0388420682
 20
577.0026326061
 11
621.0179767407
 21
583.9427254329
  0
LINE
  5
31B
100
AcDbEntity
  8
0
100
AcDbLine
 62
7
  6
CONTINUOUS
 10
615.3610989395
 20
587.2086514691
 11
603.340233612
 21
594.1487442959
  0
LINE
  5
31C
100
AcDbEntity
  8
0
100
AcDbLine
 62
7
  6
CONTINUOUS
 10
597.6833558108
 20
597.4146703321
 11
585.6624904833
 21
604.354763159
  0
LINE
  5
31D
100
AcDbEntity
  8
0
100
AcDbLine
 62
7
  6
CONTINUOUS
 10
580.0056126821
 20
607.6206891951
 11
567.9847473547
 21
614.560782022
  0
LINE
  5
31E
100
AcDbEntity
  8
0
100
AcDbLine
 62
7
  6
CONTINUOUS
 10
562.3278695535
 20
617.8267080581
 11
550.307004226
 21
624.766800885
  0
LINE
  5
31F
100
AcDbEntity
  8
0
100
AcDbLine
 62
7
  6
CONTINUOUS
 10
544.6501264248
 20
628.0327269211
 11
532.6292610973
 21
634.972819748
  0
LINE
  5
320
100
AcDbEntity
  8
0
100
AcDbLine
 62
7
  6
CONTINUOUS
 10
526.9723832961
 20
638.2387457841
 11
514.9515179686
 21
645.178838611
  0
LINE
  5
321
100
AcDbEntity
  8
0
100
AcDbLine
 62
7
  6
CONTINUOUS
 10
509.2946401675
 20
648.4447646471
 11
497.27377484
 21
655.384857474
  0
LINE
  5
322
100
AcDbEntity
  8
0
100
AcDbLine
 62
7
  6
CONTINUOUS
 10
491.6168970388
 20
658.6507835102
 11
479.5960317113
 21
665.590876337
  0
LINE
  5
323
100
AcDbEntity
  8
0
100
AcDbLine
 62
7
  6
CONTINUOUS
 10
473.9391539101
 20
668.8568023732
 11
461.9182885826
 21
675.7968952
  0
LINE
  5
324
100
AcDbEntity
  8
0
100
AcDbLine
 62
7
  6
CONTINUOUS
 10
456.2614107814
 20
679.0628212362
 11
444.2405454539
 21
686.002914063
  0
LINE
  5
325
100
AcDbEntity
  8
0
100
AcDbLine
 62
7
  6
CONTINUOUS
 10
438.5836676528
 20
689.2688400992
 11
426.5628023253
 21
696.208932926
  0
LINE
  5
326
100
AcDbEntity
  8
0
100
AcDbLine
 62
7
  6
CONTINUOUS
 10
420.9059245241
 20
699.4748589622
 11
408.8850591966
 21
706.414951789
  0
LINE
  5
327
100
AcDbEntity
  8
0
100
AcDbLine
 62
7
  6
CONTINUOUS
 10
403.2281813954
 20
709.6808778252
 11
391.2073160679
 21
716.620970652
  0
LINE
  5
328
100
AcDbEntity
  8
0
100
AcDbLine
 62
7
  6
CONTINUOUS
 10
385.5504382667
 20
719.8868966882
 11
373.5295729392
 21
726.826989515
  0
LINE
  5
329
100
AcDbEntity
  8
0
100
AcDbLine
 62
7
  6
CONTINUOUS
 10
367.8726951381
 20
730.0929155512
 11
355.8518298106
 21
737.0330083781
  0
LINE
  5
32A
100
AcDbEntity
  8
0
100
AcDbLine
 62
7
  6
CONTINUOUS
 10
350.1949520094
 20
740.2989344142
 11
338.1740866819
 21
747.2390272411
  0
LINE
  5
32B
100
AcDbEntity
  8
0
100
AcDbLine
 62
7
  6
CONTINUOUS
 10
332.5172088807
 20
750.5049532772
 11
320.4963435532
 21
757.4450461041
  0
LINE
  5
32C
100
AcDbEntity
  8
0
100
AcDbLine
 62
7
  6
CONTINUOUS
 10
314.839465752
 20
760.7109721402
 11
302.8186004245
 21
767.6510649671
  0
LINE
  5
32D
100
AcDbEntity
  8
0
100
AcDbLine
 62
7
  6
CONTINUOUS
 10
297.1617226234
 20
770.9169910032
 11
285.1408572959
 21
777.8570838301
  0
LINE
  5
32E
100
AcDbEntity
  8
0
100
AcDbLine
 62
7
  6
CONTINUOUS
 10
279.4839794947
 20
781.1230098662
 11
267.4631141672
 21
788.0631026931
  0
LINE
  5
32F
100
AcDbEntity
  8
0
100
AcDbLine
 62
7
  6
CONTINUOUS
 10
261.806236366
 20
791.3290287293
 11
249.7853710385
 21
798.2691215561
  0
LINE
  5
330
100
AcDbEntity
  8
0
100
AcDbLine
 62
7
  6
CONTINUOUS
 10
244.1284932373
 20
801.5350475923
 11
232.1076279098
 21
808.4751404191
  0
LINE
  5
331
100
AcDbEntity
  8
0
100
AcDbLine
 62
7
  6
CONTINUOUS
 10
226.4507501087
 20
811.7410664553
 11
214.4298847812
 21
818.6811592821
  0
LINE
  5
332
100
AcDbEntity
  8
0
100
AcDbLine
 62
7
  6
CONTINUOUS
 10
208.77300698
 20
821.9470853183
 11
196.7521416525
 21
828.8871781451
  0
LINE
  5
333
100
AcDbEntity
  8
0
100
AcDbLine
 62
7
  6
CONTINUOUS
 10
191.0952638513
 20
832.1531041813
 11
179.0743985238
 21
839.0931970081
  0
LINE
  5
334
100
AcDbEntity
  8
0
100
AcDbLine
 62
7
  6
CONTINUOUS
 10
173.4175207226
 20
842.3591230443
 11
161.3966553951
 21
849.2992158711
  0
LINE
  5
335
100
AcDbEntity
  8
0
100
AcDbLine
 62
7
  6
CONTINUOUS
 10
155.739777594
 20
852.5651419073
 11
143.7189122665
 21
859.5052347341
  0
LINE
  5
336
100
AcDbEntity
  8
0
100
AcDbLine
 62
7
  6
CONTINUOUS
 10
138.0620344653
 20
862.7711607703
 11
126.0411691378
 21
869.7112535972
  0
LINE
  5
337
100
AcDbEntity
  8
0
100
AcDbLine
 62
7
  6
CONTINUOUS
 10
123.2127272932
 20
871.7524590694
 11
830.3210382208
 21
463.5125210306
  0
LINE
  5
338
100
AcDbEntity
  8
0
100
AcDbLine
 62
7
  6
CONTINUOUS
 10
833.2211653178
 20
463.6366831045
 11
836.9335075406
 21
461.4934098102
  0
LINE
  5
339
100
AcDbEntity
  8
0
100
AcDbLine
 62
7
  6
CONTINUOUS
 10
836.6849727557
 20
462.0427531876
 11
833.3969036994
 21
463.9410777965
  0
LINE
  5
33A
100
AcDbEntity
  8
0
100
AcDbLine
 62
7
  6
CONTINUOUS
 10
837.5334973603
 20
462.3693456888
 11
837.3920747822
 21
462.4509942052
  0
LINE
  5
33B
100
AcDbEntity
  8
0
100
AcDbLine
 62
7
  6
CONTINUOUS
 10
833.8565574068
 20
465.5537418
 11
126.7482464793
 21
873.7936798388
  0
LINE
  5
33C
100
AcDbEntity
  8
0
100
AcDbLine
 62
7
  6
CONTINUOUS
 10
840.2204919418
 20
463.9206734735
 11
837.3920765929
 21
465.5536228943
  0
LINE
  5
33D
100
AcDbEntity
  8
0
100
AcDbLine
 62
7
  6
CONTINUOUS
 10
836.5435501776
 20
466.2885640313
 11
836.6849727557
 21
466.2069155149
  0
LINE
  5
33E
100
AcDbEntity
  8
0
100
AcDbLine
 62
7
  6
CONTINUOUS
 10
129.4352410607
 20
875.3450076235
 11
836.5435519882
 21
467.1050695847
  0
LINE
  5
33F
100
AcDbEntity
  8
0
100
AcDbLine
 62
7
  6
CONTINUOUS
 10
130.0352308805
 20
875.404441085
 11
837.143541808
 21
467.1645030462
  0
LINE
  5
340
100
AcDbEntity
  8
0
100
AcDbLine
 62
7
  6
CONTINUOUS
 10
509.2946401675
 20
648.4447646471
 11
509.2946401675
 21
648.0365221893
  0
LINE
  5
341
100
AcDbEntity
  8
0
100
AcDbLine
 62
7
  6
CONTINUOUS
 10
510.7088920014
 20
642.7293736838
 11
510.7088920014
 21
643.1376161419
  0
LINE
  5
342
100
AcDbEntity
  8
0
100
AcDbLine
 62
7
  6
CONTINUOUS
 10
514.2444111874
 20
645.1788369113
 11
514.2444111874
 21
644.3623344942
  0
LINE
  5
343
100
AcDbEntity
  8
0
100
AcDbLine
 62
7
  6
CONTINUOUS
 10
514.9515179686
 20
644.3623361939
 11
514.9515179686
 21
645.178838611
  0
LINE
  5
344
100
AcDbEntity
  8
0
100
AcDbLine
 62
7
  6
CONTINUOUS
 10
526.9723832961
 20
638.2387457841
 11
526.9723832961
 21
637.8305033263
  0
LINE
  5
345
100
AcDbEntity
  8
0
100
AcDbLine
 62
7
  6
CONTINUOUS
 10
528.3866351301
 20
632.5233548208
 11
528.3866351301
 21
632.9315972789
  0
LINE
  5
346
100
AcDbEntity
  8
0
100
AcDbLine
 62
7
  6
CONTINUOUS
 10
531.9221543161
 20
634.9728180483
 11
531.9221543161
 21
634.1563156312
  0
LINE
  5
347
100
AcDbEntity
  8
0
100
AcDbLine
 62
7
  6
CONTINUOUS
 10
532.6292610973
 20
634.1563173308
 11
532.6292610973
 21
634.972819748
  0
LINE
  5
348
100
AcDbEntity
  8
0
100
AcDbLine
 62
7
  6
CONTINUOUS
 10
514.2444111874
 20
645.1788369113
 11
510.7088920014
 21
643.1376161419
  0
LINE
  5
349
100
AcDbEntity
  8
0
100
AcDbLine
 62
7
  6
CONTINUOUS
 10
511.0624620272
 20
642.5252462559
 11
514.2444111874
 21
644.3623344942
  0
LINE
  5
34A
100
AcDbEntity
  8
0
100
AcDbLine
 62
7
  6
CONTINUOUS
 10
523.436867054
 20
635.7892825606
 11
526.9723862401
 21
637.8305033299
  0
LINE
  5
34B
100
AcDbEntity
  8
0
100
AcDbLine
 62
7
  6
CONTINUOUS
 10
531.9221543161
 20
634.9728180483
 11
528.3866351301
 21
632.9315972789
  0
LINE
  5
34C
100
AcDbEntity
  8
0
100
AcDbLine
 62
7
  6
CONTINUOUS
 10
528.7402051558
 20
632.3192273929
 11
531.9221543161
 21
634.1563156312
  0
LINE
  5
34D
100
AcDbEntity
  8
0
100
AcDbLine
 62
7
  6
CONTINUOUS
 10
544.6501264248
 20
628.0327269211
 11
544.6501264248
 21
627.6244844633
  0
LINE
  5
34E
100
AcDbEntity
  8
0
100
AcDbLine
 62
7
  6
CONTINUOUS
 10
546.0643782587
 20
622.3173359578
 11
546.0643782587
 21
622.7255784159
  0
LINE
  5
34F
100
AcDbEntity
  8
0
100
AcDbLine
 62
7
  6
CONTINUOUS
 10
549.5998974448
 20
624.7667991853
 11
549.5998974448
 21
623.9502967682
  0
LINE
  5
350
100
AcDbEntity
  8
0
100
AcDbLine
 62
7
  6
CONTINUOUS
 10
550.307004226
 20
623.9502984678
 11
550.307004226
 21
624.766800885
  0
LINE
  5
351
100
AcDbEntity
  8
0
100
AcDbLine
 62
7
  6
CONTINUOUS
 10
562.3278695535
 20
617.8267080581
 11
562.3278695535
 21
617.4184656003
  0
LINE
  5
352
100
AcDbEntity
  8
0
100
AcDbLine
 62
7
  6
CONTINUOUS
 10
541.1146101827
 20
625.5832636976
 11
544.6501293688
 21
627.6244844669
  0
LINE
  5
353
100
AcDbEntity
  8
0
100
AcDbLine
 62
7
  6
CONTINUOUS
 10
549.5998974448
 20
624.7667991853
 11
546.0643782587
 21
622.7255784159
  0
LINE
  5
354
100
AcDbEntity
  8
0
100
AcDbLine
 62
7
  6
CONTINUOUS
 10
546.4179482845
 20
622.1132085299
 11
549.5998974448
 21
623.9502967682
  0
LINE
  5
355
100
AcDbEntity
  8
0
100
AcDbLine
 62
7
  6
CONTINUOUS
 10
558.7923533114
 20
615.3772448346
 11
562.3278724974
 21
617.4184656039
  0
LINE
  5
356
100
AcDbEntity
  8
0
100
AcDbLine
 62
7
  6
CONTINUOUS
 10
567.2776405735
 20
614.5607803223
 11
563.7421213874
 21
612.5195595529
  0
LINE
  5
357
100
AcDbEntity
  8
0
100
AcDbLine
 62
7
  6
CONTINUOUS
 10
564.0956914132
 20
611.9071896669
 11
567.2776405735
 21
613.7442779052
  0
LINE
  5
358
100
AcDbEntity
  8
0
100
AcDbLine
 62
7
  6
CONTINUOUS
 10
821.8357921742
 20
457.797088767
 11
822.1612688005
 21
457.4980405971
  0
LINE
  5
359
100
AcDbEntity
  8
0
100
AcDbLine
 62
7
  6
CONTINUOUS
 10
822.1612632366
 20
458.3145334857
 11
821.8357921742
 21
458.6135911842
  0
LINE
  5
35A
100
AcDbEntity
  8
0
100
AcDbLine
 62
7
  6
CONTINUOUS
 10
563.7421213874
 20
612.1113170948
 11
563.7421213874
 21
612.5195595529
  0
LINE
  5
35B
100
AcDbEntity
  8
0
100
AcDbLine
 62
7
  6
CONTINUOUS
 10
567.2776405735
 20
614.5607803223
 11
567.2776405735
 21
613.7442779052
  0
LINE
  5
35C
100
AcDbEntity
  8
0
100
AcDbLine
 62
7
  6
CONTINUOUS
 10
567.9847473547
 20
613.7442796048
 11
567.9847473547
 21
614.560782022
  0
LINE
  5
35D
100
AcDbEntity
  8
0
100
AcDbLine
 62
7
  6
CONTINUOUS
 10
580.0056126821
 20
607.6206891951
 11
580.0056126821
 21
607.2124467373
  0
LINE
  5
35E
100
AcDbEntity
  8
0
100
AcDbLine
 62
7
  6
CONTINUOUS
 10
581.4198645161
 20
601.9052982317
 11
581.4198645161
 21
602.3135406899
  0
LINE
  5
35F
100
AcDbEntity
  8
0
100
AcDbLine
 62
7
  6
CONTINUOUS
 10
584.9553837021
 20
604.3547614593
 11
584.9553837021
 21
603.5382590421
  0
LINE
  5
360
100
AcDbEntity
  8
0
100
AcDbLine
 62
7
  6
CONTINUOUS
 10
585.6624904833
 20
603.5382607418
 11
585.6624904833
 21
604.354763159
  0
LINE
  5
361
100
AcDbEntity
  8
0
100
AcDbLine
 62
7
  6
CONTINUOUS
 10
576.47009644
 20
605.1712259716
 11
580.0056156261
 21
607.2124467409
  0
LINE
  5
362
100
AcDbEntity
  8
0
100
AcDbLine
 62
7
  6
CONTINUOUS
 10
584.9553837021
 20
604.3547614593
 11
581.4198645161
 21
602.3135406899
  0
LINE
  5
363
100
AcDbEntity
  8
0
100
AcDbLine
 62
7
  6
CONTINUOUS
 10
581.7734345419
 20
601.7011708038
 11
584.9553837021
 21
603.5382590421
  0
LINE
  5
364
100
AcDbEntity
  8
0
100
AcDbLine
 62
7
  6
CONTINUOUS
 10
830.3210382208
 20
462.6960186135
 11
830.6465148471
 21
462.3969704435
  0
LINE
  5
365
100
AcDbEntity
  8
0
100
AcDbLine
 62
7
  6
CONTINUOUS
 10
830.6465092832
 20
463.2134633321
 11
830.3210382208
 21
463.5125210306
  0
LINE
  5
366
100
AcDbEntity
  8
0
100
AcDbLine
 62
7
  6
CONTINUOUS
 10
597.6833558108
 20
597.4146703321
 11
597.6833558108
 21
597.0064278743
  0
LINE
  5
367
100
AcDbEntity
  8
0
100
AcDbLine
 62
7
  6
CONTINUOUS
 10
599.0976076448
 20
591.6992793687
 11
599.0976076448
 21
592.1075218269
  0
LINE
  5
368
100
AcDbEntity
  8
0
100
AcDbLine
 62
7
  6
CONTINUOUS
 10
602.6331268308
 20
594.1487425963
 11
602.6331268308
 21
593.3322401791
  0
LINE
  5
369
100
AcDbEntity
  8
0
100
AcDbLine
 62
7
  6
CONTINUOUS
 10
603.340233612
 20
593.3322418788
 11
603.340233612
 21
594.1487442959
  0
LINE
  5
36A
100
AcDbEntity
  8
0
100
AcDbLine
 62
7
  6
CONTINUOUS
 10
615.3610989395
 20
587.2086514691
 11
615.3610989395
 21
586.8004090113
  0
LINE
  5
36B
100
AcDbEntity
  8
0
100
AcDbLine
 62
7
  6
CONTINUOUS
 10
616.7753507734
 20
581.4932605057
 11
616.7753507734
 21
581.9015029639
  0
LINE
  5
36C
100
AcDbEntity
  8
0
100
AcDbLine
 62
7
  6
CONTINUOUS
 10
594.1478395687
 20
594.9652071086
 11
597.6833587548
 21
597.0064278779
  0
LINE
  5
36D
100
AcDbEntity
  8
0
100
AcDbLine
 62
7
  6
CONTINUOUS
 10
602.6331268308
 20
594.1487425963
 11
599.0976076448
 21
592.1075218269
  0
LINE
  5
36E
100
AcDbEntity
  8
0
100
AcDbLine
 62
7
  6
CONTINUOUS
 10
599.4511776705
 20
591.4951519408
 11
602.6331268308
 21
593.3322401791
  0
LINE
  5
36F
100
AcDbEntity
  8
0
100
AcDbLine
 62
7
  6
CONTINUOUS
 10
611.8255826974
 20
584.7591882455
 11
615.3611018835
 21
586.8004090149
  0
LINE
  5
370
100
AcDbEntity
  8
0
100
AcDbLine
 62
7
  6
CONTINUOUS
 10
620.3108699595
 20
583.9427237333
 11
616.7753507734
 21
581.9015029639
  0
LINE
  5
371
100
AcDbEntity
  8
0
100
AcDbLine
 62
7
  6
CONTINUOUS
 10
617.1289207992
 20
581.2891330778
 11
620.3108699595
 21
583.1262213161
  0
LINE
  5
372
100
AcDbEntity
  8
0
100
AcDbLine
 62
7
  6
CONTINUOUS
 10
620.3108699595
 20
583.9427237333
 11
620.3108699595
 21
583.1262213161
  0
LINE
  5
373
100
AcDbEntity
  8
0
100
AcDbLine
 62
7
  6
CONTINUOUS
 10
621.0179767407
 20
583.1262230158
 11
621.0179767407
 21
583.9427254329
  0
LINE
  5
374
100
AcDbEntity
  8
0
100
AcDbLine
 62
7
  6
CONTINUOUS
 10
633.0388420682
 20
577.0026326061
 11
633.0388420682
 21
576.5943901483
  0
LINE
  5
375
100
AcDbEntity
  8
0
100
AcDbLine
 62
7
  6
CONTINUOUS
 10
634.4530939021
 20
571.2872416427
 11
634.4530939021
 21
571.6954841009
  0
LINE
  5
376
100
AcDbEntity
  8
0
100
AcDbLine
 62
7
  6
CONTINUOUS
 10
637.9886130882
 20
573.7367048703
 11
637.9886130882
 21
572.9202024531
  0
LINE
  5
377
100
AcDbEntity
  8
0
100
AcDbLine
 62
7
  6
CONTINUOUS
 10
638.6957198693
 20
572.9202041528
 11
638.6957198693
 21
573.7367065699
  0
LINE
  5
378
100
AcDbEntity
  8
0
100
AcDbLine
 62
7
  6
CONTINUOUS
 10
629.5033258261
 20
574.5531693825
 11
633.0388450121
 21
576.5943901519
  0
LINE
  5
379
100
AcDbEntity
  8
0
100
AcDbLine
 62
7
  6
CONTINUOUS
 10
637.9886130882
 20
573.7367048703
 11
634.4530939021
 21
571.6954841009
  0
LINE
  5
37A
100
AcDbEntity
  8
0
100
AcDbLine
 62
7
  6
CONTINUOUS
 10
634.8066639279
 20
571.0831142148
 11
637.9886130882
 21
572.9202024531
  0
LINE
  5
37B
100
AcDbEntity
  8
0
100
AcDbLine
 62
7
  6
CONTINUOUS
 10
647.1810689547
 20
564.3471505195
 11
650.7165881408
 21
566.3883712889
  0
LINE
  5
37C
100
AcDbEntity
  8
0
100
AcDbLine
 62
7
  6
CONTINUOUS
 10
650.7165851968
 20
566.7966137431
 11
650.7165851968
 21
566.3883712852
  0
LINE
  5
37D
100
AcDbEntity
  8
0
100
AcDbLine
 62
7
  6
CONTINUOUS
 10
652.1308370308
 20
561.0812227797
 11
652.1308370308
 21
561.4894652379
  0
LINE
  5
37E
100
AcDbEntity
  8
0
100
AcDbLine
 62
7
  6
CONTINUOUS
 10
655.6663562168
 20
563.5306860072
 11
655.6663562168
 21
562.7141835901
  0
LINE
  5
37F
100
AcDbEntity
  8
0
100
AcDbLine
 62
7
  6
CONTINUOUS
 10
656.373462998
 20
562.7141852898
 11
656.373462998
 21
563.5306877069
  0
LINE
  5
380
100
AcDbEntity
  8
0
100
AcDbLine
 62
7
  6
CONTINUOUS
 10
668.3943283255
 20
556.5905948801
 11
668.3943283255
 21
556.1823524222
  0
LINE
  5
381
100
AcDbEntity
  8
0
100
AcDbLine
 62
7
  6
CONTINUOUS
 10
669.8085801594
 20
550.8752039167
 11
669.8085801594
 21
551.2834463749
  0
LINE
  5
382
100
AcDbEntity
  8
0
100
AcDbLine
 62
7
  6
CONTINUOUS
 10
673.3440993455
 20
553.3246671442
 11
673.3440993455
 21
552.5081647271
  0
LINE
  5
383
100
AcDbEntity
  8
0
100
AcDbLine
 62
7
  6
CONTINUOUS
 10
674.0512061267
 20
552.5081664268
 11
674.0512061267
 21
553.3246688439
  0
LINE
  5
384
100
AcDbEntity
  8
0
100
AcDbLine
 62
7
  6
CONTINUOUS
 10
655.6663562168
 20
563.5306860072
 11
652.1308370308
 21
561.4894652379
  0
LINE
  5
385
100
AcDbEntity
  8
0
100
AcDbLine
 62
7
  6
CONTINUOUS
 10
652.4844070566
 20
560.8770953518
 11
655.6663562168
 21
562.7141835901
  0
LINE
  5
386
100
AcDbEntity
  8
0
100
AcDbLine
 62
7
  6
CONTINUOUS
 10
664.8588120834
 20
554.1411316565
 11
668.3943312695
 21
556.1823524259
  0
LINE
  5
387
100
AcDbEntity
  8
0
100
AcDbLine
 62
7
  6
CONTINUOUS
 10
673.3440993455
 20
553.3246671442
 11
669.8085801594
 21
551.2834463749
  0
LINE
  5
388
100
AcDbEntity
  8
0
100
AcDbLine
 62
7
  6
CONTINUOUS
 10
670.1621501852
 20
550.6710764888
 11
673.3440993455
 21
552.5081647271
  0
LINE
  5
389
100
AcDbEntity
  8
0
100
AcDbLine
 62
7
  6
CONTINUOUS
 10
686.0720714542
 20
546.3845760171
 11
686.0720714542
 21
545.9763335592
  0
LINE
  5
38A
100
AcDbEntity
  8
0
100
AcDbLine
 62
7
  6
CONTINUOUS
 10
687.4863232881
 20
540.6691850537
 11
687.4863232881
 21
541.0774275119
  0
LINE
  5
38B
100
AcDbEntity
  8
0
100
AcDbLine
 62
7
  6
CONTINUOUS
 10
691.0218424742
 20
543.1186482812
 11
691.0218424742
 21
542.3021458641
  0
LINE
  5
38C
100
AcDbEntity
  8
0
100
AcDbLine
 62
7
  6
CONTINUOUS
 10
691.7289492554
 20
542.3021475638
 11
691.7289492554
 21
543.1186499809
  0
LINE
  5
38D
100
AcDbEntity
  8
0
100
AcDbLine
 62
7
  6
CONTINUOUS
 10
703.7498145829
 20
536.1785571541
 11
703.7498145829
 21
535.7703146962
  0
LINE
  5
38E
100
AcDbEntity
  8
0
100
AcDbLine
 62
7
  6
CONTINUOUS
 10
682.5365552121
 20
543.9351127935
 11
686.0720743982
 21
545.9763335629
  0
LINE
  5
38F
100
AcDbEntity
  8
0
100
AcDbLine
 62
7
  6
CONTINUOUS
 10
691.0218424742
 20
543.1186482812
 11
687.4863232881
 21
541.0774275119
  0
LINE
  5
390
100
AcDbEntity
  8
0
100
AcDbLine
 62
7
  6
CONTINUOUS
 10
687.8398933139
 20
540.4650576258
 11
691.0218424742
 21
542.3021458641
  0
LINE
  5
391
100
AcDbEntity
  8
0
100
AcDbLine
 62
7
  6
CONTINUOUS
 10
700.2142983408
 20
533.7290939305
 11
703.7498175268
 21
535.7703146999
  0
LINE
  5
392
100
AcDbEntity
  8
0
100
AcDbLine
 62
7
  6
CONTINUOUS
 10
708.6995856029
 20
532.9126294182
 11
705.1640664168
 21
530.8714086489
  0
LINE
  5
393
100
AcDbEntity
  8
0
100
AcDbLine
 62
7
  6
CONTINUOUS
 10
705.1640664168
 20
530.4631661907
 11
705.1640664168
 21
530.8714086489
  0
LINE
  5
394
100
AcDbEntity
  8
0
100
AcDbLine
 62
7
  6
CONTINUOUS
 10
708.6995856029
 20
532.9126294182
 11
708.6995856029
 21
532.0961270011
  0
LINE
  5
395
100
AcDbEntity
  8
0
100
AcDbLine
 62
7
  6
CONTINUOUS
 10
709.406692384
 20
532.0961287008
 11
709.406692384
 21
532.9126311179
  0
LINE
  5
396
100
AcDbEntity
  8
0
100
AcDbLine
 62
7
  6
CONTINUOUS
 10
721.4275577115
 20
525.9725382911
 11
721.4275577115
 21
525.5642958332
  0
LINE
  5
397
100
AcDbEntity
  8
0
100
AcDbLine
 62
7
  6
CONTINUOUS
 10
722.8418095455
 20
520.2571473277
 11
722.8418095455
 21
520.6653897859
  0
LINE
  5
398
100
AcDbEntity
  8
0
100
AcDbLine
 62
7
  6
CONTINUOUS
 10
726.3773287315
 20
522.7066105552
 11
726.3773287315
 21
521.8901081381
  0
LINE
  5
399
100
AcDbEntity
  8
0
100
AcDbLine
 62
7
  6
CONTINUOUS
 10
727.0844355127
 20
521.8901098378
 11
727.0844355127
 21
522.7066122549
  0
LINE
  5
39A
100
AcDbEntity
  8
0
100
AcDbLine
 62
7
  6
CONTINUOUS
 10
705.5176364426
 20
530.2590387628
 11
708.6995856029
 21
532.0961270011
  0
LINE
  5
39B
100
AcDbEntity
  8
0
100
AcDbLine
 62
7
  6
CONTINUOUS
 10
717.8920414694
 20
523.5230750675
 11
721.4275606555
 21
525.5642958369
  0
LINE
  5
39C
100
AcDbEntity
  8
0
100
AcDbLine
 62
7
  6
CONTINUOUS
 10
726.3773287315
 20
522.7066105552
 11
722.8418095455
 21
520.6653897859
  0
LINE
  5
39D
100
AcDbEntity
  8
0
100
AcDbLine
 62
7
  6
CONTINUOUS
 10
723.1953795713
 20
520.0530198998
 11
726.3773287315
 21
521.8901081381
  0
LINE
  5
39E
100
AcDbEntity
  8
0
100
AcDbLine
 62
7
  6
CONTINUOUS
 10
739.1053008402
 20
515.766519428
 11
739.1053008402
 21
515.3582769702
  0
LINE
  5
39F
100
AcDbEntity
  8
0
100
AcDbLine
 62
7
  6
CONTINUOUS
 10
740.5195526741
 20
510.0511284647
 11
740.5195526741
 21
510.4593709229
  0
LINE
  5
3A0
100
AcDbEntity
  8
0
100
AcDbLine
 62
7
  6
CONTINUOUS
 10
744.0550718602
 20
512.5005916922
 11
744.0550718602
 21
511.6840892751
  0
LINE
  5
3A1
100
AcDbEntity
  8
0
100
AcDbLine
 62
7
  6
CONTINUOUS
 10
744.7621786414
 20
511.6840909748
 11
744.7621786414
 21
512.5005933919
  0
LINE
  5
3A2
100
AcDbEntity
  8
0
100
AcDbLine
 62
7
  6
CONTINUOUS
 10
756.7830439689
 20
505.560500565
 11
756.7830439689
 21
505.1522581108
  0
LINE
  5
3A3
100
AcDbEntity
  8
0
100
AcDbLine
 62
7
  6
CONTINUOUS
 10
758.1972958028
 20
499.8451096017
 11
758.1972958028
 21
500.2533520598
  0
LINE
  5
3A4
100
AcDbEntity
  8
0
100
AcDbLine
 62
7
  6
CONTINUOUS
 10
735.5697845981
 20
513.3170562045
 11
739.1053037842
 21
515.3582769739
  0
LINE
  5
3A5
100
AcDbEntity
  8
0
100
AcDbLine
 62
7
  6
CONTINUOUS
 10
744.0550718602
 20
512.5005916922
 11
740.5195526741
 21
510.4593709229
  0
LINE
  5
3A6
100
AcDbEntity
  8
0
100
AcDbLine
 62
7
  6
CONTINUOUS
 10
740.8731226999
 20
509.8470010368
 11
744.0550718602
 21
511.6840892751
  0
LINE
  5
3A7
100
AcDbEntity
  8
0
100
AcDbLine
 62
7
  6
CONTINUOUS
 10
753.2475277268
 20
503.1110373415
 11
756.7830469129
 21
505.1522581108
  0
LINE
  5
3A8
100
AcDbEntity
  8
0
100
AcDbLine
 62
7
  6
CONTINUOUS
 10
761.7328149889
 20
502.2945728292
 11
758.1972958028
 21
500.2533520598
  0
LINE
  5
3A9
100
AcDbEntity
  8
0
100
AcDbLine
 62
7
  6
CONTINUOUS
 10
758.5508658286
 20
499.6409821738
 11
761.7328149889
 21
501.4780704121
  0
LINE
  5
3AA
100
AcDbEntity
  8
0
100
AcDbLine
 62
7
  6
CONTINUOUS
 10
761.7328149889
 20
502.2945728292
 11
761.7328149889
 21
501.4780704121
  0
LINE
  5
3AB
100
AcDbEntity
  8
0
100
AcDbLine
 62
7
  6
CONTINUOUS
 10
762.4399217701
 20
501.4780721117
 11
762.4399217701
 21
502.2945745289
  0
LINE
  5
3AC
100
AcDbEntity
  8
0
100
AcDbLine
 62
7
  6
CONTINUOUS
 10
774.4607870976
 20
495.354481702
 11
774.4607870976
 21
494.9462392478
  0
LINE
  5
3AD
100
AcDbEntity
  8
0
100
AcDbLine
 62
7
  6
CONTINUOUS
 10
775.8750389315
 20
489.6390907387
 11
775.8750389315
 21
490.0473331968
  0
LINE
  5
3AE
100
AcDbEntity
  8
0
100
AcDbLine
 62
7
  6
CONTINUOUS
 10
779.4105581176
 20
492.0885539662
 11
779.4105581176
 21
491.2720515491
  0
LINE
  5
3AF
100
AcDbEntity
  8
0
100
AcDbLine
 62
7
  6
CONTINUOUS
 10
780.1176648987
 20
491.2720532487
 11
780.1176648987
 21
492.0885556659
  0
LINE
  5
3B0
100
AcDbEntity
  8
0
100
AcDbLine
 62
7
  6
CONTINUOUS
 10
770.9252708555
 20
492.9050184785
 11
774.4607900415
 21
494.9462392478
  0
LINE
  5
3B1
100
AcDbEntity
  8
0
100
AcDbLine
 62
7
  6
CONTINUOUS
 10
779.4105581176
 20
492.0885539662
 11
775.8750389315
 21
490.0473331968
  0
LINE
  5
3B2
100
AcDbEntity
  8
0
100
AcDbLine
 62
7
  6
CONTINUOUS
 10
776.2286089573
 20
489.4349633108
 11
779.4105581176
 21
491.2720515491
  0
LINE
  5
3B3
100
AcDbEntity
  8
0
100
AcDbLine
 62
7
  6
CONTINUOUS
 10
788.6030139841
 20
482.6989996155
 11
792.1385331702
 21
484.7402203848
  0
LINE
  5
3B4
100
AcDbEntity
  8
0
100
AcDbLine
 62
7
  6
CONTINUOUS
 10
792.1385302262
 20
485.148462839
 11
792.1385302262
 21
484.7402203848
  0
LINE
  5
3B5
100
AcDbEntity
  8
0
100
AcDbLine
 62
7
  6
CONTINUOUS
 10
793.5527820602
 20
479.4330718757
 11
793.5527820602
 21
479.8413143338
  0
LINE
  5
3B6
100
AcDbEntity
  8
0
100
AcDbLine
 62
7
  6
CONTINUOUS
 10
797.0883012462
 20
481.8825351032
 11
797.0883012462
 21
481.0660326861
  0
LINE
  5
3B7
100
AcDbEntity
  8
0
100
AcDbLine
 62
7
  6
CONTINUOUS
 10
797.7954080274
 20
481.0660343857
 11
797.7954080274
 21
481.8825368029
  0
LINE
  5
3B8
100
AcDbEntity
  8
0
100
AcDbLine
 62
7
  6
CONTINUOUS
 10
809.8162733549
 20
474.942443976
 11
809.8162733549
 21
474.5342015218
  0
LINE
  5
3B9
100
AcDbEntity
  8
0
100
AcDbLine
 62
7
  6
CONTINUOUS
 10
811.2305251888
 20
469.2270530126
 11
811.2305251888
 21
469.6352954708
  0
LINE
  5
3BA
100
AcDbEntity
  8
0
100
AcDbLine
 62
7
  6
CONTINUOUS
 10
814.7660443749
 20
471.6765162402
 11
814.7660443749
 21
470.860013823
  0
LINE
  5
3BB
100
AcDbEntity
  8
0
100
AcDbLine
 62
7
  6
CONTINUOUS
 10
815.4718576393
 20
449.632128088
 11
815.4718576393
 21
448.8156256709
  0
LINE
  5
3BC
100
AcDbEntity
  8
0
100
AcDbLine
 62
7
  6
CONTINUOUS
 10
815.4731511561
 20
470.8600155227
 11
815.4731511561
 21
471.6765179399
  0
LINE
  5
3BD
100
AcDbEntity
  8
0
100
AcDbLine
 62
7
  6
CONTINUOUS
 10
797.0883012462
 20
481.8825351032
 11
793.5527820602
 21
479.8413143338
  0
LINE
  5
3BE
100
AcDbEntity
  8
0
100
AcDbLine
 62
7
  6
CONTINUOUS
 10
793.9063520859
 20
479.2289444478
 11
797.0883012462
 21
481.0660326861
  0
LINE
  5
3BF
100
AcDbEntity
  8
0
100
AcDbLine
 62
7
  6
CONTINUOUS
 10
806.2807571128
 20
472.4929807525
 11
809.8162762989
 21
474.5342015218
  0
LINE
  5
3C0
100
AcDbEntity
  8
0
100
AcDbLine
 62
7
  6
CONTINUOUS
 10
814.7660443749
 20
471.6765162402
 11
811.2305251888
 21
469.6352954708
  0
LINE
  5
3C1
100
AcDbEntity
  8
0
100
AcDbLine
 62
7
  6
CONTINUOUS
 10
811.5840952146
 20
469.0229255847
 11
814.7660443749
 21
470.860013823
  0
LINE
  5
3C2
100
AcDbEntity
  8
0
100
AcDbLine
 62
7
  6
CONTINUOUS
 10
818.3002729881
 20
455.5925675143
 11
818.3002729881
 21
451.4284051869
  0
LINE
  5
3C3
100
AcDbEntity
  8
0
100
AcDbLine
 62
7
  6
CONTINUOUS
 10
819.0073768253
 20
451.8366493408
 11
819.0073768253
 21
456.0008116681
  0
LINE
  5
3C4
100
AcDbEntity
  8
0
100
AcDbLine
 62
7
  6
CONTINUOUS
 10
827.4940164836
 20
464.736425113
 11
827.4940164836
 21
464.3281826588
  0
LINE
  5
3C5
100
AcDbEntity
  8
0
100
AcDbLine
 62
7
  6
CONTINUOUS
 10
836.6849727557
 20
466.2069155149
 11
836.6849727557
 21
462.0427531876
  0
LINE
  5
3C6
100
AcDbEntity
  8
0
100
AcDbLine
 62
7
  6
CONTINUOUS
 10
837.3920765929
 20
462.4509973414
 11
837.3920765929
 21
466.6151596688
  0
LINE
  5
3C7
100
AcDbEntity
  8
0
100
AcDbLine
 62
7
  6
CONTINUOUS
 10
840.2204919418
 20
463.1041710564
 11
840.2204919418
 21
463.9206734735
  0
LINE
  5
3C8
100
AcDbEntity
  8
0
100
AcDbLine
 62
7
  6
CONTINUOUS
 10
823.9585002415
 20
462.2869618895
 11
827.4940194276
 21
464.3281826588
  0
LINE
  5
3C9
100
AcDbEntity
  8
0
100
AcDbLine
 62
7
  6
CONTINUOUS
 10
836.5435519882
 20
467.1050695847
 11
833.8565574068
 21
465.5537418
  0
LINE
  5
3CA
100
AcDbEntity
  8
0
100
AcDbLine
 62
7
  6
CONTINUOUS
 10
830.3210382208
 20
463.5125210306
 11
825.3713113603
 21
460.6548119535
  0
LINE
  5
3CB
100
AcDbEntity
  8
0
100
AcDbLine
 62
7
  6
CONTINUOUS
 10
821.8357921742
 20
458.6135911842
 11
819.1487975928
 21
457.0622633995
  0
LINE
  5
3CC
100
AcDbEntity
  8
0
100
AcDbLine
 62
7
  6
CONTINUOUS
 10
819.1487975928
 20
456.2457609823
 11
821.8357921742
 21
457.797088767
  0
LINE
  5
3CD
100
AcDbEntity
  8
0
100
AcDbLine
 62
7
  6
CONTINUOUS
 10
825.3713113603
 20
459.8383095364
 11
830.3210382208
 21
462.6960186135
  0
LINE
  5
3CE
100
AcDbEntity
  8
0
100
AcDbLine
 62
7
  6
CONTINUOUS
 10
833.8565574068
 20
464.7372393829
 11
836.5435519882
 21
466.2885671676
  0
LINE
  5
3CF
100
AcDbEntity
  8
0
100
AcDbLine
 62
7
  6
CONTINUOUS
 10
840.2204919418
 20
463.9206734735
 11
837.5334973603
 21
462.3693456888
  0
LINE
  5
3D0
100
AcDbEntity
  8
0
100
AcDbLine
 62
7
  6
CONTINUOUS
 10
818.1588522207
 20
451.1834558727
 11
815.4718576393
 21
449.632128088
  0
LINE
  5
3D1
100
AcDbEntity
  8
0
100
AcDbLine
 62
7
  6
CONTINUOUS
 10
815.4718576393
 20
448.8156256709
 11
818.1588522207
 21
450.3669534556
  0
LINE
  5
3D2
100
AcDbEntity
  8
0
100
AcDbLine
 62
7
  6
CONTINUOUS
 10
837.5334973603
 20
461.5528432716
 11
840.2204919418
 21
463.1041710564
  0
SPLINE
  5
3D3
100
AcDbEntity
  8
0
100
AcDbSpline
 62
7
  6
CONTINUOUS
 70
0
 71
3
 72
10
 73
6
 74
0
 42
0.0000001
 43
0.0000001
 44
0.0000000001
 40
0.0
 40
0.0
 40
0.0
 40
0.0
 40
0.4059980253
 40
0.6940384828
 40
1.0
 40
1.0
 40
1.0
 40
1.0
 10
822.1604761242
 20
457.4966685626
 30
0.0
 10
822.6622279123
 20
457.2063852445
 30
0.0
 10
823.855985419
 20
457.6436848961
 30
0.0
 10
824.7822402063
 20
458.6765217763
 30
0.0
 10
825.2132965556
 20
459.4310470069
 30
0.0
 10
825.3713113603
 20
459.8383095364
 30
0.0
  0
SPLINE
  5
3D4
100
AcDbEntity
  8
0
100
AcDbSpline
 62
7
  6
CONTINUOUS
 70
0
 71
3
 72
9
 73
5
 74
0
 42
0.0000001
 43
0.0000001
 44
0.0000000001
 40
0.0
 40
0.0
 40
0.0
 40
0.0
 40
0.5523747382
 40
1.0
 40
1.0
 40
1.0
 40
1.0
 10
836.5435519882
 20
466.2885671676
 30
0.0
 10
836.5611805477
 20
466.2987449604
 30
0.0
 10
836.5943527039
 20
466.3126260057
 30
0.0
 10
836.6354182632
 20
466.3173478125
 30
0.0
 10
836.6496717312
 20
466.3090447274
 30
0.0
  0
SPLINE
  5
3D5
100
AcDbEntity
  8
0
100
AcDbSpline
 62
7
  6
CONTINUOUS
 70
0
 71
3
 72
8
 73
4
 74
0
 42
0.0000001
 43
0.0000001
 44
0.0000000001
 40
0.0
 40
0.0
 40
0.0
 40
0.0
 40
1.0
 40
1.0
 40
1.0
 40
1.0
 10
819.0073768253
 20
456.0008116681
 30
0.0
 10
819.0073768253
 20
456.0715231629
 30
0.0
 10
819.0505359008
 20
456.2054111546
 30
0.0
 10
819.1173370208
 20
456.182222238
 30
0.0
  0
SPLINE
  5
3D6
100
AcDbEntity
  8
0
100
AcDbSpline
 62
7
  6
CONTINUOUS
 70
0
 71
3
 72
9
 73
5
 74
0
 42
0.0000001
 43
0.0000001
 44
0.0000000001
 40
0.0
 40
0.0
 40
0.0
 40
0.0
 40
0.2405215751
 40
1.0
 40
1.0
 40
1.0
 40
1.0
 10
818.1588522207
 20
450.3669534556
 30
0.0
 10
818.2792111319
 20
450.4364422905
 30
0.0
 10
818.7221207069
 20
450.811262833
 30
0.0
 10
819.0073768253
 20
451.3978071521
 30
0.0
 10
819.0073768253
 20
451.8366493408
 30
0.0
  0
SPLINE
  5
3D7
100
AcDbEntity
  8
0
100
AcDbSpline
 62
7
  6
CONTINUOUS
 70
0
 71
3
 72
9
 73
5
 74
0
 42
0.0000001
 43
0.0000001
 44
0.0000000001
 40
0.0
 40
0.0
 40
0.0
 40
0.0
 40
0.2939117531
 40
1.0
 40
1.0
 40
1.0
 40
1.0
 10
837.3920765929
 20
466.6151596688
 30
0.0
 10
837.3920765929
 20
466.6756152936
 30
0.0
 10
837.3778560229
 20
466.8784595432
 30
0.0
 10
837.2693771915
 20
467.0919813955
 30
0.0
 10
837.1435971584
 20
467.1645989733
 30
0.0
  0
SPLINE
  5
3D8
100
AcDbEntity
  8
0
100
AcDbSpline
 62
7
  6
CONTINUOUS
 70
0
 71
3
 72
8
 73
4
 74
0
 42
0.0000001
 43
0.0000001
 44
0.0000000001
 40
0.0
 40
0.0
 40
0.0
 40
0.0
 40
1.0
 40
1.0
 40
1.0
 40
1.0
 10
811.2305281397
 20
469.2270530126
 30
0.0
 10
811.1788422467
 20
469.2568932021
 30
0.0
 10
811.1293554004
 20
469.299143593
 30
0.0
 10
811.1029342225
 20
469.3526579817
 30
0.0
  0
SPLINE
  5
3D9
100
AcDbEntity
  8
0
100
AcDbSpline
 62
7
  6
CONTINUOUS
 70
0
 71
3
 72
9
 73
5
 74
0
 42
0.0000001
 43
0.0000001
 44
0.0000000001
 40
0.0
 40
0.0
 40
0.0
 40
0.0
 40
0.5092901302
 40
1.0
 40
1.0
 40
1.0
 40
1.0
 10
811.1029342225
 20
469.3526579817
 30
0.0
 10
811.0968235094
 20
469.3650348362
 30
0.0
 10
811.0872988378
 20
469.3906777072
 30
0.0
 10
811.0839953301
 20
469.4178741123
 30
0.0
 10
811.0839987134
 20
469.4311736998
 30
0.0
  0
SPLINE
  5
3DA
100
AcDbEntity
  8
0
100
AcDbSpline
 62
7
  6
CONTINUOUS
 70
0
 71
3
 72
8
 73
4
 74
0
 42
0.0000001
 43
0.0000001
 44
0.0000000001
 40
0.0
 40
0.0
 40
0.0
 40
0.0
 40
1.0
 40
1.0
 40
1.0
 40
1.0
 10
823.9585002484
 20
462.2869618934
 30
0.0
 10
823.7543757942
 20
462.1691112895
 30
0.0
 10
823.455518758
 20
462.1691110615
 30
0.0
 10
823.251393454
 20
462.2869601934
 30
0.0
  0
SPLINE
  5
3DB
100
AcDbEntity
  8
0
100
AcDbSpline
 62
7
  6
CONTINUOUS
 70
0
 71
3
 72
8
 73
4
 74
0
 42
0.0000001
 43
0.0000001
 44
0.0000000001
 40
0.0
 40
0.0
 40
0.0
 40
0.0
 40
1.0
 40
1.0
 40
1.0
 40
1.0
 10
793.552785011
 20
479.4330718757
 30
0.0
 10
793.501099118
 20
479.4629120651
 30
0.0
 10
793.4516122717
 20
479.505162456
 30
0.0
 10
793.4251910938
 20
479.5586768447
 30
0.0
  0
SPLINE
  5
3DC
100
AcDbEntity
  8
0
100
AcDbSpline
 62
7
  6
CONTINUOUS
 70
0
 71
3
 72
9
 73
5
 74
0
 42
0.0000001
 43
0.0000001
 44
0.0000000001
 40
0.0
 40
0.0
 40
0.0
 40
0.0
 40
0.5092901302
 40
1.0
 40
1.0
 40
1.0
 40
1.0
 10
793.4251910938
 20
479.5586768447
 30
0.0
 10
793.4190803808
 20
479.5710536992
 30
0.0
 10
793.4095557092
 20
479.5966965702
 30
0.0
 10
793.4062522014
 20
479.6238929753
 30
0.0
 10
793.4062555848
 20
479.6371925628
 30
0.0
  0
SPLINE
  5
3DD
100
AcDbEntity
  8
0
100
AcDbSpline
 62
7
  6
CONTINUOUS
 70
0
 71
3
 72
8
 73
4
 74
0
 42
0.0000001
 43
0.0000001
 44
0.0000000001
 40
0.0
 40
0.0
 40
0.0
 40
0.0
 40
1.0
 40
1.0
 40
1.0
 40
1.0
 10
806.2807571197
 20
472.4929807564
 30
0.0
 10
806.0766326655
 20
472.3751301525
 30
0.0
 10
805.7777756293
 20
472.3751299245
 30
0.0
 10
805.5736503253
 20
472.4929790564
 30
0.0
  0
SPLINE
  5
3DE
100
AcDbEntity
  8
0
100
AcDbSpline
 62
7
  6
CONTINUOUS
 70
0
 71
3
 72
8
 73
4
 74
0
 42
0.0000001
 43
0.0000001
 44
0.0000000001
 40
0.0
 40
0.0
 40
0.0
 40
0.0
 40
1.0
 40
1.0
 40
1.0
 40
1.0
 10
775.8750418824
 20
489.6390907387
 30
0.0
 10
775.8233559894
 20
489.6689309281
 30
0.0
 10
775.773869143
 20
489.711181319
 30
0.0
 10
775.7474479651
 20
489.7646957077
 30
0.0
  0
SPLINE
  5
3DF
100
AcDbEntity
  8
0
100
AcDbSpline
 62
7
  6
CONTINUOUS
 70
0
 71
3
 72
9
 73
5
 74
0
 42
0.0000001
 43
0.0000001
 44
0.0000000001
 40
0.0
 40
0.0
 40
0.0
 40
0.0
 40
0.5092901302
 40
1.0
 40
1.0
 40
1.0
 40
1.0
 10
775.7474479651
 20
489.7646957077
 30
0.0
 10
775.7413372521
 20
489.7770725622
 30
0.0
 10
775.7318125805
 20
489.8027154332
 30
0.0
 10
775.7285090727
 20
489.8299118383
 30
0.0
 10
775.7285124561
 20
489.8432114258
 30
0.0
  0
SPLINE
  5
3E0
100
AcDbEntity
  8
0
100
AcDbSpline
 62
7
  6
CONTINUOUS
 70
0
 71
3
 72
8
 73
4
 74
0
 42
0.0000001
 43
0.0000001
 44
0.0000000001
 40
0.0
 40
0.0
 40
0.0
 40
0.0
 40
1.0
 40
1.0
 40
1.0
 40
1.0
 10
788.603013991
 20
482.6989996194
 30
0.0
 10
788.3988895369
 20
482.5811490156
 30
0.0
 10
788.1000325007
 20
482.5811487875
 30
0.0
 10
787.8959071967
 20
482.6989979194
 30
0.0
  0
SPLINE
  5
3E1
100
AcDbEntity
  8
0
100
AcDbSpline
 62
7
  6
CONTINUOUS
 70
0
 71
3
 72
8
 73
4
 74
0
 42
0.0000001
 43
0.0000001
 44
0.0000000001
 40
0.0
 40
0.0
 40
0.0
 40
0.0
 40
1.0
 40
1.0
 40
1.0
 40
1.0
 10
758.1972987537
 20
499.8451096017
 30
0.0
 10
758.1456128607
 20
499.8749497911
 30
0.0
 10
758.0961260144
 20
499.917200182
 30
0.0
 10
758.0697048365
 20
499.9707145708
 30
0.0
  0
SPLINE
  5
3E2
100
AcDbEntity
  8
0
100
AcDbSpline
 62
7
  6
CONTINUOUS
 70
0
 71
3
 72
9
 73
5
 74
0
 42
0.0000001
 43
0.0000001
 44
0.0000000001
 40
0.0
 40
0.0
 40
0.0
 40
0.0
 40
0.5092901302
 40
1.0
 40
1.0
 40
1.0
 40
1.0
 10
758.0697048365
 20
499.9707145708
 30
0.0
 10
758.0635941234
 20
499.9830914252
 30
0.0
 10
758.0540694518
 20
500.0087342962
 30
0.0
 10
758.050765944
 20
500.0359307013
 30
0.0
 10
758.0507693274
 20
500.0492302888
 30
0.0
  0
SPLINE
  5
3E3
100
AcDbEntity
  8
0
100
AcDbSpline
 62
7
  6
CONTINUOUS
 70
0
 71
3
 72
8
 73
4
 74
0
 42
0.0000001
 43
0.0000001
 44
0.0000000001
 40
0.0
 40
0.0
 40
0.0
 40
0.0
 40
1.0
 40
1.0
 40
1.0
 40
1.0
 10
770.9252708624
 20
492.9050184825
 30
0.0
 10
770.7211464082
 20
492.7871678786
 30
0.0
 10
770.422289372
 20
492.7871676505
 30
0.0
 10
770.218164068
 20
492.9050167824
 30
0.0
  0
SPLINE
  5
3E4
100
AcDbEntity
  8
0
100
AcDbSpline
 62
7
  6
CONTINUOUS
 70
0
 71
3
 72
8
 73
4
 74
0
 42
0.0000001
 43
0.0000001
 44
0.0000000001
 40
0.0
 40
0.0
 40
0.0
 40
0.0
 40
1.0
 40
1.0
 40
1.0
 40
1.0
 10
740.519555625
 20
510.0511284647
 30
0.0
 10
740.467869732
 20
510.0809686541
 30
0.0
 10
740.4183828857
 20
510.123219045
 30
0.0
 10
740.3919617078
 20
510.1767334338
 30
0.0
  0
SPLINE
  5
3E5
100
AcDbEntity
  8
0
100
AcDbSpline
 62
7
  6
CONTINUOUS
 70
0
 71
3
 72
9
 73
5
 74
0
 42
0.0000001
 43
0.0000001
 44
0.0000000001
 40
0.0
 40
0.0
 40
0.0
 40
0.0
 40
0.5092901302
 40
1.0
 40
1.0
 40
1.0
 40
1.0
 10
740.3919617078
 20
510.1767334338
 30
0.0
 10
740.3858509947
 20
510.1891102882
 30
0.0
 10
740.3763263231
 20
510.2147531592
 30
0.0
 10
740.3730228154
 20
510.2419495643
 30
0.0
 10
740.3730261987
 20
510.2552491518
 30
0.0
  0
SPLINE
  5
3E6
100
AcDbEntity
  8
0
100
AcDbSpline
 62
7
  6
CONTINUOUS
 70
0
 71
3
 72
8
 73
4
 74
0
 42
0.0000001
 43
0.0000001
 44
0.0000000001
 40
0.0
 40
0.0
 40
0.0
 40
0.0
 40
1.0
 40
1.0
 40
1.0
 40
1.0
 10
753.2475277337
 20
503.1110373455
 30
0.0
 10
753.0434032795
 20
502.9931867416
 30
0.0
 10
752.7445462433
 20
502.9931865135
 30
0.0
 10
752.5404209393
 20
503.1110356454
 30
0.0
  0
SPLINE
  5
3E7
100
AcDbEntity
  8
0
100
AcDbSpline
 62
7
  6
CONTINUOUS
 70
0
 71
3
 72
8
 73
4
 74
0
 42
0.0000001
 43
0.0000001
 44
0.0000000001
 40
0.0
 40
0.0
 40
0.0
 40
0.0
 40
1.0
 40
1.0
 40
1.0
 40
1.0
 10
722.8418124963
 20
520.2571473277
 30
0.0
 10
722.7901266033
 20
520.2869875171
 30
0.0
 10
722.740639757
 20
520.3292379081
 30
0.0
 10
722.7142185791
 20
520.3827522968
 30
0.0
  0
SPLINE
  5
3E8
100
AcDbEntity
  8
0
100
AcDbSpline
 62
7
  6
CONTINUOUS
 70
0
 71
3
 72
9
 73
5
 74
0
 42
0.0000001
 43
0.0000001
 44
0.0000000001
 40
0.0
 40
0.0
 40
0.0
 40
0.0
 40
0.5092901302
 40
1.0
 40
1.0
 40
1.0
 40
1.0
 10
722.7142185791
 20
520.3827522968
 30
0.0
 10
722.7081078661
 20
520.3951291512
 30
0.0
 10
722.6985831945
 20
520.4207720222
 30
0.0
 10
722.6952796867
 20
520.4479684273
 30
0.0
 10
722.6952830701
 20
520.4612680148
 30
0.0
  0
SPLINE
  5
3E9
100
AcDbEntity
  8
0
100
AcDbSpline
 62
7
  6
CONTINUOUS
 70
0
 71
3
 72
8
 73
4
 74
0
 42
0.0000001
 43
0.0000001
 44
0.0000000001
 40
0.0
 40
0.0
 40
0.0
 40
0.0
 40
1.0
 40
1.0
 40
1.0
 40
1.0
 10
735.569784605
 20
513.3170562085
 30
0.0
 10
735.3656601508
 20
513.1992056046
 30
0.0
 10
735.0668031146
 20
513.1992053765
 30
0.0
 10
734.8626778106
 20
513.3170545085
 30
0.0
  0
SPLINE
  5
3EA
100
AcDbEntity
  8
0
100
AcDbSpline
 62
7
  6
CONTINUOUS
 70
0
 71
3
 72
8
 73
4
 74
0
 42
0.0000001
 43
0.0000001
 44
0.0000000001
 40
0.0
 40
0.0
 40
0.0
 40
0.0
 40
1.0
 40
1.0
 40
1.0
 40
1.0
 10
705.1640693677
 20
530.4631661907
 30
0.0
 10
705.1123834747
 20
530.4930063801
 30
0.0
 10
705.0628966283
 20
530.5352567711
 30
0.0
 10
705.0364754504
 20
530.5887711598
 30
0.0
  0
SPLINE
  5
3EB
100
AcDbEntity
  8
0
100
AcDbSpline
 62
7
  6
CONTINUOUS
 70
0
 71
3
 72
9
 73
5
 74
0
 42
0.0000001
 43
0.0000001
 44
0.0000000001
 40
0.0
 40
0.0
 40
0.0
 40
0.0
 40
0.5092901302
 40
1.0
 40
1.0
 40
1.0
 40
1.0
 10
705.0364754504
 20
530.5887711598
 30
0.0
 10
705.0303647374
 20
530.6011480142
 30
0.0
 10
705.0208400658
 20
530.6267908852
 30
0.0
 10
705.017536558
 20
530.6539872903
 30
0.0
 10
705.0175399414
 20
530.6672868778
 30
0.0
  0
SPLINE
  5
3EC
100
AcDbEntity
  8
0
100
AcDbSpline
 62
7
  6
CONTINUOUS
 70
0
 71
3
 72
8
 73
4
 74
0
 42
0.0000001
 43
0.0000001
 44
0.0000000001
 40
0.0
 40
0.0
 40
0.0
 40
0.0
 40
1.0
 40
1.0
 40
1.0
 40
1.0
 10
717.8920414763
 20
523.5230750715
 30
0.0
 10
717.6879170222
 20
523.4052244676
 30
0.0
 10
717.389059986
 20
523.4052242396
 30
0.0
 10
717.184934682
 20
523.5230733715
 30
0.0
  0
SPLINE
  5
3ED
100
AcDbEntity
  8
0
100
AcDbSpline
 62
7
  6
CONTINUOUS
 70
0
 71
3
 72
8
 73
4
 74
0
 42
0.0000001
 43
0.0000001
 44
0.0000000001
 40
0.0
 40
0.0
 40
0.0
 40
0.0
 40
1.0
 40
1.0
 40
1.0
 40
1.0
 10
687.486326239
 20
540.6691850537
 30
0.0
 10
687.434640346
 20
540.6990252432
 30
0.0
 10
687.3851534997
 20
540.7412756341
 30
0.0
 10
687.3587323218
 20
540.7947900228
 30
0.0
  0
SPLINE
  5
3EE
100
AcDbEntity
  8
0
100
AcDbSpline
 62
7
  6
CONTINUOUS
 70
0
 71
3
 72
9
 73
5
 74
0
 42
0.0000001
 43
0.0000001
 44
0.0000000001
 40
0.0
 40
0.0
 40
0.0
 40
0.0
 40
0.5092901302
 40
1.0
 40
1.0
 40
1.0
 40
1.0
 10
687.3587323218
 20
540.7947900228
 30
0.0
 10
687.3526216087
 20
540.8071668772
 30
0.0
 10
687.3430969371
 20
540.8328097482
 30
0.0
 10
687.3397934293
 20
540.8600061533
 30
0.0
 10
687.3397968127
 20
540.8733057408
 30
0.0
  0
SPLINE
  5
3EF
100
AcDbEntity
  8
0
100
AcDbSpline
 62
7
  6
CONTINUOUS
 70
0
 71
3
 72
8
 73
4
 74
0
 42
0.0000001
 43
0.0000001
 44
0.0000000001
 40
0.0
 40
0.0
 40
0.0
 40
0.0
 40
1.0
 40
1.0
 40
1.0
 40
1.0
 10
700.2142983477
 20
533.7290939345
 30
0.0
 10
700.0101738935
 20
533.6112433306
 30
0.0
 10
699.7113168573
 20
533.6112431026
 30
0.0
 10
699.5071915533
 20
533.7290922345
 30
0.0
  0
SPLINE
  5
3F0
100
AcDbEntity
  8
0
100
AcDbSpline
 62
7
  6
CONTINUOUS
 70
0
 71
3
 72
8
 73
4
 74
0
 42
0.0000001
 43
0.0000001
 44
0.0000000001
 40
0.0
 40
0.0
 40
0.0
 40
0.0
 40
1.0
 40
1.0
 40
1.0
 40
1.0
 10
669.8085831103
 20
550.8752039167
 30
0.0
 10
669.7568972173
 20
550.9050441062
 30
0.0
 10
669.707410371
 20
550.9472944971
 30
0.0
 10
669.6809891931
 20
551.0008088858
 30
0.0
  0
SPLINE
  5
3F1
100
AcDbEntity
  8
0
100
AcDbSpline
 62
7
  6
CONTINUOUS
 70
0
 71
3
 72
9
 73
5
 74
0
 42
0.0000001
 43
0.0000001
 44
0.0000000001
 40
0.0
 40
0.0
 40
0.0
 40
0.0
 40
0.5092901302
 40
1.0
 40
1.0
 40
1.0
 40
1.0
 10
669.6809891931
 20
551.0008088858
 30
0.0
 10
669.67487848
 20
551.0131857403
 30
0.0
 10
669.6653538084
 20
551.0388286112
 30
0.0
 10
669.6620503007
 20
551.0660250163
 30
0.0
 10
669.662053684
 20
551.0793246039
 30
0.0
  0
SPLINE
  5
3F2
100
AcDbEntity
  8
0
100
AcDbSpline
 62
7
  6
CONTINUOUS
 70
0
 71
3
 72
8
 73
4
 74
0
 42
0.0000001
 43
0.0000001
 44
0.0000000001
 40
0.0
 40
0.0
 40
0.0
 40
0.0
 40
1.0
 40
1.0
 40
1.0
 40
1.0
 10
682.536555219
 20
543.9351127975
 30
0.0
 10
682.3324307648
 20
543.8172621936
 30
0.0
 10
682.0335737286
 20
543.8172619656
 30
0.0
 10
681.8294484246
 20
543.9351110975
 30
0.0
  0
SPLINE
  5
3F3
100
AcDbEntity
  8
0
100
AcDbSpline
 62
7
  6
CONTINUOUS
 70
0
 71
3
 72
8
 73
4
 74
0
 42
0.0000001
 43
0.0000001
 44
0.0000000001
 40
0.0
 40
0.0
 40
0.0
 40
0.0
 40
1.0
 40
1.0
 40
1.0
 40
1.0
 10
652.1308399816
 20
561.0812227797
 30
0.0
 10
652.0791540886
 20
561.1110629692
 30
0.0
 10
652.0296672423
 20
561.1533133601
 30
0.0
 10
652.0032460644
 20
561.2068277488
 30
0.0
  0
SPLINE
  5
3F4
100
AcDbEntity
  8
0
100
AcDbSpline
 62
7
  6
CONTINUOUS
 70
0
 71
3
 72
9
 73
5
 74
0
 42
0.0000001
 43
0.0000001
 44
0.0000000001
 40
0.0
 40
0.0
 40
0.0
 40
0.0
 40
0.5092901302
 40
1.0
 40
1.0
 40
1.0
 40
1.0
 10
652.0032460644
 20
561.2068277488
 30
0.0
 10
651.9971353514
 20
561.2192046033
 30
0.0
 10
651.9876106798
 20
561.2448474742
 30
0.0
 10
651.984307172
 20
561.2720438793
 30
0.0
 10
651.9843105554
 20
561.2853434669
 30
0.0
  0
SPLINE
  5
3F5
100
AcDbEntity
  8
0
100
AcDbSpline
 62
7
  6
CONTINUOUS
 70
0
 71
3
 72
8
 73
4
 74
0
 42
0.0000001
 43
0.0000001
 44
0.0000000001
 40
0.0
 40
0.0
 40
0.0
 40
0.0
 40
1.0
 40
1.0
 40
1.0
 40
1.0
 10
664.8588120903
 20
554.1411316605
 30
0.0
 10
664.6546876361
 20
554.0232810566
 30
0.0
 10
664.3558305999
 20
554.0232808286
 30
0.0
 10
664.1517052959
 20
554.1411299605
 30
0.0
  0
SPLINE
  5
3F6
100
AcDbEntity
  8
0
100
AcDbSpline
 62
7
  6
CONTINUOUS
 70
0
 71
3
 72
8
 73
4
 74
0
 42
0.0000001
 43
0.0000001
 44
0.0000000001
 40
0.0
 40
0.0
 40
0.0
 40
0.0
 40
1.0
 40
1.0
 40
1.0
 40
1.0
 10
634.453096853
 20
571.2872416427
 30
0.0
 10
634.40141096
 20
571.3170818322
 30
0.0
 10
634.3519241136
 20
571.3593322231
 30
0.0
 10
634.3255029357
 20
571.4128466118
 30
0.0
  0
SPLINE
  5
3F7
100
AcDbEntity
  8
0
100
AcDbSpline
 62
7
  6
CONTINUOUS
 70
0
 71
3
 72
9
 73
5
 74
0
 42
0.0000001
 43
0.0000001
 44
0.0000000001
 40
0.0
 40
0.0
 40
0.0
 40
0.0
 40
0.5092901302
 40
1.0
 40
1.0
 40
1.0
 40
1.0
 10
634.3255029357
 20
571.4128466118
 30
0.0
 10
634.3193922227
 20
571.4252234663
 30
0.0
 10
634.3098675511
 20
571.4508663373
 30
0.0
 10
634.3065640433
 20
571.4780627423
 30
0.0
 10
634.3065674267
 20
571.4913623299
 30
0.0
  0
SPLINE
  5
3F8
100
AcDbEntity
  8
0
100
AcDbSpline
 62
7
  6
CONTINUOUS
 70
0
 71
3
 72
8
 73
4
 74
0
 42
0.0000001
 43
0.0000001
 44
0.0000000001
 40
0.0
 40
0.0
 40
0.0
 40
0.0
 40
1.0
 40
1.0
 40
1.0
 40
1.0
 10
647.1810689616
 20
564.3471505235
 30
0.0
 10
646.9769445075
 20
564.2292999196
 30
0.0
 10
646.6780874713
 20
564.2292996916
 30
0.0
 10
646.4739621673
 20
564.3471488235
 30
0.0
  0
SPLINE
  5
3F9
100
AcDbEntity
  8
0
100
AcDbSpline
 62
7
  6
CONTINUOUS
 70
0
 71
3
 72
8
 73
4
 74
0
 42
0.0000001
 43
0.0000001
 44
0.0000000001
 40
0.0
 40
0.0
 40
0.0
 40
0.0
 40
1.0
 40
1.0
 40
1.0
 40
1.0
 10
616.7753537243
 20
581.4932605057
 30
0.0
 10
616.7236678313
 20
581.5231006952
 30
0.0
 10
616.674180985
 20
581.5653510861
 30
0.0
 10
616.6477598071
 20
581.6188654748
 30
0.0
  0
SPLINE
  5
3FA
100
AcDbEntity
  8
0
100
AcDbSpline
 62
7
  6
CONTINUOUS
 70
0
 71
3
 72
9
 73
5
 74
0
 42
0.0000001
 43
0.0000001
 44
0.0000000001
 40
0.0
 40
0.0
 40
0.0
 40
0.0
 40
0.5092901302
 40
1.0
 40
1.0
 40
1.0
 40
1.0
 10
616.6477598071
 20
581.6188654748
 30
0.0
 10
616.641649094
 20
581.6312423293
 30
0.0
 10
616.6321244224
 20
581.6568852003
 30
0.0
 10
616.6288209146
 20
581.6840816054
 30
0.0
 10
616.628824298
 20
581.6973811929
 30
0.0
  0
SPLINE
  5
3FB
100
AcDbEntity
  8
0
100
AcDbSpline
 62
7
  6
CONTINUOUS
 70
0
 71
3
 72
8
 73
4
 74
0
 42
0.0000001
 43
0.0000001
 44
0.0000000001
 40
0.0
 40
0.0
 40
0.0
 40
0.0
 40
1.0
 40
1.0
 40
1.0
 40
1.0
 10
629.503325833
 20
574.5531693865
 30
0.0
 10
629.2992013788
 20
574.4353187826
 30
0.0
 10
629.0003443426
 20
574.4353185546
 30
0.0
 10
628.7962190386
 20
574.5531676865
 30
0.0
  0
SPLINE
  5
3FC
100
AcDbEntity
  8
0
100
AcDbSpline
 62
7
  6
CONTINUOUS
 70
0
 71
3
 72
8
 73
4
 74
0
 42
0.0000001
 43
0.0000001
 44
0.0000000001
 40
0.0
 40
0.0
 40
0.0
 40
0.0
 40
1.0
 40
1.0
 40
1.0
 40
1.0
 10
599.0976105956
 20
591.6992793687
 30
0.0
 10
599.0459247026
 20
591.7291195582
 30
0.0
 10
598.9964378563
 20
591.7713699491
 30
0.0
 10
598.9700166784
 20
591.8248843378
 30
0.0
  0
SPLINE
  5
3FD
100
AcDbEntity
  8
0
100
AcDbSpline
 62
7
  6
CONTINUOUS
 70
0
 71
3
 72
9
 73
5
 74
0
 42
0.0000001
 43
0.0000001
 44
0.0000000001
 40
0.0
 40
0.0
 40
0.0
 40
0.0
 40
0.5092901302
 40
1.0
 40
1.0
 40
1.0
 40
1.0
 10
598.9700166784
 20
591.8248843378
 30
0.0
 10
598.9639059653
 20
591.8372611923
 30
0.0
 10
598.9543812937
 20
591.8629040633
 30
0.0
 10
598.951077786
 20
591.8901004684
 30
0.0
 10
598.9510811693
 20
591.9034000559
 30
0.0
  0
SPLINE
  5
3FE
100
AcDbEntity
  8
0
100
AcDbSpline
 62
7
  6
CONTINUOUS
 70
0
 71
3
 72
8
 73
4
 74
0
 42
0.0000001
 43
0.0000001
 44
0.0000000001
 40
0.0
 40
0.0
 40
0.0
 40
0.0
 40
1.0
 40
1.0
 40
1.0
 40
1.0
 10
611.8255827043
 20
584.7591882495
 30
0.0
 10
611.6214582501
 20
584.6413376456
 30
0.0
 10
611.3226012139
 20
584.6413374176
 30
0.0
 10
611.1184759099
 20
584.7591865495
 30
0.0
  0
SPLINE
  5
3FF
100
AcDbEntity
  8
0
100
AcDbSpline
 62
7
  6
CONTINUOUS
 70
0
 71
3
 72
8
 73
4
 74
0
 42
0.0000001
 43
0.0000001
 44
0.0000000001
 40
0.0
 40
0.0
 40
0.0
 40
0.0
 40
1.0
 40
1.0
 40
1.0
 40
1.0
 10
581.4198674669
 20
601.9052982317
 30
0.0
 10
581.3681815739
 20
601.9351384212
 30
0.0
 10
581.3186947276
 20
601.9773888121
 30
0.0
 10
581.2922735497
 20
602.0309032008
 30
0.0
  0
SPLINE
  5
400
100
AcDbEntity
  8
0
100
AcDbSpline
 62
7
  6
CONTINUOUS
 70
0
 71
3
 72
9
 73
5
 74
0
 42
0.0000001
 43
0.0000001
 44
0.0000000001
 40
0.0
 40
0.0
 40
0.0
 40
0.0
 40
0.5092901302
 40
1.0
 40
1.0
 40
1.0
 40
1.0
 10
581.2922735497
 20
602.0309032008
 30
0.0
 10
581.2861628367
 20
602.0432800553
 30
0.0
 10
581.2766381651
 20
602.0689229263
 30
0.0
 10
581.2733346573
 20
602.0961193314
 30
0.0
 10
581.2733380407
 20
602.1094189189
 30
0.0
  0
SPLINE
  5
401
100
AcDbEntity
  8
0
100
AcDbSpline
 62
7
  6
CONTINUOUS
 70
0
 71
3
 72
8
 73
4
 74
0
 42
0.0000001
 43
0.0000001
 44
0.0000000001
 40
0.0
 40
0.0
 40
0.0
 40
0.0
 40
1.0
 40
1.0
 40
1.0
 40
1.0
 10
594.1478395756
 20
594.9652071125
 30
0.0
 10
593.9437151214
 20
594.8473565086
 30
0.0
 10
593.6448580852
 20
594.8473562806
 30
0.0
 10
593.4407327812
 20
594.9652054125
 30
0.0
  0
SPLINE
  5
402
100
AcDbEntity
  8
0
100
AcDbSpline
 62
7
  6
CONTINUOUS
 70
0
 71
3
 72
8
 73
4
 74
0
 42
0.0000001
 43
0.0000001
 44
0.0000000001
 40
0.0
 40
0.0
 40
0.0
 40
0.0
 40
1.0
 40
1.0
 40
1.0
 40
1.0
 10
563.7421243383
 20
612.1113170948
 30
0.0
 10
563.6904384453
 20
612.1411572842
 30
0.0
 10
563.6409515989
 20
612.1834076751
 30
0.0
 10
563.614530421
 20
612.2369220638
 30
0.0
  0
SPLINE
  5
403
100
AcDbEntity
  8
0
100
AcDbSpline
 62
7
  6
CONTINUOUS
 70
0
 71
3
 72
9
 73
5
 74
0
 42
0.0000001
 43
0.0000001
 44
0.0000000001
 40
0.0
 40
0.0
 40
0.0
 40
0.0
 40
0.5092901302
 40
1.0
 40
1.0
 40
1.0
 40
1.0
 10
563.614530421
 20
612.2369220638
 30
0.0
 10
563.608419708
 20
612.2492989183
 30
0.0
 10
563.5988950364
 20
612.2749417893
 30
0.0
 10
563.5955915286
 20
612.3021381944
 30
0.0
 10
563.595594912
 20
612.3154377819
 30
0.0
  0
SPLINE
  5
404
100
AcDbEntity
  8
0
100
AcDbSpline
 62
7
  6
CONTINUOUS
 70
0
 71
3
 72
8
 73
4
 74
0
 42
0.0000001
 43
0.0000001
 44
0.0000000001
 40
0.0
 40
0.0
 40
0.0
 40
0.0
 40
1.0
 40
1.0
 40
1.0
 40
1.0
 10
576.4700964469
 20
605.1712259755
 30
0.0
 10
576.2659719928
 20
605.0533753716
 30
0.0
 10
575.9671149566
 20
605.0533751436
 30
0.0
 10
575.7629896526
 20
605.1712242755
 30
0.0
  0
SPLINE
  5
405
100
AcDbEntity
  8
0
100
AcDbSpline
 62
7
  6
CONTINUOUS
 70
0
 71
3
 72
8
 73
4
 74
0
 42
0.0000001
 43
0.0000001
 44
0.0000000001
 40
0.0
 40
0.0
 40
0.0
 40
0.0
 40
1.0
 40
1.0
 40
1.0
 40
1.0
 10
546.0643812096
 20
622.3173359578
 30
0.0
 10
546.0126953166
 20
622.3471761472
 30
0.0
 10
545.9632084703
 20
622.3894265381
 30
0.0
 10
545.9367872924
 20
622.4429409268
 30
0.0
  0
SPLINE
  5
406
100
AcDbEntity
  8
0
100
AcDbSpline
 62
7
  6
CONTINUOUS
 70
0
 71
3
 72
9
 73
5
 74
0
 42
0.0000001
 43
0.0000001
 44
0.0000000001
 40
0.0
 40
0.0
 40
0.0
 40
0.0
 40
0.5092901302
 40
1.0
 40
1.0
 40
1.0
 40
1.0
 10
545.9367872924
 20
622.4429409268
 30
0.0
 10
545.9306765793
 20
622.4553177813
 30
0.0
 10
545.9211519077
 20
622.4809606523
 30
0.0
 10
545.9178483999
 20
622.5081570574
 30
0.0
 10
545.9178517833
 20
622.5214566449
 30
0.0
  0
SPLINE
  5
407
100
AcDbEntity
  8
0
100
AcDbSpline
 62
7
  6
CONTINUOUS
 70
0
 71
3
 72
8
 73
4
 74
0
 42
0.0000001
 43
0.0000001
 44
0.0000000001
 40
0.0
 40
0.0
 40
0.0
 40
0.0
 40
1.0
 40
1.0
 40
1.0
 40
1.0
 10
558.7923533183
 20
615.3772448385
 30
0.0
 10
558.5882288641
 20
615.2593942347
 30
0.0
 10
558.2893718279
 20
615.2593940066
 30
0.0
 10
558.0852465239
 20
615.3772431385
 30
0.0
  0
SPLINE
  5
408
100
AcDbEntity
  8
0
100
AcDbSpline
 62
7
  6
CONTINUOUS
 70
0
 71
3
 72
8
 73
4
 74
0
 42
0.0000001
 43
0.0000001
 44
0.0000000001
 40
0.0
 40
0.0
 40
0.0
 40
0.0
 40
1.0
 40
1.0
 40
1.0
 40
1.0
 10
528.3866380809
 20
632.5233548208
 30
0.0
 10
528.3349521879
 20
632.5531950102
 30
0.0
 10
528.2854653416
 20
632.5954454011
 30
0.0
 10
528.2590441637
 20
632.6489597899
 30
0.0
  0
SPLINE
  5
409
100
AcDbEntity
  8
0
100
AcDbSpline
 62
7
  6
CONTINUOUS
 70
0
 71
3
 72
9
 73
5
 74
0
 42
0.0000001
 43
0.0000001
 44
0.0000000001
 40
0.0
 40
0.0
 40
0.0
 40
0.0
 40
0.5092901302
 40
1.0
 40
1.0
 40
1.0
 40
1.0
 10
528.2590441637
 20
632.6489597899
 30
0.0
 10
528.2529334506
 20
632.6613366443
 30
0.0
 10
528.243408779
 20
632.6869795153
 30
0.0
 10
528.2401052713
 20
632.7141759204
 30
0.0
 10
528.2401086546
 20
632.7274755079
 30
0.0
  0
SPLINE
  5
40A
100
AcDbEntity
  8
0
100
AcDbSpline
 62
7
  6
CONTINUOUS
 70
0
 71
3
 72
8
 73
4
 74
0
 42
0.0000001
 43
0.0000001
 44
0.0000000001
 40
0.0
 40
0.0
 40
0.0
 40
0.0
 40
1.0
 40
1.0
 40
1.0
 40
1.0
 10
541.1146101896
 20
625.5832637016
 30
0.0
 10
540.9104857354
 20
625.4654130977
 30
0.0
 10
540.6116286992
 20
625.4654128696
 30
0.0
 10
540.4075033952
 20
625.5832620015
 30
0.0
  0
SPLINE
  5
40B
100
AcDbEntity
  8
0
100
AcDbSpline
 62
7
  6
CONTINUOUS
 70
0
 71
3
 72
8
 73
4
 74
0
 42
0.0000001
 43
0.0000001
 44
0.0000000001
 40
0.0
 40
0.0
 40
0.0
 40
0.0
 40
1.0
 40
1.0
 40
1.0
 40
1.0
 10
510.7088949522
 20
642.7293736838
 30
0.0
 10
510.6572090592
 20
642.7592138732
 30
0.0
 10
510.6077222129
 20
642.8014642641
 30
0.0
 10
510.581301035
 20
642.8549786529
 30
0.0
  0
SPLINE
  5
40C
100
AcDbEntity
  8
0
100
AcDbSpline
 62
7
  6
CONTINUOUS
 70
0
 71
3
 72
9
 73
5
 74
0
 42
0.0000001
 43
0.0000001
 44
0.0000000001
 40
0.0
 40
0.0
 40
0.0
 40
0.0
 40
0.5092901302
 40
1.0
 40
1.0
 40
1.0
 40
1.0
 10
510.581301035
 20
642.8549786529
 30
0.0
 10
510.575190322
 20
642.8673555073
 30
0.0
 10
510.5656656504
 20
642.8929983783
 30
0.0
 10
510.5623621426
 20
642.9201947834
 30
0.0
 10
510.562365526
 20
642.9334943709
 30
0.0
  0
SPLINE
  5
40D
100
AcDbEntity
  8
0
100
AcDbSpline
 62
7
  6
CONTINUOUS
 70
0
 71
3
 72
8
 73
4
 74
0
 42
0.0000001
 43
0.0000001
 44
0.0000000001
 40
0.0
 40
0.0
 40
0.0
 40
0.0
 40
1.0
 40
1.0
 40
1.0
 40
1.0
 10
523.4368670609
 20
635.7892825646
 30
0.0
 10
523.2327426067
 20
635.6714319607
 30
0.0
 10
522.9338855705
 20
635.6714317326
 30
0.0
 10
522.7297602665
 20
635.7892808645
 30
0.0
  0
SPLINE
  5
40E
100
AcDbEntity
  8
0
100
AcDbSpline
 62
7
  6
CONTINUOUS
 70
0
 71
3
 72
8
 73
4
 74
0
 42
0.0000001
 43
0.0000001
 44
0.0000000001
 40
0.0
 40
0.0
 40
0.0
 40
0.0
 40
1.0
 40
1.0
 40
1.0
 40
1.0
 10
493.0311518236
 20
652.9353925468
 30
0.0
 10
492.9794659306
 20
652.9652327362
 30
0.0
 10
492.9299790842
 20
653.0074831272
 30
0.0
 10
492.9035579063
 20
653.0609975159
 30
0.0
  0
SPLINE
  5
40F
100
AcDbEntity
  8
0
100
AcDbSpline
 62
7
  6
CONTINUOUS
 70
0
 71
3
 72
9
 73
5
 74
0
 42
0.0000001
 43
0.0000001
 44
0.0000000001
 40
0.0
 40
0.0
 40
0.0
 40
0.0
 40
0.5092901302
 40
1.0
 40
1.0
 40
1.0
 40
1.0
 10
492.9035579063
 20
653.0609975159
 30
0.0
 10
492.8974471933
 20
653.0733743703
 30
0.0
 10
492.8879225217
 20
653.0990172413
 30
0.0
 10
492.8846190139
 20
653.1262136464
 30
0.0
 10
492.8846223973
 20
653.1395132339
 30
0.0
  0
SPLINE
  5
410
100
AcDbEntity
  8
0
100
AcDbSpline
 62
7
  6
CONTINUOUS
 70
0
 71
3
 72
8
 73
4
 74
0
 42
0.0000001
 43
0.0000001
 44
0.0000000001
 40
0.0
 40
0.0
 40
0.0
 40
0.0
 40
1.0
 40
1.0
 40
1.0
 40
1.0
 10
505.7591239322
 20
645.9953014276
 30
0.0
 10
505.5549994781
 20
645.8774508237
 30
0.0
 10
505.2561424419
 20
645.8774505956
 30
0.0
 10
505.0520171379
 20
645.9952997276
 30
0.0
  0
SPLINE
  5
411
100
AcDbEntity
  8
0
100
AcDbSpline
 62
7
  6
CONTINUOUS
 70
0
 71
3
 72
8
 73
4
 74
0
 42
0.0000001
 43
0.0000001
 44
0.0000000001
 40
0.0
 40
0.0
 40
0.0
 40
0.0
 40
1.0
 40
1.0
 40
1.0
 40
1.0
 10
475.3534086949
 20
663.1414114098
 30
0.0
 10
475.3017228019
 20
663.1712515992
 30
0.0
 10
475.2522359556
 20
663.2135019902
 30
0.0
 10
475.2258147777
 20
663.2670163789
 30
0.0
  0
SPLINE
  5
412
100
AcDbEntity
  8
0
100
AcDbSpline
 62
7
  6
CONTINUOUS
 70
0
 71
3
 72
9
 73
5
 74
0
 42
0.0000001
 43
0.0000001
 44
0.0000000001
 40
0.0
 40
0.0
 40
0.0
 40
0.0
 40
0.5092901302
 40
1.0
 40
1.0
 40
1.0
 40
1.0
 10
475.2258147777
 20
663.2670163789
 30
0.0
 10
475.2197040646
 20
663.2793932333
 30
0.0
 10
475.210179393
 20
663.3050361043
 30
0.0
 10
475.2068758852
 20
663.3322325094
 30
0.0
 10
475.2068792686
 20
663.3455320969
 30
0.0
  0
SPLINE
  5
413
100
AcDbEntity
  8
0
100
AcDbSpline
 62
7
  6
CONTINUOUS
 70
0
 71
3
 72
8
 73
4
 74
0
 42
0.0000001
 43
0.0000001
 44
0.0000000001
 40
0.0
 40
0.0
 40
0.0
 40
0.0
 40
1.0
 40
1.0
 40
1.0
 40
1.0
 10
488.0813808036
 20
656.2013202906
 30
0.0
 10
487.8772563494
 20
656.0834696867
 30
0.0
 10
487.5783993132
 20
656.0834694586
 30
0.0
 10
487.3742740092
 20
656.2013185906
 30
0.0
  0
SPLINE
  5
414
100
AcDbEntity
  8
0
100
AcDbSpline
 62
7
  6
CONTINUOUS
 70
0
 71
3
 72
8
 73
4
 74
0
 42
0.0000001
 43
0.0000001
 44
0.0000000001
 40
0.0
 40
0.0
 40
0.0
 40
0.0
 40
1.0
 40
1.0
 40
1.0
 40
1.0
 10
457.6756655662
 20
673.3474302728
 30
0.0
 10
457.6239796732
 20
673.3772704623
 30
0.0
 10
457.5744928269
 20
673.4195208532
 30
0.0
 10
457.548071649
 20
673.4730352419
 30
0.0
  0
SPLINE
  5
415
100
AcDbEntity
  8
0
100
AcDbSpline
 62
7
  6
CONTINUOUS
 70
0
 71
3
 72
9
 73
5
 74
0
 42
0.0000001
 43
0.0000001
 44
0.0000000001
 40
0.0
 40
0.0
 40
0.0
 40
0.0
 40
0.5092901302
 40
1.0
 40
1.0
 40
1.0
 40
1.0
 10
457.548071649
 20
673.4730352419
 30
0.0
 10
457.5419609359
 20
673.4854120963
 30
0.0
 10
457.5324362643
 20
673.5110549673
 30
0.0
 10
457.5291327566
 20
673.5382513724
 30
0.0
 10
457.5291361399
 20
673.5515509599
 30
0.0
  0
SPLINE
  5
416
100
AcDbEntity
  8
0
100
AcDbSpline
 62
7
  6
CONTINUOUS
 70
0
 71
3
 72
8
 73
4
 74
0
 42
0.0000001
 43
0.0000001
 44
0.0000000001
 40
0.0
 40
0.0
 40
0.0
 40
0.0
 40
1.0
 40
1.0
 40
1.0
 40
1.0
 10
470.4036376749
 20
666.4073391536
 30
0.0
 10
470.1995132207
 20
666.2894885497
 30
0.0
 10
469.9006561845
 20
666.2894883217
 30
0.0
 10
469.6965308805
 20
666.4073374536
 30
0.0
  0
SPLINE
  5
417
100
AcDbEntity
  8
0
100
AcDbSpline
 62
7
  6
CONTINUOUS
 70
0
 71
3
 72
8
 73
4
 74
0
 42
0.0000001
 43
0.0000001
 44
0.0000000001
 40
0.0
 40
0.0
 40
0.0
 40
0.0
 40
1.0
 40
1.0
 40
1.0
 40
1.0
 10
439.9979224375
 20
683.5534491358
 30
0.0
 10
439.9462365445
 20
683.5832893253
 30
0.0
 10
439.8967496982
 20
683.6255397162
 30
0.0
 10
439.8703285203
 20
683.6790541049
 30
0.0
  0
SPLINE
  5
418
100
AcDbEntity
  8
0
100
AcDbSpline
 62
7
  6
CONTINUOUS
 70
0
 71
3
 72
9
 73
5
 74
0
 42
0.0000001
 43
0.0000001
 44
0.0000000001
 40
0.0
 40
0.0
 40
0.0
 40
0.0
 40
0.5092901302
 40
1.0
 40
1.0
 40
1.0
 40
1.0
 10
439.8703285203
 20
683.6790541049
 30
0.0
 10
439.8642178073
 20
683.6914309594
 30
0.0
 10
439.8546931357
 20
683.7170738303
 30
0.0
 10
439.8513896279
 20
683.7442702354
 30
0.0
 10
439.8513930113
 20
683.757569823
 30
0.0
  0
SPLINE
  5
419
100
AcDbEntity
  8
0
100
AcDbSpline
 62
7
  6
CONTINUOUS
 70
0
 71
3
 72
8
 73
4
 74
0
 42
0.0000001
 43
0.0000001
 44
0.0000000001
 40
0.0
 40
0.0
 40
0.0
 40
0.0
 40
1.0
 40
1.0
 40
1.0
 40
1.0
 10
452.7258945462
 20
676.6133580166
 30
0.0
 10
452.521770092
 20
676.4955074127
 30
0.0
 10
452.2229130558
 20
676.4955071847
 30
0.0
 10
452.0187877518
 20
676.6133563166
 30
0.0
  0
SPLINE
  5
41A
100
AcDbEntity
  8
0
100
AcDbSpline
 62
7
  6
CONTINUOUS
 70
0
 71
3
 72
8
 73
4
 74
0
 42
0.0000001
 43
0.0000001
 44
0.0000000001
 40
0.0
 40
0.0
 40
0.0
 40
0.0
 40
1.0
 40
1.0
 40
1.0
 40
1.0
 10
422.3201793089
 20
693.7594679988
 30
0.0
 10
422.2684934159
 20
693.7893081883
 30
0.0
 10
422.2190065695
 20
693.8315585792
 30
0.0
 10
422.1925853916
 20
693.8850729679
 30
0.0
  0
SPLINE
  5
41B
100
AcDbEntity
  8
0
100
AcDbSpline
 62
7
  6
CONTINUOUS
 70
0
 71
3
 72
9
 73
5
 74
0
 42
0.0000001
 43
0.0000001
 44
0.0000000001
 40
0.0
 40
0.0
 40
0.0
 40
0.0
 40
0.5092901302
 40
1.0
 40
1.0
 40
1.0
 40
1.0
 10
422.1925853916
 20
693.8850729679
 30
0.0
 10
422.1864746786
 20
693.8974498224
 30
0.0
 10
422.176950007
 20
693.9230926933
 30
0.0
 10
422.1736464992
 20
693.9502890984
 30
0.0
 10
422.1736498826
 20
693.963588686
 30
0.0
  0
SPLINE
  5
41C
100
AcDbEntity
  8
0
100
AcDbSpline
 62
7
  6
CONTINUOUS
 70
0
 71
3
 72
8
 73
4
 74
0
 42
0.0000001
 43
0.0000001
 44
0.0000000001
 40
0.0
 40
0.0
 40
0.0
 40
0.0
 40
1.0
 40
1.0
 40
1.0
 40
1.0
 10
435.0481514175
 20
686.8193768796
 30
0.0
 10
434.8440269634
 20
686.7015262757
 30
0.0
 10
434.5451699272
 20
686.7015260477
 30
0.0
 10
434.3410446232
 20
686.8193751796
 30
0.0
  0
SPLINE
  5
41D
100
AcDbEntity
  8
0
100
AcDbSpline
 62
7
  6
CONTINUOUS
 70
0
 71
3
 72
8
 73
4
 74
0
 42
0.0000001
 43
0.0000001
 44
0.0000000001
 40
0.0
 40
0.0
 40
0.0
 40
0.0
 40
1.0
 40
1.0
 40
1.0
 40
1.0
 10
404.6424361802
 20
703.9654868618
 30
0.0
 10
404.5907502872
 20
703.9953270513
 30
0.0
 10
404.5412634409
 20
704.0375774422
 30
0.0
 10
404.514842263
 20
704.0910918309
 30
0.0
  0
SPLINE
  5
41E
100
AcDbEntity
  8
0
100
AcDbSpline
 62
7
  6
CONTINUOUS
 70
0
 71
3
 72
9
 73
5
 74
0
 42
0.0000001
 43
0.0000001
 44
0.0000000001
 40
0.0
 40
0.0
 40
0.0
 40
0.0
 40
0.5092901302
 40
1.0
 40
1.0
 40
1.0
 40
1.0
 10
404.514842263
 20
704.0910918309
 30
0.0
 10
404.5087315499
 20
704.1034686854
 30
0.0
 10
404.4992068783
 20
704.1291115564
 30
0.0
 10
404.4959033705
 20
704.1563079614
 30
0.0
 10
404.4959067539
 20
704.169607549
 30
0.0
  0
SPLINE
  5
41F
100
AcDbEntity
  8
0
100
AcDbSpline
 62
7
  6
CONTINUOUS
 70
0
 71
3
 72
8
 73
4
 74
0
 42
0.0000001
 43
0.0000001
 44
0.0000000001
 40
0.0
 40
0.0
 40
0.0
 40
0.0
 40
1.0
 40
1.0
 40
1.0
 40
1.0
 10
417.3704082889
 20
697.0253957426
 30
0.0
 10
417.1662838347
 20
696.9075451387
 30
0.0
 10
416.8674267985
 20
696.9075449107
 30
0.0
 10
416.6633014945
 20
697.0253940426
 30
0.0
  0
SPLINE
  5
420
100
AcDbEntity
  8
0
100
AcDbSpline
 62
7
  6
CONTINUOUS
 70
0
 71
3
 72
8
 73
4
 74
0
 42
0.0000001
 43
0.0000001
 44
0.0000000001
 40
0.0
 40
0.0
 40
0.0
 40
0.0
 40
1.0
 40
1.0
 40
1.0
 40
1.0
 10
386.9646930515
 20
714.1715057248
 30
0.0
 10
386.9130071585
 20
714.2013459143
 30
0.0
 10
386.8635203122
 20
714.2435963052
 30
0.0
 10
386.8370991343
 20
714.2971106939
 30
0.0
  0
SPLINE
  5
421
100
AcDbEntity
  8
0
100
AcDbSpline
 62
7
  6
CONTINUOUS
 70
0
 71
3
 72
9
 73
5
 74
0
 42
0.0000001
 43
0.0000001
 44
0.0000000001
 40
0.0
 40
0.0
 40
0.0
 40
0.0
 40
0.5092901302
 40
1.0
 40
1.0
 40
1.0
 40
1.0
 10
386.8370991343
 20
714.2971106939
 30
0.0
 10
386.8309884212
 20
714.3094875484
 30
0.0
 10
386.8214637496
 20
714.3351304194
 30
0.0
 10
386.8181602419
 20
714.3623268245
 30
0.0
 10
386.8181636252
 20
714.375626412
 30
0.0
  0
SPLINE
  5
422
100
AcDbEntity
  8
0
100
AcDbSpline
 62
7
  6
CONTINUOUS
 70
0
 71
3
 72
8
 73
4
 74
0
 42
0.0000001
 43
0.0000001
 44
0.0000000001
 40
0.0
 40
0.0
 40
0.0
 40
0.0
 40
1.0
 40
1.0
 40
1.0
 40
1.0
 10
399.6926651602
 20
707.2314146056
 30
0.0
 10
399.488540706
 20
707.1135640017
 30
0.0
 10
399.1896836698
 20
707.1135637737
 30
0.0
 10
398.9855583658
 20
707.2314129056
 30
0.0
  0
SPLINE
  5
423
100
AcDbEntity
  8
0
100
AcDbSpline
 62
7
  6
CONTINUOUS
 70
0
 71
3
 72
8
 73
4
 74
0
 42
0.0000001
 43
0.0000001
 44
0.0000000001
 40
0.0
 40
0.0
 40
0.0
 40
0.0
 40
1.0
 40
1.0
 40
1.0
 40
1.0
 10
369.2869499228
 20
724.3775245878
 30
0.0
 10
369.2352640298
 20
724.4073647773
 30
0.0
 10
369.1857771835
 20
724.4496151682
 30
0.0
 10
369.1593560056
 20
724.5031295569
 30
0.0
  0
SPLINE
  5
424
100
AcDbEntity
  8
0
100
AcDbSpline
 62
7
  6
CONTINUOUS
 70
0
 71
3
 72
9
 73
5
 74
0
 42
0.0000001
 43
0.0000001
 44
0.0000000001
 40
0.0
 40
0.0
 40
0.0
 40
0.0
 40
0.5092901302
 40
1.0
 40
1.0
 40
1.0
 40
1.0
 10
369.1593560056
 20
724.5031295569
 30
0.0
 10
369.1532452926
 20
724.5155064114
 30
0.0
 10
369.143720621
 20
724.5411492824
 30
0.0
 10
369.1404171132
 20
724.5683456875
 30
0.0
 10
369.1404204966
 20
724.581645275
 30
0.0
  0
SPLINE
  5
425
100
AcDbEntity
  8
0
100
AcDbSpline
 62
7
  6
CONTINUOUS
 70
0
 71
3
 72
8
 73
4
 74
0
 42
0.0000001
 43
0.0000001
 44
0.0000000001
 40
0.0
 40
0.0
 40
0.0
 40
0.0
 40
1.0
 40
1.0
 40
1.0
 40
1.0
 10
382.0149220315
 20
717.4374334686
 30
0.0
 10
381.8107975773
 20
717.3195828647
 30
0.0
 10
381.5119405411
 20
717.3195826367
 30
0.0
 10
381.3078152371
 20
717.4374317686
 30
0.0
  0
SPLINE
  5
426
100
AcDbEntity
  8
0
100
AcDbSpline
 62
7
  6
CONTINUOUS
 70
0
 71
3
 72
8
 73
4
 74
0
 42
0.0000001
 43
0.0000001
 44
0.0000000001
 40
0.0
 40
0.0
 40
0.0
 40
0.0
 40
1.0
 40
1.0
 40
1.0
 40
1.0
 10
351.6092067942
 20
734.5835434508
 30
0.0
 10
351.5575209012
 20
734.6133836403
 30
0.0
 10
351.5080340548
 20
734.6556340312
 30
0.0
 10
351.4816128769
 20
734.7091484199
 30
0.0
  0
SPLINE
  5
427
100
AcDbEntity
  8
0
100
AcDbSpline
 62
7
  6
CONTINUOUS
 70
0
 71
3
 72
9
 73
5
 74
0
 42
0.0000001
 43
0.0000001
 44
0.0000000001
 40
0.0
 40
0.0
 40
0.0
 40
0.0
 40
0.5092901302
 40
1.0
 40
1.0
 40
1.0
 40
1.0
 10
351.4816128769
 20
734.7091484199
 30
0.0
 10
351.4755021639
 20
734.7215252744
 30
0.0
 10
351.4659774923
 20
734.7471681454
 30
0.0
 10
351.4626739845
 20
734.7743645505
 30
0.0
 10
351.4626773679
 20
734.787664138
 30
0.0
  0
SPLINE
  5
428
100
AcDbEntity
  8
0
100
AcDbSpline
 62
7
  6
CONTINUOUS
 70
0
 71
3
 72
8
 73
4
 74
0
 42
0.0000001
 43
0.0000001
 44
0.0000000001
 40
0.0
 40
0.0
 40
0.0
 40
0.0
 40
1.0
 40
1.0
 40
1.0
 40
1.0
 10
364.3371789028
 20
727.6434523316
 30
0.0
 10
364.1330544487
 20
727.5256017277
 30
0.0
 10
363.8341974125
 20
727.5256014997
 30
0.0
 10
363.6300721085
 20
727.6434506316
 30
0.0
  0
SPLINE
  5
429
100
AcDbEntity
  8
0
100
AcDbSpline
 62
7
  6
CONTINUOUS
 70
0
 71
3
 72
8
 73
4
 74
0
 42
0.0000001
 43
0.0000001
 44
0.0000000001
 40
0.0
 40
0.0
 40
0.0
 40
0.0
 40
1.0
 40
1.0
 40
1.0
 40
1.0
 10
333.9314636655
 20
744.7895623139
 30
0.0
 10
333.8797777725
 20
744.8194025033
 30
0.0
 10
333.8302909262
 20
744.8616528942
 30
0.0
 10
333.8038697483
 20
744.9151672829
 30
0.0
  0
SPLINE
  5
42A
100
AcDbEntity
  8
0
100
AcDbSpline
 62
7
  6
CONTINUOUS
 70
0
 71
3
 72
9
 73
5
 74
0
 42
0.0000001
 43
0.0000001
 44
0.0000000001
 40
0.0
 40
0.0
 40
0.0
 40
0.0
 40
0.5092901302
 40
1.0
 40
1.0
 40
1.0
 40
1.0
 10
333.8038697483
 20
744.9151672829
 30
0.0
 10
333.7977590352
 20
744.9275441374
 30
0.0
 10
333.7882343636
 20
744.9531870084
 30
0.0
 10
333.7849308558
 20
744.9803834135
 30
0.0
 10
333.7849342392
 20
744.993683001
 30
0.0
  0
SPLINE
  5
42B
100
AcDbEntity
  8
0
100
AcDbSpline
 62
7
  6
CONTINUOUS
 70
0
 71
3
 72
8
 73
4
 74
0
 42
0.0000001
 43
0.0000001
 44
0.0000000001
 40
0.0
 40
0.0
 40
0.0
 40
0.0
 40
1.0
 40
1.0
 40
1.0
 40
1.0
 10
346.6594357742
 20
737.8494711946
 30
0.0
 10
346.45531132
 20
737.7316205907
 30
0.0
 10
346.1564542838
 20
737.7316203627
 30
0.0
 10
345.9523289798
 20
737.8494694946
 30
0.0
  0
SPLINE
  5
42C
100
AcDbEntity
  8
0
100
AcDbSpline
 62
7
  6
CONTINUOUS
 70
0
 71
3
 72
8
 73
4
 74
0
 42
0.0000001
 43
0.0000001
 44
0.0000000001
 40
0.0
 40
0.0
 40
0.0
 40
0.0
 40
1.0
 40
1.0
 40
1.0
 40
1.0
 10
316.2537205368
 20
754.9955811769
 30
0.0
 10
316.2020346438
 20
755.0254213663
 30
0.0
 10
316.1525477975
 20
755.0676717572
 30
0.0
 10
316.1261266196
 20
755.1211861459
 30
0.0
  0
SPLINE
  5
42D
100
AcDbEntity
  8
0
100
AcDbSpline
 62
7
  6
CONTINUOUS
 70
0
 71
3
 72
9
 73
5
 74
0
 42
0.0000001
 43
0.0000001
 44
0.0000000001
 40
0.0
 40
0.0
 40
0.0
 40
0.0
 40
0.5092901302
 40
1.0
 40
1.0
 40
1.0
 40
1.0
 10
316.1261266196
 20
755.1211861459
 30
0.0
 10
316.1200159065
 20
755.1335630004
 30
0.0
 10
316.1104912349
 20
755.1592058714
 30
0.0
 10
316.1071877272
 20
755.1864022765
 30
0.0
 10
316.1071911105
 20
755.199701864
 30
0.0
  0
SPLINE
  5
42E
100
AcDbEntity
  8
0
100
AcDbSpline
 62
7
  6
CONTINUOUS
 70
0
 71
3
 72
8
 73
4
 74
0
 42
0.0000001
 43
0.0000001
 44
0.0000000001
 40
0.0
 40
0.0
 40
0.0
 40
0.0
 40
1.0
 40
1.0
 40
1.0
 40
1.0
 10
328.9816926455
 20
748.0554900576
 30
0.0
 10
328.7775681913
 20
747.9376394538
 30
0.0
 10
328.4787111551
 20
747.9376392257
 30
0.0
 10
328.2745858511
 20
748.0554883576
 30
0.0
  0
SPLINE
  5
42F
100
AcDbEntity
  8
0
100
AcDbSpline
 62
7
  6
CONTINUOUS
 70
0
 71
3
 72
8
 73
4
 74
0
 42
0.0000001
 43
0.0000001
 44
0.0000000001
 40
0.0
 40
0.0
 40
0.0
 40
0.0
 40
1.0
 40
1.0
 40
1.0
 40
1.0
 10
298.5759774081
 20
765.2016000399
 30
0.0
 10
298.5242915151
 20
765.2314402293
 30
0.0
 10
298.4748046688
 20
765.2736906202
 30
0.0
 10
298.4483834909
 20
765.327205009
 30
0.0
  0
SPLINE
  5
430
100
AcDbEntity
  8
0
100
AcDbSpline
 62
7
  6
CONTINUOUS
 70
0
 71
3
 72
9
 73
5
 74
0
 42
0.0000001
 43
0.0000001
 44
0.0000000001
 40
0.0
 40
0.0
 40
0.0
 40
0.0
 40
0.5092901302
 40
1.0
 40
1.0
 40
1.0
 40
1.0
 10
298.4483834909
 20
765.327205009
 30
0.0
 10
298.4422727779
 20
765.3395818634
 30
0.0
 10
298.4327481063
 20
765.3652247344
 30
0.0
 10
298.4294445985
 20
765.3924211395
 30
0.0
 10
298.4294479819
 20
765.405720727
 30
0.0
  0
SPLINE
  5
431
100
AcDbEntity
  8
0
100
AcDbSpline
 62
7
  6
CONTINUOUS
 70
0
 71
3
 72
8
 73
4
 74
0
 42
0.0000001
 43
0.0000001
 44
0.0000000001
 40
0.0
 40
0.0
 40
0.0
 40
0.0
 40
1.0
 40
1.0
 40
1.0
 40
1.0
 10
311.3039495168
 20
758.2615089207
 30
0.0
 10
311.0998250626
 20
758.1436583168
 30
0.0
 10
310.8009680264
 20
758.1436580887
 30
0.0
 10
310.5968427224
 20
758.2615072206
 30
0.0
  0
SPLINE
  5
432
100
AcDbEntity
  8
0
100
AcDbSpline
 62
7
  6
CONTINUOUS
 70
0
 71
3
 72
8
 73
4
 74
0
 42
0.0000001
 43
0.0000001
 44
0.0000000001
 40
0.0
 40
0.0
 40
0.0
 40
0.0
 40
1.0
 40
1.0
 40
1.0
 40
1.0
 10
280.8982342795
 20
775.4076189029
 30
0.0
 10
280.8465483865
 20
775.4374590923
 30
0.0
 10
280.7970615401
 20
775.4797094832
 30
0.0
 10
280.7706403622
 20
775.533223872
 30
0.0
  0
SPLINE
  5
433
100
AcDbEntity
  8
0
100
AcDbSpline
 62
7
  6
CONTINUOUS
 70
0
 71
3
 72
9
 73
5
 74
0
 42
0.0000001
 43
0.0000001
 44
0.0000000001
 40
0.0
 40
0.0
 40
0.0
 40
0.0
 40
0.5092901302
 40
1.0
 40
1.0
 40
1.0
 40
1.0
 10
280.7706403622
 20
775.533223872
 30
0.0
 10
280.7645296492
 20
775.5456007264
 30
0.0
 10
280.7550049776
 20
775.5712435974
 30
0.0
 10
280.7517014698
 20
775.5984400025
 30
0.0
 10
280.7517048532
 20
775.61173959
 30
0.0
  0
SPLINE
  5
434
100
AcDbEntity
  8
0
100
AcDbSpline
 62
7
  6
CONTINUOUS
 70
0
 71
3
 72
8
 73
4
 74
0
 42
0.0000001
 43
0.0000001
 44
0.0000000001
 40
0.0
 40
0.0
 40
0.0
 40
0.0
 40
1.0
 40
1.0
 40
1.0
 40
1.0
 10
293.6262063881
 20
768.4675277837
 30
0.0
 10
293.422081934
 20
768.3496771798
 30
0.0
 10
293.1232248978
 20
768.3496769517
 30
0.0
 10
292.9190995938
 20
768.4675260836
 30
0.0
  0
SPLINE
  5
435
100
AcDbEntity
  8
0
100
AcDbSpline
 62
7
  6
CONTINUOUS
 70
0
 71
3
 72
8
 73
4
 74
0
 42
0.0000001
 43
0.0000001
 44
0.0000000001
 40
0.0
 40
0.0
 40
0.0
 40
0.0
 40
1.0
 40
1.0
 40
1.0
 40
1.0
 10
263.2204911508
 20
785.6136377659
 30
0.0
 10
263.1688052578
 20
785.6434779553
 30
0.0
 10
263.1193184115
 20
785.6857283463
 30
0.0
 10
263.0928972336
 20
785.739242735
 30
0.0
  0
SPLINE
  5
436
100
AcDbEntity
  8
0
100
AcDbSpline
 62
7
  6
CONTINUOUS
 70
0
 71
3
 72
9
 73
5
 74
0
 42
0.0000001
 43
0.0000001
 44
0.0000000001
 40
0.0
 40
0.0
 40
0.0
 40
0.0
 40
0.5092901302
 40
1.0
 40
1.0
 40
1.0
 40
1.0
 10
263.0928972336
 20
785.739242735
 30
0.0
 10
263.0867865205
 20
785.7516195894
 30
0.0
 10
263.0772618489
 20
785.7772624604
 30
0.0
 10
263.0739583411
 20
785.8044588655
 30
0.0
 10
263.0739617245
 20
785.817758453
 30
0.0
  0
SPLINE
  5
437
100
AcDbEntity
  8
0
100
AcDbSpline
 62
7
  6
CONTINUOUS
 70
0
 71
3
 72
8
 73
4
 74
0
 42
0.0000001
 43
0.0000001
 44
0.0000000001
 40
0.0
 40
0.0
 40
0.0
 40
0.0
 40
1.0
 40
1.0
 40
1.0
 40
1.0
 10
275.9484632595
 20
778.6735466467
 30
0.0
 10
275.7443388053
 20
778.5556960428
 30
0.0
 10
275.4454817691
 20
778.5556958147
 30
0.0
 10
275.2413564651
 20
778.6735449467
 30
0.0
  0
SPLINE
  5
438
100
AcDbEntity
  8
0
100
AcDbSpline
 62
7
  6
CONTINUOUS
 70
0
 71
3
 72
8
 73
4
 74
0
 42
0.0000001
 43
0.0000001
 44
0.0000000001
 40
0.0
 40
0.0
 40
0.0
 40
0.0
 40
1.0
 40
1.0
 40
1.0
 40
1.0
 10
245.5427480221
 20
795.8196566289
 30
0.0
 10
245.4910621291
 20
795.8494968183
 30
0.0
 10
245.4415752828
 20
795.8917472093
 30
0.0
 10
245.4151541049
 20
795.945261598
 30
0.0
  0
SPLINE
  5
439
100
AcDbEntity
  8
0
100
AcDbSpline
 62
7
  6
CONTINUOUS
 70
0
 71
3
 72
9
 73
5
 74
0
 42
0.0000001
 43
0.0000001
 44
0.0000000001
 40
0.0
 40
0.0
 40
0.0
 40
0.0
 40
0.5092901302
 40
1.0
 40
1.0
 40
1.0
 40
1.0
 10
245.4151541049
 20
795.945261598
 30
0.0
 10
245.4090433918
 20
795.9576384524
 30
0.0
 10
245.3995187202
 20
795.9832813234
 30
0.0
 10
245.3962152125
 20
796.0104777285
 30
0.0
 10
245.3962185959
 20
796.023777316
 30
0.0
  0
SPLINE
  5
43A
100
AcDbEntity
  8
0
100
AcDbSpline
 62
7
  6
CONTINUOUS
 70
0
 71
3
 72
8
 73
4
 74
0
 42
0.0000001
 43
0.0000001
 44
0.0000000001
 40
0.0
 40
0.0
 40
0.0
 40
0.0
 40
1.0
 40
1.0
 40
1.0
 40
1.0
 10
258.2707201308
 20
788.8795655097
 30
0.0
 10
258.0665956766
 20
788.7617149058
 30
0.0
 10
257.7677386404
 20
788.7617146777
 30
0.0
 10
257.5636133364
 20
788.8795638097
 30
0.0
  0
SPLINE
  5
43B
100
AcDbEntity
  8
0
100
AcDbSpline
 62
7
  6
CONTINUOUS
 70
0
 71
3
 72
8
 73
4
 74
0
 42
0.0000001
 43
0.0000001
 44
0.0000000001
 40
0.0
 40
0.0
 40
0.0
 40
0.0
 40
1.0
 40
1.0
 40
1.0
 40
1.0
 10
227.8650048934
 20
806.0256754919
 30
0.0
 10
227.8133190005
 20
806.0555156814
 30
0.0
 10
227.7638321541
 20
806.0977660723
 30
0.0
 10
227.7374109762
 20
806.151280461
 30
0.0
  0
SPLINE
  5
43C
100
AcDbEntity
  8
0
100
AcDbSpline
 62
7
  6
CONTINUOUS
 70
0
 71
3
 72
9
 73
5
 74
0
 42
0.0000001
 43
0.0000001
 44
0.0000000001
 40
0.0
 40
0.0
 40
0.0
 40
0.0
 40
0.5092901302
 40
1.0
 40
1.0
 40
1.0
 40
1.0
 10
227.7374109762
 20
806.151280461
 30
0.0
 10
227.7313002632
 20
806.1636573154
 30
0.0
 10
227.7217755916
 20
806.1893001864
 30
0.0
 10
227.7184720838
 20
806.2164965915
 30
0.0
 10
227.7184754672
 20
806.229796179
 30
0.0
  0
SPLINE
  5
43D
100
AcDbEntity
  8
0
100
AcDbSpline
 62
7
  6
CONTINUOUS
 70
0
 71
3
 72
8
 73
4
 74
0
 42
0.0000001
 43
0.0000001
 44
0.0000000001
 40
0.0
 40
0.0
 40
0.0
 40
0.0
 40
1.0
 40
1.0
 40
1.0
 40
1.0
 10
240.5929770021
 20
799.0855843727
 30
0.0
 10
240.3888525479
 20
798.9677337688
 30
0.0
 10
240.0899955117
 20
798.9677335408
 30
0.0
 10
239.8858702077
 20
799.0855826727
 30
0.0
  0
SPLINE
  5
43E
100
AcDbEntity
  8
0
100
AcDbSpline
 62
7
  6
CONTINUOUS
 70
0
 71
3
 72
8
 73
4
 74
0
 42
0.0000001
 43
0.0000001
 44
0.0000000001
 40
0.0
 40
0.0
 40
0.0
 40
0.0
 40
1.0
 40
1.0
 40
1.0
 40
1.0
 10
210.1872617648
 20
816.2316943549
 30
0.0
 10
210.1355758718
 20
816.2615345444
 30
0.0
 10
210.0860890254
 20
816.3037849353
 30
0.0
 10
210.0596678475
 20
816.357299324
 30
0.0
  0
SPLINE
  5
43F
100
AcDbEntity
  8
0
100
AcDbSpline
 62
7
  6
CONTINUOUS
 70
0
 71
3
 72
9
 73
5
 74
0
 42
0.0000001
 43
0.0000001
 44
0.0000000001
 40
0.0
 40
0.0
 40
0.0
 40
0.0
 40
0.5092901302
 40
1.0
 40
1.0
 40
1.0
 40
1.0
 10
210.0596678475
 20
816.357299324
 30
0.0
 10
210.0535571345
 20
816.3696761785
 30
0.0
 10
210.0440324629
 20
816.3953190494
 30
0.0
 10
210.0407289551
 20
816.4225154545
 30
0.0
 10
210.0407323385
 20
816.4358150421
 30
0.0
  0
SPLINE
  5
440
100
AcDbEntity
  8
0
100
AcDbSpline
 62
7
  6
CONTINUOUS
 70
0
 71
3
 72
8
 73
4
 74
0
 42
0.0000001
 43
0.0000001
 44
0.0000000001
 40
0.0
 40
0.0
 40
0.0
 40
0.0
 40
1.0
 40
1.0
 40
1.0
 40
1.0
 10
222.9152338734
 20
809.2916032357
 30
0.0
 10
222.7111094193
 20
809.1737526318
 30
0.0
 10
222.4122523831
 20
809.1737524038
 30
0.0
 10
222.2081270791
 20
809.2916015357
 30
0.0
  0
SPLINE
  5
441
100
AcDbEntity
  8
0
100
AcDbSpline
 62
7
  6
CONTINUOUS
 70
0
 71
3
 72
8
 73
4
 74
0
 42
0.0000001
 43
0.0000001
 44
0.0000000001
 40
0.0
 40
0.0
 40
0.0
 40
0.0
 40
1.0
 40
1.0
 40
1.0
 40
1.0
 10
192.5095186361
 20
826.4377132179
 30
0.0
 10
192.4578327431
 20
826.4675534074
 30
0.0
 10
192.4083458968
 20
826.5098037983
 30
0.0
 10
192.3819247189
 20
826.563318187
 30
0.0
  0
SPLINE
  5
442
100
AcDbEntity
  8
0
100
AcDbSpline
 62
7
  6
CONTINUOUS
 70
0
 71
3
 72
9
 73
5
 74
0
 42
0.0000001
 43
0.0000001
 44
0.0000000001
 40
0.0
 40
0.0
 40
0.0
 40
0.0
 40
0.5092901302
 40
1.0
 40
1.0
 40
1.0
 40
1.0
 10
192.3819247189
 20
826.563318187
 30
0.0
 10
192.3758140058
 20
826.5756950415
 30
0.0
 10
192.3662893342
 20
826.6013379124
 30
0.0
 10
192.3629858264
 20
826.6285343175
 30
0.0
 10
192.3629892098
 20
826.6418339051
 30
0.0
  0
SPLINE
  5
443
100
AcDbEntity
  8
0
100
AcDbSpline
 62
7
  6
CONTINUOUS
 70
0
 71
3
 72
8
 73
4
 74
0
 42
0.0000001
 43
0.0000001
 44
0.0000000001
 40
0.0
 40
0.0
 40
0.0
 40
0.0
 40
1.0
 40
1.0
 40
1.0
 40
1.0
 10
205.2374907448
 20
819.4976220987
 30
0.0
 10
205.0333662906
 20
819.3797714948
 30
0.0
 10
204.7345092544
 20
819.3797712668
 30
0.0
 10
204.5303839504
 20
819.4976203987
 30
0.0
  0
SPLINE
  5
444
100
AcDbEntity
  8
0
100
AcDbSpline
 62
7
  6
CONTINUOUS
 70
0
 71
3
 72
8
 73
4
 74
0
 42
0.0000001
 43
0.0000001
 44
0.0000000001
 40
0.0
 40
0.0
 40
0.0
 40
0.0
 40
1.0
 40
1.0
 40
1.0
 40
1.0
 10
174.8317755074
 20
836.6437320809
 30
0.0
 10
174.7800896144
 20
836.6735722704
 30
0.0
 10
174.7306027681
 20
836.7158226613
 30
0.0
 10
174.7041815902
 20
836.76933705
 30
0.0
  0
SPLINE
  5
445
100
AcDbEntity
  8
0
100
AcDbSpline
 62
7
  6
CONTINUOUS
 70
0
 71
3
 72
9
 73
5
 74
0
 42
0.0000001
 43
0.0000001
 44
0.0000000001
 40
0.0
 40
0.0
 40
0.0
 40
0.0
 40
0.5092901302
 40
1.0
 40
1.0
 40
1.0
 40
1.0
 10
174.7041815902
 20
836.76933705
 30
0.0
 10
174.6980708771
 20
836.7817139045
 30
0.0
 10
174.6885462055
 20
836.8073567755
 30
0.0
 10
174.6852426978
 20
836.8345531805
 30
0.0
 10
174.6852460812
 20
836.8478527681
 30
0.0
  0
SPLINE
  5
446
100
AcDbEntity
  8
0
100
AcDbSpline
 62
7
  6
CONTINUOUS
 70
0
 71
3
 72
8
 73
4
 74
0
 42
0.0000001
 43
0.0000001
 44
0.0000000001
 40
0.0
 40
0.0
 40
0.0
 40
0.0
 40
1.0
 40
1.0
 40
1.0
 40
1.0
 10
187.5597476161
 20
829.7036409617
 30
0.0
 10
187.3556231619
 20
829.5857903578
 30
0.0
 10
187.0567661257
 20
829.5857901298
 30
0.0
 10
186.8526408217
 20
829.7036392617
 30
0.0
  0
SPLINE
  5
447
100
AcDbEntity
  8
0
100
AcDbSpline
 62
7
  6
CONTINUOUS
 70
0
 71
3
 72
8
 73
4
 74
0
 42
0.0000001
 43
0.0000001
 44
0.0000000001
 40
0.0
 40
0.0
 40
0.0
 40
0.0
 40
1.0
 40
1.0
 40
1.0
 40
1.0
 10
157.1540323787
 20
846.8497509439
 30
0.0
 10
157.1023464858
 20
846.8795911334
 30
0.0
 10
157.0528596394
 20
846.9218415243
 30
0.0
 10
157.0264384615
 20
846.975355913
 30
0.0
  0
SPLINE
  5
448
100
AcDbEntity
  8
0
100
AcDbSpline
 62
7
  6
CONTINUOUS
 70
0
 71
3
 72
9
 73
5
 74
0
 42
0.0000001
 43
0.0000001
 44
0.0000000001
 40
0.0
 40
0.0
 40
0.0
 40
0.0
 40
0.5092901302
 40
1.0
 40
1.0
 40
1.0
 40
1.0
 10
157.0264384615
 20
846.975355913
 30
0.0
 10
157.0203277485
 20
846.9877327675
 30
0.0
 10
157.0108030769
 20
847.0133756385
 30
0.0
 10
157.0074995691
 20
847.0405720436
 30
0.0
 10
157.0075029525
 20
847.0538716311
 30
0.0
  0
SPLINE
  5
449
100
AcDbEntity
  8
0
100
AcDbSpline
 62
7
  6
CONTINUOUS
 70
0
 71
3
 72
8
 73
4
 74
0
 42
0.0000001
 43
0.0000001
 44
0.0000000001
 40
0.0
 40
0.0
 40
0.0
 40
0.0
 40
1.0
 40
1.0
 40
1.0
 40
1.0
 10
169.8820044874
 20
839.9096598247
 30
0.0
 10
169.6778800332
 20
839.7918092208
 30
0.0
 10
169.379022997
 20
839.7918089928
 30
0.0
 10
169.174897693
 20
839.9096581247
 30
0.0
  0
SPLINE
  5
44A
100
AcDbEntity
  8
0
100
AcDbSpline
 62
7
  6
CONTINUOUS
 70
0
 71
3
 72
8
 73
4
 74
0
 42
0.0000001
 43
0.0000001
 44
0.0000000001
 40
0.0
 40
0.0
 40
0.0
 40
0.0
 40
1.0
 40
1.0
 40
1.0
 40
1.0
 10
139.4762892501
 20
857.0557698069
 30
0.0
 10
139.4246033571
 20
857.0856099964
 30
0.0
 10
139.3751165107
 20
857.1278603873
 30
0.0
 10
139.3486953329
 20
857.181374776
 30
0.0
  0
SPLINE
  5
44B
100
AcDbEntity
  8
0
100
AcDbSpline
 62
7
  6
CONTINUOUS
 70
0
 71
3
 72
9
 73
5
 74
0
 42
0.0000001
 43
0.0000001
 44
0.0000000001
 40
0.0
 40
0.0
 40
0.0
 40
0.0
 40
0.5092901302
 40
1.0
 40
1.0
 40
1.0
 40
1.0
 10
139.3486953329
 20
857.181374776
 30
0.0
 10
139.3425846198
 20
857.1937516305
 30
0.0
 10
139.3330599482
 20
857.2193945015
 30
0.0
 10
139.3297564404
 20
857.2465909066
 30
0.0
 10
139.3297598238
 20
857.2598904941
 30
0.0
  0
SPLINE
  5
44C
100
AcDbEntity
  8
0
100
AcDbSpline
 62
7
  6
CONTINUOUS
 70
0
 71
3
 72
8
 73
4
 74
0
 42
0.0000001
 43
0.0000001
 44
0.0000000001
 40
0.0
 40
0.0
 40
0.0
 40
0.0
 40
1.0
 40
1.0
 40
1.0
 40
1.0
 10
152.2042613587
 20
850.1156786877
 30
0.0
 10
152.0001369046
 20
849.9978280838
 30
0.0
 10
151.7012798684
 20
849.9978278558
 30
0.0
 10
151.4971545644
 20
850.1156769877
 30
0.0
  0
SPLINE
  5
44D
100
AcDbEntity
  8
0
100
AcDbSpline
 62
7
  6
CONTINUOUS
 70
0
 71
3
 72
8
 73
4
 74
0
 42
0.0000001
 43
0.0000001
 44
0.0000000001
 40
0.0
 40
0.0
 40
0.0
 40
0.0
 40
1.0
 40
1.0
 40
1.0
 40
1.0
 10
121.7985461214
 20
867.2617886699
 30
0.0
 10
121.7468602284
 20
867.2916288594
 30
0.0
 10
121.6973733821
 20
867.3338792503
 30
0.0
 10
121.6709522042
 20
867.387393639
 30
0.0
  0
SPLINE
  5
44E
100
AcDbEntity
  8
0
100
AcDbSpline
 62
7
  6
CONTINUOUS
 70
0
 71
3
 72
9
 73
5
 74
0
 42
0.0000001
 43
0.0000001
 44
0.0000000001
 40
0.0
 40
0.0
 40
0.0
 40
0.0
 40
0.5092901302
 40
1.0
 40
1.0
 40
1.0
 40
1.0
 10
121.6709522042
 20
867.387393639
 30
0.0
 10
121.6648414911
 20
867.3997704935
 30
0.0
 10
121.6553168195
 20
867.4254133645
 30
0.0
 10
121.6520133118
 20
867.4526097696
 30
0.0
 10
121.6520166951
 20
867.4659093571
 30
0.0
  0
SPLINE
  5
44F
100
AcDbEntity
  8
0
100
AcDbSpline
 62
7
  6
CONTINUOUS
 70
0
 71
3
 72
8
 73
4
 74
0
 42
0.0000001
 43
0.0000001
 44
0.0000000001
 40
0.0
 40
0.0
 40
0.0
 40
0.0
 40
1.0
 40
1.0
 40
1.0
 40
1.0
 10
134.5265182301
 20
860.3216975507
 30
0.0
 10
134.3223937759
 20
860.2038469468
 30
0.0
 10
134.0235367397
 20
860.2038467188
 30
0.0
 10
133.8194114357
 20
860.3216958507
 30
0.0
  0
SPLINE
  5
450
100
AcDbEntity
  8
0
100
AcDbSpline
 62
7
  6
CONTINUOUS
 70
0
 71
3
 72
9
 73
5
 74
0
 42
0.0000001
 43
0.0000001
 44
0.0000000001
 40
0.0
 40
0.0
 40
0.0
 40
0.0
 40
0.2308701432
 40
1.0
 40
1.0
 40
1.0
 40
1.0
 10
116.0733351228
 20
866.5030004498
 30
0.0
 10
116.1447081976
 20
866.5268427679
 30
0.0
 10
116.4477390796
 20
866.6483535025
 30
0.0
 10
116.7236480568
 20
866.8313472258
 30
0.0
 10
116.9174225333
 20
866.9903989031
 30
0.0
  0
SPLINE
  5
451
100
AcDbEntity
  8
0
100
AcDbSpline
 62
7
  6
CONTINUOUS
 70
0
 71
3
 72
9
 73
5
 74
0
 42
0.0000001
 43
0.0000001
 44
0.0000000001
 40
0.0
 40
0.0
 40
0.0
 40
0.0
 40
0.2390372383
 40
1.0
 40
1.0
 40
1.0
 40
1.0
 10
116.9174225333
 20
866.9903989031
 30
0.0
 10
117.0618941947
 20
867.108982426
 30
0.0
 10
117.6267148943
 20
867.6519279802
 30
0.0
 10
118.0477740487
 20
868.3400320864
 30
0.0
 10
118.2630004327
 20
868.8947499923
 30
0.0
  0
SPLINE
  5
452
100
AcDbEntity
  8
0
100
AcDbSpline
 62
7
  6
CONTINUOUS
 70
0
 71
3
 72
8
 73
4
 74
0
 42
0.0000001
 43
0.0000001
 44
0.0000000001
 40
0.0
 40
0.0
 40
0.0
 40
0.0
 40
1.0
 40
1.0
 40
1.0
 40
1.0
 10
815.473151163
 20
470.8600155187
 30
0.0
 10
815.269025859
 20
470.9778646507
 30
0.0
 10
814.9701688228
 20
470.9778644233
 30
0.0
 10
814.7660443686
 20
470.8600138194
 30
0.0
  0
SPLINE
  5
453
100
AcDbEntity
  8
0
100
AcDbSpline
 62
7
  6
CONTINUOUS
 70
0
 71
3
 72
10
 73
6
 74
0
 42
0.0000001
 43
0.0000001
 44
0.0000000001
 40
0.0
 40
0.0
 40
0.0
 40
0.0
 40
0.4059980253
 40
0.6940384828
 40
1.0
 40
1.0
 40
1.0
 40
1.0
 10
830.6457221707
 20
462.395598409
 30
0.0
 10
831.1474739588
 20
462.105315091
 30
0.0
 10
832.3412314656
 20
462.5426147425
 30
0.0
 10
833.2674862529
 20
463.5754516228
 30
0.0
 10
833.6985426022
 20
464.3299768533
 30
0.0
 10
833.8565574068
 20
464.7372393829
 30
0.0
  0
SPLINE
  5
454
100
AcDbEntity
  8
0
100
AcDbSpline
 62
7
  6
CONTINUOUS
 70
0
 71
3
 72
8
 73
4
 74
0
 42
0.0000001
 43
0.0000001
 44
0.0000000001
 40
0.0
 40
0.0
 40
0.0
 40
0.0
 40
1.0
 40
1.0
 40
1.0
 40
1.0
 10
797.7954080343
 20
481.0660343818
 30
0.0
 10
797.5912827303
 20
481.1838835137
 30
0.0
 10
797.2924256941
 20
481.1838832863
 30
0.0
 10
797.0883012399
 20
481.0660326824
 30
0.0
  0
SPLINE
  5
455
100
AcDbEntity
  8
0
100
AcDbSpline
 62
7
  6
CONTINUOUS
 70
0
 71
3
 72
8
 73
4
 74
0
 42
0.0000001
 43
0.0000001
 44
0.0000000001
 40
0.0
 40
0.0
 40
0.0
 40
0.0
 40
1.0
 40
1.0
 40
1.0
 40
1.0
 10
780.1176649056
 20
491.2720532448
 30
0.0
 10
779.9135396016
 20
491.3899023767
 30
0.0
 10
779.6146825654
 20
491.3899021493
 30
0.0
 10
779.4105581113
 20
491.2720515454
 30
0.0
  0
SPLINE
  5
456
100
AcDbEntity
  8
0
100
AcDbSpline
 62
7
  6
CONTINUOUS
 70
0
 71
3
 72
8
 73
4
 74
0
 42
0.0000001
 43
0.0000001
 44
0.0000000001
 40
0.0
 40
0.0
 40
0.0
 40
0.0
 40
1.0
 40
1.0
 40
1.0
 40
1.0
 10
138.2085638847
 20
862.5670400871
 30
0.0
 10
138.2085425774
 20
862.4832840229
 30
0.0
 10
138.1345723927
 20
862.4047961588
 30
0.0
 10
138.0620374029
 20
862.3629183125
 30
0.0
  0
SPLINE
  5
457
100
AcDbEntity
  8
0
100
AcDbSpline
 62
7
  6
CONTINUOUS
 70
0
 71
3
 72
8
 73
4
 74
0
 42
0.0000001
 43
0.0000001
 44
0.0000000001
 40
0.0
 40
0.0
 40
0.0
 40
0.0
 40
1.0
 40
1.0
 40
1.0
 40
1.0
 10
762.439921777
 20
501.4780721078
 30
0.0
 10
762.235796473
 20
501.5959212397
 30
0.0
 10
761.9369394368
 20
501.5959210123
 30
0.0
 10
761.7328149826
 20
501.4780704084
 30
0.0
  0
SPLINE
  5
458
100
AcDbEntity
  8
0
100
AcDbSpline
 62
7
  6
CONTINUOUS
 70
0
 71
3
 72
8
 73
4
 74
0
 42
0.0000001
 43
0.0000001
 44
0.0000000001
 40
0.0
 40
0.0
 40
0.0
 40
0.0
 40
1.0
 40
1.0
 40
1.0
 40
1.0
 10
155.8863070133
 20
852.3610212241
 30
0.0
 10
155.886285706
 20
852.2772651599
 30
0.0
 10
155.8123155214
 20
852.1987772958
 30
0.0
 10
155.7397805316
 20
852.1568994495
 30
0.0
  0
SPLINE
  5
459
100
AcDbEntity
  8
0
100
AcDbSpline
 62
7
  6
CONTINUOUS
 70
0
 71
3
 72
8
 73
4
 74
0
 42
0.0000001
 43
0.0000001
 44
0.0000000001
 40
0.0
 40
0.0
 40
0.0
 40
0.0
 40
1.0
 40
1.0
 40
1.0
 40
1.0
 10
744.7621786483
 20
511.6840909708
 30
0.0
 10
744.5580533443
 20
511.8019401027
 30
0.0
 10
744.2591963081
 20
511.8019398753
 30
0.0
 10
744.0550718539
 20
511.6840892714
 30
0.0
  0
SPLINE
  5
45A
100
AcDbEntity
  8
0
100
AcDbSpline
 62
7
  6
CONTINUOUS
 70
0
 71
3
 72
8
 73
4
 74
0
 42
0.0000001
 43
0.0000001
 44
0.0000000001
 40
0.0
 40
0.0
 40
0.0
 40
0.0
 40
1.0
 40
1.0
 40
1.0
 40
1.0
 10
727.0844355196
 20
521.8901098338
 30
0.0
 10
726.8803102156
 20
522.0079589657
 30
0.0
 10
726.5814531794
 20
522.0079587383
 30
0.0
 10
726.3773287252
 20
521.8901081344
 30
0.0
  0
SPLINE
  5
45B
100
AcDbEntity
  8
0
100
AcDbSpline
 62
7
  6
CONTINUOUS
 70
0
 71
3
 72
8
 73
4
 74
0
 42
0.0000001
 43
0.0000001
 44
0.0000000001
 40
0.0
 40
0.0
 40
0.0
 40
0.0
 40
1.0
 40
1.0
 40
1.0
 40
1.0
 10
173.564050142
 20
842.1550023611
 30
0.0
 10
173.5640288347
 20
842.0712462969
 30
0.0
 10
173.49005865
 20
841.9927584328
 30
0.0
 10
173.4175236603
 20
841.9508805865
 30
0.0
  0
SPLINE
  5
45C
100
AcDbEntity
  8
0
100
AcDbSpline
 62
7
  6
CONTINUOUS
 70
0
 71
3
 72
8
 73
4
 74
0
 42
0.0000001
 43
0.0000001
 44
0.0000000001
 40
0.0
 40
0.0
 40
0.0
 40
0.0
 40
1.0
 40
1.0
 40
1.0
 40
1.0
 10
709.4066923909
 20
532.0961286968
 30
0.0
 10
709.2025670869
 20
532.2139778287
 30
0.0
 10
708.9037100507
 20
532.2139776013
 30
0.0
 10
708.6995855966
 20
532.0961269975
 30
0.0
  0
SPLINE
  5
45D
100
AcDbEntity
  8
0
100
AcDbSpline
 62
7
  6
CONTINUOUS
 70
0
 71
3
 72
8
 73
4
 74
0
 42
0.0000001
 43
0.0000001
 44
0.0000000001
 40
0.0
 40
0.0
 40
0.0
 40
0.0
 40
1.0
 40
1.0
 40
1.0
 40
1.0
 10
191.2417932707
 20
831.9489834981
 30
0.0
 10
191.2417719634
 20
831.8652274339
 30
0.0
 10
191.1678017787
 20
831.7867395698
 30
0.0
 10
191.095266789
 20
831.7448617234
 30
0.0
  0
SPLINE
  5
45E
100
AcDbEntity
  8
0
100
AcDbSpline
 62
7
  6
CONTINUOUS
 70
0
 71
3
 72
8
 73
4
 74
0
 42
0.0000001
 43
0.0000001
 44
0.0000000001
 40
0.0
 40
0.0
 40
0.0
 40
0.0
 40
1.0
 40
1.0
 40
1.0
 40
1.0
 10
691.7289492623
 20
542.3021475598
 30
0.0
 10
691.5248239583
 20
542.4199966917
 30
0.0
 10
691.2259669221
 20
542.4199964644
 30
0.0
 10
691.0218424679
 20
542.3021458605
 30
0.0
  0
SPLINE
  5
45F
100
AcDbEntity
  8
0
100
AcDbSpline
 62
7
  6
CONTINUOUS
 70
0
 71
3
 72
8
 73
4
 74
0
 42
0.0000001
 43
0.0000001
 44
0.0000000001
 40
0.0
 40
0.0
 40
0.0
 40
0.0
 40
1.0
 40
1.0
 40
1.0
 40
1.0
 10
674.0512061336
 20
552.5081664228
 30
0.0
 10
673.8470808296
 20
552.6260155547
 30
0.0
 10
673.5482237934
 20
552.6260153274
 30
0.0
 10
673.3440993392
 20
552.5081647235
 30
0.0
  0
SPLINE
  5
460
100
AcDbEntity
  8
0
100
AcDbSpline
 62
7
  6
CONTINUOUS
 70
0
 71
3
 72
8
 73
4
 74
0
 42
0.0000001
 43
0.0000001
 44
0.0000000001
 40
0.0
 40
0.0
 40
0.0
 40
0.0
 40
1.0
 40
1.0
 40
1.0
 40
1.0
 10
208.9195363994
 20
821.7429646351
 30
0.0
 10
208.919515092
 20
821.6592085709
 30
0.0
 10
208.8455449074
 20
821.5807207067
 30
0.0
 10
208.7730099176
 20
821.5388428604
 30
0.0
  0
SPLINE
  5
461
100
AcDbEntity
  8
0
100
AcDbSpline
 62
7
  6
CONTINUOUS
 70
0
 71
3
 72
8
 73
4
 74
0
 42
0.0000001
 43
0.0000001
 44
0.0000000001
 40
0.0
 40
0.0
 40
0.0
 40
0.0
 40
1.0
 40
1.0
 40
1.0
 40
1.0
 10
656.3734630049
 20
562.7141852858
 30
0.0
 10
656.1693377009
 20
562.8320344177
 30
0.0
 10
655.8704806647
 20
562.8320341904
 30
0.0
 10
655.6663562105
 20
562.7141835865
 30
0.0
  0
SPLINE
  5
462
100
AcDbEntity
  8
0
100
AcDbSpline
 62
7
  6
CONTINUOUS
 70
0
 71
3
 72
8
 73
4
 74
0
 42
0.0000001
 43
0.0000001
 44
0.0000000001
 40
0.0
 40
0.0
 40
0.0
 40
0.0
 40
1.0
 40
1.0
 40
1.0
 40
1.0
 10
226.597279528
 20
811.5369457721
 30
0.0
 10
226.5972582207
 20
811.4531897079
 30
0.0
 10
226.5232880361
 20
811.3747018437
 30
0.0
 10
226.4507530463
 20
811.3328239974
 30
0.0
  0
SPLINE
  5
463
100
AcDbEntity
  8
0
100
AcDbSpline
 62
7
  6
CONTINUOUS
 70
0
 71
3
 72
8
 73
4
 74
0
 42
0.0000001
 43
0.0000001
 44
0.0000000001
 40
0.0
 40
0.0
 40
0.0
 40
0.0
 40
1.0
 40
1.0
 40
1.0
 40
1.0
 10
638.6957198762
 20
572.9202041488
 30
0.0
 10
638.4915945722
 20
573.0380532807
 30
0.0
 10
638.192737536
 20
573.0380530534
 30
0.0
 10
637.9886130819
 20
572.9202024495
 30
0.0
  0
SPLINE
  5
464
100
AcDbEntity
  8
0
100
AcDbSpline
 62
7
  6
CONTINUOUS
 70
0
 71
3
 72
8
 73
4
 74
0
 42
0.0000001
 43
0.0000001
 44
0.0000000001
 40
0.0
 40
0.0
 40
0.0
 40
0.0
 40
1.0
 40
1.0
 40
1.0
 40
1.0
 10
621.0179767476
 20
583.1262230118
 30
0.0
 10
620.8138514436
 20
583.2440721437
 30
0.0
 10
620.5149944074
 20
583.2440719164
 30
0.0
 10
620.3108699532
 20
583.1262213125
 30
0.0
  0
SPLINE
  5
465
100
AcDbEntity
  8
0
100
AcDbSpline
 62
7
  6
CONTINUOUS
 70
0
 71
3
 72
8
 73
4
 74
0
 42
0.0000001
 43
0.0000001
 44
0.0000000001
 40
0.0
 40
0.0
 40
0.0
 40
0.0
 40
1.0
 40
1.0
 40
1.0
 40
1.0
 10
244.2750226567
 20
801.3309269091
 30
0.0
 10
244.2750013494
 20
801.2471708449
 30
0.0
 10
244.2010311647
 20
801.1686829807
 30
0.0
 10
244.128496175
 20
801.1268051344
 30
0.0
  0
SPLINE
  5
466
100
AcDbEntity
  8
0
100
AcDbSpline
 62
7
  6
CONTINUOUS
 70
0
 71
3
 72
8
 73
4
 74
0
 42
0.0000001
 43
0.0000001
 44
0.0000000001
 40
0.0
 40
0.0
 40
0.0
 40
0.0
 40
1.0
 40
1.0
 40
1.0
 40
1.0
 10
603.3402336189
 20
593.3322418748
 30
0.0
 10
603.1361083149
 20
593.4500910068
 30
0.0
 10
602.8372512787
 20
593.4500907794
 30
0.0
 10
602.6331268245
 20
593.3322401755
 30
0.0
  0
SPLINE
  5
467
100
AcDbEntity
  8
0
100
AcDbSpline
 62
7
  6
CONTINUOUS
 70
0
 71
3
 72
8
 73
4
 74
0
 42
0.0000001
 43
0.0000001
 44
0.0000000001
 40
0.0
 40
0.0
 40
0.0
 40
0.0
 40
1.0
 40
1.0
 40
1.0
 40
1.0
 10
261.9527657854
 20
791.1249080461
 30
0.0
 10
261.9527444781
 20
791.0411519819
 30
0.0
 10
261.8787742934
 20
790.9626641177
 30
0.0
 10
261.8062393037
 20
790.9207862714
 30
0.0
  0
SPLINE
  5
468
100
AcDbEntity
  8
0
100
AcDbSpline
 62
7
  6
CONTINUOUS
 70
0
 71
3
 72
8
 73
4
 74
0
 42
0.0000001
 43
0.0000001
 44
0.0000000001
 40
0.0
 40
0.0
 40
0.0
 40
0.0
 40
1.0
 40
1.0
 40
1.0
 40
1.0
 10
585.6624904902
 20
603.5382607378
 30
0.0
 10
585.4583651862
 20
603.6561098698
 30
0.0
 10
585.15950815
 20
603.6561096424
 30
0.0
 10
584.9553836958
 20
603.5382590385
 30
0.0
  0
SPLINE
  5
469
100
AcDbEntity
  8
0
100
AcDbSpline
 62
7
  6
CONTINUOUS
 70
0
 71
3
 72
8
 73
4
 74
0
 42
0.0000001
 43
0.0000001
 44
0.0000000001
 40
0.0
 40
0.0
 40
0.0
 40
0.0
 40
1.0
 40
1.0
 40
1.0
 40
1.0
 10
567.9847473615
 20
613.7442796009
 30
0.0
 10
567.7806220575
 20
613.8621287328
 30
0.0
 10
567.4817650213
 20
613.8621285054
 30
0.0
 10
567.2776405672
 20
613.7442779015
 30
0.0
  0
SPLINE
  5
46A
100
AcDbEntity
  8
0
100
AcDbSpline
 62
7
  6
CONTINUOUS
 70
0
 71
3
 72
8
 73
4
 74
0
 42
0.0000001
 43
0.0000001
 44
0.0000000001
 40
0.0
 40
0.0
 40
0.0
 40
0.0
 40
1.0
 40
1.0
 40
1.0
 40
1.0
 10
279.6305089141
 20
780.9188891831
 30
0.0
 10
279.6304876067
 20
780.8351331189
 30
0.0
 10
279.5565174221
 20
780.7566452547
 30
0.0
 10
279.4839824323
 20
780.7147674084
 30
0.0
  0
SPLINE
  5
46B
100
AcDbEntity
  8
0
100
AcDbSpline
 62
7
  6
CONTINUOUS
 70
0
 71
3
 72
8
 73
4
 74
0
 42
0.0000001
 43
0.0000001
 44
0.0000000001
 40
0.0
 40
0.0
 40
0.0
 40
0.0
 40
1.0
 40
1.0
 40
1.0
 40
1.0
 10
550.3070042329
 20
623.9502984639
 30
0.0
 10
550.1028789289
 20
624.0681475958
 30
0.0
 10
549.8040218927
 20
624.0681473684
 30
0.0
 10
549.5998974385
 20
623.9502967645
 30
0.0
  0
SPLINE
  5
46C
100
AcDbEntity
  8
0
100
AcDbSpline
 62
7
  6
CONTINUOUS
 70
0
 71
3
 72
8
 73
4
 74
0
 42
0.0000001
 43
0.0000001
 44
0.0000000001
 40
0.0
 40
0.0
 40
0.0
 40
0.0
 40
1.0
 40
1.0
 40
1.0
 40
1.0
 10
297.3082520427
 20
770.7128703201
 30
0.0
 10
297.3082307354
 20
770.6291142558
 30
0.0
 10
297.2342605508
 20
770.5506263917
 30
0.0
 10
297.161725561
 20
770.5087485454
 30
0.0
  0
SPLINE
  5
46D
100
AcDbEntity
  8
0
100
AcDbSpline
 62
7
  6
CONTINUOUS
 70
0
 71
3
 72
8
 73
4
 74
0
 42
0.0000001
 43
0.0000001
 44
0.0000000001
 40
0.0
 40
0.0
 40
0.0
 40
0.0
 40
1.0
 40
1.0
 40
1.0
 40
1.0
 10
532.6292611042
 20
634.1563173269
 30
0.0
 10
532.4251358002
 20
634.2741664588
 30
0.0
 10
532.126278764
 20
634.2741662314
 30
0.0
 10
531.9221543098
 20
634.1563156275
 30
0.0
  0
SPLINE
  5
46E
100
AcDbEntity
  8
0
100
AcDbSpline
 62
7
  6
CONTINUOUS
 70
0
 71
3
 72
8
 73
4
 74
0
 42
0.0000001
 43
0.0000001
 44
0.0000000001
 40
0.0
 40
0.0
 40
0.0
 40
0.0
 40
1.0
 40
1.0
 40
1.0
 40
1.0
 10
514.9515179755
 20
644.3623361899
 30
0.0
 10
514.7473926715
 20
644.4801853218
 30
0.0
 10
514.4485356353
 20
644.4801850944
 30
0.0
 10
514.2444111811
 20
644.3623344905
 30
0.0
  0
SPLINE
  5
46F
100
AcDbEntity
  8
0
100
AcDbSpline
 62
7
  6
CONTINUOUS
 70
0
 71
3
 72
8
 73
4
 74
0
 42
0.0000001
 43
0.0000001
 44
0.0000000001
 40
0.0
 40
0.0
 40
0.0
 40
0.0
 40
1.0
 40
1.0
 40
1.0
 40
1.0
 10
314.9859951714
 20
760.5068514571
 30
0.0
 10
314.9859738641
 20
760.4230953928
 30
0.0
 10
314.9120036794
 20
760.3446075287
 30
0.0
 10
314.8394686897
 20
760.3027296824
 30
0.0
  0
SPLINE
  5
470
100
AcDbEntity
  8
0
100
AcDbSpline
 62
7
  6
CONTINUOUS
 70
0
 71
3
 72
8
 73
4
 74
0
 42
0.0000001
 43
0.0000001
 44
0.0000000001
 40
0.0
 40
0.0
 40
0.0
 40
0.0
 40
1.0
 40
1.0
 40
1.0
 40
1.0
 10
497.2737748468
 20
654.5683550529
 30
0.0
 10
497.0696495428
 20
654.6862041848
 30
0.0
 10
496.7707925066
 20
654.6862039574
 30
0.0
 10
496.5666680525
 20
654.5683533535
 30
0.0
  0
SPLINE
  5
471
100
AcDbEntity
  8
0
100
AcDbSpline
 62
7
  6
CONTINUOUS
 70
0
 71
3
 72
8
 73
4
 74
0
 42
0.0000001
 43
0.0000001
 44
0.0000000001
 40
0.0
 40
0.0
 40
0.0
 40
0.0
 40
1.0
 40
1.0
 40
1.0
 40
1.0
 10
332.6637383001
 20
750.3008325941
 30
0.0
 10
332.6637169928
 20
750.2170765298
 30
0.0
 10
332.5897468081
 20
750.1385886657
 30
0.0
 10
332.5172118184
 20
750.0967108194
 30
0.0
  0
SPLINE
  5
472
100
AcDbEntity
  8
0
100
AcDbSpline
 62
7
  6
CONTINUOUS
 70
0
 71
3
 72
8
 73
4
 74
0
 42
0.0000001
 43
0.0000001
 44
0.0000000001
 40
0.0
 40
0.0
 40
0.0
 40
0.0
 40
1.0
 40
1.0
 40
1.0
 40
1.0
 10
479.5960317182
 20
664.7743739159
 30
0.0
 10
479.3919064142
 20
664.8922230478
 30
0.0
 10
479.093049378
 20
664.8922228204
 30
0.0
 10
478.8889249238
 20
664.7743722166
 30
0.0
  0
SPLINE
  5
473
100
AcDbEntity
  8
0
100
AcDbSpline
 62
7
  6
CONTINUOUS
 70
0
 71
3
 72
8
 73
4
 74
0
 42
0.0000001
 43
0.0000001
 44
0.0000000001
 40
0.0
 40
0.0
 40
0.0
 40
0.0
 40
1.0
 40
1.0
 40
1.0
 40
1.0
 10
461.9182885895
 20
674.9803927789
 30
0.0
 10
461.7141632855
 20
675.0982419108
 30
0.0
 10
461.4153062493
 20
675.0982416835
 30
0.0
 10
461.2111817951
 20
674.9803910796
 30
0.0
  0
SPLINE
  5
474
100
AcDbEntity
  8
0
100
AcDbSpline
 62
7
  6
CONTINUOUS
 70
0
 71
3
 72
8
 73
4
 74
0
 42
0.0000001
 43
0.0000001
 44
0.0000000001
 40
0.0
 40
0.0
 40
0.0
 40
0.0
 40
1.0
 40
1.0
 40
1.0
 40
1.0
 10
350.3414814288
 20
740.094813731
 30
0.0
 10
350.3414601214
 20
740.0110576668
 30
0.0
 10
350.2674899368
 20
739.9325698027
 30
0.0
 10
350.194954947
 20
739.8906919564
 30
0.0
  0
SPLINE
  5
475
100
AcDbEntity
  8
0
100
AcDbSpline
 62
7
  6
CONTINUOUS
 70
0
 71
3
 72
8
 73
4
 74
0
 42
0.0000001
 43
0.0000001
 44
0.0000000001
 40
0.0
 40
0.0
 40
0.0
 40
0.0
 40
1.0
 40
1.0
 40
1.0
 40
1.0
 10
444.2405454608
 20
685.1864116419
 30
0.0
 10
444.0364201568
 20
685.3042607738
 30
0.0
 10
443.7375631206
 20
685.3042605465
 30
0.0
 10
443.5334386664
 20
685.1864099426
 30
0.0
  0
SPLINE
  5
476
100
AcDbEntity
  8
0
100
AcDbSpline
 62
7
  6
CONTINUOUS
 70
0
 71
3
 72
8
 73
4
 74
0
 42
0.0000001
 43
0.0000001
 44
0.0000000001
 40
0.0
 40
0.0
 40
0.0
 40
0.0
 40
1.0
 40
1.0
 40
1.0
 40
1.0
 10
368.0192245574
 20
729.888794868
 30
0.0
 10
368.0192032501
 20
729.8050388038
 30
0.0
 10
367.9452330655
 20
729.7265509397
 30
0.0
 10
367.8726980757
 20
729.6846730934
 30
0.0
  0
SPLINE
  5
477
100
AcDbEntity
  8
0
100
AcDbSpline
 62
7
  6
CONTINUOUS
 70
0
 71
3
 72
8
 73
4
 74
0
 42
0.0000001
 43
0.0000001
 44
0.0000000001
 40
0.0
 40
0.0
 40
0.0
 40
0.0
 40
1.0
 40
1.0
 40
1.0
 40
1.0
 10
426.5628023321
 20
695.3924305049
 30
0.0
 10
426.3586770281
 20
695.5102796368
 30
0.0
 10
426.0598199919
 20
695.5102794095
 30
0.0
 10
425.8556955378
 20
695.3924288056
 30
0.0
  0
SPLINE
  5
478
100
AcDbEntity
  8
0
100
AcDbSpline
 62
7
  6
CONTINUOUS
 70
0
 71
3
 72
8
 73
4
 74
0
 42
0.0000001
 43
0.0000001
 44
0.0000000001
 40
0.0
 40
0.0
 40
0.0
 40
0.0
 40
1.0
 40
1.0
 40
1.0
 40
1.0
 10
408.8850592035
 20
705.5984493679
 30
0.0
 10
408.6809338995
 20
705.7162984998
 30
0.0
 10
408.3820768633
 20
705.7162982725
 30
0.0
 10
408.1779524091
 20
705.5984476686
 30
0.0
  0
SPLINE
  5
479
100
AcDbEntity
  8
0
100
AcDbSpline
 62
7
  6
CONTINUOUS
 70
0
 71
3
 72
8
 73
4
 74
0
 42
0.0000001
 43
0.0000001
 44
0.0000000001
 40
0.0
 40
0.0
 40
0.0
 40
0.0
 40
1.0
 40
1.0
 40
1.0
 40
1.0
 10
385.6969676861
 20
719.682776005
 30
0.0
 10
385.6969463788
 20
719.5990199408
 30
0.0
 10
385.6229761941
 20
719.5205320767
 30
0.0
 10
385.5504412044
 20
719.4786542304
 30
0.0
  0
SPLINE
  5
47A
100
AcDbEntity
  8
0
100
AcDbSpline
 62
7
  6
CONTINUOUS
 70
0
 71
3
 72
8
 73
4
 74
0
 42
0.0000001
 43
0.0000001
 44
0.0000000001
 40
0.0
 40
0.0
 40
0.0
 40
0.0
 40
1.0
 40
1.0
 40
1.0
 40
1.0
 10
391.2073160748
 20
715.8044682309
 30
0.0
 10
391.0031907708
 20
715.9223173628
 30
0.0
 10
390.7043337346
 20
715.9223171355
 30
0.0
 10
390.5002092804
 20
715.8044665316
 30
0.0
  0
SPLINE
  5
47B
100
AcDbEntity
  8
0
100
AcDbSpline
 62
7
  6
CONTINUOUS
 70
0
 71
3
 72
8
 73
4
 74
0
 42
0.0000001
 43
0.0000001
 44
0.0000000001
 40
0.0
 40
0.0
 40
0.0
 40
0.0
 40
1.0
 40
1.0
 40
1.0
 40
1.0
 10
403.3747108148
 20
709.476757142
 30
0.0
 10
403.3746895075
 20
709.3930010778
 30
0.0
 10
403.3007193228
 20
709.3145132137
 30
0.0
 10
403.2281843331
 20
709.2726353674
 30
0.0
  0
SPLINE
  5
47C
100
AcDbEntity
  8
0
100
AcDbSpline
 62
7
  6
CONTINUOUS
 70
0
 71
3
 72
8
 73
4
 74
0
 42
0.0000001
 43
0.0000001
 44
0.0000000001
 40
0.0
 40
0.0
 40
0.0
 40
0.0
 40
1.0
 40
1.0
 40
1.0
 40
1.0
 10
373.5295729461
 20
726.0104870939
 30
0.0
 10
373.3254476421
 20
726.1283362259
 30
0.0
 10
373.0265906059
 20
726.1283359985
 30
0.0
 10
372.8224661517
 20
726.0104853946
 30
0.0
  0
SPLINE
  5
47D
100
AcDbEntity
  8
0
100
AcDbSpline
 62
7
  6
CONTINUOUS
 70
0
 71
3
 72
8
 73
4
 74
0
 42
0.0000001
 43
0.0000001
 44
0.0000000001
 40
0.0
 40
0.0
 40
0.0
 40
0.0
 40
1.0
 40
1.0
 40
1.0
 40
1.0
 10
355.8518298174
 20
736.2165059569
 30
0.0
 10
355.6477045134
 20
736.3343550889
 30
0.0
 10
355.3488474772
 20
736.3343548615
 30
0.0
 10
355.1447230231
 20
736.2165042576
 30
0.0
  0
SPLINE
  5
47E
100
AcDbEntity
  8
0
100
AcDbSpline
 62
7
  6
CONTINUOUS
 70
0
 71
3
 72
8
 73
4
 74
0
 42
0.0000001
 43
0.0000001
 44
0.0000000001
 40
0.0
 40
0.0
 40
0.0
 40
0.0
 40
1.0
 40
1.0
 40
1.0
 40
1.0
 10
421.0524539435
 20
699.270738279
 30
0.0
 10
421.0524326361
 20
699.1869822148
 30
0.0
 10
420.9784624515
 20
699.1084943507
 30
0.0
 10
420.9059274617
 20
699.0666165043
 30
0.0
  0
SPLINE
  5
47F
100
AcDbEntity
  8
0
100
AcDbSpline
 62
7
  6
CONTINUOUS
 70
0
 71
3
 72
8
 73
4
 74
0
 42
0.0000001
 43
0.0000001
 44
0.0000000001
 40
0.0
 40
0.0
 40
0.0
 40
0.0
 40
1.0
 40
1.0
 40
1.0
 40
1.0
 10
338.1740866888
 20
746.42252482
 30
0.0
 10
337.9699613848
 20
746.5403739519
 30
0.0
 10
337.6711043486
 20
746.5403737245
 30
0.0
 10
337.4669798944
 20
746.4225231206
 30
0.0
  0
SPLINE
  5
480
100
AcDbEntity
  8
0
100
AcDbSpline
 62
7
  6
CONTINUOUS
 70
0
 71
3
 72
8
 73
4
 74
0
 42
0.0000001
 43
0.0000001
 44
0.0000000001
 40
0.0
 40
0.0
 40
0.0
 40
0.0
 40
1.0
 40
1.0
 40
1.0
 40
1.0
 10
438.7301970721
 20
689.064719416
 30
0.0
 10
438.7301757648
 20
688.9809633518
 30
0.0
 10
438.6562055802
 20
688.9024754876
 30
0.0
 10
438.5836705904
 20
688.8605976413
 30
0.0
  0
SPLINE
  5
481
100
AcDbEntity
  8
0
100
AcDbSpline
 62
7
  6
CONTINUOUS
 70
0
 71
3
 72
8
 73
4
 74
0
 42
0.0000001
 43
0.0000001
 44
0.0000000001
 40
0.0
 40
0.0
 40
0.0
 40
0.0
 40
1.0
 40
1.0
 40
1.0
 40
1.0
 10
320.4963435601
 20
756.628543683
 30
0.0
 10
320.2922182561
 20
756.7463928149
 30
0.0
 10
319.9933612199
 20
756.7463925875
 30
0.0
 10
319.7892367657
 20
756.6285419836
 30
0.0
  0
SPLINE
  5
482
100
AcDbEntity
  8
0
100
AcDbSpline
 62
7
  6
CONTINUOUS
 70
0
 71
3
 72
8
 73
4
 74
0
 42
0.0000001
 43
0.0000001
 44
0.0000000001
 40
0.0
 40
0.0
 40
0.0
 40
0.0
 40
1.0
 40
1.0
 40
1.0
 40
1.0
 10
302.8186004314
 20
766.834562546
 30
0.0
 10
302.6144751274
 20
766.9524116779
 30
0.0
 10
302.3156180912
 20
766.9524114505
 30
0.0
 10
302.111493637
 20
766.8345608466
 30
0.0
  0
SPLINE
  5
483
100
AcDbEntity
  8
0
100
AcDbSpline
 62
7
  6
CONTINUOUS
 70
0
 71
3
 72
8
 73
4
 74
0
 42
0.0000001
 43
0.0000001
 44
0.0000000001
 40
0.0
 40
0.0
 40
0.0
 40
0.0
 40
1.0
 40
1.0
 40
1.0
 40
1.0
 10
456.4079402008
 20
678.858700553
 30
0.0
 10
456.4079188935
 20
678.7749444888
 30
0.0
 10
456.3339487088
 20
678.6964566246
 30
0.0
 10
456.2614137191
 20
678.6545787783
 30
0.0
  0
SPLINE
  5
484
100
AcDbEntity
  8
0
100
AcDbSpline
 62
7
  6
CONTINUOUS
 70
0
 71
3
 72
8
 73
4
 74
0
 42
0.0000001
 43
0.0000001
 44
0.0000000001
 40
0.0
 40
0.0
 40
0.0
 40
0.0
 40
1.0
 40
1.0
 40
1.0
 40
1.0
 10
285.1408573027
 20
777.040581409
 30
0.0
 10
284.9367319987
 20
777.1584305409
 30
0.0
 10
284.6378749625
 20
777.1584303135
 30
0.0
 10
284.4337505084
 20
777.0405797096
 30
0.0
  0
SPLINE
  5
485
100
AcDbEntity
  8
0
100
AcDbSpline
 62
7
  6
CONTINUOUS
 70
0
 71
3
 72
8
 73
4
 74
0
 42
0.0000001
 43
0.0000001
 44
0.0000000001
 40
0.0
 40
0.0
 40
0.0
 40
0.0
 40
1.0
 40
1.0
 40
1.0
 40
1.0
 10
474.0856833295
 20
668.65268169
 30
0.0
 10
474.0856620222
 20
668.5689256258
 30
0.0
 10
474.0116918375
 20
668.4904377616
 30
0.0
 10
473.9391568478
 20
668.4485599153
 30
0.0
  0
SPLINE
  5
486
100
AcDbEntity
  8
0
100
AcDbSpline
 62
7
  6
CONTINUOUS
 70
0
 71
3
 72
8
 73
4
 74
0
 42
0.0000001
 43
0.0000001
 44
0.0000000001
 40
0.0
 40
0.0
 40
0.0
 40
0.0
 40
1.0
 40
1.0
 40
1.0
 40
1.0
 10
267.4631141741
 20
787.246600272
 30
0.0
 10
267.2589888701
 20
787.3644494039
 30
0.0
 10
266.9601318339
 20
787.3644491765
 30
0.0
 10
266.7560073797
 20
787.2465985726
 30
0.0
  0
SPLINE
  5
487
100
AcDbEntity
  8
0
100
AcDbSpline
 62
7
  6
CONTINUOUS
 70
0
 71
3
 72
8
 73
4
 74
0
 42
0.0000001
 43
0.0000001
 44
0.0000000001
 40
0.0
 40
0.0
 40
0.0
 40
0.0
 40
1.0
 40
1.0
 40
1.0
 40
1.0
 10
249.7853710454
 20
797.452619135
 30
0.0
 10
249.5812457414
 20
797.5704682669
 30
0.0
 10
249.2823887052
 20
797.5704680395
 30
0.0
 10
249.078264251
 20
797.4526174357
 30
0.0
  0
SPLINE
  5
488
100
AcDbEntity
  8
0
100
AcDbSpline
 62
7
  6
CONTINUOUS
 70
0
 71
3
 72
8
 73
4
 74
0
 42
0.0000001
 43
0.0000001
 44
0.0000000001
 40
0.0
 40
0.0
 40
0.0
 40
0.0
 40
1.0
 40
1.0
 40
1.0
 40
1.0
 10
491.7634264581
 20
658.446662827
 30
0.0
 10
491.7634051508
 20
658.3629067628
 30
0.0
 10
491.6894349662
 20
658.2844188986
 30
0.0
 10
491.6168999764
 20
658.2425410523
 30
0.0
  0
SPLINE
  5
489
100
AcDbEntity
  8
0
100
AcDbSpline
 62
7
  6
CONTINUOUS
 70
0
 71
3
 72
8
 73
4
 74
0
 42
0.0000001
 43
0.0000001
 44
0.0000000001
 40
0.0
 40
0.0
 40
0.0
 40
0.0
 40
1.0
 40
1.0
 40
1.0
 40
1.0
 10
232.1076279167
 20
807.658637998
 30
0.0
 10
231.9035026127
 20
807.7764871299
 30
0.0
 10
231.6046455765
 20
807.7764869026
 30
0.0
 10
231.4005211223
 20
807.6586362987
 30
0.0
  0
SPLINE
  5
48A
100
AcDbEntity
  8
0
100
AcDbSpline
 62
7
  6
CONTINUOUS
 70
0
 71
3
 72
8
 73
4
 74
0
 42
0.0000001
 43
0.0000001
 44
0.0000000001
 40
0.0
 40
0.0
 40
0.0
 40
0.0
 40
1.0
 40
1.0
 40
1.0
 40
1.0
 10
509.4411695868
 20
648.240643964
 30
0.0
 10
509.4411482795
 20
648.1568878998
 30
0.0
 10
509.3671780949
 20
648.0784000356
 30
0.0
 10
509.2946431051
 20
648.0365221893
 30
0.0
  0
SPLINE
  5
48B
100
AcDbEntity
  8
0
100
AcDbSpline
 62
7
  6
CONTINUOUS
 70
0
 71
3
 72
8
 73
4
 74
0
 42
0.0000001
 43
0.0000001
 44
0.0000000001
 40
0.0
 40
0.0
 40
0.0
 40
0.0
 40
1.0
 40
1.0
 40
1.0
 40
1.0
 10
214.429884788
 20
817.864656861
 30
0.0
 10
214.225759484
 20
817.9825059929
 30
0.0
 10
213.9269024478
 20
817.9825057656
 30
0.0
 10
213.7227779937
 20
817.8646551617
 30
0.0
  0
SPLINE
  5
48C
100
AcDbEntity
  8
0
100
AcDbSpline
 62
7
  6
CONTINUOUS
 70
0
 71
3
 72
8
 73
4
 74
0
 42
0.0000001
 43
0.0000001
 44
0.0000000001
 40
0.0
 40
0.0
 40
0.0
 40
0.0
 40
1.0
 40
1.0
 40
1.0
 40
1.0
 10
196.7521416594
 20
828.070675724
 30
0.0
 10
196.5480163554
 20
828.1885248559
 30
0.0
 10
196.2491593192
 20
828.1885246286
 30
0.0
 10
196.045034865
 20
828.0706740247
 30
0.0
  0
SPLINE
  5
48D
100
AcDbEntity
  8
0
100
AcDbSpline
 62
7
  6
CONTINUOUS
 70
0
 71
3
 72
8
 73
4
 74
0
 42
0.0000001
 43
0.0000001
 44
0.0000000001
 40
0.0
 40
0.0
 40
0.0
 40
0.0
 40
1.0
 40
1.0
 40
1.0
 40
1.0
 10
527.1189127155
 20
638.034625101
 30
0.0
 10
527.1188914082
 20
637.9508690367
 30
0.0
 10
527.0449212235
 20
637.8723811726
 30
0.0
 10
526.9723862338
 20
637.8305033263
 30
0.0
  0
SPLINE
  5
48E
100
AcDbEntity
  8
0
100
AcDbSpline
 62
7
  6
CONTINUOUS
 70
0
 71
3
 72
8
 73
4
 74
0
 42
0.0000001
 43
0.0000001
 44
0.0000000001
 40
0.0
 40
0.0
 40
0.0
 40
0.0
 40
1.0
 40
1.0
 40
1.0
 40
1.0
 10
179.0743985307
 20
838.276694587
 30
0.0
 10
178.8702732267
 20
838.3945437189
 30
0.0
 10
178.5714161905
 20
838.3945434916
 30
0.0
 10
178.3672917363
 20
838.2766928877
 30
0.0
  0
SPLINE
  5
48F
100
AcDbEntity
  8
0
100
AcDbSpline
 62
7
  6
CONTINUOUS
 70
0
 71
3
 72
8
 73
4
 74
0
 42
0.0000001
 43
0.0000001
 44
0.0000000001
 40
0.0
 40
0.0
 40
0.0
 40
0.0
 40
1.0
 40
1.0
 40
1.0
 40
1.0
 10
544.7966558442
 20
627.828606238
 30
0.0
 10
544.7966345369
 20
627.7448501737
 30
0.0
 10
544.7226643522
 20
627.6663623096
 30
0.0
 10
544.6501293625
 20
627.6244844633
 30
0.0
  0
SPLINE
  5
490
100
AcDbEntity
  8
0
100
AcDbSpline
 62
7
  6
CONTINUOUS
 70
0
 71
3
 72
8
 73
4
 74
0
 42
0.0000001
 43
0.0000001
 44
0.0000000001
 40
0.0
 40
0.0
 40
0.0
 40
0.0
 40
1.0
 40
1.0
 40
1.0
 40
1.0
 10
161.396655402
 20
848.48271345
 30
0.0
 10
161.192530098
 20
848.6005625819
 30
0.0
 10
160.8936730618
 20
848.6005623546
 30
0.0
 10
160.6895486076
 20
848.4827117507
 30
0.0
  0
SPLINE
  5
491
100
AcDbEntity
  8
0
100
AcDbSpline
 62
7
  6
CONTINUOUS
 70
0
 71
3
 72
8
 73
4
 74
0
 42
0.0000001
 43
0.0000001
 44
0.0000000001
 40
0.0
 40
0.0
 40
0.0
 40
0.0
 40
1.0
 40
1.0
 40
1.0
 40
1.0
 10
143.7189122733
 20
858.688732313
 30
0.0
 10
143.5147869693
 20
858.806581445
 30
0.0
 10
143.2159299331
 20
858.8065812176
 30
0.0
 10
143.011805479
 20
858.6887306137
 30
0.0
  0
SPLINE
  5
492
100
AcDbEntity
  8
0
100
AcDbSpline
 62
7
  6
CONTINUOUS
 70
0
 71
3
 72
8
 73
4
 74
0
 42
0.0000001
 43
0.0000001
 44
0.0000000001
 40
0.0
 40
0.0
 40
0.0
 40
0.0
 40
1.0
 40
1.0
 40
1.0
 40
1.0
 10
562.4743989728
 20
617.622587375
 30
0.0
 10
562.4743776655
 20
617.5388313107
 30
0.0
 10
562.4004074809
 20
617.4603434466
 30
0.0
 10
562.3278724911
 20
617.4184656003
 30
0.0
  0
SPLINE
  5
493
100
AcDbEntity
  8
0
100
AcDbSpline
 62
7
  6
CONTINUOUS
 70
0
 71
3
 72
8
 73
4
 74
0
 42
0.0000001
 43
0.0000001
 44
0.0000000001
 40
0.0
 40
0.0
 40
0.0
 40
0.0
 40
1.0
 40
1.0
 40
1.0
 40
1.0
 10
126.0411691447
 20
868.894751176
 30
0.0
 10
125.8370438407
 20
869.012600308
 30
0.0
 10
125.5381868045
 20
869.0126000806
 30
0.0
 10
125.3340623503
 20
868.8947494767
 30
0.0
  0
SPLINE
  5
494
100
AcDbEntity
  8
0
100
AcDbSpline
 62
7
  6
CONTINUOUS
 70
0
 71
3
 72
8
 73
4
 74
0
 42
0.0000001
 43
0.0000001
 44
0.0000000001
 40
0.0
 40
0.0
 40
0.0
 40
0.0
 40
1.0
 40
1.0
 40
1.0
 40
1.0
 10
580.1521421015
 20
607.4165685119
 30
0.0
 10
580.1521207942
 20
607.3328124477
 30
0.0
 10
580.0781506096
 20
607.2543245836
 30
0.0
 10
580.0056156198
 20
607.2124467373
 30
0.0
  0
SPLINE
  5
495
100
AcDbEntity
  8
0
100
AcDbSpline
 62
7
  6
CONTINUOUS
 70
0
 71
3
 72
8
 73
4
 74
0
 42
0.0000001
 43
0.0000001
 44
0.0000000001
 40
0.0
 40
0.0
 40
0.0
 40
0.0
 40
1.0
 40
1.0
 40
1.0
 40
1.0
 10
597.8298852302
 20
597.2105496489
 30
0.0
 10
597.8298639229
 20
597.1267935847
 30
0.0
 10
597.7558937382
 20
597.0483057206
 30
0.0
 10
597.6833587485
 20
597.0064278743
 30
0.0
  0
SPLINE
  5
496
100
AcDbEntity
  8
0
100
AcDbSpline
 62
7
  6
CONTINUOUS
 70
0
 71
3
 72
8
 73
4
 74
0
 42
0.0000001
 43
0.0000001
 44
0.0000000001
 40
0.0
 40
0.0
 40
0.0
 40
0.0
 40
1.0
 40
1.0
 40
1.0
 40
1.0
 10
615.5076283589
 20
587.0045307859
 30
0.0
 10
615.5076070516
 20
586.9207747217
 30
0.0
 10
615.4336368669
 20
586.8422868576
 30
0.0
 10
615.3611018772
 20
586.8004090113
 30
0.0
  0
SPLINE
  5
497
100
AcDbEntity
  8
0
100
AcDbSpline
 62
7
  6
CONTINUOUS
 70
0
 71
3
 72
8
 73
4
 74
0
 42
0.0000001
 43
0.0000001
 44
0.0000000001
 40
0.0
 40
0.0
 40
0.0
 40
0.0
 40
1.0
 40
1.0
 40
1.0
 40
1.0
 10
633.1853714875
 20
576.7985119229
 30
0.0
 10
633.1853501802
 20
576.7147558587
 30
0.0
 10
633.1113799956
 20
576.6362679946
 30
0.0
 10
633.0388450058
 20
576.5943901483
 30
0.0
  0
SPLINE
  5
498
100
AcDbEntity
  8
0
100
AcDbSpline
 62
7
  6
CONTINUOUS
 70
0
 71
3
 72
8
 73
4
 74
0
 42
0.0000001
 43
0.0000001
 44
0.0000000001
 40
0.0
 40
0.0
 40
0.0
 40
0.0
 40
1.0
 40
1.0
 40
1.0
 40
1.0
 10
650.8631146162
 20
566.5924930599
 30
0.0
 10
650.8630933089
 20
566.5087369957
 30
0.0
 10
650.7891231243
 20
566.4302491316
 30
0.0
 10
650.7165881345
 20
566.3883712852
 30
0.0
  0
SPLINE
  5
499
100
AcDbEntity
  8
0
100
AcDbSpline
 62
7
  6
CONTINUOUS
 70
0
 71
3
 72
8
 73
4
 74
0
 42
0.0000001
 43
0.0000001
 44
0.0000000001
 40
0.0
 40
0.0
 40
0.0
 40
0.0
 40
1.0
 40
1.0
 40
1.0
 40
1.0
 10
668.5408577449
 20
556.3864741969
 30
0.0
 10
668.5408364376
 20
556.3027181327
 30
0.0
 10
668.4668662529
 20
556.2242302685
 30
0.0
 10
668.3943312632
 20
556.1823524222
 30
0.0
  0
SPLINE
  5
49A
100
AcDbEntity
  8
0
100
AcDbSpline
 62
7
  6
CONTINUOUS
 70
0
 71
3
 72
8
 73
4
 74
0
 42
0.0000001
 43
0.0000001
 44
0.0000000001
 40
0.0
 40
0.0
 40
0.0
 40
0.0
 40
1.0
 40
1.0
 40
1.0
 40
1.0
 10
686.2186008736
 20
546.1804553339
 30
0.0
 10
686.2185795663
 20
546.0966992697
 30
0.0
 10
686.1446093816
 20
546.0182114055
 30
0.0
 10
686.0720743919
 20
545.9763335592
 30
0.0
  0
SPLINE
  5
49B
100
AcDbEntity
  8
0
100
AcDbSpline
 62
7
  6
CONTINUOUS
 70
0
 71
3
 72
8
 73
4
 74
0
 42
0.0000001
 43
0.0000001
 44
0.0000000001
 40
0.0
 40
0.0
 40
0.0
 40
0.0
 40
1.0
 40
1.0
 40
1.0
 40
1.0
 10
703.8963440022
 20
535.9744364709
 30
0.0
 10
703.8963226949
 20
535.8906804067
 30
0.0
 10
703.8223525103
 20
535.8121925425
 30
0.0
 10
703.7498175205
 20
535.7703146962
 30
0.0
  0
SPLINE
  5
49C
100
AcDbEntity
  8
0
100
AcDbSpline
 62
7
  6
CONTINUOUS
 70
0
 71
3
 72
8
 73
4
 74
0
 42
0.0000001
 43
0.0000001
 44
0.0000000001
 40
0.0
 40
0.0
 40
0.0
 40
0.0
 40
1.0
 40
1.0
 40
1.0
 40
1.0
 10
721.5740871309
 20
525.7684176079
 30
0.0
 10
721.5740658236
 20
525.6846615437
 30
0.0
 10
721.500095639
 20
525.6061736795
 30
0.0
 10
721.4275606492
 20
525.5642958332
 30
0.0
  0
SPLINE
  5
49D
100
AcDbEntity
  8
0
100
AcDbSpline
 62
7
  6
CONTINUOUS
 70
0
 71
3
 72
8
 73
4
 74
0
 42
0.0000001
 43
0.0000001
 44
0.0000000001
 40
0.0
 40
0.0
 40
0.0
 40
0.0
 40
1.0
 40
1.0
 40
1.0
 40
1.0
 10
739.2518302596
 20
515.5623987449
 30
0.0
 10
739.2518089523
 20
515.4786426807
 30
0.0
 10
739.1778387676
 20
515.4001548165
 30
0.0
 10
739.1053037779
 20
515.3582769702
 30
0.0
  0
SPLINE
  5
49E
100
AcDbEntity
  8
0
100
AcDbSpline
 62
7
  6
CONTINUOUS
 70
0
 71
3
 72
8
 73
4
 74
0
 42
0.0000001
 43
0.0000001
 44
0.0000000001
 40
0.0
 40
0.0
 40
0.0
 40
0.0
 40
1.0
 40
1.0
 40
1.0
 40
1.0
 10
756.9295733883
 20
505.3563798819
 30
0.0
 10
756.929552081
 20
505.2726238176
 30
0.0
 10
756.8555818963
 20
505.1941359535
 30
0.0
 10
756.7830469066
 20
505.1522581072
 30
0.0
  0
SPLINE
  5
49F
100
AcDbEntity
  8
0
100
AcDbSpline
 62
7
  6
CONTINUOUS
 70
0
 71
3
 72
8
 73
4
 74
0
 42
0.0000001
 43
0.0000001
 44
0.0000000001
 40
0.0
 40
0.0
 40
0.0
 40
0.0
 40
1.0
 40
1.0
 40
1.0
 40
1.0
 10
774.6073165169
 20
495.1503610189
 30
0.0
 10
774.6072952096
 20
495.0666049546
 30
0.0
 10
774.533325025
 20
494.9881170905
 30
0.0
 10
774.4607900352
 20
494.9462392442
 30
0.0
  0
SPLINE
  5
4A0
100
AcDbEntity
  8
0
100
AcDbSpline
 62
7
  6
CONTINUOUS
 70
0
 71
3
 72
8
 73
4
 74
0
 42
0.0000001
 43
0.0000001
 44
0.0000000001
 40
0.0
 40
0.0
 40
0.0
 40
0.0
 40
1.0
 40
1.0
 40
1.0
 40
1.0
 10
792.2850596456
 20
484.9443421559
 30
0.0
 10
792.2850383383
 20
484.8605860916
 30
0.0
 10
792.2110681537
 20
484.7820982275
 30
0.0
 10
792.1385331639
 20
484.7402203812
 30
0.0
  0
SPLINE
  5
4A1
100
AcDbEntity
  8
0
100
AcDbSpline
 62
7
  6
CONTINUOUS
 70
0
 71
3
 72
8
 73
4
 74
0
 42
0.0000001
 43
0.0000001
 44
0.0000000001
 40
0.0
 40
0.0
 40
0.0
 40
0.0
 40
1.0
 40
1.0
 40
1.0
 40
1.0
 10
809.9628027743
 20
474.7383232928
 30
0.0
 10
809.962781467
 20
474.6545672286
 30
0.0
 10
809.8888112823
 20
474.5760793645
 30
0.0
 10
809.8162762926
 20
474.5342015182
 30
0.0
  0
SPLINE
  5
4A2
100
AcDbEntity
  8
0
100
AcDbSpline
 62
7
  6
CONTINUOUS
 70
0
 71
3
 72
8
 73
4
 74
0
 42
0.0000001
 43
0.0000001
 44
0.0000000001
 40
0.0
 40
0.0
 40
0.0
 40
0.0
 40
1.0
 40
1.0
 40
1.0
 40
1.0
 10
827.640545903
 20
464.5323044298
 30
0.0
 10
827.6405245957
 20
464.4485483656
 30
0.0
 10
827.566554411
 20
464.3700605015
 30
0.0
 10
827.4940194213
 20
464.3281826552
 30
0.0
  0
SPLINE
  5
4A3
100
AcDbEntity
  8
0
100
AcDbSpline
 62
7
  6
CONTINUOUS
 70
0
 71
3
 72
9
 73
5
 74
0
 42
0.0000001
 43
0.0000001
 44
0.0000000001
 40
0.0
 40
0.0
 40
0.0
 40
0.0
 40
0.2308701432
 40
1.0
 40
1.0
 40
1.0
 40
1.0
 10
124.5585811693
 20
871.4019302963
 30
0.0
 10
124.6299542442
 20
871.4257726143
 30
0.0
 10
124.9329851261
 20
871.5472833489
 30
0.0
 10
125.2088941033
 20
871.7302770722
 30
0.0
 10
125.4026685799
 20
871.8893287495
 30
0.0
  0
SPLINE
  5
4A4
100
AcDbEntity
  8
0
100
AcDbSpline
 62
7
  6
CONTINUOUS
 70
0
 71
3
 72
9
 73
5
 74
0
 42
0.0000001
 43
0.0000001
 44
0.0000000001
 40
0.0
 40
0.0
 40
0.0
 40
0.0
 40
0.2390372383
 40
1.0
 40
1.0
 40
1.0
 40
1.0
 10
125.4026685799
 20
871.8893287495
 30
0.0
 10
125.5471402413
 20
872.0079122724
 30
0.0
 10
126.1119609408
 20
872.5508578267
 30
0.0
 10
126.5330200953
 20
873.2389619328
 30
0.0
 10
126.7482464793
 20
873.7936798388
 30
0.0
  0
SPLINE
  5
4A5
100
AcDbEntity
  8
0
100
AcDbSpline
 62
7
  6
CONTINUOUS
 70
0
 71
3
 72
9
 73
5
 74
0
 42
0.0000001
 43
0.0000001
 44
0.0000000001
 40
0.0
 40
0.0
 40
0.0
 40
0.0
 40
0.3380124378
 40
1.0
 40
1.0
 40
1.0
 40
1.0
 10
837.4273776174
 20
462.348868129
 30
0.0
 10
837.4181685507
 20
462.3542326946
 30
0.0
 10
837.4058017133
 20
462.3897076336
 30
0.0
 10
837.4221103673
 20
462.4186512121
 30
0.0
 10
837.4313721231
 20
462.4373565406
 30
0.0
  0
SPLINE
  5
4A6
100
AcDbEntity
  8
0
100
AcDbSpline
 62
7
  6
CONTINUOUS
 70
0
 71
3
 72
9
 73
5
 74
0
 42
0.0000001
 43
0.0000001
 44
0.0000000001
 40
0.0
 40
0.0
 40
0.0
 40
0.0
 40
0.7060914154
 40
1.0
 40
1.0
 40
1.0
 40
1.0
 10
836.9334521902
 20
461.493313883
 30
0.0
 10
837.0592278457
 20
461.4206988326
 30
0.0
 10
837.2983715097
 20
461.4335154592
 30
0.0
 10
837.4811437969
 20
461.5226171081
 30
0.0
 10
837.5334973603
 20
461.5528432716
 30
0.0
  0
SPLINE
  5
4A7
100
AcDbEntity
  8
0
100
AcDbSpline
 62
7
  6
CONTINUOUS
 70
0
 71
3
 72
8
 73
4
 74
0
 42
0.0000001
 43
0.0000001
 44
0.0000000001
 40
0.0
 40
0.0
 40
0.0
 40
0.0
 40
1.0
 40
1.0
 40
1.0
 40
1.0
 10
111.0505412932
 20
859.4233939115
 30
0.0
 10
111.1117793739
 20
859.4587495229
 30
0.0
 10
111.2061482182
 20
859.5630698199
 30
0.0
 10
111.1526665304
 20
859.6093281259
 30
0.0
  0
SPLINE
  5
4A8
100
AcDbEntity
  8
0
100
AcDbSpline
 62
7
  6
CONTINUOUS
 70
0
 71
3
 72
9
 73
5
 74
0
 42
0.0000001
 43
0.0000001
 44
0.0000000001
 40
0.0
 40
0.0
 40
0.0
 40
0.0
 40
0.2405239971
 40
1.0
 40
1.0
 40
1.0
 40
1.0
 10
111.1919620606
 20
863.8325055531
 30
0.0
 10
111.1919620606
 20
863.9714852233
 30
0.0
 10
111.2951099053
 20
864.5424658478
 30
0.0
 10
111.6604388851
 20
865.0827820598
 30
0.0
 10
112.0404866653
 20
865.3022014383
 30
0.0
  0
SPLINE
  5
4A9
100
AcDbEntity
  8
0
100
AcDbSpline
 62
7
  6
CONTINUOUS
 70
0
 71
3
 72
9
 73
5
 74
0
 42
0.0000001
 43
0.0000001
 44
0.0000000001
 40
0.0
 40
0.0
 40
0.0
 40
0.0
 40
0.293909939
 40
1.0
 40
1.0
 40
1.0
 40
1.0
 10
129.4352410607
 20
875.3450076235
 30
0.0
 10
129.4875948953
 20
875.3752339436
 30
0.0
 10
129.6703668587
 20
875.4643367901
 30
0.0
 10
129.9095107178
 20
875.4771518102
 30
0.0
 10
130.0352862774
 20
875.4045369852
 30
0.0
  0
SPLINE
  5
4AA
100
AcDbEntity
  8
0
100
AcDbSpline
 62
7
  6
CONTINUOUS
 70
0
 71
3
 72
8
 73
4
 74
0
 42
0.0000001
 43
0.0000001
 44
0.0000000001
 40
0.0
 40
0.0
 40
0.0
 40
0.0
 40
1.0
 40
1.0
 40
1.0
 40
1.0
 10
297.1617226165
 20
770.9169910072
 30
0.0
 10
297.2342581489
 20
770.875113545
 30
0.0
 10
297.3082733501
 20
770.7966266622
 30
0.0
 10
297.3082520427
 20
770.7128703201
 30
0.0
  0
SPLINE
  5
4AB
100
AcDbEntity
  8
0
100
AcDbSpline
 62
7
  6
CONTINUOUS
 70
0
 71
3
 72
8
 73
4
 74
0
 42
0.0000001
 43
0.0000001
 44
0.0000000001
 40
0.0
 40
0.0
 40
0.0
 40
0.0
 40
1.0
 40
1.0
 40
1.0
 40
1.0
 10
266.7560073791
 20
788.0631009894
 30
0.0
 10
266.8928871925
 20
788.142128114
 30
0.0
 10
267.0673148275
 20
788.1614878996
 30
0.0
 10
267.2238990043
 20
788.139975919
 30
0.0
  0
SPLINE
  5
4AC
100
AcDbEntity
  8
0
100
AcDbSpline
 62
7
  6
CONTINUOUS
 70
0
 71
3
 72
8
 73
4
 74
0
 42
0.0000001
 43
0.0000001
 44
0.0000000001
 40
0.0
 40
0.0
 40
0.0
 40
0.0
 40
1.0
 40
1.0
 40
1.0
 40
1.0
 10
267.2238990043
 20
788.139975919
 30
0.0
 10
267.3068741554
 20
788.1285765562
 30
0.0
 10
267.390580213
 20
788.1049792432
 30
0.0
 10
267.4631141735
 20
788.0631026894
 30
0.0
  0
SPLINE
  5
4AD
100
AcDbEntity
  8
0
100
AcDbSpline
 62
7
  6
CONTINUOUS
 70
0
 71
3
 72
8
 73
4
 74
0
 42
0.0000001
 43
0.0000001
 44
0.0000000001
 40
0.0
 40
0.0
 40
0.0
 40
0.0
 40
1.0
 40
1.0
 40
1.0
 40
1.0
 10
740.3730261987
 20
510.2552491518
 30
0.0
 10
740.373047506
 20
510.339005216
 30
0.0
 10
740.4470176907
 20
510.4174930802
 30
0.0
 10
740.5195526805
 20
510.4593709265
 30
0.0
  0
SPLINE
  5
4AE
100
AcDbEntity
  8
0
100
AcDbSpline
 62
7
  6
CONTINUOUS
 70
0
 71
3
 72
8
 73
4
 74
0
 42
0.0000001
 43
0.0000001
 44
0.0000000001
 40
0.0
 40
0.0
 40
0.0
 40
0.0
 40
1.0
 40
1.0
 40
1.0
 40
1.0
 10
650.71658519
 20
566.7966137471
 30
0.0
 10
650.7891207223
 20
566.7547362849
 30
0.0
 10
650.8631359236
 20
566.676249402
 30
0.0
 10
650.8631146162
 20
566.5924930599
 30
0.0
  0
SPLINE
  5
4AF
100
AcDbEntity
  8
0
100
AcDbSpline
 62
7
  6
CONTINUOUS
 70
0
 71
3
 72
8
 73
4
 74
0
 42
0.0000001
 43
0.0000001
 44
0.0000000001
 40
0.0
 40
0.0
 40
0.0
 40
0.0
 40
1.0
 40
1.0
 40
1.0
 40
1.0
 10
279.4839794878
 20
781.1230098702
 30
0.0
 10
279.5565150202
 20
781.081132408
 30
0.0
 10
279.6305302214
 20
781.0026455252
 30
0.0
 10
279.6305089141
 20
780.9188891831
 30
0.0
  0
SPLINE
  5
4B0
100
AcDbEntity
  8
0
100
AcDbSpline
 62
7
  6
CONTINUOUS
 70
0
 71
3
 72
8
 73
4
 74
0
 42
0.0000001
 43
0.0000001
 44
0.0000000001
 40
0.0
 40
0.0
 40
0.0
 40
0.0
 40
1.0
 40
1.0
 40
1.0
 40
1.0
 10
249.0782642504
 20
798.2691198524
 30
0.0
 10
249.2151440639
 20
798.348146977
 30
0.0
 10
249.3895716988
 20
798.3675067626
 30
0.0
 10
249.5461558756
 20
798.345994782
 30
0.0
  0
SPLINE
  5
4B1
100
AcDbEntity
  8
0
100
AcDbSpline
 62
7
  6
CONTINUOUS
 70
0
 71
3
 72
8
 73
4
 74
0
 42
0.0000001
 43
0.0000001
 44
0.0000000001
 40
0.0
 40
0.0
 40
0.0
 40
0.0
 40
1.0
 40
1.0
 40
1.0
 40
1.0
 10
249.5461558756
 20
798.345994782
 30
0.0
 10
249.6291310268
 20
798.3345954192
 30
0.0
 10
249.7128370844
 20
798.3109981062
 30
0.0
 10
249.7853710448
 20
798.2691215525
 30
0.0
  0
SPLINE
  5
4B2
100
AcDbEntity
  8
0
100
AcDbSpline
 62
7
  6
CONTINUOUS
 70
0
 71
3
 72
8
 73
4
 74
0
 42
0.0000001
 43
0.0000001
 44
0.0000000001
 40
0.0
 40
0.0
 40
0.0
 40
0.0
 40
1.0
 40
1.0
 40
1.0
 40
1.0
 10
758.0507693274
 20
500.0492302888
 30
0.0
 10
758.0507906347
 20
500.132986353
 30
0.0
 10
758.1247608194
 20
500.2114742172
 30
0.0
 10
758.1972958091
 20
500.2533520635
 30
0.0
  0
SPLINE
  5
4B3
100
AcDbEntity
  8
0
100
AcDbSpline
 62
7
  6
CONTINUOUS
 70
0
 71
3
 72
8
 73
4
 74
0
 42
0.0000001
 43
0.0000001
 44
0.0000000001
 40
0.0
 40
0.0
 40
0.0
 40
0.0
 40
1.0
 40
1.0
 40
1.0
 40
1.0
 10
316.1071911105
 20
755.199701864
 30
0.0
 10
316.1072124179
 20
755.2834579282
 30
0.0
 10
316.1811826025
 20
755.3619457924
 30
0.0
 10
316.2537175923
 20
755.4038236387
 30
0.0
  0
SPLINE
  5
4B4
100
AcDbEntity
  8
0
100
AcDbSpline
 62
7
  6
CONTINUOUS
 70
0
 71
3
 72
8
 73
4
 74
0
 42
0.0000001
 43
0.0000001
 44
0.0000000001
 40
0.0
 40
0.0
 40
0.0
 40
0.0
 40
1.0
 40
1.0
 40
1.0
 40
1.0
 10
620.3108699526
 20
583.9427237293
 30
0.0
 10
620.447749766
 20
584.0217508539
 30
0.0
 10
620.622177401
 20
584.0411106395
 30
0.0
 10
620.7787615778
 20
584.0195986588
 30
0.0
  0
SPLINE
  5
4B5
100
AcDbEntity
  8
0
100
AcDbSpline
 62
7
  6
CONTINUOUS
 70
0
 71
3
 72
8
 73
4
 74
0
 42
0.0000001
 43
0.0000001
 44
0.0000000001
 40
0.0
 40
0.0
 40
0.0
 40
0.0
 40
1.0
 40
1.0
 40
1.0
 40
1.0
 10
620.7787615778
 20
584.0195986588
 30
0.0
 10
620.8617367289
 20
584.008199296
 30
0.0
 10
620.9454427865
 20
583.9846019831
 30
0.0
 10
621.017976747
 20
583.9427254293
 30
0.0
  0
SPLINE
  5
4B6
100
AcDbEntity
  8
0
100
AcDbSpline
 62
7
  6
CONTINUOUS
 70
0
 71
3
 72
9
 73
5
 74
0
 42
0.0000001
 43
0.0000001
 44
0.0000000001
 40
0.0
 40
0.0
 40
0.0
 40
0.0
 40
0.2405215751
 40
1.0
 40
1.0
 40
1.0
 40
1.0
 10
819.1487975928
 20
457.0622633995
 30
0.0
 10
819.0284386816
 20
456.9927745645
 30
0.0
 10
818.5855291066
 20
456.6179540221
 30
0.0
 10
818.3002729881
 20
456.0314097029
 30
0.0
 10
818.3002729881
 20
455.5925675143
 30
0.0
  0
SPLINE
  5
4B7
100
AcDbEntity
  8
0
100
AcDbSpline
 62
7
  6
CONTINUOUS
 70
0
 71
3
 72
8
 73
4
 74
0
 42
0.0000001
 43
0.0000001
 44
0.0000000001
 40
0.0
 40
0.0
 40
0.0
 40
0.0
 40
1.0
 40
1.0
 40
1.0
 40
1.0
 10
261.8062363591
 20
791.3290287332
 30
0.0
 10
261.8787718915
 20
791.287151271
 30
0.0
 10
261.9527870928
 20
791.2086643882
 30
0.0
 10
261.9527657854
 20
791.1249080461
 30
0.0
  0
SPLINE
  5
4B8
100
AcDbEntity
  8
0
100
AcDbSpline
 62
7
  6
CONTINUOUS
 70
0
 71
3
 72
8
 73
4
 74
0
 42
0.0000001
 43
0.0000001
 44
0.0000000001
 40
0.0
 40
0.0
 40
0.0
 40
0.0
 40
1.0
 40
1.0
 40
1.0
 40
1.0
 10
231.4005211218
 20
808.4751387155
 30
0.0
 10
231.5374009352
 20
808.5541658401
 30
0.0
 10
231.7118285701
 20
808.5735256256
 30
0.0
 10
231.868412747
 20
808.552013645
 30
0.0
  0
SPLINE
  5
4B9
100
AcDbEntity
  8
0
100
AcDbSpline
 62
7
  6
CONTINUOUS
 70
0
 71
3
 72
8
 73
4
 74
0
 42
0.0000001
 43
0.0000001
 44
0.0000000001
 40
0.0
 40
0.0
 40
0.0
 40
0.0
 40
1.0
 40
1.0
 40
1.0
 40
1.0
 10
231.868412747
 20
808.552013645
 30
0.0
 10
231.9513878981
 20
808.5406142822
 30
0.0
 10
232.0350939557
 20
808.5170169693
 30
0.0
 10
232.1076279161
 20
808.4751404155
 30
0.0
  0
SPLINE
  5
4BA
100
AcDbEntity
  8
0
100
AcDbSpline
 62
7
  6
CONTINUOUS
 70
0
 71
3
 72
8
 73
4
 74
0
 42
0.0000001
 43
0.0000001
 44
0.0000000001
 40
0.0
 40
0.0
 40
0.0
 40
0.0
 40
1.0
 40
1.0
 40
1.0
 40
1.0
 10
775.7285124561
 20
489.8432114258
 30
0.0
 10
775.7285337634
 20
489.92696749
 30
0.0
 10
775.8025039481
 20
490.0054553542
 30
0.0
 10
775.8750389378
 20
490.0473332005
 30
0.0
  0
SPLINE
  5
4BB
100
AcDbEntity
  8
0
100
AcDbSpline
 62
7
  6
CONTINUOUS
 70
0
 71
3
 72
8
 73
4
 74
0
 42
0.0000001
 43
0.0000001
 44
0.0000000001
 40
0.0
 40
0.0
 40
0.0
 40
0.0
 40
1.0
 40
1.0
 40
1.0
 40
1.0
 10
333.7849342392
 20
744.993683001
 30
0.0
 10
333.7849555465
 20
745.0774390652
 30
0.0
 10
333.8589257312
 20
745.1559269294
 30
0.0
 10
333.9314607209
 20
745.1978047757
 30
0.0
  0
SPLINE
  5
4BC
100
AcDbEntity
  8
0
100
AcDbSpline
 62
7
  6
CONTINUOUS
 70
0
 71
3
 72
8
 73
4
 74
0
 42
0.0000001
 43
0.0000001
 44
0.0000000001
 40
0.0
 40
0.0
 40
0.0
 40
0.0
 40
1.0
 40
1.0
 40
1.0
 40
1.0
 10
827.4940164767
 20
464.736425117
 30
0.0
 10
827.5665520091
 20
464.6945476548
 30
0.0
 10
827.6405672103
 20
464.616060772
 30
0.0
 10
827.640545903
 20
464.5323044298
 30
0.0
  0
SPLINE
  5
4BD
100
AcDbEntity
  8
0
100
AcDbSpline
 62
7
  6
CONTINUOUS
 70
0
 71
3
 72
8
 73
4
 74
0
 42
0.0000001
 43
0.0000001
 44
0.0000000001
 40
0.0
 40
0.0
 40
0.0
 40
0.0
 40
1.0
 40
1.0
 40
1.0
 40
1.0
 10
633.0388420613
 20
577.0026326101
 30
0.0
 10
633.1113775937
 20
576.9607551479
 30
0.0
 10
633.1853927949
 20
576.882268265
 30
0.0
 10
633.1853714875
 20
576.7985119229
 30
0.0
  0
SPLINE
  5
4BE
100
AcDbEntity
  8
0
100
AcDbSpline
 62
7
  6
CONTINUOUS
 70
0
 71
3
 72
8
 73
4
 74
0
 42
0.0000001
 43
0.0000001
 44
0.0000000001
 40
0.0
 40
0.0
 40
0.0
 40
0.0
 40
1.0
 40
1.0
 40
1.0
 40
1.0
 10
793.4062555848
 20
479.6371925628
 30
0.0
 10
793.4062768921
 20
479.720948627
 30
0.0
 10
793.4802470767
 20
479.7994364912
 30
0.0
 10
793.5527820665
 20
479.8413143375
 30
0.0
  0
SPLINE
  5
4BF
100
AcDbEntity
  8
0
100
AcDbSpline
 62
7
  6
CONTINUOUS
 70
0
 71
3
 72
8
 73
4
 74
0
 42
0.0000001
 43
0.0000001
 44
0.0000000001
 40
0.0
 40
0.0
 40
0.0
 40
0.0
 40
1.0
 40
1.0
 40
1.0
 40
1.0
 10
244.1284932304
 20
801.5350475962
 30
0.0
 10
244.2010287628
 20
801.4931701341
 30
0.0
 10
244.2750439641
 20
801.4146832512
 30
0.0
 10
244.2750226567
 20
801.3309269091
 30
0.0
  0
SPLINE
  5
4C0
100
AcDbEntity
  8
0
100
AcDbSpline
 62
7
  6
CONTINUOUS
 70
0
 71
3
 72
8
 73
4
 74
0
 42
0.0000001
 43
0.0000001
 44
0.0000000001
 40
0.0
 40
0.0
 40
0.0
 40
0.0
 40
1.0
 40
1.0
 40
1.0
 40
1.0
 10
213.7227779931
 20
818.6811575785
 30
0.0
 10
213.8596578065
 20
818.7601847031
 30
0.0
 10
214.0340854414
 20
818.7795444887
 30
0.0
 10
214.1906696183
 20
818.758032508
 30
0.0
  0
SPLINE
  5
4C1
100
AcDbEntity
  8
0
100
AcDbSpline
 62
7
  6
CONTINUOUS
 70
0
 71
3
 72
8
 73
4
 74
0
 42
0.0000001
 43
0.0000001
 44
0.0000000001
 40
0.0
 40
0.0
 40
0.0
 40
0.0
 40
1.0
 40
1.0
 40
1.0
 40
1.0
 10
214.1906696183
 20
818.758032508
 30
0.0
 10
214.2736447694
 20
818.7466331452
 30
0.0
 10
214.357350827
 20
818.7230358323
 30
0.0
 10
214.4298847875
 20
818.6811592785
 30
0.0
  0
SPLINE
  5
4C2
100
AcDbEntity
  8
0
100
AcDbSpline
 62
7
  6
CONTINUOUS
 70
0
 71
3
 72
8
 73
4
 74
0
 42
0.0000001
 43
0.0000001
 44
0.0000000001
 40
0.0
 40
0.0
 40
0.0
 40
0.0
 40
1.0
 40
1.0
 40
1.0
 40
1.0
 10
811.0839987134
 20
469.4311736998
 30
0.0
 10
811.0840200207
 20
469.514929764
 30
0.0
 10
811.1579902054
 20
469.5934176282
 30
0.0
 10
811.2305251952
 20
469.6352954745
 30
0.0
  0
SPLINE
  5
4C3
100
AcDbEntity
  8
0
100
AcDbSpline
 62
7
  6
CONTINUOUS
 70
0
 71
3
 72
8
 73
4
 74
0
 42
0.0000001
 43
0.0000001
 44
0.0000000001
 40
0.0
 40
0.0
 40
0.0
 40
0.0
 40
1.0
 40
1.0
 40
1.0
 40
1.0
 10
602.6331268239
 20
594.1487425923
 30
0.0
 10
602.7700066374
 20
594.2277697169
 30
0.0
 10
602.9444342723
 20
594.2471295025
 30
0.0
 10
603.1010184491
 20
594.2256175218
 30
0.0
  0
SPLINE
  5
4C4
100
AcDbEntity
  8
0
100
AcDbSpline
 62
7
  6
CONTINUOUS
 70
0
 71
3
 72
8
 73
4
 74
0
 42
0.0000001
 43
0.0000001
 44
0.0000000001
 40
0.0
 40
0.0
 40
0.0
 40
0.0
 40
1.0
 40
1.0
 40
1.0
 40
1.0
 10
603.1010184491
 20
594.2256175218
 30
0.0
 10
603.1839936003
 20
594.214218159
 30
0.0
 10
603.2676996579
 20
594.1906208461
 30
0.0
 10
603.3402336183
 20
594.1487442923
 30
0.0
  0
SPLINE
  5
4C5
100
AcDbEntity
  8
0
100
AcDbSpline
 62
7
  6
CONTINUOUS
 70
0
 71
3
 72
8
 73
4
 74
0
 42
0.0000001
 43
0.0000001
 44
0.0000000001
 40
0.0
 40
0.0
 40
0.0
 40
0.0
 40
1.0
 40
1.0
 40
1.0
 40
1.0
 10
797.0883012394
 20
481.8825350992
 30
0.0
 10
797.2251810528
 20
481.9615622238
 30
0.0
 10
797.3996086877
 20
481.9809220094
 30
0.0
 10
797.5561928646
 20
481.9594100288
 30
0.0
  0
SPLINE
  5
4C6
100
AcDbEntity
  8
0
100
AcDbSpline
 62
7
  6
CONTINUOUS
 70
0
 71
3
 72
8
 73
4
 74
0
 42
0.0000001
 43
0.0000001
 44
0.0000000001
 40
0.0
 40
0.0
 40
0.0
 40
0.0
 40
1.0
 40
1.0
 40
1.0
 40
1.0
 10
797.5561928646
 20
481.9594100288
 30
0.0
 10
797.6391680157
 20
481.9480106659
 30
0.0
 10
797.7228740733
 20
481.924413353
 30
0.0
 10
797.7954080337
 20
481.8825367992
 30
0.0
  0
SPLINE
  5
4C7
100
AcDbEntity
  8
0
100
AcDbSpline
 62
7
  6
CONTINUOUS
 70
0
 71
3
 72
8
 73
4
 74
0
 42
0.0000001
 43
0.0000001
 44
0.0000000001
 40
0.0
 40
0.0
 40
0.0
 40
0.0
 40
1.0
 40
1.0
 40
1.0
 40
1.0
 10
351.4626773679
 20
734.787664138
 30
0.0
 10
351.4626986752
 20
734.8714202022
 30
0.0
 10
351.5366688599
 20
734.9499080664
 30
0.0
 10
351.6092038496
 20
734.9917859127
 30
0.0
  0
SPLINE
  5
4C8
100
AcDbEntity
  8
0
100
AcDbSpline
 62
7
  6
CONTINUOUS
 70
0
 71
3
 72
8
 73
4
 74
0
 42
0.0000001
 43
0.0000001
 44
0.0000000001
 40
0.0
 40
0.0
 40
0.0
 40
0.0
 40
1.0
 40
1.0
 40
1.0
 40
1.0
 10
226.4507501018
 20
811.7410664592
 30
0.0
 10
226.5232856342
 20
811.6991889971
 30
0.0
 10
226.5973008354
 20
811.6207021142
 30
0.0
 10
226.597279528
 20
811.5369457721
 30
0.0
  0
SPLINE
  5
4C9
100
AcDbEntity
  8
0
100
AcDbSpline
 62
7
  6
CONTINUOUS
 70
0
 71
3
 72
8
 73
4
 74
0
 42
0.0000001
 43
0.0000001
 44
0.0000000001
 40
0.0
 40
0.0
 40
0.0
 40
0.0
 40
1.0
 40
1.0
 40
1.0
 40
1.0
 10
196.0450348644
 20
828.8871764415
 30
0.0
 10
196.1819146778
 20
828.9662035661
 30
0.0
 10
196.3563423128
 20
828.9855633517
 30
0.0
 10
196.5129264896
 20
828.964051371
 30
0.0
  0
SPLINE
  5
4CA
100
AcDbEntity
  8
0
100
AcDbSpline
 62
7
  6
CONTINUOUS
 70
0
 71
3
 72
8
 73
4
 74
0
 42
0.0000001
 43
0.0000001
 44
0.0000000001
 40
0.0
 40
0.0
 40
0.0
 40
0.0
 40
1.0
 40
1.0
 40
1.0
 40
1.0
 10
196.5129264896
 20
828.964051371
 30
0.0
 10
196.5959016407
 20
828.9526520082
 30
0.0
 10
196.6796076983
 20
828.9290546953
 30
0.0
 10
196.7521416588
 20
828.8871781415
 30
0.0
  0
SPLINE
  5
4CB
100
AcDbEntity
  8
0
100
AcDbSpline
 62
7
  6
CONTINUOUS
 70
0
 71
3
 72
9
 73
5
 74
0
 42
0.0000001
 43
0.0000001
 44
0.0000000001
 40
0.0
 40
0.0
 40
0.0
 40
0.0
 40
0.7060914154
 40
1.0
 40
1.0
 40
1.0
 40
1.0
 10
837.1435971584
 20
467.1645989733
 30
0.0
 10
837.0178215029
 20
467.2372140238
 30
0.0
 10
836.7786778389
 20
467.2243973972
 30
0.0
 10
836.5959055517
 20
467.1352957482
 30
0.0
 10
836.5435519882
 20
467.1050695847
 30
0.0
  0
SPLINE
  5
4CC
100
AcDbEntity
  8
0
100
AcDbSpline
 62
7
  6
CONTINUOUS
 70
0
 71
3
 72
8
 73
4
 74
0
 42
0.0000001
 43
0.0000001
 44
0.0000000001
 40
0.0
 40
0.0
 40
0.0
 40
0.0
 40
1.0
 40
1.0
 40
1.0
 40
1.0
 10
615.3610989326
 20
587.2086514731
 30
0.0
 10
615.433634465
 20
587.1667740109
 30
0.0
 10
615.5076496662
 20
587.088287128
 30
0.0
 10
615.5076283589
 20
587.0045307859
 30
0.0
  0
SPLINE
  5
4CD
100
AcDbEntity
  8
0
100
AcDbSpline
 62
7
  6
CONTINUOUS
 70
0
 71
3
 72
8
 73
4
 74
0
 42
0.0000001
 43
0.0000001
 44
0.0000000001
 40
0.0
 40
0.0
 40
0.0
 40
0.0
 40
1.0
 40
1.0
 40
1.0
 40
1.0
 10
369.1404204966
 20
724.581645275
 30
0.0
 10
369.1404418039
 20
724.6654013392
 30
0.0
 10
369.2144119885
 20
724.7438892033
 30
0.0
 10
369.2869469783
 20
724.7857670497
 30
0.0
  0
SPLINE
  5
4CE
100
AcDbEntity
  8
0
100
AcDbSpline
 62
7
  6
CONTINUOUS
 70
0
 71
3
 72
8
 73
4
 74
0
 42
0.0000001
 43
0.0000001
 44
0.0000000001
 40
0.0
 40
0.0
 40
0.0
 40
0.0
 40
1.0
 40
1.0
 40
1.0
 40
1.0
 10
208.7730069731
 20
821.9470853223
 30
0.0
 10
208.8455425055
 20
821.9052078601
 30
0.0
 10
208.9195577067
 20
821.8267209772
 30
0.0
 10
208.9195363994
 20
821.7429646351
 30
0.0
  0
SPLINE
  5
4CF
100
AcDbEntity
  8
0
100
AcDbSpline
 62
7
  6
CONTINUOUS
 70
0
 71
3
 72
8
 73
4
 74
0
 42
0.0000001
 43
0.0000001
 44
0.0000000001
 40
0.0
 40
0.0
 40
0.0
 40
0.0
 40
1.0
 40
1.0
 40
1.0
 40
1.0
 10
178.3672917357
 20
839.0931953045
 30
0.0
 10
178.5041715492
 20
839.1722224291
 30
0.0
 10
178.6785991841
 20
839.1915822147
 30
0.0
 10
178.8351833609
 20
839.170070234
 30
0.0
  0
SPLINE
  5
4D0
100
AcDbEntity
  8
0
100
AcDbSpline
 62
7
  6
CONTINUOUS
 70
0
 71
3
 72
8
 73
4
 74
0
 42
0.0000001
 43
0.0000001
 44
0.0000000001
 40
0.0
 40
0.0
 40
0.0
 40
0.0
 40
1.0
 40
1.0
 40
1.0
 40
1.0
 10
178.8351833609
 20
839.170070234
 30
0.0
 10
178.9181585121
 20
839.1586708712
 30
0.0
 10
179.0018645697
 20
839.1350735583
 30
0.0
 10
179.0743985301
 20
839.0931970045
 30
0.0
  0
SPLINE
  5
4D1
100
AcDbEntity
  8
0
100
AcDbSpline
 62
7
  6
CONTINUOUS
 70
0
 71
3
 72
8
 73
4
 74
0
 42
0.0000001
 43
0.0000001
 44
0.0000000001
 40
0.0
 40
0.0
 40
0.0
 40
0.0
 40
1.0
 40
1.0
 40
1.0
 40
1.0
 10
584.9553836953
 20
604.3547614553
 30
0.0
 10
585.0922635087
 20
604.4337885799
 30
0.0
 10
585.2666911436
 20
604.4531483655
 30
0.0
 10
585.4232753205
 20
604.4316363849
 30
0.0
  0
SPLINE
  5
4D2
100
AcDbEntity
  8
0
100
AcDbSpline
 62
7
  6
CONTINUOUS
 70
0
 71
3
 72
8
 73
4
 74
0
 42
0.0000001
 43
0.0000001
 44
0.0000000001
 40
0.0
 40
0.0
 40
0.0
 40
0.0
 40
1.0
 40
1.0
 40
1.0
 40
1.0
 10
585.4232753205
 20
604.4316363849
 30
0.0
 10
585.5062504716
 20
604.420237022
 30
0.0
 10
585.5899565292
 20
604.3966397091
 30
0.0
 10
585.6624904896
 20
604.3547631553
 30
0.0
  0
SPLINE
  5
4D3
100
AcDbEntity
  8
0
100
AcDbSpline
 62
7
  6
CONTINUOUS
 70
0
 71
3
 72
10
 73
6
 74
0
 42
0.0000001
 43
0.0000001
 44
0.0000000001
 40
0.0
 40
0.0
 40
0.0
 40
0.0
 40
0.3059622737
 40
0.5940029565
 40
1.0
 40
1.0
 40
1.0
 40
1.0
 10
825.3713113603
 20
460.6548119535
 30
0.0
 10
825.2132961285
 20
460.2475483232
 30
0.0
 10
824.7822384717
 20
459.4930218817
 30
0.0
 10
823.8559829188
 20
458.4601852753
 30
0.0
 10
822.6622261519
 20
458.0228872538
 30
0.0
 10
822.1604757496
 20
458.3131704344
 30
0.0
  0
SPLINE
  5
4D4
100
AcDbEntity
  8
0
100
AcDbSpline
 62
7
  6
CONTINUOUS
 70
0
 71
3
 72
8
 73
4
 74
0
 42
0.0000001
 43
0.0000001
 44
0.0000000001
 40
0.0
 40
0.0
 40
0.0
 40
0.0
 40
1.0
 40
1.0
 40
1.0
 40
1.0
 10
191.0952638444
 20
832.1531041853
 30
0.0
 10
191.1677993768
 20
832.1112267231
 30
0.0
 10
191.2418145781
 20
832.0327398402
 30
0.0
 10
191.2417932707
 20
831.9489834981
 30
0.0
  0
SPLINE
  5
4D5
100
AcDbEntity
  8
0
100
AcDbSpline
 62
7
  6
CONTINUOUS
 70
0
 71
3
 72
8
 73
4
 74
0
 42
0.0000001
 43
0.0000001
 44
0.0000000001
 40
0.0
 40
0.0
 40
0.0
 40
0.0
 40
1.0
 40
1.0
 40
1.0
 40
1.0
 10
160.6895486071
 20
849.2992141675
 30
0.0
 10
160.8264284205
 20
849.3782412921
 30
0.0
 10
161.0008560554
 20
849.3976010777
 30
0.0
 10
161.1574402323
 20
849.376089097
 30
0.0
  0
SPLINE
  5
4D6
100
AcDbEntity
  8
0
100
AcDbSpline
 62
7
  6
CONTINUOUS
 70
0
 71
3
 72
8
 73
4
 74
0
 42
0.0000001
 43
0.0000001
 44
0.0000000001
 40
0.0
 40
0.0
 40
0.0
 40
0.0
 40
1.0
 40
1.0
 40
1.0
 40
1.0
 10
161.1574402323
 20
849.376089097
 30
0.0
 10
161.2404153834
 20
849.3646897342
 30
0.0
 10
161.324121441
 20
849.3410924213
 30
0.0
 10
161.3966554014
 20
849.2992158675
 30
0.0
  0
SPLINE
  5
4D7
100
AcDbEntity
  8
0
100
AcDbSpline
 62
7
  6
CONTINUOUS
 70
0
 71
3
 72
8
 73
4
 74
0
 42
0.0000001
 43
0.0000001
 44
0.0000000001
 40
0.0
 40
0.0
 40
0.0
 40
0.0
 40
1.0
 40
1.0
 40
1.0
 40
1.0
 10
386.8181636252
 20
714.375626412
 30
0.0
 10
386.8181849326
 20
714.4593824762
 30
0.0
 10
386.8921551172
 20
714.5378703403
 30
0.0
 10
386.964690107
 20
714.5797481866
 30
0.0
  0
SPLINE
  5
4D8
100
AcDbEntity
  8
0
100
AcDbSpline
 62
7
  6
CONTINUOUS
 70
0
 71
3
 72
8
 73
4
 74
0
 42
0.0000001
 43
0.0000001
 44
0.0000000001
 40
0.0
 40
0.0
 40
0.0
 40
0.0
 40
1.0
 40
1.0
 40
1.0
 40
1.0
 10
809.816273348
 20
474.94244398
 30
0.0
 10
809.8888088804
 20
474.9005665178
 30
0.0
 10
809.9628240817
 20
474.822079635
 30
0.0
 10
809.9628027743
 20
474.7383232928
 30
0.0
  0
SPLINE
  5
4D9
100
AcDbEntity
  8
0
100
AcDbSpline
 62
7
  6
CONTINUOUS
 70
0
 71
3
 72
8
 73
4
 74
0
 42
0.0000001
 43
0.0000001
 44
0.0000000001
 40
0.0
 40
0.0
 40
0.0
 40
0.0
 40
1.0
 40
1.0
 40
1.0
 40
1.0
 10
597.6833558039
 20
597.4146703361
 30
0.0
 10
597.7558913363
 20
597.3727928739
 30
0.0
 10
597.8299065376
 20
597.2943059911
 30
0.0
 10
597.8298852302
 20
597.2105496489
 30
0.0
  0
SPLINE
  5
4DA
100
AcDbEntity
  8
0
100
AcDbSpline
 62
7
  6
CONTINUOUS
 70
0
 71
3
 72
8
 73
4
 74
0
 42
0.0000001
 43
0.0000001
 44
0.0000000001
 40
0.0
 40
0.0
 40
0.0
 40
0.0
 40
1.0
 40
1.0
 40
1.0
 40
1.0
 10
173.4175207157
 20
842.3591230483
 30
0.0
 10
173.4900562481
 20
842.3172455861
 30
0.0
 10
173.5640714494
 20
842.2387587032
 30
0.0
 10
173.564050142
 20
842.1550023611
 30
0.0
  0
SPLINE
  5
4DB
100
AcDbEntity
  8
0
100
AcDbSpline
 62
7
  6
CONTINUOUS
 70
0
 71
3
 72
8
 73
4
 74
0
 42
0.0000001
 43
0.0000001
 44
0.0000000001
 40
0.0
 40
0.0
 40
0.0
 40
0.0
 40
1.0
 40
1.0
 40
1.0
 40
1.0
 10
143.0118054784
 20
859.5052330305
 30
0.0
 10
143.1486852918
 20
859.5842601551
 30
0.0
 10
143.3231129268
 20
859.6036199407
 30
0.0
 10
143.4796971036
 20
859.58210796
 30
0.0
  0
SPLINE
  5
4DC
100
AcDbEntity
  8
0
100
AcDbSpline
 62
7
  6
CONTINUOUS
 70
0
 71
3
 72
8
 73
4
 74
0
 42
0.0000001
 43
0.0000001
 44
0.0000000001
 40
0.0
 40
0.0
 40
0.0
 40
0.0
 40
1.0
 40
1.0
 40
1.0
 40
1.0
 10
143.4796971036
 20
859.58210796
 30
0.0
 10
143.5626722547
 20
859.5707085972
 30
0.0
 10
143.6463783123
 20
859.5471112843
 30
0.0
 10
143.7189122728
 20
859.5052347305
 30
0.0
  0
SPLINE
  5
4DD
100
AcDbEntity
  8
0
100
AcDbSpline
 62
7
  6
CONTINUOUS
 70
0
 71
3
 72
8
 73
4
 74
0
 42
0.0000001
 43
0.0000001
 44
0.0000000001
 40
0.0
 40
0.0
 40
0.0
 40
0.0
 40
1.0
 40
1.0
 40
1.0
 40
1.0
 10
404.4959067539
 20
704.169607549
 30
0.0
 10
404.4959280612
 20
704.2533636132
 30
0.0
 10
404.5698982459
 20
704.3318514773
 30
0.0
 10
404.6424332356
 20
704.3737293236
 30
0.0
  0
SPLINE
  5
4DE
100
AcDbEntity
  8
0
100
AcDbSpline
 62
7
  6
CONTINUOUS
 70
0
 71
3
 72
8
 73
4
 74
0
 42
0.0000001
 43
0.0000001
 44
0.0000000001
 40
0.0
 40
0.0
 40
0.0
 40
0.0
 40
1.0
 40
1.0
 40
1.0
 40
1.0
 10
567.2776405666
 20
614.5607803183
 30
0.0
 10
567.41452038
 20
614.6398074429
 30
0.0
 10
567.5889480149
 20
614.6591672285
 30
0.0
 10
567.7455321918
 20
614.6376552479
 30
0.0
  0
SPLINE
  5
4DF
100
AcDbEntity
  8
0
100
AcDbSpline
 62
7
  6
CONTINUOUS
 70
0
 71
3
 72
8
 73
4
 74
0
 42
0.0000001
 43
0.0000001
 44
0.0000000001
 40
0.0
 40
0.0
 40
0.0
 40
0.0
 40
1.0
 40
1.0
 40
1.0
 40
1.0
 10
567.7455321918
 20
614.6376552479
 30
0.0
 10
567.8285073429
 20
614.626255885
 30
0.0
 10
567.9122134005
 20
614.6026585721
 30
0.0
 10
567.984747361
 20
614.5607820183
 30
0.0
  0
SPLINE
  5
4E0
100
AcDbEntity
  8
0
100
AcDbSpline
 62
7
  6
CONTINUOUS
 70
0
 71
3
 72
8
 73
4
 74
0
 42
0.0000001
 43
0.0000001
 44
0.0000000001
 40
0.0
 40
0.0
 40
0.0
 40
0.0
 40
1.0
 40
1.0
 40
1.0
 40
1.0
 10
779.4105581107
 20
492.0885539622
 30
0.0
 10
779.5474379241
 20
492.1675810868
 30
0.0
 10
779.721865559
 20
492.1869408724
 30
0.0
 10
779.8784497359
 20
492.1654288918
 30
0.0
  0
SPLINE
  5
4E1
100
AcDbEntity
  8
0
100
AcDbSpline
 62
7
  6
CONTINUOUS
 70
0
 71
3
 72
8
 73
4
 74
0
 42
0.0000001
 43
0.0000001
 44
0.0000000001
 40
0.0
 40
0.0
 40
0.0
 40
0.0
 40
1.0
 40
1.0
 40
1.0
 40
1.0
 10
779.8784497359
 20
492.1654288918
 30
0.0
 10
779.961424887
 20
492.154029529
 30
0.0
 10
780.0451309446
 20
492.130432216
 30
0.0
 10
780.1176649051
 20
492.0885556622
 30
0.0
  0
SPLINE
  5
4E2
100
AcDbEntity
  8
0
100
AcDbSpline
 62
7
  6
CONTINUOUS
 70
0
 71
3
 72
8
 73
4
 74
0
 42
0.0000001
 43
0.0000001
 44
0.0000000001
 40
0.0
 40
0.0
 40
0.0
 40
0.0
 40
1.0
 40
1.0
 40
1.0
 40
1.0
 10
155.7397775871
 20
852.5651419113
 30
0.0
 10
155.8123131195
 20
852.5232644491
 30
0.0
 10
155.8863283207
 20
852.4447775662
 30
0.0
 10
155.8863070133
 20
852.3610212241
 30
0.0
  0
SPLINE
  5
4E3
100
AcDbEntity
  8
0
100
AcDbSpline
 62
7
  6
CONTINUOUS
 70
0
 71
3
 72
8
 73
4
 74
0
 42
0.0000001
 43
0.0000001
 44
0.0000000001
 40
0.0
 40
0.0
 40
0.0
 40
0.0
 40
1.0
 40
1.0
 40
1.0
 40
1.0
 10
125.3340623497
 20
869.7112518935
 30
0.0
 10
125.4709421631
 20
869.7902790181
 30
0.0
 10
125.6453697981
 20
869.8096388037
 30
0.0
 10
125.8019539749
 20
869.7881268231
 30
0.0
  0
SPLINE
  5
4E4
100
AcDbEntity
  8
0
100
AcDbSpline
 62
7
  6
CONTINUOUS
 70
0
 71
3
 72
8
 73
4
 74
0
 42
0.0000001
 43
0.0000001
 44
0.0000000001
 40
0.0
 40
0.0
 40
0.0
 40
0.0
 40
1.0
 40
1.0
 40
1.0
 40
1.0
 10
125.8019539749
 20
869.7881268231
 30
0.0
 10
125.884929126
 20
869.7767274602
 30
0.0
 10
125.9686351836
 20
869.7531301473
 30
0.0
 10
126.0411691441
 20
869.7112535935
 30
0.0
  0
SPLINE
  5
4E5
100
AcDbEntity
  8
0
100
AcDbSpline
 62
7
  6
CONTINUOUS
 70
0
 71
3
 72
8
 73
4
 74
0
 42
0.0000001
 43
0.0000001
 44
0.0000000001
 40
0.0
 40
0.0
 40
0.0
 40
0.0
 40
1.0
 40
1.0
 40
1.0
 40
1.0
 10
580.0056126753
 20
607.6206891991
 30
0.0
 10
580.0781482076
 20
607.5788117369
 30
0.0
 10
580.1521634089
 20
607.5003248541
 30
0.0
 10
580.1521421015
 20
607.4165685119
 30
0.0
  0
SPLINE
  5
4E6
100
AcDbEntity
  8
0
100
AcDbSpline
 62
7
  6
CONTINUOUS
 70
0
 71
3
 72
8
 73
4
 74
0
 42
0.0000001
 43
0.0000001
 44
0.0000000001
 40
0.0
 40
0.0
 40
0.0
 40
0.0
 40
1.0
 40
1.0
 40
1.0
 40
1.0
 10
422.1736498826
 20
693.963588686
 30
0.0
 10
422.1736711899
 20
694.0473447502
 30
0.0
 10
422.2476413746
 20
694.1258326143
 30
0.0
 10
422.3201763643
 20
694.1677104606
 30
0.0
  0
SPLINE
  5
4E7
100
AcDbEntity
  8
0
100
AcDbSpline
 62
7
  6
CONTINUOUS
 70
0
 71
3
 72
8
 73
4
 74
0
 42
0.0000001
 43
0.0000001
 44
0.0000000001
 40
0.0
 40
0.0
 40
0.0
 40
0.0
 40
1.0
 40
1.0
 40
1.0
 40
1.0
 10
138.0620344584
 20
862.7711607743
 30
0.0
 10
138.1345699908
 20
862.7292833121
 30
0.0
 10
138.208585192
 20
862.6507964292
 30
0.0
 10
138.2085638847
 20
862.5670400871
 30
0.0
  0
SPLINE
  5
4E8
100
AcDbEntity
  8
0
100
AcDbSpline
 62
7
  6
CONTINUOUS
 70
0
 71
3
 72
8
 73
4
 74
0
 42
0.0000001
 43
0.0000001
 44
0.0000000001
 40
0.0
 40
0.0
 40
0.0
 40
0.0
 40
1.0
 40
1.0
 40
1.0
 40
1.0
 10
549.5998974379
 20
624.7667991813
 30
0.0
 10
549.7367772513
 20
624.8458263059
 30
0.0
 10
549.9112048863
 20
624.8651860915
 30
0.0
 10
550.0677890631
 20
624.8436741109
 30
0.0
  0
SPLINE
  5
4E9
100
AcDbEntity
  8
0
100
AcDbSpline
 62
7
  6
CONTINUOUS
 70
0
 71
3
 72
8
 73
4
 74
0
 42
0.0000001
 43
0.0000001
 44
0.0000000001
 40
0.0
 40
0.0
 40
0.0
 40
0.0
 40
1.0
 40
1.0
 40
1.0
 40
1.0
 10
550.0677890631
 20
624.8436741109
 30
0.0
 10
550.1507642142
 20
624.832274748
 30
0.0
 10
550.2344702718
 20
624.8086774351
 30
0.0
 10
550.3070042323
 20
624.7668008813
 30
0.0
  0
SPLINE
  5
4EA
100
AcDbEntity
  8
0
100
AcDbSpline
 62
7
  6
CONTINUOUS
 70
0
 71
3
 72
10
 73
6
 74
0
 42
0.0000001
 43
0.0000001
 44
0.0000000001
 40
0.0
 40
0.0
 40
0.0
 40
0.0
 40
0.3059622737
 40
0.5940029565
 40
1.0
 40
1.0
 40
1.0
 40
1.0
 10
833.8565574068
 20
465.5537418
 30
0.0
 10
833.6985421751
 20
465.1464781697
 30
0.0
 10
833.2674845183
 20
464.3919517282
 30
0.0
 10
832.3412289654
 20
463.3591151218
 30
0.0
 10
831.1474721985
 20
462.9218171002
 30
0.0
 10
830.6457217962
 20
463.2121002808
 30
0.0
  0
SPLINE
  5
4EB
100
AcDbEntity
  8
0
100
AcDbSpline
 62
7
  6
CONTINUOUS
 70
0
 71
3
 72
8
 73
4
 74
0
 42
0.0000001
 43
0.0000001
 44
0.0000000001
 40
0.0
 40
0.0
 40
0.0
 40
0.0
 40
1.0
 40
1.0
 40
1.0
 40
1.0
 10
439.8513930113
 20
683.757569823
 30
0.0
 10
439.8514143186
 20
683.8413258872
 30
0.0
 10
439.9253845032
 20
683.9198137513
 30
0.0
 10
439.997919493
 20
683.9616915976
 30
0.0
  0
SPLINE
  5
4EC
100
AcDbEntity
  8
0
100
AcDbSpline
 62
7
  6
CONTINUOUS
 70
0
 71
3
 72
9
 73
5
 74
0
 42
0.0000001
 43
0.0000001
 44
0.0000000001
 40
0.0
 40
0.0
 40
0.0
 40
0.0
 40
0.3380124378
 40
1.0
 40
1.0
 40
1.0
 40
1.0
 10
836.6496717312
 20
466.3090447274
 30
0.0
 10
836.6588807979
 20
466.3036801617
 30
0.0
 10
836.6712476353
 20
466.2682052227
 30
0.0
 10
836.6549389813
 20
466.2392616442
 30
0.0
 10
836.6456772255
 20
466.2205563157
 30
0.0
  0
SPLINE
  5
4ED
100
AcDbEntity
  8
0
100
AcDbSpline
 62
7
  6
CONTINUOUS
 70
0
 71
3
 72
8
 73
4
 74
0
 42
0.0000001
 43
0.0000001
 44
0.0000000001
 40
0.0
 40
0.0
 40
0.0
 40
0.0
 40
1.0
 40
1.0
 40
1.0
 40
1.0
 10
792.1385302194
 20
485.148462843
 30
0.0
 10
792.2110657517
 20
485.1065853808
 30
0.0
 10
792.285080953
 20
485.028098498
 30
0.0
 10
792.2850596456
 20
484.9443421559
 30
0.0
  0
SPLINE
  5
4EE
100
AcDbEntity
  8
0
100
AcDbSpline
 62
7
  6
CONTINUOUS
 70
0
 71
3
 72
8
 73
4
 74
0
 42
0.0000001
 43
0.0000001
 44
0.0000000001
 40
0.0
 40
0.0
 40
0.0
 40
0.0
 40
1.0
 40
1.0
 40
1.0
 40
1.0
 10
562.3278695466
 20
617.8267080621
 30
0.0
 10
562.400405079
 20
617.7848305999
 30
0.0
 10
562.4744202802
 20
617.7063437171
 30
0.0
 10
562.4743989728
 20
617.622587375
 30
0.0
  0
SPLINE
  5
4EF
100
AcDbEntity
  8
0
100
AcDbSpline
 62
7
  6
CONTINUOUS
 70
0
 71
3
 72
8
 73
4
 74
0
 42
0.0000001
 43
0.0000001
 44
0.0000000001
 40
0.0
 40
0.0
 40
0.0
 40
0.0
 40
1.0
 40
1.0
 40
1.0
 40
1.0
 10
531.9221543092
 20
634.9728180443
 30
0.0
 10
532.0590341227
 20
635.0518451689
 30
0.0
 10
532.2334617576
 20
635.0712049545
 30
0.0
 10
532.3900459344
 20
635.0496929739
 30
0.0
  0
SPLINE
  5
4F0
100
AcDbEntity
  8
0
100
AcDbSpline
 62
7
  6
CONTINUOUS
 70
0
 71
3
 72
8
 73
4
 74
0
 42
0.0000001
 43
0.0000001
 44
0.0000000001
 40
0.0
 40
0.0
 40
0.0
 40
0.0
 40
1.0
 40
1.0
 40
1.0
 40
1.0
 10
532.3900459344
 20
635.0496929739
 30
0.0
 10
532.4730210856
 20
635.0382936111
 30
0.0
 10
532.5567271432
 20
635.0146962981
 30
0.0
 10
532.6292611036
 20
634.9728197443
 30
0.0
  0
SPLINE
  5
4F1
100
AcDbEntity
  8
0
100
AcDbSpline
 62
7
  6
CONTINUOUS
 70
0
 71
3
 72
8
 73
4
 74
0
 42
0.0000001
 43
0.0000001
 44
0.0000000001
 40
0.0
 40
0.0
 40
0.0
 40
0.0
 40
1.0
 40
1.0
 40
1.0
 40
1.0
 10
761.732814982
 20
502.2945728252
 30
0.0
 10
761.8696947954
 20
502.3735999498
 30
0.0
 10
762.0441224304
 20
502.3929597354
 30
0.0
 10
762.2007066072
 20
502.3714477548
 30
0.0
  0
SPLINE
  5
4F2
100
AcDbEntity
  8
0
100
AcDbSpline
 62
7
  6
CONTINUOUS
 70
0
 71
3
 72
8
 73
4
 74
0
 42
0.0000001
 43
0.0000001
 44
0.0000000001
 40
0.0
 40
0.0
 40
0.0
 40
0.0
 40
1.0
 40
1.0
 40
1.0
 40
1.0
 10
762.2007066072
 20
502.3714477548
 30
0.0
 10
762.2836817583
 20
502.360048392
 30
0.0
 10
762.3673878159
 20
502.336451079
 30
0.0
 10
762.4399217764
 20
502.2945745252
 30
0.0
  0
SPLINE
  5
4F3
100
AcDbEntity
  8
0
100
AcDbSpline
 62
7
  6
CONTINUOUS
 70
0
 71
3
 72
8
 73
4
 74
0
 42
0.0000001
 43
0.0000001
 44
0.0000000001
 40
0.0
 40
0.0
 40
0.0
 40
0.0
 40
1.0
 40
1.0
 40
1.0
 40
1.0
 10
457.5291361399
 20
673.5515509599
 30
0.0
 10
457.5291574473
 20
673.6353070242
 30
0.0
 10
457.6031276319
 20
673.7137948883
 30
0.0
 10
457.6756626217
 20
673.7556727346
 30
0.0
  0
SPLINE
  5
4F4
100
AcDbEntity
  8
0
100
AcDbSpline
 62
7
  6
CONTINUOUS
 70
0
 71
3
 72
8
 73
4
 74
0
 42
0.0000001
 43
0.0000001
 44
0.0000000001
 40
0.0
 40
0.0
 40
0.0
 40
0.0
 40
1.0
 40
1.0
 40
1.0
 40
1.0
 10
544.6501264179
 20
628.0327269251
 30
0.0
 10
544.7226619503
 20
627.9908494629
 30
0.0
 10
544.7966771515
 20
627.9123625801
 30
0.0
 10
544.7966558442
 20
627.828606238
 30
0.0
  0
SPLINE
  5
4F5
100
AcDbEntity
  8
0
100
AcDbSpline
 62
7
  6
CONTINUOUS
 70
0
 71
3
 72
8
 73
4
 74
0
 42
0.0000001
 43
0.0000001
 44
0.0000000001
 40
0.0
 40
0.0
 40
0.0
 40
0.0
 40
1.0
 40
1.0
 40
1.0
 40
1.0
 10
514.2444111806
 20
645.1788369073
 30
0.0
 10
514.381290994
 20
645.2578640319
 30
0.0
 10
514.5557186289
 20
645.2772238175
 30
0.0
 10
514.7123028058
 20
645.2557118369
 30
0.0
  0
SPLINE
  5
4F6
100
AcDbEntity
  8
0
100
AcDbSpline
 62
7
  6
CONTINUOUS
 70
0
 71
3
 72
8
 73
4
 74
0
 42
0.0000001
 43
0.0000001
 44
0.0000000001
 40
0.0
 40
0.0
 40
0.0
 40
0.0
 40
1.0
 40
1.0
 40
1.0
 40
1.0
 10
514.7123028058
 20
645.2557118369
 30
0.0
 10
514.7952779569
 20
645.2443124741
 30
0.0
 10
514.8789840145
 20
645.2207151611
 30
0.0
 10
514.9515179749
 20
645.1788386073
 30
0.0
  0
SPLINE
  5
4F7
100
AcDbEntity
  8
0
100
AcDbSpline
 62
7
  6
CONTINUOUS
 70
0
 71
3
 72
8
 73
4
 74
0
 42
0.0000001
 43
0.0000001
 44
0.0000000001
 40
0.0
 40
0.0
 40
0.0
 40
0.0
 40
1.0
 40
1.0
 40
1.0
 40
1.0
 10
774.4607870907
 20
495.354481706
 30
0.0
 10
774.5333226231
 20
495.3126042438
 30
0.0
 10
774.6073378243
 20
495.234117361
 30
0.0
 10
774.6073165169
 20
495.1503610189
 30
0.0
  0
SPLINE
  5
4F8
100
AcDbEntity
  8
0
100
AcDbSpline
 62
7
  6
CONTINUOUS
 70
0
 71
3
 72
8
 73
4
 74
0
 42
0.0000001
 43
0.0000001
 44
0.0000000001
 40
0.0
 40
0.0
 40
0.0
 40
0.0
 40
1.0
 40
1.0
 40
1.0
 40
1.0
 10
475.2068792686
 20
663.3455320969
 30
0.0
 10
475.2069005759
 20
663.4292881612
 30
0.0
 10
475.2808707606
 20
663.5077760253
 30
0.0
 10
475.3534057503
 20
663.5496538716
 30
0.0
  0
SPLINE
  5
4F9
100
AcDbEntity
  8
0
100
AcDbSpline
 62
7
  6
CONTINUOUS
 70
0
 71
3
 72
8
 73
4
 74
0
 42
0.0000001
 43
0.0000001
 44
0.0000000001
 40
0.0
 40
0.0
 40
0.0
 40
0.0
 40
1.0
 40
1.0
 40
1.0
 40
1.0
 10
526.9723832892
 20
638.2387457881
 30
0.0
 10
527.0449188216
 20
638.1968683259
 30
0.0
 10
527.1189340229
 20
638.1183814431
 30
0.0
 10
527.1189127155
 20
638.034625101
 30
0.0
  0
SPLINE
  5
4FA
100
AcDbEntity
  8
0
100
AcDbSpline
 62
7
  6
CONTINUOUS
 70
0
 71
3
 72
8
 73
4
 74
0
 42
0.0000001
 43
0.0000001
 44
0.0000000001
 40
0.0
 40
0.0
 40
0.0
 40
0.0
 40
1.0
 40
1.0
 40
1.0
 40
1.0
 10
496.5666680519
 20
655.3848557703
 30
0.0
 10
496.7035478653
 20
655.4638828949
 30
0.0
 10
496.8779755002
 20
655.4832426805
 30
0.0
 10
497.0345596771
 20
655.4617306999
 30
0.0
  0
SPLINE
  5
4FB
100
AcDbEntity
  8
0
100
AcDbSpline
 62
7
  6
CONTINUOUS
 70
0
 71
3
 72
8
 73
4
 74
0
 42
0.0000001
 43
0.0000001
 44
0.0000000001
 40
0.0
 40
0.0
 40
0.0
 40
0.0
 40
1.0
 40
1.0
 40
1.0
 40
1.0
 10
497.0345596771
 20
655.4617306999
 30
0.0
 10
497.1175348282
 20
655.4503313371
 30
0.0
 10
497.2012408858
 20
655.4267340241
 30
0.0
 10
497.2737748463
 20
655.3848574703
 30
0.0
  0
SPLINE
  5
4FC
100
AcDbEntity
  8
0
100
AcDbSpline
 62
7
  6
CONTINUOUS
 70
0
 71
3
 72
8
 73
4
 74
0
 42
0.0000001
 43
0.0000001
 44
0.0000000001
 40
0.0
 40
0.0
 40
0.0
 40
0.0
 40
1.0
 40
1.0
 40
1.0
 40
1.0
 10
121.6520166951
 20
867.4659093571
 30
0.0
 10
121.6520380024
 20
867.5496654213
 30
0.0
 10
121.7260081871
 20
867.6281532855
 30
0.0
 10
121.7985431768
 20
867.6700311318
 30
0.0
  0
SPLINE
  5
4FD
100
AcDbEntity
  8
0
100
AcDbSpline
 62
7
  6
CONTINUOUS
 70
0
 71
3
 72
8
 73
4
 74
0
 42
0.0000001
 43
0.0000001
 44
0.0000000001
 40
0.0
 40
0.0
 40
0.0
 40
0.0
 40
1.0
 40
1.0
 40
1.0
 40
1.0
 10
744.0550718533
 20
512.5005916882
 30
0.0
 10
744.1919516668
 20
512.5796188128
 30
0.0
 10
744.3663793017
 20
512.5989785984
 30
0.0
 10
744.5229634785
 20
512.5774666178
 30
0.0
  0
SPLINE
  5
4FE
100
AcDbEntity
  8
0
100
AcDbSpline
 62
7
  6
CONTINUOUS
 70
0
 71
3
 72
8
 73
4
 74
0
 42
0.0000001
 43
0.0000001
 44
0.0000000001
 40
0.0
 40
0.0
 40
0.0
 40
0.0
 40
1.0
 40
1.0
 40
1.0
 40
1.0
 10
744.5229634785
 20
512.5774666178
 30
0.0
 10
744.6059386296
 20
512.566067255
 30
0.0
 10
744.6896446873
 20
512.542469942
 30
0.0
 10
744.7621786477
 20
512.5005933882
 30
0.0
  0
SPLINE
  5
4FF
100
AcDbEntity
  8
0
100
AcDbSpline
 62
7
  6
CONTINUOUS
 70
0
 71
3
 72
9
 73
5
 74
0
 42
0.0000001
 43
0.0000001
 44
0.0000000001
 40
0.0
 40
0.0
 40
0.0
 40
0.0
 40
0.2939117531
 40
1.0
 40
1.0
 40
1.0
 40
1.0
 10
836.6849727557
 20
462.0427531876
 30
0.0
 10
836.6849727557
 20
461.9822975627
 30
0.0
 10
836.6991933257
 20
461.7794533132
 30
0.0
 10
836.8076721571
 20
461.5659314608
 30
0.0
 10
836.9334521902
 20
461.493313883
 30
0.0
  0
SPLINE
  5
500
100
AcDbEntity
  8
0
100
AcDbSpline
 62
7
  6
CONTINUOUS
 70
0
 71
3
 72
8
 73
4
 74
0
 42
0.0000001
 43
0.0000001
 44
0.0000000001
 40
0.0
 40
0.0
 40
0.0
 40
0.0
 40
1.0
 40
1.0
 40
1.0
 40
1.0
 10
509.2946401606
 20
648.4447646511
 30
0.0
 10
509.367175693
 20
648.4028871889
 30
0.0
 10
509.4411908942
 20
648.3244003061
 30
0.0
 10
509.4411695868
 20
648.240643964
 30
0.0
  0
SPLINE
  5
501
100
AcDbEntity
  8
0
100
AcDbSpline
 62
7
  6
CONTINUOUS
 70
0
 71
3
 72
8
 73
4
 74
0
 42
0.0000001
 43
0.0000001
 44
0.0000000001
 40
0.0
 40
0.0
 40
0.0
 40
0.0
 40
1.0
 40
1.0
 40
1.0
 40
1.0
 10
492.8846223973
 20
653.1395132339
 30
0.0
 10
492.8846437046
 20
653.2232692982
 30
0.0
 10
492.9586138893
 20
653.3017571623
 30
0.0
 10
493.031148879
 20
653.3436350086
 30
0.0
  0
SPLINE
  5
502
100
AcDbEntity
  8
0
100
AcDbSpline
 62
7
  6
CONTINUOUS
 70
0
 71
3
 72
8
 73
4
 74
0
 42
0.0000001
 43
0.0000001
 44
0.0000000001
 40
0.0
 40
0.0
 40
0.0
 40
0.0
 40
1.0
 40
1.0
 40
1.0
 40
1.0
 10
478.8889249232
 20
665.5908746333
 30
0.0
 10
479.0258047366
 20
665.6699017579
 30
0.0
 10
479.2002323716
 20
665.6892615435
 30
0.0
 10
479.3568165484
 20
665.6677495629
 30
0.0
  0
SPLINE
  5
503
100
AcDbEntity
  8
0
100
AcDbSpline
 62
7
  6
CONTINUOUS
 70
0
 71
3
 72
8
 73
4
 74
0
 42
0.0000001
 43
0.0000001
 44
0.0000000001
 40
0.0
 40
0.0
 40
0.0
 40
0.0
 40
1.0
 40
1.0
 40
1.0
 40
1.0
 10
479.3568165484
 20
665.6677495629
 30
0.0
 10
479.4397916995
 20
665.6563502001
 30
0.0
 10
479.5234977571
 20
665.6327528871
 30
0.0
 10
479.5960317176
 20
665.5908763334
 30
0.0
  0
SPLINE
  5
504
100
AcDbEntity
  8
0
100
AcDbSpline
 62
7
  6
CONTINUOUS
 70
0
 71
3
 72
9
 73
5
 74
0
 42
0.0000001
 43
0.0000001
 44
0.0000000001
 40
0.0
 40
0.0
 40
0.0
 40
0.0
 40
0.5523747382
 40
1.0
 40
1.0
 40
1.0
 40
1.0
 10
837.5334973603
 20
462.3693456888
 30
0.0
 10
837.5158688009
 20
462.359167896
 30
0.0
 10
837.4826966447
 20
462.3452868506
 30
0.0
 10
837.4416310854
 20
462.3405650439
 30
0.0
 10
837.4273776174
 20
462.348868129
 30
0.0
  0
SPLINE
  5
505
100
AcDbEntity
  8
0
100
AcDbSpline
 62
7
  6
CONTINUOUS
 70
0
 71
3
 72
8
 73
4
 74
0
 42
0.0000001
 43
0.0000001
 44
0.0000000001
 40
0.0
 40
0.0
 40
0.0
 40
0.0
 40
1.0
 40
1.0
 40
1.0
 40
1.0
 10
756.783043962
 20
505.560500569
 30
0.0
 10
756.8555794944
 20
505.5186231068
 30
0.0
 10
756.9295946956
 20
505.440136224
 30
0.0
 10
756.9295733883
 20
505.3563798819
 30
0.0
  0
SPLINE
  5
506
100
AcDbEntity
  8
0
100
AcDbSpline
 62
7
  6
CONTINUOUS
 70
0
 71
3
 72
8
 73
4
 74
0
 42
0.0000001
 43
0.0000001
 44
0.0000000001
 40
0.0
 40
0.0
 40
0.0
 40
0.0
 40
1.0
 40
1.0
 40
1.0
 40
1.0
 10
139.3297598238
 20
857.2598904941
 30
0.0
 10
139.3297811311
 20
857.3436465583
 30
0.0
 10
139.4037513158
 20
857.4221344224
 30
0.0
 10
139.4762863055
 20
857.4640122688
 30
0.0
  0
SPLINE
  5
507
100
AcDbEntity
  8
0
100
AcDbSpline
 62
7
  6
CONTINUOUS
 70
0
 71
3
 72
8
 73
4
 74
0
 42
0.0000001
 43
0.0000001
 44
0.0000000001
 40
0.0
 40
0.0
 40
0.0
 40
0.0
 40
1.0
 40
1.0
 40
1.0
 40
1.0
 10
510.562365526
 20
642.9334943709
 30
0.0
 10
510.5623868333
 20
643.0172504351
 30
0.0
 10
510.6363570179
 20
643.0957382993
 30
0.0
 10
510.7088920077
 20
643.1376161456
 30
0.0
  0
SPLINE
  5
508
100
AcDbEntity
  8
0
100
AcDbSpline
 62
7
  6
CONTINUOUS
 70
0
 71
3
 72
8
 73
4
 74
0
 42
0.0000001
 43
0.0000001
 44
0.0000000001
 40
0.0
 40
0.0
 40
0.0
 40
0.0
 40
1.0
 40
1.0
 40
1.0
 40
1.0
 10
491.6168970319
 20
658.6507835141
 30
0.0
 10
491.6894325643
 20
658.6089060519
 30
0.0
 10
491.7634477655
 20
658.5304191691
 30
0.0
 10
491.7634264581
 20
658.446662827
 30
0.0
  0
SPLINE
  5
509
100
AcDbEntity
  8
0
100
AcDbSpline
 62
7
  6
CONTINUOUS
 70
0
 71
3
 72
8
 73
4
 74
0
 42
0.0000001
 43
0.0000001
 44
0.0000000001
 40
0.0
 40
0.0
 40
0.0
 40
0.0
 40
1.0
 40
1.0
 40
1.0
 40
1.0
 10
461.2111817945
 20
675.7968934964
 30
0.0
 10
461.348061608
 20
675.875920621
 30
0.0
 10
461.5224892429
 20
675.8952804065
 30
0.0
 10
461.6790734197
 20
675.8737684259
 30
0.0
  0
SPLINE
  5
50A
100
AcDbEntity
  8
0
100
AcDbSpline
 62
7
  6
CONTINUOUS
 70
0
 71
3
 72
8
 73
4
 74
0
 42
0.0000001
 43
0.0000001
 44
0.0000000001
 40
0.0
 40
0.0
 40
0.0
 40
0.0
 40
1.0
 40
1.0
 40
1.0
 40
1.0
 10
461.6790734197
 20
675.8737684259
 30
0.0
 10
461.7620485709
 20
675.8623690631
 30
0.0
 10
461.8457546285
 20
675.8387717502
 30
0.0
 10
461.9182885889
 20
675.7968951964
 30
0.0
  0
SPLINE
  5
50B
100
AcDbEntity
  8
0
100
AcDbSpline
 62
7
  6
CONTINUOUS
 70
0
 71
3
 72
8
 73
4
 74
0
 42
0.0000001
 43
0.0000001
 44
0.0000000001
 40
0.0
 40
0.0
 40
0.0
 40
0.0
 40
1.0
 40
1.0
 40
1.0
 40
1.0
 10
726.3773287247
 20
522.7066105512
 30
0.0
 10
726.5142085381
 20
522.7856376758
 30
0.0
 10
726.688636173
 20
522.8049974614
 30
0.0
 10
726.8452203499
 20
522.7834854808
 30
0.0
  0
SPLINE
  5
50C
100
AcDbEntity
  8
0
100
AcDbSpline
 62
7
  6
CONTINUOUS
 70
0
 71
3
 72
8
 73
4
 74
0
 42
0.0000001
 43
0.0000001
 44
0.0000000001
 40
0.0
 40
0.0
 40
0.0
 40
0.0
 40
1.0
 40
1.0
 40
1.0
 40
1.0
 10
726.8452203499
 20
522.7834854808
 30
0.0
 10
726.928195501
 20
522.772086118
 30
0.0
 10
727.0119015586
 20
522.748488805
 30
0.0
 10
727.084435519
 20
522.7066122513
 30
0.0
  0
SPLINE
  5
50D
100
AcDbEntity
  8
0
100
AcDbSpline
 62
7
  6
CONTINUOUS
 70
0
 71
3
 72
8
 73
4
 74
0
 42
0.0000001
 43
0.0000001
 44
0.0000000001
 40
0.0
 40
0.0
 40
0.0
 40
0.0
 40
1.0
 40
1.0
 40
1.0
 40
1.0
 10
157.0075029525
 20
847.0538716311
 30
0.0
 10
157.0075242598
 20
847.1376276953
 30
0.0
 10
157.0814944444
 20
847.2161155594
 30
0.0
 10
157.1540294342
 20
847.2579934057
 30
0.0
  0
SPLINE
  5
50E
100
AcDbEntity
  8
0
100
AcDbSpline
 62
7
  6
CONTINUOUS
 70
0
 71
3
 72
8
 73
4
 74
0
 42
0.0000001
 43
0.0000001
 44
0.0000000001
 40
0.0
 40
0.0
 40
0.0
 40
0.0
 40
1.0
 40
1.0
 40
1.0
 40
1.0
 10
473.9391539032
 20
668.8568023771
 30
0.0
 10
474.0116894356
 20
668.814924915
 30
0.0
 10
474.0857046368
 20
668.7364380321
 30
0.0
 10
474.0856833295
 20
668.65268169
 30
0.0
  0
SPLINE
  5
50F
100
AcDbEntity
  8
0
100
AcDbSpline
 62
7
  6
CONTINUOUS
 70
0
 71
3
 72
8
 73
4
 74
0
 42
0.0000001
 43
0.0000001
 44
0.0000000001
 40
0.0
 40
0.0
 40
0.0
 40
0.0
 40
1.0
 40
1.0
 40
1.0
 40
1.0
 10
528.2401086546
 20
632.7274755079
 30
0.0
 10
528.240129962
 20
632.8112315721
 30
0.0
 10
528.3141001466
 20
632.8897194363
 30
0.0
 10
528.3866351364
 20
632.9315972826
 30
0.0
  0
SPLINE
  5
510
100
AcDbEntity
  8
0
100
AcDbSpline
 62
7
  6
CONTINUOUS
 70
0
 71
3
 72
8
 73
4
 74
0
 42
0.0000001
 43
0.0000001
 44
0.0000000001
 40
0.0
 40
0.0
 40
0.0
 40
0.0
 40
1.0
 40
1.0
 40
1.0
 40
1.0
 10
443.5334386659
 20
686.0029123594
 30
0.0
 10
443.6703184793
 20
686.081939484
 30
0.0
 10
443.8447461142
 20
686.1012992696
 30
0.0
 10
444.0013302911
 20
686.0797872889
 30
0.0
  0
SPLINE
  5
511
100
AcDbEntity
  8
0
100
AcDbSpline
 62
7
  6
CONTINUOUS
 70
0
 71
3
 72
8
 73
4
 74
0
 42
0.0000001
 43
0.0000001
 44
0.0000000001
 40
0.0
 40
0.0
 40
0.0
 40
0.0
 40
1.0
 40
1.0
 40
1.0
 40
1.0
 10
444.0013302911
 20
686.0797872889
 30
0.0
 10
444.0843054422
 20
686.0683879261
 30
0.0
 10
444.1680114998
 20
686.0447906132
 30
0.0
 10
444.2405454602
 20
686.0029140594
 30
0.0
  0
SPLINE
  5
512
100
AcDbEntity
  8
0
100
AcDbSpline
 62
7
  6
CONTINUOUS
 70
0
 71
3
 72
8
 73
4
 74
0
 42
0.0000001
 43
0.0000001
 44
0.0000000001
 40
0.0
 40
0.0
 40
0.0
 40
0.0
 40
1.0
 40
1.0
 40
1.0
 40
1.0
 10
739.1053008333
 20
515.766519432
 30
0.0
 10
739.1778363657
 20
515.7246419698
 30
0.0
 10
739.251851567
 20
515.646155087
 30
0.0
 10
739.2518302596
 20
515.5623987449
 30
0.0
  0
SPLINE
  5
513
100
AcDbEntity
  8
0
100
AcDbSpline
 62
7
  6
CONTINUOUS
 70
0
 71
3
 72
8
 73
4
 74
0
 42
0.0000001
 43
0.0000001
 44
0.0000000001
 40
0.0
 40
0.0
 40
0.0
 40
0.0
 40
1.0
 40
1.0
 40
1.0
 40
1.0
 10
456.2614107745
 20
679.0628212401
 30
0.0
 10
456.3339463069
 20
679.020943778
 30
0.0
 10
456.4079615082
 20
678.9424568951
 30
0.0
 10
456.4079402008
 20
678.858700553
 30
0.0
  0
SPLINE
  5
514
100
AcDbEntity
  8
0
100
AcDbSpline
 62
7
  6
CONTINUOUS
 70
0
 71
3
 72
8
 73
4
 74
0
 42
0.0000001
 43
0.0000001
 44
0.0000000001
 40
0.0
 40
0.0
 40
0.0
 40
0.0
 40
1.0
 40
1.0
 40
1.0
 40
1.0
 10
545.9178517833
 20
622.5214566449
 30
0.0
 10
545.9178730906
 20
622.6052127091
 30
0.0
 10
545.9918432753
 20
622.6837005733
 30
0.0
 10
546.064378265
 20
622.7255784196
 30
0.0
  0
SPLINE
  5
515
100
AcDbEntity
  8
0
100
AcDbSpline
 62
7
  6
CONTINUOUS
 70
0
 71
3
 72
8
 73
4
 74
0
 42
0.0000001
 43
0.0000001
 44
0.0000000001
 40
0.0
 40
0.0
 40
0.0
 40
0.0
 40
1.0
 40
1.0
 40
1.0
 40
1.0
 10
425.8556955372
 20
696.2089312224
 30
0.0
 10
425.9925753506
 20
696.287958347
 30
0.0
 10
426.1670029855
 20
696.3073181326
 30
0.0
 10
426.3235871624
 20
696.2858061519
 30
0.0
  0
SPLINE
  5
516
100
AcDbEntity
  8
0
100
AcDbSpline
 62
7
  6
CONTINUOUS
 70
0
 71
3
 72
8
 73
4
 74
0
 42
0.0000001
 43
0.0000001
 44
0.0000000001
 40
0.0
 40
0.0
 40
0.0
 40
0.0
 40
1.0
 40
1.0
 40
1.0
 40
1.0
 10
426.3235871624
 20
696.2858061519
 30
0.0
 10
426.4065623135
 20
696.2744067891
 30
0.0
 10
426.4902683711
 20
696.2508094762
 30
0.0
 10
426.5628023316
 20
696.2089329224
 30
0.0
  0
SPLINE
  5
517
100
AcDbEntity
  8
0
100
AcDbSpline
 62
7
  6
CONTINUOUS
 70
0
 71
3
 72
8
 73
4
 74
0
 42
0.0000001
 43
0.0000001
 44
0.0000000001
 40
0.0
 40
0.0
 40
0.0
 40
0.0
 40
1.0
 40
1.0
 40
1.0
 40
1.0
 10
174.6852460812
 20
836.8478527681
 30
0.0
 10
174.6852673885
 20
836.9316088323
 30
0.0
 10
174.7592375731
 20
837.0100966964
 30
0.0
 10
174.8317725629
 20
837.0519745427
 30
0.0
  0
SPLINE
  5
518
100
AcDbEntity
  8
0
100
AcDbSpline
 62
7
  6
CONTINUOUS
 70
0
 71
3
 72
8
 73
4
 74
0
 42
0.0000001
 43
0.0000001
 44
0.0000000001
 40
0.0
 40
0.0
 40
0.0
 40
0.0
 40
1.0
 40
1.0
 40
1.0
 40
1.0
 10
708.699585596
 20
532.9126294142
 30
0.0
 10
708.8364654094
 20
532.9916565388
 30
0.0
 10
709.0108930443
 20
533.0110163244
 30
0.0
 10
709.1674772212
 20
532.9895043438
 30
0.0
  0
SPLINE
  5
519
100
AcDbEntity
  8
0
100
AcDbSpline
 62
7
  6
CONTINUOUS
 70
0
 71
3
 72
8
 73
4
 74
0
 42
0.0000001
 43
0.0000001
 44
0.0000000001
 40
0.0
 40
0.0
 40
0.0
 40
0.0
 40
1.0
 40
1.0
 40
1.0
 40
1.0
 10
709.1674772212
 20
532.9895043438
 30
0.0
 10
709.2504523723
 20
532.978104981
 30
0.0
 10
709.3341584299
 20
532.954507668
 30
0.0
 10
709.4066923904
 20
532.9126311143
 30
0.0
  0
SPLINE
  5
51A
100
AcDbEntity
  8
0
100
AcDbSpline
 62
7
  6
CONTINUOUS
 70
0
 71
3
 72
8
 73
4
 74
0
 42
0.0000001
 43
0.0000001
 44
0.0000000001
 40
0.0
 40
0.0
 40
0.0
 40
0.0
 40
1.0
 40
1.0
 40
1.0
 40
1.0
 10
438.5836676459
 20
689.2688401032
 30
0.0
 10
438.6562031783
 20
689.226962641
 30
0.0
 10
438.7302183795
 20
689.1484757581
 30
0.0
 10
438.7301970721
 20
689.064719416
 30
0.0
  0
SPLINE
  5
51B
100
AcDbEntity
  8
0
100
AcDbSpline
 62
7
  6
CONTINUOUS
 70
0
 71
3
 72
8
 73
4
 74
0
 42
0.0000001
 43
0.0000001
 44
0.0000000001
 40
0.0
 40
0.0
 40
0.0
 40
0.0
 40
1.0
 40
1.0
 40
1.0
 40
1.0
 10
563.595594912
 20
612.3154377819
 30
0.0
 10
563.5956162193
 20
612.3991938461
 30
0.0
 10
563.669586404
 20
612.4776817103
 30
0.0
 10
563.7421213937
 20
612.5195595566
 30
0.0
  0
SPLINE
  5
51C
100
AcDbEntity
  8
0
100
AcDbSpline
 62
7
  6
CONTINUOUS
 70
0
 71
3
 72
8
 73
4
 74
0
 42
0.0000001
 43
0.0000001
 44
0.0000000001
 40
0.0
 40
0.0
 40
0.0
 40
0.0
 40
1.0
 40
1.0
 40
1.0
 40
1.0
 10
408.1779524085
 20
706.4149500854
 30
0.0
 10
408.3148322219
 20
706.49397721
 30
0.0
 10
408.4892598569
 20
706.5133369956
 30
0.0
 10
408.6458440337
 20
706.4918250149
 30
0.0
  0
SPLINE
  5
51D
100
AcDbEntity
  8
0
100
AcDbSpline
 62
7
  6
CONTINUOUS
 70
0
 71
3
 72
8
 73
4
 74
0
 42
0.0000001
 43
0.0000001
 44
0.0000000001
 40
0.0
 40
0.0
 40
0.0
 40
0.0
 40
1.0
 40
1.0
 40
1.0
 40
1.0
 10
408.6458440337
 20
706.4918250149
 30
0.0
 10
408.7288191848
 20
706.4804256521
 30
0.0
 10
408.8125252424
 20
706.4568283392
 30
0.0
 10
408.8850592029
 20
706.4149517854
 30
0.0
  0
SPLINE
  5
51E
100
AcDbEntity
  8
0
100
AcDbSpline
 62
7
  6
CONTINUOUS
 70
0
 71
3
 72
8
 73
4
 74
0
 42
0.0000001
 43
0.0000001
 44
0.0000000001
 40
0.0
 40
0.0
 40
0.0
 40
0.0
 40
1.0
 40
1.0
 40
1.0
 40
1.0
 10
192.3629892098
 20
826.6418339051
 30
0.0
 10
192.3630105171
 20
826.7255899693
 30
0.0
 10
192.4369807018
 20
826.8040778334
 30
0.0
 10
192.5095156915
 20
826.8459556797
 30
0.0
  0
SPLINE
  5
51F
100
AcDbEntity
  8
0
100
AcDbSpline
 62
7
  6
CONTINUOUS
 70
0
 71
3
 72
8
 73
4
 74
0
 42
0.0000001
 43
0.0000001
 44
0.0000000001
 40
0.0
 40
0.0
 40
0.0
 40
0.0
 40
1.0
 40
1.0
 40
1.0
 40
1.0
 10
581.2733380407
 20
602.1094189189
 30
0.0
 10
581.273359348
 20
602.1931749831
 30
0.0
 10
581.3473295326
 20
602.2716628473
 30
0.0
 10
581.4198645224
 20
602.3135406936
 30
0.0
  0
SPLINE
  5
520
100
AcDbEntity
  8
0
100
AcDbSpline
 62
7
  6
CONTINUOUS
 70
0
 71
3
 72
8
 73
4
 74
0
 42
0.0000001
 43
0.0000001
 44
0.0000000001
 40
0.0
 40
0.0
 40
0.0
 40
0.0
 40
1.0
 40
1.0
 40
1.0
 40
1.0
 10
721.4275577047
 20
525.972538295
 30
0.0
 10
721.500093237
 20
525.9306608328
 30
0.0
 10
721.5741084383
 20
525.85217395
 30
0.0
 10
721.5740871309
 20
525.7684176079
 30
0.0
  0
SPLINE
  5
521
100
AcDbEntity
  8
0
100
AcDbSpline
 62
7
  6
CONTINUOUS
 70
0
 71
3
 72
8
 73
4
 74
0
 42
0.0000001
 43
0.0000001
 44
0.0000000001
 40
0.0
 40
0.0
 40
0.0
 40
0.0
 40
1.0
 40
1.0
 40
1.0
 40
1.0
 10
420.9059245172
 20
699.4748589662
 30
0.0
 10
420.9784600496
 20
699.432981504
 30
0.0
 10
421.0524752508
 20
699.3544946211
 30
0.0
 10
421.0524539435
 20
699.270738279
 30
0.0
  0
SPLINE
  5
522
100
AcDbEntity
  8
0
100
AcDbSpline
 62
7
  6
CONTINUOUS
 70
0
 71
3
 72
8
 73
4
 74
0
 42
0.0000001
 43
0.0000001
 44
0.0000000001
 40
0.0
 40
0.0
 40
0.0
 40
0.0
 40
1.0
 40
1.0
 40
1.0
 40
1.0
 10
390.5002092798
 20
716.6209689484
 30
0.0
 10
390.6370890933
 20
716.699996073
 30
0.0
 10
390.8115167282
 20
716.7193558586
 30
0.0
 10
390.968100905
 20
716.6978438779
 30
0.0
  0
SPLINE
  5
523
100
AcDbEntity
  8
0
100
AcDbSpline
 62
7
  6
CONTINUOUS
 70
0
 71
3
 72
8
 73
4
 74
0
 42
0.0000001
 43
0.0000001
 44
0.0000000001
 40
0.0
 40
0.0
 40
0.0
 40
0.0
 40
1.0
 40
1.0
 40
1.0
 40
1.0
 10
390.968100905
 20
716.6978438779
 30
0.0
 10
391.0510760562
 20
716.6864445151
 30
0.0
 10
391.1347821138
 20
716.6628472022
 30
0.0
 10
391.2073160742
 20
716.6209706484
 30
0.0
  0
SPLINE
  5
524
100
AcDbEntity
  8
0
100
AcDbSpline
 62
7
  6
CONTINUOUS
 70
0
 71
3
 72
8
 73
4
 74
0
 42
0.0000001
 43
0.0000001
 44
0.0000000001
 40
0.0
 40
0.0
 40
0.0
 40
0.0
 40
1.0
 40
1.0
 40
1.0
 40
1.0
 10
691.0218424673
 20
543.1186482773
 30
0.0
 10
691.1587222807
 20
543.1976754019
 30
0.0
 10
691.3331499157
 20
543.2170351874
 30
0.0
 10
691.4897340925
 20
543.1955232068
 30
0.0
  0
SPLINE
  5
525
100
AcDbEntity
  8
0
100
AcDbSpline
 62
7
  6
CONTINUOUS
 70
0
 71
3
 72
8
 73
4
 74
0
 42
0.0000001
 43
0.0000001
 44
0.0000000001
 40
0.0
 40
0.0
 40
0.0
 40
0.0
 40
1.0
 40
1.0
 40
1.0
 40
1.0
 10
691.4897340925
 20
543.1955232068
 30
0.0
 10
691.5727092436
 20
543.184123844
 30
0.0
 10
691.6564153012
 20
543.1605265311
 30
0.0
 10
691.7289492617
 20
543.1186499773
 30
0.0
  0
SPLINE
  5
526
100
AcDbEntity
  8
0
100
AcDbSpline
 62
7
  6
CONTINUOUS
 70
0
 71
3
 72
8
 73
4
 74
0
 42
0.0000001
 43
0.0000001
 44
0.0000000001
 40
0.0
 40
0.0
 40
0.0
 40
0.0
 40
1.0
 40
1.0
 40
1.0
 40
1.0
 10
210.0407323385
 20
816.4358150421
 30
0.0
 10
210.0407536458
 20
816.5195711063
 30
0.0
 10
210.1147238305
 20
816.5980589704
 30
0.0
 10
210.1872588202
 20
816.6399368167
 30
0.0
  0
SPLINE
  5
527
100
AcDbEntity
  8
0
100
AcDbSpline
 62
7
  6
CONTINUOUS
 70
0
 71
3
 72
8
 73
4
 74
0
 42
0.0000001
 43
0.0000001
 44
0.0000000001
 40
0.0
 40
0.0
 40
0.0
 40
0.0
 40
1.0
 40
1.0
 40
1.0
 40
1.0
 10
598.9510811693
 20
591.9034000559
 30
0.0
 10
598.9511024766
 20
591.9871561201
 30
0.0
 10
599.0250726613
 20
592.0656439842
 30
0.0
 10
599.0976076511
 20
592.1075218306
 30
0.0
  0
SPLINE
  5
528
100
AcDbEntity
  8
0
100
AcDbSpline
 62
7
  6
CONTINUOUS
 70
0
 71
3
 72
8
 73
4
 74
0
 42
0.0000001
 43
0.0000001
 44
0.0000000001
 40
0.0
 40
0.0
 40
0.0
 40
0.0
 40
1.0
 40
1.0
 40
1.0
 40
1.0
 10
403.2281813885
 20
709.6808778292
 30
0.0
 10
403.3007169209
 20
709.639000367
 30
0.0
 10
403.3747321222
 20
709.5605134841
 30
0.0
 10
403.3747108148
 20
709.476757142
 30
0.0
  0
SPLINE
  5
529
100
AcDbEntity
  8
0
100
AcDbSpline
 62
7
  6
CONTINUOUS
 70
0
 71
3
 72
8
 73
4
 74
0
 42
0.0000001
 43
0.0000001
 44
0.0000000001
 40
0.0
 40
0.0
 40
0.0
 40
0.0
 40
1.0
 40
1.0
 40
1.0
 40
1.0
 10
372.8224661512
 20
726.8269878114
 30
0.0
 10
372.9593459646
 20
726.906014936
 30
0.0
 10
373.1337735995
 20
726.9253747216
 30
0.0
 10
373.2903577764
 20
726.9038627409
 30
0.0
  0
SPLINE
  5
52A
100
AcDbEntity
  8
0
100
AcDbSpline
 62
7
  6
CONTINUOUS
 70
0
 71
3
 72
8
 73
4
 74
0
 42
0.0000001
 43
0.0000001
 44
0.0000000001
 40
0.0
 40
0.0
 40
0.0
 40
0.0
 40
1.0
 40
1.0
 40
1.0
 40
1.0
 10
373.2903577764
 20
726.9038627409
 30
0.0
 10
373.3733329275
 20
726.8924633781
 30
0.0
 10
373.4570389851
 20
726.8688660652
 30
0.0
 10
373.5295729455
 20
726.8269895114
 30
0.0
  0
SPLINE
  5
52B
100
AcDbEntity
  8
0
100
AcDbSpline
 62
7
  6
CONTINUOUS
 70
0
 71
3
 72
8
 73
4
 74
0
 42
0.0000001
 43
0.0000001
 44
0.0000000001
 40
0.0
 40
0.0
 40
0.0
 40
0.0
 40
1.0
 40
1.0
 40
1.0
 40
1.0
 10
616.628824298
 20
581.6973811929
 30
0.0
 10
616.6288456053
 20
581.7811372571
 30
0.0
 10
616.70281579
 20
581.8596251212
 30
0.0
 10
616.7753507797
 20
581.9015029675
 30
0.0
  0
SPLINE
  5
52C
100
AcDbEntity
  8
0
100
AcDbSpline
 62
7
  6
CONTINUOUS
 70
0
 71
3
 72
8
 73
4
 74
0
 42
0.0000001
 43
0.0000001
 44
0.0000000001
 40
0.0
 40
0.0
 40
0.0
 40
0.0
 40
1.0
 40
1.0
 40
1.0
 40
1.0
 10
703.749814576
 20
536.178557158
 30
0.0
 10
703.8223501084
 20
536.1366796959
 30
0.0
 10
703.8963653096
 20
536.058192813
 30
0.0
 10
703.8963440022
 20
535.9744364709
 30
0.0
  0
SPLINE
  5
52D
100
AcDbEntity
  8
0
100
AcDbSpline
 62
7
  6
CONTINUOUS
 70
0
 71
3
 72
8
 73
4
 74
0
 42
0.0000001
 43
0.0000001
 44
0.0000000001
 40
0.0
 40
0.0
 40
0.0
 40
0.0
 40
1.0
 40
1.0
 40
1.0
 40
1.0
 10
227.7184754672
 20
806.229796179
 30
0.0
 10
227.7184967745
 20
806.3135522433
 30
0.0
 10
227.7924669591
 20
806.3920401074
 30
0.0
 10
227.8650019489
 20
806.4339179537
 30
0.0
  0
SPLINE
  5
52E
100
AcDbEntity
  8
0
100
AcDbSpline
 62
7
  6
CONTINUOUS
 70
0
 71
3
 72
8
 73
4
 74
0
 42
0.0000001
 43
0.0000001
 44
0.0000000001
 40
0.0
 40
0.0
 40
0.0
 40
0.0
 40
1.0
 40
1.0
 40
1.0
 40
1.0
 10
385.5504382598
 20
719.8868966922
 30
0.0
 10
385.6229737922
 20
719.84501923
 30
0.0
 10
385.6969889935
 20
719.7665323471
 30
0.0
 10
385.6969676861
 20
719.682776005
 30
0.0
  0
SPLINE
  5
52F
100
AcDbEntity
  8
0
100
AcDbSpline
 62
7
  6
CONTINUOUS
 70
0
 71
3
 72
8
 73
4
 74
0
 42
0.0000001
 43
0.0000001
 44
0.0000000001
 40
0.0
 40
0.0
 40
0.0
 40
0.0
 40
1.0
 40
1.0
 40
1.0
 40
1.0
 10
355.1447230225
 20
737.0330066744
 30
0.0
 10
355.2816028359
 20
737.112033799
 30
0.0
 10
355.4560304708
 20
737.1313935846
 30
0.0
 10
355.6126146477
 20
737.109881604
 30
0.0
  0
SPLINE
  5
530
100
AcDbEntity
  8
0
100
AcDbSpline
 62
7
  6
CONTINUOUS
 70
0
 71
3
 72
8
 73
4
 74
0
 42
0.0000001
 43
0.0000001
 44
0.0000000001
 40
0.0
 40
0.0
 40
0.0
 40
0.0
 40
1.0
 40
1.0
 40
1.0
 40
1.0
 10
355.6126146477
 20
737.109881604
 30
0.0
 10
355.6955897988
 20
737.0984822411
 30
0.0
 10
355.7792958564
 20
737.0748849282
 30
0.0
 10
355.8518298169
 20
737.0330083744
 30
0.0
  0
SPLINE
  5
531
100
AcDbEntity
  8
0
100
AcDbSpline
 62
7
  6
CONTINUOUS
 70
0
 71
3
 72
8
 73
4
 74
0
 42
0.0000001
 43
0.0000001
 44
0.0000000001
 40
0.0
 40
0.0
 40
0.0
 40
0.0
 40
1.0
 40
1.0
 40
1.0
 40
1.0
 10
673.3440993386
 20
553.3246671403
 30
0.0
 10
673.4809791521
 20
553.4036942649
 30
0.0
 10
673.655406787
 20
553.4230540505
 30
0.0
 10
673.8119909638
 20
553.4015420698
 30
0.0
  0
SPLINE
  5
532
100
AcDbEntity
  8
0
100
AcDbSpline
 62
7
  6
CONTINUOUS
 70
0
 71
3
 72
8
 73
4
 74
0
 42
0.0000001
 43
0.0000001
 44
0.0000000001
 40
0.0
 40
0.0
 40
0.0
 40
0.0
 40
1.0
 40
1.0
 40
1.0
 40
1.0
 10
673.8119909638
 20
553.4015420698
 30
0.0
 10
673.894966115
 20
553.390142707
 30
0.0
 10
673.9786721726
 20
553.3665453941
 30
0.0
 10
674.051206133
 20
553.3246688403
 30
0.0
  0
SPLINE
  5
533
100
AcDbEntity
  8
0
100
AcDbSpline
 62
7
  6
CONTINUOUS
 70
0
 71
3
 72
8
 73
4
 74
0
 42
0.0000001
 43
0.0000001
 44
0.0000000001
 40
0.0
 40
0.0
 40
0.0
 40
0.0
 40
1.0
 40
1.0
 40
1.0
 40
1.0
 10
634.3065674267
 20
571.4913623299
 30
0.0
 10
634.306588734
 20
571.5751183941
 30
0.0
 10
634.3805589187
 20
571.6536062582
 30
0.0
 10
634.4530939084
 20
571.6954841045
 30
0.0
  0
SPLINE
  5
534
100
AcDbEntity
  8
0
100
AcDbSpline
 62
7
  6
CONTINUOUS
 70
0
 71
3
 72
8
 73
4
 74
0
 42
0.0000001
 43
0.0000001
 44
0.0000000001
 40
0.0
 40
0.0
 40
0.0
 40
0.0
 40
1.0
 40
1.0
 40
1.0
 40
1.0
 10
367.8726951312
 20
730.0929155552
 30
0.0
 10
367.9452306636
 20
730.051038093
 30
0.0
 10
368.0192458648
 20
729.9725512102
 30
0.0
 10
368.0192245574
 20
729.888794868
 30
0.0
  0
SPLINE
  5
535
100
AcDbEntity
  8
0
100
AcDbSpline
 62
7
  6
CONTINUOUS
 70
0
 71
3
 72
8
 73
4
 74
0
 42
0.0000001
 43
0.0000001
 44
0.0000000001
 40
0.0
 40
0.0
 40
0.0
 40
0.0
 40
1.0
 40
1.0
 40
1.0
 40
1.0
 10
337.4669798938
 20
747.2390255374
 30
0.0
 10
337.6038597072
 20
747.318052662
 30
0.0
 10
337.7782873422
 20
747.3374124476
 30
0.0
 10
337.934871519
 20
747.315900467
 30
0.0
  0
SPLINE
  5
536
100
AcDbEntity
  8
0
100
AcDbSpline
 62
7
  6
CONTINUOUS
 70
0
 71
3
 72
8
 73
4
 74
0
 42
0.0000001
 43
0.0000001
 44
0.0000000001
 40
0.0
 40
0.0
 40
0.0
 40
0.0
 40
1.0
 40
1.0
 40
1.0
 40
1.0
 10
337.934871519
 20
747.315900467
 30
0.0
 10
338.0178466701
 20
747.3045011041
 30
0.0
 10
338.1015527277
 20
747.2809037912
 30
0.0
 10
338.1740866882
 20
747.2390272374
 30
0.0
  0
SPLINE
  5
537
100
AcDbEntity
  8
0
100
AcDbSpline
 62
7
  6
CONTINUOUS
 70
0
 71
3
 72
8
 73
4
 74
0
 42
0.0000001
 43
0.0000001
 44
0.0000000001
 40
0.0
 40
0.0
 40
0.0
 40
0.0
 40
1.0
 40
1.0
 40
1.0
 40
1.0
 10
651.9843105554
 20
561.2853434669
 30
0.0
 10
651.9843318627
 20
561.3690995311
 30
0.0
 10
652.0583020473
 20
561.4475873952
 30
0.0
 10
652.1308370371
 20
561.4894652415
 30
0.0
  0
SPLINE
  5
538
100
AcDbEntity
  8
0
100
AcDbSpline
 62
7
  6
CONTINUOUS
 70
0
 71
3
 72
8
 73
4
 74
0
 42
0.0000001
 43
0.0000001
 44
0.0000000001
 40
0.0
 40
0.0
 40
0.0
 40
0.0
 40
1.0
 40
1.0
 40
1.0
 40
1.0
 10
245.3962185959
 20
796.023777316
 30
0.0
 10
245.3962399032
 20
796.1075333803
 30
0.0
 10
245.4702100878
 20
796.1860212444
 30
0.0
 10
245.5427450776
 20
796.2278990907
 30
0.0
  0
SPLINE
  5
539
100
AcDbEntity
  8
0
100
AcDbSpline
 62
7
  6
CONTINUOUS
 70
0
 71
3
 72
8
 73
4
 74
0
 42
0.0000001
 43
0.0000001
 44
0.0000000001
 40
0.0
 40
0.0
 40
0.0
 40
0.0
 40
1.0
 40
1.0
 40
1.0
 40
1.0
 10
686.0720714473
 20
546.384576021
 30
0.0
 10
686.1446069797
 20
546.3426985589
 30
0.0
 10
686.2186221809
 20
546.264211676
 30
0.0
 10
686.2186008736
 20
546.1804553339
 30
0.0
  0
SPLINE
  5
53A
100
AcDbEntity
  8
0
100
AcDbSpline
 62
7
  6
CONTINUOUS
 70
0
 71
3
 72
8
 73
4
 74
0
 42
0.0000001
 43
0.0000001
 44
0.0000000001
 40
0.0
 40
0.0
 40
0.0
 40
0.0
 40
1.0
 40
1.0
 40
1.0
 40
1.0
 10
350.1949520025
 20
740.2989344182
 30
0.0
 10
350.2674875349
 20
740.257056956
 30
0.0
 10
350.3415027361
 20
740.1785700732
 30
0.0
 10
350.3414814288
 20
740.094813731
 30
0.0
  0
SPLINE
  5
53B
100
AcDbEntity
  8
0
100
AcDbSpline
 62
7
  6
CONTINUOUS
 70
0
 71
3
 72
8
 73
4
 74
0
 42
0.0000001
 43
0.0000001
 44
0.0000000001
 40
0.0
 40
0.0
 40
0.0
 40
0.0
 40
1.0
 40
1.0
 40
1.0
 40
1.0
 10
319.7892367651
 20
757.4450444004
 30
0.0
 10
319.9261165786
 20
757.524071525
 30
0.0
 10
320.1005442135
 20
757.5434313106
 30
0.0
 10
320.2571283903
 20
757.52191933
 30
0.0
  0
SPLINE
  5
53C
100
AcDbEntity
  8
0
100
AcDbSpline
 62
7
  6
CONTINUOUS
 70
0
 71
3
 72
8
 73
4
 74
0
 42
0.0000001
 43
0.0000001
 44
0.0000000001
 40
0.0
 40
0.0
 40
0.0
 40
0.0
 40
1.0
 40
1.0
 40
1.0
 40
1.0
 10
320.2571283903
 20
757.52191933
 30
0.0
 10
320.3401035415
 20
757.5105199671
 30
0.0
 10
320.4238095991
 20
757.4869226542
 30
0.0
 10
320.4963435595
 20
757.4450461004
 30
0.0
  0
SPLINE
  5
53D
100
AcDbEntity
  8
0
100
AcDbSpline
 62
7
  6
CONTINUOUS
 70
0
 71
3
 72
8
 73
4
 74
0
 42
0.0000001
 43
0.0000001
 44
0.0000000001
 40
0.0
 40
0.0
 40
0.0
 40
0.0
 40
1.0
 40
1.0
 40
1.0
 40
1.0
 10
669.662053684
 20
551.0793246039
 30
0.0
 10
669.6620749913
 20
551.1630806681
 30
0.0
 10
669.736045176
 20
551.2415685322
 30
0.0
 10
669.8085801658
 20
551.2834463785
 30
0.0
  0
SPLINE
  5
53E
100
AcDbEntity
  8
0
100
AcDbSpline
 62
7
  6
CONTINUOUS
 70
0
 71
3
 72
8
 73
4
 74
0
 42
0.0000001
 43
0.0000001
 44
0.0000000001
 40
0.0
 40
0.0
 40
0.0
 40
0.0
 40
1.0
 40
1.0
 40
1.0
 40
1.0
 10
263.0739617245
 20
785.817758453
 30
0.0
 10
263.0739830318
 20
785.9015145173
 30
0.0
 10
263.1479532165
 20
785.9800023814
 30
0.0
 10
263.2204882062
 20
786.0218802277
 30
0.0
  0
SPLINE
  5
53F
100
AcDbEntity
  8
0
100
AcDbSpline
 62
7
  6
CONTINUOUS
 70
0
 71
3
 72
8
 73
4
 74
0
 42
0.0000001
 43
0.0000001
 44
0.0000000001
 40
0.0
 40
0.0
 40
0.0
 40
0.0
 40
1.0
 40
1.0
 40
1.0
 40
1.0
 10
655.66635621
 20
563.5306860033
 30
0.0
 10
655.8032360234
 20
563.6097131279
 30
0.0
 10
655.9776636583
 20
563.6290729135
 30
0.0
 10
656.1342478352
 20
563.6075609328
 30
0.0
  0
SPLINE
  5
540
100
AcDbEntity
  8
0
100
AcDbSpline
 62
7
  6
CONTINUOUS
 70
0
 71
3
 72
8
 73
4
 74
0
 42
0.0000001
 43
0.0000001
 44
0.0000000001
 40
0.0
 40
0.0
 40
0.0
 40
0.0
 40
1.0
 40
1.0
 40
1.0
 40
1.0
 10
656.1342478352
 20
563.6075609328
 30
0.0
 10
656.2172229863
 20
563.59616157
 30
0.0
 10
656.3009290439
 20
563.5725642571
 30
0.0
 10
656.3734630043
 20
563.5306877033
 30
0.0
  0
SPLINE
  5
541
100
AcDbEntity
  8
0
100
AcDbSpline
 62
7
  6
CONTINUOUS
 70
0
 71
3
 72
8
 73
4
 74
0
 42
0.0000001
 43
0.0000001
 44
0.0000000001
 40
0.0
 40
0.0
 40
0.0
 40
0.0
 40
1.0
 40
1.0
 40
1.0
 40
1.0
 10
818.3002729881
 20
451.4284051869
 30
0.0
 10
818.3002729881
 20
451.3576936921
 30
0.0
 10
818.2571139127
 20
451.2238057004
 30
0.0
 10
818.1903127927
 20
451.2469946171
 30
0.0
  0
SPLINE
  5
542
100
AcDbEntity
  8
0
100
AcDbSpline
 62
7
  6
CONTINUOUS
 70
0
 71
3
 72
8
 73
4
 74
0
 42
0.0000001
 43
0.0000001
 44
0.0000000001
 40
0.0
 40
0.0
 40
0.0
 40
0.0
 40
1.0
 40
1.0
 40
1.0
 40
1.0
 10
687.3397968127
 20
540.8733057408
 30
0.0
 10
687.33981812
 20
540.9570618051
 30
0.0
 10
687.4137883047
 20
541.0355496692
 30
0.0
 10
687.4863232944
 20
541.0774275155
 30
0.0
  0
SPLINE
  5
543
100
AcDbEntity
  8
0
100
AcDbSpline
 62
7
  6
CONTINUOUS
 70
0
 71
3
 72
8
 73
4
 74
0
 42
0.0000001
 43
0.0000001
 44
0.0000000001
 40
0.0
 40
0.0
 40
0.0
 40
0.0
 40
1.0
 40
1.0
 40
1.0
 40
1.0
 10
332.5172088738
 20
750.5049532812
 30
0.0
 10
332.5897444062
 20
750.463075819
 30
0.0
 10
332.6637596075
 20
750.3845889362
 30
0.0
 10
332.6637383001
 20
750.3008325941
 30
0.0
  0
SPLINE
  5
544
100
AcDbEntity
  8
0
100
AcDbSpline
 62
7
  6
CONTINUOUS
 70
0
 71
3
 72
8
 73
4
 74
0
 42
0.0000001
 43
0.0000001
 44
0.0000000001
 40
0.0
 40
0.0
 40
0.0
 40
0.0
 40
1.0
 40
1.0
 40
1.0
 40
1.0
 10
302.1114936365
 20
767.6510632634
 30
0.0
 10
302.2483734499
 20
767.730090388
 30
0.0
 10
302.4228010848
 20
767.7494501736
 30
0.0
 10
302.5793852617
 20
767.727938193
 30
0.0
  0
SPLINE
  5
545
100
AcDbEntity
  8
0
100
AcDbSpline
 62
7
  6
CONTINUOUS
 70
0
 71
3
 72
8
 73
4
 74
0
 42
0.0000001
 43
0.0000001
 44
0.0000000001
 40
0.0
 40
0.0
 40
0.0
 40
0.0
 40
1.0
 40
1.0
 40
1.0
 40
1.0
 10
302.5793852617
 20
767.727938193
 30
0.0
 10
302.6623604128
 20
767.7165388302
 30
0.0
 10
302.7460664704
 20
767.6929415172
 30
0.0
 10
302.8186004308
 20
767.6510649634
 30
0.0
  0
SPLINE
  5
546
100
AcDbEntity
  8
0
100
AcDbSpline
 62
7
  6
CONTINUOUS
 70
0
 71
3
 72
8
 73
4
 74
0
 42
0.0000001
 43
0.0000001
 44
0.0000000001
 40
0.0
 40
0.0
 40
0.0
 40
0.0
 40
1.0
 40
1.0
 40
1.0
 40
1.0
 10
668.3943283186
 20
556.5905948841
 30
0.0
 10
668.466863851
 20
556.5487174219
 30
0.0
 10
668.5408790523
 20
556.470230539
 30
0.0
 10
668.5408577449
 20
556.3864741969
 30
0.0
  0
SPLINE
  5
547
100
AcDbEntity
  8
0
100
AcDbSpline
 62
7
  6
CONTINUOUS
 70
0
 71
3
 72
8
 73
4
 74
0
 42
0.0000001
 43
0.0000001
 44
0.0000000001
 40
0.0
 40
0.0
 40
0.0
 40
0.0
 40
1.0
 40
1.0
 40
1.0
 40
1.0
 10
280.7517048532
 20
775.61173959
 30
0.0
 10
280.7517261605
 20
775.6954956542
 30
0.0
 10
280.8256963452
 20
775.7739835184
 30
0.0
 10
280.8982313349
 20
775.8158613647
 30
0.0
  0
SPLINE
  5
548
100
AcDbEntity
  8
0
100
AcDbSpline
 62
7
  6
CONTINUOUS
 70
0
 71
3
 72
8
 73
4
 74
0
 42
0.0000001
 43
0.0000001
 44
0.0000000001
 40
0.0
 40
0.0
 40
0.0
 40
0.0
 40
1.0
 40
1.0
 40
1.0
 40
1.0
 10
705.0175399414
 20
530.6672868778
 30
0.0
 10
705.0175612487
 20
530.7510429421
 30
0.0
 10
705.0915314334
 20
530.8295308062
 30
0.0
 10
705.1640664231
 20
530.8714086525
 30
0.0
  0
SPLINE
  5
549
100
AcDbEntity
  8
0
100
AcDbSpline
 62
7
  6
CONTINUOUS
 70
0
 71
3
 72
8
 73
4
 74
0
 42
0.0000001
 43
0.0000001
 44
0.0000000001
 40
0.0
 40
0.0
 40
0.0
 40
0.0
 40
1.0
 40
1.0
 40
1.0
 40
1.0
 10
314.8394657451
 20
760.7109721442
 30
0.0
 10
314.9120012775
 20
760.669094682
 30
0.0
 10
314.9860164788
 20
760.5906077992
 30
0.0
 10
314.9859951714
 20
760.5068514571
 30
0.0
  0
SPLINE
  5
54A
100
AcDbEntity
  8
0
100
AcDbSpline
 62
7
  6
CONTINUOUS
 70
0
 71
3
 72
8
 73
4
 74
0
 42
0.0000001
 43
0.0000001
 44
0.0000000001
 40
0.0
 40
0.0
 40
0.0
 40
0.0
 40
1.0
 40
1.0
 40
1.0
 40
1.0
 10
284.4337505078
 20
777.8570821264
 30
0.0
 10
284.5706303212
 20
777.936109251
 30
0.0
 10
284.7450579561
 20
777.9554690366
 30
0.0
 10
284.901642133
 20
777.933957056
 30
0.0
  0
SPLINE
  5
54B
100
AcDbEntity
  8
0
100
AcDbSpline
 62
7
  6
CONTINUOUS
 70
0
 71
3
 72
8
 73
4
 74
0
 42
0.0000001
 43
0.0000001
 44
0.0000000001
 40
0.0
 40
0.0
 40
0.0
 40
0.0
 40
1.0
 40
1.0
 40
1.0
 40
1.0
 10
284.901642133
 20
777.933957056
 30
0.0
 10
284.9846172841
 20
777.9225576932
 30
0.0
 10
285.0683233417
 20
777.8989603802
 30
0.0
 10
285.1408573022
 20
777.8570838264
 30
0.0
  0
SPLINE
  5
54C
100
AcDbEntity
  8
0
100
AcDbSpline
 62
7
  6
CONTINUOUS
 70
0
 71
3
 72
8
 73
4
 74
0
 42
0.0000001
 43
0.0000001
 44
0.0000000001
 40
0.0
 40
0.0
 40
0.0
 40
0.0
 40
1.0
 40
1.0
 40
1.0
 40
1.0
 10
637.9886130813
 20
573.7367048663
 30
0.0
 10
638.1254928947
 20
573.8157319909
 30
0.0
 10
638.2999205296
 20
573.8350917765
 30
0.0
 10
638.4565047065
 20
573.8135797958
 30
0.0
  0
SPLINE
  5
54D
100
AcDbEntity
  8
0
100
AcDbSpline
 62
7
  6
CONTINUOUS
 70
0
 71
3
 72
8
 73
4
 74
0
 42
0.0000001
 43
0.0000001
 44
0.0000000001
 40
0.0
 40
0.0
 40
0.0
 40
0.0
 40
1.0
 40
1.0
 40
1.0
 40
1.0
 10
638.4565047065
 20
573.8135797958
 30
0.0
 10
638.5394798576
 20
573.802180433
 30
0.0
 10
638.6231859152
 20
573.7785831201
 30
0.0
 10
638.6957198757
 20
573.7367065663
 30
0.0
  0
SPLINE
  5
54E
100
AcDbEntity
  8
0
100
AcDbSpline
 62
7
  6
CONTINUOUS
 70
0
 71
3
 72
8
 73
4
 74
0
 42
0.0000001
 43
0.0000001
 44
0.0000000001
 40
0.0
 40
0.0
 40
0.0
 40
0.0
 40
1.0
 40
1.0
 40
1.0
 40
1.0
 10
722.6952830701
 20
520.4612680148
 30
0.0
 10
722.6953043774
 20
520.5450240791
 30
0.0
 10
722.769274562
 20
520.6235119432
 30
0.0
 10
722.8418095518
 20
520.6653897895
 30
0.0
  0
SPLINE
  5
54F
100
AcDbEntity
  8
0
100
AcDbSpline
 62
7
  6
CONTINUOUS
 70
0
 71
3
 72
8
 73
4
 74
0
 42
0.0000001
 43
0.0000001
 44
0.0000000001
 40
0.0
 40
0.0
 40
0.0
 40
0.0
 40
1.0
 40
1.0
 40
1.0
 40
1.0
 10
814.766044368
 20
471.6765162362
 30
0.0
 10
814.9029241815
 20
471.7555433608
 30
0.0
 10
815.0773518164
 20
471.7749031464
 30
0.0
 10
815.2339359932
 20
471.7533911658
 30
0.0
  0
SPLINE
  5
550
100
AcDbEntity
  8
0
100
AcDbSpline
 62
7
  6
CONTINUOUS
 70
0
 71
3
 72
8
 73
4
 74
0
 42
0.0000001
 43
0.0000001
 44
0.0000000001
 40
0.0
 40
0.0
 40
0.0
 40
0.0
 40
1.0
 40
1.0
 40
1.0
 40
1.0
 10
815.2339359932
 20
471.7533911658
 30
0.0
 10
815.3169111443
 20
471.7419918029
 30
0.0
 10
815.400617202
 20
471.71839449
 30
0.0
 10
815.4731511624
 20
471.6765179362
 30
0.0
  0
SPLINE
  5
551
100
AcDbEntity
  8
0
100
AcDbSpline
 62
7
  6
CONTINUOUS
 70
0
 71
3
 72
8
 73
4
 74
0
 42
0.0000001
 43
0.0000001
 44
0.0000000001
 40
0.0
 40
0.0
 40
0.0
 40
0.0
 40
1.0
 40
1.0
 40
1.0
 40
1.0
 10
298.4294479819
 20
765.405720727
 30
0.0
 10
298.4294692892
 20
765.4894767912
 30
0.0
 10
298.5034394738
 20
765.5679646554
 30
0.0
 10
298.5759744636
 20
765.6098425017
 30
0.0
  0
ENDSEC
  0
SECTION
  2
OBJECTS
  0
DICTIONARY
  5
C
100
AcDbDictionary
280
0
281
1
  3
ACAD_GROUP
350
D
  3
ACAD_MLINESTYLE
350
17
  3
ACAD_LAYOUT
350
1A
  3
ACAD_PLOTSETTINGS
350
19
  3
ACAD_PLOTSTYLENAME
350
E
  0
DICTIONARY
  5
D
102
{ACAD_REACTORS
330
C
102
}
100
AcDbDictionary
280
0
281
1
  0
ACDBDICTIONARYWDFLT
  5
E
102
{ACAD_REACTORS
330
C
102
}
100
AcDbDictionary
281
1
  3
Normal
350
F
100
AcDbDictionaryWithDefault
340
F
  0
DICTIONARY
  5
17
102
{ACAD_REACTORS
330
C
102
}
100
AcDbDictionary
280
0
281
1
  3
Standard
350
18
  0
DICTIONARY
  5
19
102
{ACAD_REACTORS
330
C
102
}
100
AcDbDictionary
281
1
  0
DICTIONARY
  5
1A
102
{ACAD_REACTORS
330
C
102
}
100
AcDbDictionary
281
1
  3
Model
350
552
  3
Layout1
350
553
  0
ACDBPLACEHOLDER
  5
F
102
{ACAD_REACTORS
330
E
102
}
  0
MLINESTYLE
  5
18
102
{ACAD_REACTORS
330
17
102
}
100
AcDbMlineStyle
  2
STANDARD
 70
0
  3

 62
256
 51
90.0
 52
90.0
 71
2
 49
0.5
 62
256
  6
BYLAYER
 49
-0.5
 62
256
  6
BYLAYER
  0
LAYOUT
  5
552
102
{ACAD_REACTORS
330
1A
102
}
100
AcDbPlotSettings
  1

  2
none_device
  4

  6

 40
0.0
 41
0.0
 42
0.0
 43
0.0
 44
210.0
 45
297.0
 46
0.0
 47
0.0
 48
0.0
 49
0.0
140
0.0
141
0.0
142
1.0
143
1.0
 70
1024
 72
1
 73
0
 74
0
  7

 75
0
147
1.0
148
0.0
149
0.0
100
AcDbLayout
  1
Model
 70
0
 71
0
 10
0.0
 20
0.0
 11
210.0
 21
297.0
 12
0.0
 22
0.0
 32
0.0
 14
0.0
 24
0.0
 34
0.0
 15
0.0
 25
0.0
 35
0.0
146
0.0
 13
0.0
 23
0.0
 33
0.0
 16
1.0
 26
0.0
 36
0.0
 17
0.0
 27
1.0
 37
0.0
 76
0
330
211
345
0
346
0
  0
LAYOUT
  5
553
102
{ACAD_REACTORS
330
1A
102
}
100
AcDbPlotSettings
  1

  2
none_device
  4

  6

 40
0.0
 41
0.0
 42
0.0
 43
0.0
 44
210.0
 45
297.0
 46
0.0
 47
0.0
 48
0.0
 49
0.0
140
0.0
141
0.0
142
1.0
143
1.0
 70
0
 72
1
 73
0
 74
0
  7

 75
0
147
1.0
148
0.0
149
0.0
100
AcDbLayout
  1
Layout1
 70
0
 71
1
 10
0.0
 20
0.0
 11
210.0
 21
297.0
 12
0.0
 22
0.0
 32
0.0
 14
0.0
 24
0.0
 34
0.0
 15
0.0
 25
0.0
 35
0.0
146
0.0
 13
0.0
 23
0.0
 33
0.0
 16
1.0
 26
0.0
 36
0.0
 17
0.0
 27
1.0
 37
0.0
 76
0
330
212
345
0
346
0
  0
ENDSEC
  0
EOF
