999
DXF file: C:\Users\sesa63760\Dev\_Creo\CAD\MCADUE0001469_3D-CAD\drw0001_7.dxf
999
Pro/ENGINEER 2019471 by Parametric Technology Corporation
  0
SECTION
  2
HEADER
  9
$ACADVER
  1
AC1024
  9
$DWGCODEPAGE
  3
ANSI_1252
  9
$EXTMAX
 10
126406.1689316126
 20
178774.4389175664
 30
0.0
  9
$EXTMIN
 10
0.0
 20
0.0
 30
0.0
  9
$LIMMIN
 10
0.0
 20
0.0
  9
$LIMMAX
 10
126406.1689316126
 20
178774.4389175664
  9
$VIEWCTR
 10
63203.0844658063
 20
89387.2194587832
  9
$VIEWSIZE
 40
178774.4389175664
  9
$CLAYER
  8
0
  9
$LTSCALE
 40
11653.4449072191
  9
$CELTYPE
  6
BYLAYER
  9
$DIMSCALE
 40
1.0
  9
$DIMASZ
 40
1504.835344424
  9
$DIMEXO
 40
1.0
  9
$DIMDLI
 40
8051.471026806
  9
$DIMEXE
 40
1.0
  9
$DIMCEN
 40
1906.927348454
  9
$DIMLFAC
 40
1.0
  9
$DIMBLK
  1
_FILLED
  9
$DIMALT
 70
0
  9
$DIMALTF
 40
0.0393700787
  9
$DIMTXT
 40
2106.7694821935
  9
$DIMTOL
 70
1
  9
$DIMLIM
 70
0
  9
$DIMTFAC
 40
1.0
  9
$DIMTP
 40
0.01
  9
$DIMTM
 40
0.01
  9
$DIMGAP
 40
0.625
  9
$DIMDSEP
 70
46
  9
$AUNITS
 70
0
  9
$PDMODE
 70
3
  9
$PDSIZE
 40
0.3125
  9
$HANDSEED
  5
322
  9
$TILEMODE
 70
1
  9
$MEASUREMENT
 70
1
  9
$INSUNITS
 70
4
  0
ENDSEC
  0
SECTION
  2
CLASSES
  0
CLASS
  1
ACDBDICTIONARYWDFLT
  2
AcDbDictionaryWithDefault
  3
AutoCAD 2000
 90
0
 91
1
280
0
281
0
  0
CLASS
  1
ACDBPLACEHOLDER
  2
AcDbPlaceHolder
  3
AutoCAD 2000
 90
0
 91
1
280
0
281
0
  0
CLASS
  1
LAYOUT
  2
AcDbLayout
  3
AutoCAD 2000
 90
0
 91
0
280
0
281
0
  0
ENDSEC
  0
SECTION
  2
TABLES
  0
TABLE
  2
VPORT
  5
8
100
AcDbSymbolTable
 70
2
  0
VPORT
  5
1F4
100
AcDbSymbolTableRecord
100
AcDbViewportTableRecord
  2
*ACTIVE
 70
0
 10
0.0
 20
0.0
 11
1.0
 21
1.0
 12
63203.0844658063
 22
89387.2194587832
 13
0.0
 23
0.0
 14
1.0
 24
1.0
 15
0.0
 25
0.0
 16
0.0
 26
0.0
 36
1.0
 17
0.0
 27
0.0
 37
0.0
 40
178774.4389175664
 41
0.7070707071
 42
50.0
 43
0.0
 44
0.0
 50
0.0
 51
0.0
 71
0
 72
100
 73
1
 74
1
 75
0
 76
0
 77
0
 78
0
  0
ENDTAB
  0
TABLE
  2
LTYPE
  5
5
100
AcDbSymbolTable
 70
6
  0
LTYPE
  5
14
100
AcDbSymbolTableRecord
100
AcDbLinetypeTableRecord
  2
BYBLOCK
 70
0
  3

 72
65
 73
0
 40
0.0
  0
LTYPE
  5
15
100
AcDbSymbolTableRecord
100
AcDbLinetypeTableRecord
  2
BYLAYER
 70
0
  3

 72
65
 73
0
 40
0.0
  0
LTYPE
  5
16
100
AcDbSymbolTableRecord
100
AcDbLinetypeTableRecord
  2
CONTINUOUS
 70
64
  3
Solid line
 72
65
 73
0
 40
0.0
  0
LTYPE
  5
1F5
100
AcDbSymbolTableRecord
100
AcDbLinetypeTableRecord
  2
CENTER
 70
64
  3
____ _ ____ _ ____ _ ____ _ ____ _ ____ _ ____
 72
65
 73
4
 40
0.6
 49
0.375
 74
0
 49
-0.075
 74
0
 49
0.075
 74
0
 49
-0.075
 74
0
  0
LTYPE
  5
1F6
100
AcDbSymbolTableRecord
100
AcDbLinetypeTableRecord
  2
HIDDEN
 70
64
  3
- - - - - - - - - - - - - - - - - - - -
 72
65
 73
2
 40
0.2
 49
0.1
 74
0
 49
-0.1
 74
0
  0
LTYPE
  5
1F7
100
AcDbSymbolTableRecord
100
AcDbLinetypeTableRecord
  2
PHANTOM
 70
64
  3
_____ _ _ _____ _ _ _____ _ _ _____
 72
65
 73
6
 40
0.8
 49
0.45
 74
0
 49
-0.05
 74
0
 49
0.1
 74
0
 49
-0.05
 74
0
 49
0.1
 74
0
 49
-0.05
 74
0
  0
LTYPE
  5
1F8
100
AcDbSymbolTableRecord
100
AcDbLinetypeTableRecord
  2
DOT
 70
64
  3
. . . . . . . . . . . . . . . . . . . .
 72
65
 73
2
 40
0.2
 49
0.1
 74
0
 49
-0.1
 74
0
  0
LTYPE
  5
1F9
100
AcDbSymbolTableRecord
100
AcDbLinetypeTableRecord
  2
DASHED
 70
64
  3
- - - - - - - - - - - - - - - - - - - -
 72
65
 73
2
 40
0.2
 49
0.1
 74
0
 49
-0.1
 74
0
  0
ENDTAB
  0
TABLE
  2
LAYER
  5
2
100
AcDbSymbolTable
 70
36
  0
LAYER
  5
10
100
AcDbSymbolTableRecord
100
AcDbLayerTableRecord
  2
0
 70
0
 62
7
  6
CONTINUOUS
370
-3
390
F
  0
LAYER
  5
1FA
100
AcDbSymbolTableRecord
100
AcDbLayerTableRecord
  2
DEFAULT_1
 70
0
 62
7
  6
CENTER
370
-3
390
F
  0
LAYER
  5
1FB
100
AcDbSymbolTableRecord
100
AcDbLayerTableRecord
  2
DEFAULT_2
 70
0
 62
8
  6
HIDDEN
370
-3
390
F
  0
LAYER
  5
1FC
100
AcDbSymbolTableRecord
100
AcDbLayerTableRecord
  2
DEFAULT_3
 70
0
 62
7
  6
PHANTOM
370
-3
390
F
  0
LAYER
  5
1FD
100
AcDbSymbolTableRecord
100
AcDbLayerTableRecord
  2
00_COMPONENTS
 70
0
 62
7
  6
CONTINUOUS
370
-3
390
F
  0
LAYER
  5
1FE
100
AcDbSymbolTableRecord
100
AcDbLayerTableRecord
  2
01_1_DEFAULT_DATUMS
 70
0
 62
7
  6
CONTINUOUS
370
-3
390
F
  0
LAYER
  5
1FF
100
AcDbSymbolTableRecord
100
AcDbLayerTableRecord
  2
01_PLANES
 70
0
 62
7
  6
CONTINUOUS
370
-3
390
F
  0
LAYER
  5
200
100
AcDbSymbolTableRecord
100
AcDbLayerTableRecord
  2
02_COORD_SYS
 70
0
 62
7
  6
CONTINUOUS
370
-3
390
F
  0
LAYER
  5
201
100
AcDbSymbolTableRecord
100
AcDbLayerTableRecord
  2
03_AXES
 70
0
 62
7
  6
CONTINUOUS
370
-3
390
F
  0
LAYER
  5
202
100
AcDbSymbolTableRecord
100
AcDbLayerTableRecord
  2
04_POINTS
 70
0
 62
7
  6
CONTINUOUS
370
-3
390
F
  0
LAYER
  5
203
100
AcDbSymbolTableRecord
100
AcDbLayerTableRecord
  2
05_CURVES
 70
0
 62
7
  6
CONTINUOUS
370
-3
390
F
  0
LAYER
  5
204
100
AcDbSymbolTableRecord
100
AcDbLayerTableRecord
  2
06_SURFS
 70
0
 62
7
  6
CONTINUOUS
370
-3
390
F
  0
LAYER
  5
205
100
AcDbSymbolTableRecord
100
AcDbLayerTableRecord
  2
07_COSMETICS
 70
0
 62
7
  6
CONTINUOUS
370
-3
390
F
  0
LAYER
  5
206
100
AcDbSymbolTableRecord
100
AcDbLayerTableRecord
  2
10_NOTES
 70
0
 62
7
  6
CONTINUOUS
370
-3
390
F
  0
LAYER
  5
207
100
AcDbSymbolTableRecord
100
AcDbLayerTableRecord
  2
11_NOTES_PUB
 70
0
 62
7
  6
CONTINUOUS
370
-3
390
F
  0
LAYER
  5
208
100
AcDbSymbolTableRecord
100
AcDbLayerTableRecord
  2
13_REF_GTOL
 70
0
 62
7
  6
CONTINUOUS
370
-3
390
F
  0
LAYER
  5
209
100
AcDbSymbolTableRecord
100
AcDbLayerTableRecord
  2
16_MISC
 70
0
 62
7
  6
CONTINUOUS
370
-3
390
F
  0
LAYER
  5
20A
100
AcDbSymbolTableRecord
100
AcDbLayerTableRecord
  2
17_NO_PRINT
 70
0
 62
7
  6
CONTINUOUS
370
-3
390
F
  0
LAYER
  5
20B
100
AcDbSymbolTableRecord
100
AcDbLayerTableRecord
  2
18_DATUM_CAMS_JOINTS
 70
0
 62
7
  6
CONTINUOUS
370
-3
390
F
  0
LAYER
  5
20C
100
AcDbSymbolTableRecord
100
AcDbLayerTableRecord
  2
19_DATUM_FUNCTIONAL
 70
0
 62
7
  6
CONTINUOUS
370
-3
390
F
  0
LAYER
  5
20D
100
AcDbSymbolTableRecord
100
AcDbLayerTableRecord
  2
20_DATUM_KINEMATIC_SCHEME
 70
0
 62
7
  6
CONTINUOUS
370
-3
390
F
  0
ENDTAB
  0
TABLE
  2
STYLE
  5
3
100
AcDbSymbolTable
 70
1
  0
STYLE
  5
11
100
AcDbSymbolTableRecord
100
AcDbTextStyleTableRecord
  2
STANDARD
 70
0
 40
0.0
 41
0.8
 50
0.0
 71
0
 42
0.2
  3
txt
  4

  0
STYLE
  5
20E
100
AcDbSymbolTableRecord
100
AcDbTextStyleTableRecord
  2
TEXTSTYLE_1
 70
0
 40
0.0
 41
0.8
 50
0.0
 71
0
 42
0.2
  3
gdt
  4

  0
ENDTAB
  0
TABLE
  2
VIEW
  5
6
100
AcDbSymbolTable
 70
0
  0
ENDTAB
  0
TABLE
  2
UCS
  5
7
100
AcDbSymbolTable
 70
0
  0
ENDTAB
  0
TABLE
  2
APPID
  5
9
100
AcDbSymbolTable
 70
1
  0
APPID
  5
20F
100
AcDbSymbolTableRecord
100
AcDbRegAppTableRecord
  2
ACAD
 70
0
  0
ENDTAB
  0
TABLE
  2
BLOCK_RECORD
  5
1
100
AcDbSymbolTable
 70
0
  0
BLOCK_RECORD
  5
210
100
AcDbSymbolTableRecord
100
AcDbBlockTableRecord
  2
*Model_Space
  0
BLOCK_RECORD
  5
211
100
AcDbSymbolTableRecord
100
AcDbBlockTableRecord
  2
*Paper_Space
  0
BLOCK_RECORD
  5
212
100
AcDbSymbolTableRecord
100
AcDbBlockTableRecord
  2
_FILLED
  0
ENDTAB
  0
TABLE
  2
DIMSTYLE
  5
A
100
AcDbSymbolTable
 70
1
100
AcDbDimStyleTable
 71
0
  0
DIMSTYLE
105
213
100
AcDbSymbolTableRecord
100
AcDbDimStyleTableRecord
  2
STANDARD
 70
0
  3

  4

 40
1.0
 41
1504.835344424
 42
1.0
 43
0.38
 44
1.0
 45
0.0
 46
0.0
 47
0.01
 48
0.01
140
2106.7694821935
141
0.09
142
0.0
143
25.4
144
1.0
145
0.0
146
1.0
147
0.625
 71
1
 72
0
 73
0
 74
0
 75
0
 76
0
 77
1
 78
8
 79
2
170
0
171
1
172
0
173
0
174
0
175
0
176
0
177
0
178
0
270
2
179
2
271
2
272
2
273
2
274
2
275
0
280
0
281
0
282
0
283
1
284
8
285
0
286
0
287
3
288
0
340
11
278
46
341
212
342
212
343
212
344
212
  0
ENDTAB
  0
ENDSEC
  0
SECTION
  2
BLOCKS
  0
BLOCK
  5
20
100
AcDbEntity
  8
0
100
AcDbBlockBegin
  2
*Model_Space
 70
0
 10
0.0
 20
0.0
 30
0.0
  3
*Model_Space
  1

  0
ENDBLK
  5
21
100
AcDbEntity
  8
0
100
AcDbBlockEnd
  0
BLOCK
  5
1C
100
AcDbEntity
  8
0
100
AcDbBlockBegin
  2
*Paper_Space
 70
0
 10
0.0
 20
0.0
 30
0.0
  3
*Paper_Space
  1

  0
ENDBLK
  5
1D
100
AcDbEntity
  8
0
100
AcDbBlockEnd
  0
BLOCK
  5
214
100
AcDbEntity
  8
0
100
AcDbBlockBegin
  2
_FILLED
 70
64
 10
0.0
 20
0.0
  3
_FILLED
  1

  0
SOLID
  5
215
100
AcDbEntity
  8
0
  6
BYBLOCK
 62
0
100
AcDbTrace
 10
0.0
 20
0.0
 11
-1.0
 21
0.25
 12
-1.0
 22
-0.25
 13
-1.0
 23
-0.25
  0
ENDBLK
  5
216
100
AcDbEntity
  8
0
  6
BYBLOCK
 62
0
100
AcDbBlockEnd
  0
ENDSEC
  0
SECTION
  2
ENTITIES
  0
LINE
  5
217
100
AcDbEntity
  8
0
100
AcDbLine
 62
7
  6
CONTINUOUS
 10
13421.9526284961
 20
102231.2557841627
 11
13421.9526284961
 21
77417.2557841629
  0
LINE
  5
218
100
AcDbEntity
  8
0
100
AcDbLine
 62
7
  6
CONTINUOUS
 10
17641.9528777306
 20
74974.8550524058
 11
17598.9528673469
 21
75801.8550518659
  0
LINE
  5
219
100
AcDbEntity
  8
0
100
AcDbLine
 62
7
  6
CONTINUOUS
 10
17597.4239411303
 20
75825.7412774553
 11
17598.4036552246
 21
75806.8273525804
  0
LINE
  5
21A
100
AcDbEntity
  8
0
100
AcDbLine
 62
7
  6
CONTINUOUS
 10
17573.5933858302
 20
76285.8033867238
 11
17571.7588640865
 21
76321.2198481646
  0
LINE
  5
21B
100
AcDbEntity
  8
0
100
AcDbLine
 62
7
  6
CONTINUOUS
 10
17071.9528666074
 20
75860.9464498389
 11
17071.9526284961
 21
76750.2557841628
  0
LINE
  5
21C
100
AcDbEntity
  8
0
100
AcDbLine
 62
7
  6
CONTINUOUS
 10
17071.9528554313
 20
102898.2565230767
 11
17071.9526284961
 21
103788.7847764217
  0
LINE
  5
21D
100
AcDbEntity
  8
0
100
AcDbLine
 62
7
  6
CONTINUOUS
 10
17471.9528614965
 20
76267.807184161
 11
17471.9528607802
 21
76324.8557841628
  0
LINE
  5
21E
100
AcDbEntity
  8
0
100
AcDbLine
 62
7
  6
CONTINUOUS
 10
17471.952628496
 20
102974.8557841628
 11
17471.952628496
 21
103381.904425419
  0
LINE
  5
21F
100
AcDbEntity
  8
0
100
AcDbLine
 62
7
  6
CONTINUOUS
 10
17921.9528777305
 20
74974.8550559214
 11
17921.9528774192
 21
74999.6503184157
  0
LINE
  5
220
100
AcDbEntity
  8
0
100
AcDbLine
 62
7
  6
CONTINUOUS
 10
17921.952628496
 20
104650.0612472618
 11
17921.952628496
 21
104674.8557841628
  0
LINE
  5
221
100
AcDbEntity
  8
0
100
AcDbLine
 62
7
  6
CONTINUOUS
 10
17598.4720902943
 20
103844.205392786
 11
17597.4239411303
 21
103823.9702908702
  0
LINE
  5
222
100
AcDbEntity
  8
0
100
AcDbLine
 62
7
  6
CONTINUOUS
 10
17553.2229756985
 20
102970.6460971135
 11
17573.5933858302
 21
103363.9081816018
  0
LINE
  5
223
100
AcDbEntity
  8
0
100
AcDbLine
 62
7
  6
CONTINUOUS
 10
17598.9526284962
 20
103847.8557841629
 11
17641.9526284961
 21
104674.8557841628
  0
LINE
  5
224
100
AcDbEntity
  8
0
100
AcDbLine
 62
7
  6
CONTINUOUS
 10
19146.9526284961
 20
75001.8557841628
 11
19146.9526284961
 21
76666.6696589819
  0
LINE
  5
225
100
AcDbEntity
  8
0
100
AcDbLine
 62
7
  6
CONTINUOUS
 10
19146.9526284961
 20
102984.2833918395
 11
19146.9526284961
 21
104648.8557841629
  0
LWPOLYLINE
  5
226
100
AcDbEntity
  8
0
100
AcDbPolyline
 62
7
  6
CONTINUOUS
 90
10
 70
0
 10
19154.0629658884
 20
76325.5434383103
 10
19138.5089389658
 20
76342.3837127607
 10
19129.0442049297
 20
76373.1325513731
 10
19124.9123349701
 20
76393.4954786603
 10
19120.2875804555
 20
76421.2733953926
 10
19117.7599640783
 20
76438.6723282772
 10
19112.2117841543
 20
76482.3236014803
 10
19105.9188760392
 20
76540.8346198099
 10
19098.7702535887
 20
76618.7348713123
 10
19094.8391028159
 20
76666.6696589819
  0
LINE
  5
227
100
AcDbEntity
  8
0
100
AcDbLine
 62
7
  6
CONTINUOUS
 10
109771.8524015609
 20
76750.8550452489
 11
112221.8567720446
 21
77182.8557841628
  0
LINE
  5
228
100
AcDbEntity
  8
0
100
AcDbLine
 62
7
  6
CONTINUOUS
 10
14622.0950417987
 20
77183.0639578126
 11
17071.9526284961
 21
76750.2557841628
  0
LINE
  5
229
100
AcDbEntity
  8
0
100
AcDbLine
 62
7
  6
CONTINUOUS
 10
67071.8528623872
 20
76196.9842416752
 11
67573.4933858302
 21
76285.8033867238
  0
LINE
  5
22A
100
AcDbEntity
  8
0
100
AcDbLine
 62
7
  6
CONTINUOUS
 10
59270.5251592213
 20
75803.6450952078
 11
59882.2526284957
 21
75846.9557841627
  0
LINE
  5
22B
100
AcDbEntity
  8
0
100
AcDbLine
 62
7
  6
CONTINUOUS
 10
109578.944939112
 20
75836.8590597008
 11
109268.8526284962
 21
75825.8557841628
  0
LINE
  5
22C
100
AcDbEntity
  8
0
100
AcDbLine
 62
7
  6
CONTINUOUS
 10
59268.9526284962
 20
75825.8557841628
 11
59579.044939112
 21
75836.8590597008
  0
LINE
  5
22D
100
AcDbEntity
  8
0
100
AcDbLine
 62
7
  6
CONTINUOUS
 10
112221.8745511694
 20
77182.8557841627
 11
113228.852628494
 21
77217.8557841628
  0
LINE
  5
22E
100
AcDbEntity
  8
0
100
AcDbLine
 62
7
  6
CONTINUOUS
 10
109771.8526284961
 20
75843.7253223798
 11
109588.9528100944
 21
75837.4656494505
  0
LINE
  5
22F
100
AcDbEntity
  8
0
100
AcDbLine
 62
7
  6
CONTINUOUS
 10
109246.3813158618
 20
75825.7412774553
 11
109271.3704739344
 21
75826.596521368
  0
LINE
  5
230
100
AcDbEntity
  8
0
100
AcDbLine
 62
7
  6
CONTINUOUS
 10
59771.9526284961
 20
75843.7253223798
 11
59589.0528100944
 21
75837.4656494505
  0
LINE
  5
231
100
AcDbEntity
  8
0
100
AcDbLine
 62
7
  6
CONTINUOUS
 10
59246.4813158619
 20
75825.7412774553
 11
59271.4704739344
 21
75826.596521368
  0
LINE
  5
232
100
AcDbEntity
  8
0
100
AcDbLine
 62
7
  6
CONTINUOUS
 10
67641.8528777305
 20
74974.8550524058
 11
67921.8528777304
 21
74974.8550559214
  0
LINE
  5
233
100
AcDbEntity
  8
0
100
AcDbLine
 62
7
  6
CONTINUOUS
 10
17641.9528777306
 20
74974.8550524058
 11
17921.9528777305
 21
74974.8550559214
  0
LINE
  5
234
100
AcDbEntity
  8
0
100
AcDbLine
 62
7
  6
CONTINUOUS
 10
58921.9526284962
 20
74974.8557841628
 11
59201.952628496
 21
74974.8557841628
  0
LINE
  5
235
100
AcDbEntity
  8
0
100
AcDbLine
 62
7
  6
CONTINUOUS
 10
108921.8526284962
 20
74974.8557841628
 11
109201.852628496
 21
74974.8557841628
  0
LINE
  5
236
100
AcDbEntity
  8
0
100
AcDbLine
 62
7
  6
CONTINUOUS
 10
19146.9526284961
 20
75001.8557841628
 11
57696.9526284961
 21
75001.8557841628
  0
LINE
  5
237
100
AcDbEntity
  8
0
100
AcDbLine
 62
7
  6
CONTINUOUS
 10
69146.8526284961
 20
75001.8557841628
 11
107696.8526284961
 21
75001.8557841628
  0
LINE
  5
238
100
AcDbEntity
  8
0
100
AcDbLine
 62
7
  6
CONTINUOUS
 10
109203.7463300487
 20
75002.6491902291
 11
107696.8526284961
 21
75002.6491902291
  0
LINE
  5
239
100
AcDbEntity
  8
0
100
AcDbLine
 62
7
  6
CONTINUOUS
 10
69146.8526284961
 20
75002.6491902291
 11
67639.9589269434
 21
75002.6491902291
  0
LINE
  5
23A
100
AcDbEntity
  8
0
100
AcDbLine
 62
7
  6
CONTINUOUS
 10
59203.8463300488
 20
75002.6491902291
 11
57696.9526284961
 21
75002.6491902291
  0
LINE
  5
23B
100
AcDbEntity
  8
0
100
AcDbLine
 62
7
  6
CONTINUOUS
 10
19146.9526284961
 20
75002.6491902291
 11
17640.0589269434
 21
75002.6491902291
  0
LINE
  5
23C
100
AcDbEntity
  8
0
100
AcDbLine
 62
7
  6
CONTINUOUS
 10
19146.9526284961
 20
75825.4143543695
 11
57696.9526284961
 21
75825.4143543695
  0
LINE
  5
23D
100
AcDbEntity
  8
0
100
AcDbLine
 62
7
  6
CONTINUOUS
 10
69146.8526284961
 20
75825.4143543695
 11
107696.8526284961
 21
75825.4143543695
  0
LINE
  5
23E
100
AcDbEntity
  8
0
100
AcDbLine
 62
7
  6
CONTINUOUS
 10
109246.3813158618
 20
75825.7412774554
 11
107696.8526284961
 21
75825.7412774554
  0
LINE
  5
23F
100
AcDbEntity
  8
0
100
AcDbLine
 62
7
  6
CONTINUOUS
 10
69146.8526284961
 20
75825.7412774554
 11
67597.3239411303
 21
75825.7412774554
  0
LINE
  5
240
100
AcDbEntity
  8
0
100
AcDbLine
 62
7
  6
CONTINUOUS
 10
59246.4813158619
 20
75825.7412774554
 11
57696.9526284961
 21
75825.7412774554
  0
LINE
  5
241
100
AcDbEntity
  8
0
100
AcDbLine
 62
7
  6
CONTINUOUS
 10
19146.9526284961
 20
75825.7412774554
 11
17597.4239411303
 21
75825.7412774554
  0
LINE
  5
242
100
AcDbEntity
  8
0
100
AcDbLine
 62
7
  6
CONTINUOUS
 10
19146.9526284961
 20
75860.5112199585
 11
57696.9526284961
 21
75860.5112199585
  0
LINE
  5
243
100
AcDbEntity
  8
0
100
AcDbLine
 62
7
  6
CONTINUOUS
 10
69146.8526284961
 20
75860.5112199585
 11
107696.8526284961
 21
75860.5112199585
  0
LINE
  5
244
100
AcDbEntity
  8
0
100
AcDbLine
 62
7
  6
CONTINUOUS
 10
109771.8526284961
 20
75860.8381430443
 11
107696.8526284961
 21
75860.8381430443
  0
LINE
  5
245
100
AcDbEntity
  8
0
100
AcDbLine
 62
7
  6
CONTINUOUS
 10
69146.8526284961
 20
75860.8381430443
 11
67071.8526284961
 21
75860.8381430443
  0
LINE
  5
246
100
AcDbEntity
  8
0
100
AcDbLine
 62
7
  6
CONTINUOUS
 10
59771.9526284961
 20
75860.8381430443
 11
57696.9526284961
 21
75860.8381430443
  0
LINE
  5
247
100
AcDbEntity
  8
0
100
AcDbLine
 62
7
  6
CONTINUOUS
 10
19146.9526284961
 20
75860.8381430443
 11
17071.9526284961
 21
75860.8381430443
  0
LINE
  5
248
100
AcDbEntity
  8
0
100
AcDbLine
 62
7
  6
CONTINUOUS
 10
19146.9526284961
 20
76108.1259025034
 11
57696.9526284961
 21
76108.1259025034
  0
LINE
  5
249
100
AcDbEntity
  8
0
100
AcDbLine
 62
7
  6
CONTINUOUS
 10
69146.8526284961
 20
76108.1259025034
 11
107696.8526284961
 21
76108.1259025034
  0
LINE
  5
24A
100
AcDbEntity
  8
0
100
AcDbLine
 62
7
  6
CONTINUOUS
 10
17071.9526284961
 20
76108.4528255893
 11
19146.9526284961
 21
76108.4528255893
  0
LINE
  5
24B
100
AcDbEntity
  8
0
100
AcDbLine
 62
7
  6
CONTINUOUS
 10
57696.9526284961
 20
76108.4528255893
 11
59771.9526284961
 21
76108.4528255893
  0
LINE
  5
24C
100
AcDbEntity
  8
0
100
AcDbLine
 62
7
  6
CONTINUOUS
 10
67071.8526284961
 20
76108.4528255893
 11
69146.8526284961
 21
76108.4528255893
  0
LINE
  5
24D
100
AcDbEntity
  8
0
100
AcDbLine
 62
7
  6
CONTINUOUS
 10
107696.8526284961
 20
76108.4528255893
 11
109771.8526284961
 21
76108.4528255893
  0
LINE
  5
24E
100
AcDbEntity
  8
0
100
AcDbLine
 62
7
  6
CONTINUOUS
 10
19146.9526284961
 20
76285.4764636379
 11
57696.9526284961
 21
76285.4764636379
  0
LINE
  5
24F
100
AcDbEntity
  8
0
100
AcDbLine
 62
7
  6
CONTINUOUS
 10
69146.8526284961
 20
76285.4764636379
 11
107696.8526284961
 21
76285.4764636379
  0
LINE
  5
250
100
AcDbEntity
  8
0
100
AcDbLine
 62
7
  6
CONTINUOUS
 10
109270.211871162
 20
76285.8033867239
 11
107696.8526284961
 21
76285.8033867239
  0
LINE
  5
251
100
AcDbEntity
  8
0
100
AcDbLine
 62
7
  6
CONTINUOUS
 10
69146.8526284961
 20
76285.8033867239
 11
67573.4933858302
 21
76285.8033867239
  0
LINE
  5
252
100
AcDbEntity
  8
0
100
AcDbLine
 62
7
  6
CONTINUOUS
 10
59270.311871162
 20
76285.8033867239
 11
57696.9526284961
 21
76285.8033867239
  0
LINE
  5
253
100
AcDbEntity
  8
0
100
AcDbLine
 62
7
  6
CONTINUOUS
 10
19146.9526284961
 20
76285.8033867239
 11
17573.5933858302
 21
76285.8033867239
  0
LINE
  5
254
100
AcDbEntity
  8
0
100
AcDbLine
 62
7
  6
CONTINUOUS
 10
109371.8526284962
 20
76324.8557841628
 11
109270.211871162
 21
76324.8557841628
  0
LINE
  5
255
100
AcDbEntity
  8
0
100
AcDbLine
 62
7
  6
CONTINUOUS
 10
69147.0496263042
 20
76324.8557841628
 11
67071.8526284961
 21
76324.8557841628
  0
LINE
  5
256
100
AcDbEntity
  8
0
100
AcDbLine
 62
7
  6
CONTINUOUS
 10
19147.1496263042
 20
76324.8557841628
 11
17071.9526284961
 21
76324.8557841628
  0
LINE
  5
257
100
AcDbEntity
  8
0
100
AcDbLine
 62
7
  6
CONTINUOUS
 10
17259.9205937794
 20
75837.2921941562
 11
17071.9526284961
 21
75843.7253223798
  0
LINE
  5
258
100
AcDbEntity
  8
0
100
AcDbLine
 62
7
  6
CONTINUOUS
 10
17571.6151047846
 20
75826.6245745281
 11
17597.4239411303
 21
75825.7412774553
  0
LINE
  5
259
100
AcDbEntity
  8
0
100
AcDbLine
 62
7
  6
CONTINUOUS
 10
67259.8205937794
 20
75837.2921941562
 11
67071.8526284961
 21
75843.7253223798
  0
LINE
  5
25A
100
AcDbEntity
  8
0
100
AcDbLine
 62
7
  6
CONTINUOUS
 10
67571.5151047847
 20
75826.6245745281
 11
67597.3239411303
 21
75825.7412774553
  0
LINE
  5
25B
100
AcDbEntity
  8
0
100
AcDbLine
 62
7
  6
CONTINUOUS
 10
13614.9526284985
 20
77217.2557841627
 11
14621.9526284958
 21
77182.2557841628
  0
LINE
  5
25C
100
AcDbEntity
  8
0
100
AcDbLine
 62
7
  6
CONTINUOUS
 10
17574.9528670455
 20
75825.8550515645
 11
17264.8605562909
 21
75837.0557188668
  0
LINE
  5
25D
100
AcDbEntity
  8
0
100
AcDbLine
 62
7
  6
CONTINUOUS
 10
67264.7605562909
 20
75837.0557188668
 11
67574.8528670455
 21
75825.8550515645
  0
LINE
  5
25E
100
AcDbEntity
  8
0
100
AcDbLine
 62
7
  6
CONTINUOUS
 10
66961.5526284963
 20
75847.6557841628
 11
67574.4526284962
 21
75825.4557841628
  0
LINE
  5
25F
100
AcDbEntity
  8
0
100
AcDbLine
 62
7
  6
CONTINUOUS
 10
59270.311871162
 20
76285.8033867238
 11
59771.9526284961
 21
76196.984200263
  0
LINE
  5
260
100
AcDbEntity
  8
0
100
AcDbLine
 62
7
  6
CONTINUOUS
 10
59771.9524015609
 20
76750.8550452489
 11
62221.9567720446
 21
77182.8557841628
  0
LINE
  5
261
100
AcDbEntity
  8
0
100
AcDbLine
 62
7
  6
CONTINUOUS
 10
62221.9745511695
 20
77182.8557841627
 11
63228.952628494
 21
77217.8557841628
  0
LWPOLYLINE
  5
262
100
AcDbEntity
  8
0
100
AcDbPolyline
 62
7
  6
CONTINUOUS
 90
3
 70
0
 10
69094.7391028148
 20
76666.6696589819
 10
69129.478745378
 20
76666.8042753395
 10
107696.8526284961
 20
76666.6696589819
  0
LWPOLYLINE
  5
263
100
AcDbEntity
  8
0
100
AcDbPolyline
 62
7
  6
CONTINUOUS
 90
3
 70
0
 10
19094.8391028149
 20
76666.6696589819
 10
19129.578745378
 20
76666.8042753395
 10
57696.9526284961
 20
76666.6696589819
  0
LINE
  5
264
100
AcDbEntity
  8
0
100
AcDbLine
 62
7
  6
CONTINUOUS
 10
67641.8526284961
 20
76664.8281764862
 11
67071.8526284961
 21
76664.8281764862
  0
LINE
  5
265
100
AcDbEntity
  8
0
100
AcDbLine
 62
7
  6
CONTINUOUS
 10
17641.9526284961
 20
76664.8281764862
 11
17071.9526284961
 21
76664.8281764862
  0
LINE
  5
266
100
AcDbEntity
  8
0
100
AcDbLine
 62
7
  6
CONTINUOUS
 10
17641.9526284961
 20
76666.6696589819
 11
19094.8391028149
 21
76666.6696589819
  0
LINE
  5
267
100
AcDbEntity
  8
0
100
AcDbLine
 62
7
  6
CONTINUOUS
 10
67641.8526284961
 20
76666.6696589819
 11
69094.7391028148
 21
76666.6696589819
  0
LINE
  5
268
100
AcDbEntity
  8
0
100
AcDbLine
 62
7
  6
CONTINUOUS
 10
109771.8524006064
 20
76674.8557841628
 11
107696.8526284961
 21
76674.8557841628
  0
LINE
  5
269
100
AcDbEntity
  8
0
100
AcDbLine
 62
7
  6
CONTINUOUS
 10
59771.9524006064
 20
76674.8557841628
 11
57696.9526284961
 21
76674.8557841628
  0
LINE
  5
26A
100
AcDbEntity
  8
0
100
AcDbLine
 62
7
  6
CONTINUOUS
 10
62667.4338197036
 20
76873.9557841628
 11
64176.3008916973
 21
76873.9557841628
  0
LINE
  5
26B
100
AcDbEntity
  8
0
100
AcDbLine
 62
7
  6
CONTINUOUS
 10
62615.9253557688
 20
77103.9557841628
 11
64227.7799012234
 21
77103.9557841628
  0
LINE
  5
26C
100
AcDbEntity
  8
0
100
AcDbLine
 62
7
  6
CONTINUOUS
 10
62614.2634128098
 20
77168.2557841628
 11
64229.4418441824
 21
77168.2557841628
  0
LINE
  5
26D
100
AcDbEntity
  8
0
100
AcDbLine
 62
7
  6
CONTINUOUS
 10
67641.8526284961
 20
77182.2557841628
 11
64621.852628496
 21
77182.2557841628
  0
LINE
  5
26E
100
AcDbEntity
  8
0
100
AcDbLine
 62
7
  6
CONTINUOUS
 10
17641.9526284961
 20
77182.2557841628
 11
14621.9526284959
 21
77182.2557841628
  0
LINE
  5
26F
100
AcDbEntity
  8
0
100
AcDbLine
 62
7
  6
CONTINUOUS
 10
17641.9526284961
 20
77182.8557841627
 11
62221.9745511695
 21
77182.8557841627
  0
LINE
  5
270
100
AcDbEntity
  8
0
100
AcDbLine
 62
7
  6
CONTINUOUS
 10
67641.8526284961
 20
77182.8557841627
 11
112221.8745511694
 21
77182.8557841627
  0
LINE
  5
271
100
AcDbEntity
  8
0
100
AcDbLine
 62
7
  6
CONTINUOUS
 10
63228.9526284933
 20
77204.8557841628
 11
63614.8526284989
 21
77204.8557841628
  0
LINE
  5
272
100
AcDbEntity
  8
0
100
AcDbLine
 62
7
  6
CONTINUOUS
 10
13614.9526284985
 20
77217.2557841627
 11
17641.9526284961
 21
77217.2557841627
  0
LINE
  5
273
100
AcDbEntity
  8
0
100
AcDbLine
 62
7
  6
CONTINUOUS
 10
63614.8526284984
 20
77217.2557841627
 11
67641.8526284961
 21
77217.2557841627
  0
LINE
  5
274
100
AcDbEntity
  8
0
100
AcDbLine
 62
7
  6
CONTINUOUS
 10
17641.9526284961
 20
77217.8557841628
 11
63228.952628494
 21
77217.8557841628
  0
LINE
  5
275
100
AcDbEntity
  8
0
100
AcDbLine
 62
7
  6
CONTINUOUS
 10
67641.8526284961
 20
77217.8557841628
 11
113228.852628494
 21
77217.8557841628
  0
LINE
  5
276
100
AcDbEntity
  8
0
100
AcDbLine
 62
7
  6
CONTINUOUS
 10
113421.8526284961
 20
77417.8557841629
 11
63421.8526284961
 21
77417.5557841629
  0
LINE
  5
277
100
AcDbEntity
  8
0
100
AcDbLine
 62
7
  6
CONTINUOUS
 10
63421.8526284961
 20
77417.5557841629
 11
17641.9526284961
 21
77417.5557841629
  0
LINE
  5
278
100
AcDbEntity
  8
0
100
AcDbLine
 62
7
  6
CONTINUOUS
 10
17641.9526284961
 20
77417.5557841629
 11
13421.9526284961
 21
77417.2557841629
  0
LINE
  5
279
100
AcDbEntity
  8
0
100
AcDbLine
 62
7
  6
CONTINUOUS
 10
63614.8526284984
 20
77217.2557841627
 11
64621.8526284958
 21
77182.2557841628
  0
LINE
  5
27A
100
AcDbEntity
  8
0
100
AcDbLine
 62
7
  6
CONTINUOUS
 10
64621.9950417987
 20
77183.0639578126
 11
67071.8526284961
 21
76750.2557841628
  0
LINE
  5
27B
100
AcDbEntity
  8
0
100
AcDbLine
 62
7
  6
CONTINUOUS
 10
59244.9523896453
 20
103847.8565164597
 11
59201.9523792616
 21
104674.8565159198
  0
LINE
  5
27C
100
AcDbEntity
  8
0
100
AcDbLine
 62
7
  6
CONTINUOUS
 10
59270.311871162
 20
103363.9081816018
 11
59272.6012971922
 21
103319.7095401848
  0
LINE
  5
27D
100
AcDbEntity
  8
0
100
AcDbLine
 62
7
  6
CONTINUOUS
 10
59246.4813158619
 20
103823.9702908702
 11
59245.5016017676
 21
103842.8842157451
  0
LINE
  5
27E
100
AcDbEntity
  8
0
100
AcDbLine
 62
7
  6
CONTINUOUS
 10
57696.9526284961
 20
75001.8557841628
 11
57696.9526284961
 21
76666.6696589819
  0
LINE
  5
27F
100
AcDbEntity
  8
0
100
AcDbLine
 62
7
  6
CONTINUOUS
 10
57696.9526284961
 20
102984.2833918395
 11
57696.9526284961
 21
104648.8557841629
  0
LINE
  5
280
100
AcDbEntity
  8
0
100
AcDbLine
 62
7
  6
CONTINUOUS
 10
58921.9523792617
 20
104674.8565124042
 11
58921.952379573
 21
104650.0612499099
  0
LINE
  5
281
100
AcDbEntity
  8
0
100
AcDbLine
 62
7
  6
CONTINUOUS
 10
58921.9526284962
 20
74999.6503210638
 11
58921.9526284962
 21
74974.8557841628
  0
LINE
  5
282
100
AcDbEntity
  8
0
100
AcDbLine
 62
7
  6
CONTINUOUS
 10
59371.9523954957
 20
103381.9043841646
 11
59371.952396212
 21
103324.8557841628
  0
LINE
  5
283
100
AcDbEntity
  8
0
100
AcDbLine
 62
7
  6
CONTINUOUS
 10
59371.9526284962
 20
76674.8557841628
 11
59371.9526284962
 21
76267.8071429066
  0
LINE
  5
284
100
AcDbEntity
  8
0
100
AcDbLine
 62
7
  6
CONTINUOUS
 10
59771.9526284961
 20
75860.9267918097
 11
59771.9524015609
 21
76750.8550452489
  0
LINE
  5
285
100
AcDbEntity
  8
0
100
AcDbLine
 62
7
  6
CONTINUOUS
 10
59771.9526284961
 20
102898.8557841628
 11
59771.9526284961
 21
103788.7651185437
  0
LINE
  5
286
100
AcDbEntity
  8
0
100
AcDbLine
 62
7
  6
CONTINUOUS
 10
59290.4642255616
 20
76674.8557841628
 11
59270.311871162
 21
76285.8033867238
  0
LINE
  5
287
100
AcDbEntity
  8
0
100
AcDbLine
 62
7
  6
CONTINUOUS
 10
59245.4331666979
 20
75805.5061755396
 11
59246.4813158619
 21
75825.7412774553
  0
LINE
  5
288
100
AcDbEntity
  8
0
100
AcDbLine
 62
7
  6
CONTINUOUS
 10
59201.952628496
 20
74974.8557841628
 11
59244.9526284959
 21
75801.8557841627
  0
LINE
  5
289
100
AcDbEntity
  8
0
100
AcDbLine
 62
7
  6
CONTINUOUS
 10
17071.9528623873
 20
76196.9842416752
 11
17573.5933858302
 21
76285.8033867238
  0
LINE
  5
28A
100
AcDbEntity
  8
0
100
AcDbLine
 62
7
  6
CONTINUOUS
 10
109270.211871162
 20
76285.8033867238
 11
109771.8526284961
 21
76196.984200263
  0
LWPOLYLINE
  5
28B
100
AcDbEntity
  8
0
100
AcDbPolyline
 62
7
  6
CONTINUOUS
 90
10
 70
0
 10
69153.9629658884
 20
76325.5434383103
 10
69138.4089389658
 20
76342.3837127607
 10
69128.9442049297
 20
76373.1325513731
 10
69124.8123349701
 20
76393.4954786603
 10
69120.1875804555
 20
76421.2733953926
 10
69117.6599640783
 20
76438.6723282773
 10
69112.1117841543
 20
76482.3236014803
 10
69105.8188760392
 20
76540.8346198099
 10
69098.6702535886
 20
76618.7348713123
 10
69094.7391028158
 20
76666.6696589819
  0
LINE
  5
28C
100
AcDbEntity
  8
0
100
AcDbLine
 62
7
  6
CONTINUOUS
 10
60100.3526284961
 20
102845.6557841628
 11
60076.0495582155
 21
103602.2513671765
  0
LINE
  5
28D
100
AcDbEntity
  8
0
100
AcDbLine
 62
7
  6
CONTINUOUS
 10
62620.705492869
 20
76920.6754034244
 11
62613.5342871136
 21
77196.4654059276
  0
LINE
  5
28E
100
AcDbEntity
  8
0
100
AcDbLine
 62
7
  6
CONTINUOUS
 10
62620.9046957549
 20
102729.0063037819
 11
62613.7340955802
 21
102453.2387520398
  0
LINE
  5
28F
100
AcDbEntity
  8
0
100
AcDbLine
 62
7
  6
CONTINUOUS
 10
60076.0525704041
 20
76046.8539756634
 11
60100.3526284961
 21
76803.3557841628
  0
LINE
  5
290
100
AcDbEntity
  8
0
100
AcDbLine
 62
7
  6
CONTINUOUS
 10
67641.8528777305
 20
74974.8550524058
 11
67598.8528673469
 21
75801.8550518659
  0
LINE
  5
291
100
AcDbEntity
  8
0
100
AcDbLine
 62
7
  6
CONTINUOUS
 10
67597.3239411303
 20
75825.7412774553
 11
67598.3036552245
 21
75806.8273525805
  0
LINE
  5
292
100
AcDbEntity
  8
0
100
AcDbLine
 62
7
  6
CONTINUOUS
 10
67573.4933858302
 20
76285.8033867238
 11
67571.6588640865
 21
76321.2198481646
  0
LINE
  5
293
100
AcDbEntity
  8
0
100
AcDbLine
 62
7
  6
CONTINUOUS
 10
66743.5526284961
 20
76804.0557841628
 11
66767.8556987766
 21
76047.4602011491
  0
LINE
  5
294
100
AcDbEntity
  8
0
100
AcDbLine
 62
7
  6
CONTINUOUS
 10
64230.3863313876
 20
102452.6518309129
 11
64223.1997641232
 21
102729.0361649012
  0
LINE
  5
295
100
AcDbEntity
  8
0
100
AcDbLine
 62
7
  6
CONTINUOUS
 10
67071.8526284961
 20
76750.2557841628
 11
67071.8526284961
 21
75860.9464497126
  0
LINE
  5
296
100
AcDbEntity
  8
0
100
AcDbLine
 62
7
  6
CONTINUOUS
 10
67071.8528554313
 20
102898.2565230767
 11
67071.8526284961
 21
103788.7847767956
  0
LINE
  5
297
100
AcDbEntity
  8
0
100
AcDbLine
 62
7
  6
CONTINUOUS
 10
64223.0005612373
 20
76920.7052645437
 11
64230.1555775556
 21
77195.869882259
  0
LINE
  5
298
100
AcDbEntity
  8
0
100
AcDbLine
 62
7
  6
CONTINUOUS
 10
66767.852686588
 20
103602.8575926622
 11
66743.5526284961
 21
102846.3557841628
  0
LINE
  5
299
100
AcDbEntity
  8
0
100
AcDbLine
 62
7
  6
CONTINUOUS
 10
67598.3720902943
 20
103844.2053927861
 11
67597.3239411303
 21
103823.9702908702
  0
LINE
  5
29A
100
AcDbEntity
  8
0
100
AcDbLine
 62
7
  6
CONTINUOUS
 10
67553.1229756985
 20
102970.6460971135
 11
67573.4933858302
 21
103363.9081816018
  0
LINE
  5
29B
100
AcDbEntity
  8
0
100
AcDbLine
 62
7
  6
CONTINUOUS
 10
67598.8526284962
 20
103847.8557841629
 11
67641.8526284962
 21
104674.8557841628
  0
LINE
  5
29C
100
AcDbEntity
  8
0
100
AcDbLine
 62
7
  6
CONTINUOUS
 10
67471.852628496
 20
102974.8557841628
 11
67471.852628496
 21
103381.904425419
  0
LINE
  5
29D
100
AcDbEntity
  8
0
100
AcDbLine
 62
7
  6
CONTINUOUS
 10
67471.8528614965
 20
76267.807184161
 11
67471.8528607802
 21
76324.8557841628
  0
LINE
  5
29E
100
AcDbEntity
  8
0
100
AcDbLine
 62
7
  6
CONTINUOUS
 10
67921.8528777304
 20
74974.8550559214
 11
67921.8528774192
 21
74999.6503184157
  0
LINE
  5
29F
100
AcDbEntity
  8
0
100
AcDbLine
 62
7
  6
CONTINUOUS
 10
67921.852628496
 20
104650.0612472618
 11
67921.852628496
 21
104674.8557841628
  0
LINE
  5
2A0
100
AcDbEntity
  8
0
100
AcDbLine
 62
7
  6
CONTINUOUS
 10
69146.8526284961
 20
75001.8557841628
 11
69146.8526284961
 21
76666.6696589819
  0
LINE
  5
2A1
100
AcDbEntity
  8
0
100
AcDbLine
 62
7
  6
CONTINUOUS
 10
69146.8526284961
 20
102984.2833918395
 11
69146.8526284961
 21
104648.8557841629
  0
LINE
  5
2A2
100
AcDbEntity
  8
0
100
AcDbLine
 62
7
  6
CONTINUOUS
 10
109771.8523946049
 20
103452.7273266504
 11
109270.211871162
 21
103363.9081816018
  0
LINE
  5
2A3
100
AcDbEntity
  8
0
100
AcDbLine
 62
7
  6
CONTINUOUS
 10
17573.5933858302
 20
103363.9081816018
 11
17071.9526284961
 21
103452.7273680625
  0
LWPOLYLINE
  5
2A4
100
AcDbEntity
  8
0
100
AcDbPolyline
 62
7
  6
CONTINUOUS
 90
10
 70
0
 10
57691.6416353695
 20
103324.8557841628
 10
57705.6970810223
 20
103310.8243032522
 10
57715.5812250367
 20
103279.8618650182
 10
57719.8873452701
 20
103259.3663970395
 10
57724.70459892
 20
103231.4152119169
 10
57727.3370701318
 20
103213.9082493928
 10
57733.1158230437
 20
103169.9790051786
 10
57739.6721588641
 20
103111.0716719039
 10
57747.1234572965
 20
103032.5970207464
 10
57751.2227459179
 20
102984.2833918395
  0
LINE
  5
2A5
100
AcDbEntity
  8
0
100
AcDbLine
 62
7
  6
CONTINUOUS
 10
59771.952394605
 20
103452.7273266504
 11
59270.311871162
 21
103363.9081816018
  0
LINE
  5
2A6
100
AcDbEntity
  8
0
100
AcDbLine
 62
7
  6
CONTINUOUS
 10
67071.8528554313
 20
102899.8265269474
 11
64621.8484850614
 21
102466.837673103
  0
LINE
  5
2A7
100
AcDbEntity
  8
0
100
AcDbLine
 62
7
  6
CONTINUOUS
 10
67570.7231263508
 20
103845.8783578728
 11
66961.6526284965
 21
103802.7557841629
  0
LINE
  5
2A8
100
AcDbEntity
  8
0
100
AcDbLine
 62
7
  6
CONTINUOUS
 10
67574.852628496
 20
103823.8557841628
 11
67264.7603178802
 21
103812.8525086248
  0
LINE
  5
2A9
100
AcDbEntity
  8
0
100
AcDbLine
 62
7
  6
CONTINUOUS
 10
64621.8307058227
 20
102466.2557841629
 11
63614.8526284981
 21
102431.2557841629
  0
LINE
  5
2AA
100
AcDbEntity
  8
0
100
AcDbLine
 62
7
  6
CONTINUOUS
 10
14621.9307058227
 20
102466.2557841629
 11
13614.9526284982
 21
102431.2557841629
  0
LINE
  5
2AB
100
AcDbEntity
  8
0
100
AcDbLine
 62
7
  6
CONTINUOUS
 10
67597.3239411303
 20
103823.9702908702
 11
67572.3347830577
 21
103823.1150469576
  0
LINE
  5
2AC
100
AcDbEntity
  8
0
100
AcDbLine
 62
7
  6
CONTINUOUS
 10
67071.8526284961
 20
103805.9862459458
 11
67254.7524468979
 21
103812.2459188751
  0
LINE
  5
2AD
100
AcDbEntity
  8
0
100
AcDbLine
 62
7
  6
CONTINUOUS
 10
64230.3526284961
 20
102453.9557841628
 11
64621.9526284961
 21
102466.9557841628
  0
LWPOLYLINE
  5
2AE
100
AcDbEntity
  8
0
100
AcDbPolyline
 62
7
  6
CONTINUOUS
 90
3
 70
0
 10
107751.1227459191
 20
102984.2833918395
 10
107714.9457257938
 20
102984.1370468047
 10
69146.8526284961
 20
102984.2833918395
  0
LWPOLYLINE
  5
2AF
100
AcDbEntity
  8
0
100
AcDbPolyline
 62
7
  6
CONTINUOUS
 90
3
 70
0
 10
57751.2227459191
 20
102984.2833918395
 10
57715.0457257938
 20
102984.1370468047
 10
19146.9526284961
 20
102984.2833918395
  0
LINE
  5
2B0
100
AcDbEntity
  8
0
100
AcDbLine
 62
7
  6
CONTINUOUS
 10
17641.9526284961
 20
102231.5557841627
 11
63421.9026284961
 21
102231.5557841627
  0
LINE
  5
2B1
100
AcDbEntity
  8
0
100
AcDbLine
 62
7
  6
CONTINUOUS
 10
63421.9026284961
 20
102231.5557841627
 11
113421.8526284961
 21
102231.8557841627
  0
LINE
  5
2B2
100
AcDbEntity
  8
0
100
AcDbLine
 62
7
  6
CONTINUOUS
 10
13421.9526284961
 20
102231.2557841627
 11
17641.9526284961
 21
102231.5557841627
  0
LINE
  5
2B3
100
AcDbEntity
  8
0
100
AcDbLine
 62
7
  6
CONTINUOUS
 10
67641.8526284961
 20
102431.2557841629
 11
63614.8526284981
 21
102431.2557841629
  0
LINE
  5
2B4
100
AcDbEntity
  8
0
100
AcDbLine
 62
7
  6
CONTINUOUS
 10
17641.9526284961
 20
102431.2557841629
 11
13614.9526284982
 21
102431.2557841629
  0
LINE
  5
2B5
100
AcDbEntity
  8
0
100
AcDbLine
 62
7
  6
CONTINUOUS
 10
113228.8526284937
 20
102431.8557841629
 11
67641.8526284961
 21
102431.8557841629
  0
LINE
  5
2B6
100
AcDbEntity
  8
0
100
AcDbLine
 62
7
  6
CONTINUOUS
 10
63228.9526284937
 20
102431.8557841629
 11
17641.9526284961
 21
102431.8557841629
  0
LINE
  5
2B7
100
AcDbEntity
  8
0
100
AcDbLine
 62
7
  6
CONTINUOUS
 10
63614.8526284989
 20
102444.8557841628
 11
63228.9526284938
 21
102444.8557841628
  0
LINE
  5
2B8
100
AcDbEntity
  8
0
100
AcDbLine
 62
7
  6
CONTINUOUS
 10
67641.8526284961
 20
102466.2557841629
 11
64621.8307058227
 21
102466.2557841629
  0
LINE
  5
2B9
100
AcDbEntity
  8
0
100
AcDbLine
 62
7
  6
CONTINUOUS
 10
17641.9526284961
 20
102466.2557841629
 11
14621.9307058227
 21
102466.2557841629
  0
LINE
  5
2BA
100
AcDbEntity
  8
0
100
AcDbLine
 62
7
  6
CONTINUOUS
 10
67641.8526284961
 20
102466.8467286229
 11
112221.8526284962
 21
102466.8557841628
  0
LINE
  5
2BB
100
AcDbEntity
  8
0
100
AcDbLine
 62
7
  6
CONTINUOUS
 10
17641.9526284961
 20
102466.8467286229
 11
62221.9526284962
 21
102466.8557841628
  0
LINE
  5
2BC
100
AcDbEntity
  8
0
100
AcDbLine
 62
7
  6
CONTINUOUS
 10
64229.6418441824
 20
102481.4557841628
 11
62614.4634128098
 21
102481.4557841628
  0
LINE
  5
2BD
100
AcDbEntity
  8
0
100
AcDbLine
 62
7
  6
CONTINUOUS
 10
64227.9799012233
 20
102545.7557841628
 11
62616.1253557688
 21
102545.7557841628
  0
LINE
  5
2BE
100
AcDbEntity
  8
0
100
AcDbLine
 62
7
  6
CONTINUOUS
 10
64176.4714372885
 20
102775.7557841628
 11
62667.6043652948
 21
102775.7557841628
  0
LINE
  5
2BF
100
AcDbEntity
  8
0
100
AcDbLine
 62
7
  6
CONTINUOUS
 10
57751.2227459179
 20
102984.2833918395
 11
59771.9526284961
 21
102984.2833918395
  0
LINE
  5
2C0
100
AcDbEntity
  8
0
100
AcDbLine
 62
7
  6
CONTINUOUS
 10
107751.122745918
 20
102984.2833918395
 11
109771.8526284961
 21
102984.2833918395
  0
LINE
  5
2C1
100
AcDbEntity
  8
0
100
AcDbLine
 62
7
  6
CONTINUOUS
 10
17471.952628496
 20
103324.8557841628
 11
17573.5933858302
 21
103324.8557841628
  0
LINE
  5
2C2
100
AcDbEntity
  8
0
100
AcDbLine
 62
7
  6
CONTINUOUS
 10
57696.8241522415
 20
103324.8557841628
 11
59771.9526284961
 21
103324.8557841628
  0
LINE
  5
2C3
100
AcDbEntity
  8
0
100
AcDbLine
 62
7
  6
CONTINUOUS
 10
107696.7241522415
 20
103324.8557841628
 11
109771.8526284961
 21
103324.8557841628
  0
LINE
  5
2C4
100
AcDbEntity
  8
0
100
AcDbLine
 62
7
  6
CONTINUOUS
 10
17573.5933858302
 20
103363.9081816017
 11
19146.9526284961
 21
103363.9081816017
  0
LINE
  5
2C5
100
AcDbEntity
  8
0
100
AcDbLine
 62
7
  6
CONTINUOUS
 10
57696.9526284961
 20
103363.9081816017
 11
59270.311871162
 21
103363.9081816017
  0
LINE
  5
2C6
100
AcDbEntity
  8
0
100
AcDbLine
 62
7
  6
CONTINUOUS
 10
67573.4933858302
 20
103363.9081816017
 11
69146.8526284961
 21
103363.9081816017
  0
LINE
  5
2C7
100
AcDbEntity
  8
0
100
AcDbLine
 62
7
  6
CONTINUOUS
 10
107696.8526284961
 20
103363.9081816017
 11
109270.211871162
 21
103363.9081816017
  0
LINE
  5
2C8
100
AcDbEntity
  8
0
100
AcDbLine
 62
7
  6
CONTINUOUS
 10
19146.9526284961
 20
103364.2351046874
 11
57696.9526284961
 21
103364.2351046874
  0
LINE
  5
2C9
100
AcDbEntity
  8
0
100
AcDbLine
 62
7
  6
CONTINUOUS
 10
69146.8526284961
 20
103364.2351046874
 11
107696.8526284961
 21
103364.2351046874
  0
LINE
  5
2CA
100
AcDbEntity
  8
0
100
AcDbLine
 62
7
  6
CONTINUOUS
 10
109771.8526284961
 20
103541.2587427363
 11
107696.8526284961
 21
103541.2587427363
  0
LINE
  5
2CB
100
AcDbEntity
  8
0
100
AcDbLine
 62
7
  6
CONTINUOUS
 10
69146.8526284961
 20
103541.2587427363
 11
67071.8526284961
 21
103541.2587427363
  0
LINE
  5
2CC
100
AcDbEntity
  8
0
100
AcDbLine
 62
7
  6
CONTINUOUS
 10
59771.9526284961
 20
103541.2587427363
 11
57696.9526284961
 21
103541.2587427363
  0
LINE
  5
2CD
100
AcDbEntity
  8
0
100
AcDbLine
 62
7
  6
CONTINUOUS
 10
19146.9526284961
 20
103541.2587427363
 11
17071.9526284961
 21
103541.2587427363
  0
LINE
  5
2CE
100
AcDbEntity
  8
0
100
AcDbLine
 62
7
  6
CONTINUOUS
 10
19146.9526284961
 20
103541.5856658219
 11
57696.9526284961
 21
103541.5856658219
  0
LINE
  5
2CF
100
AcDbEntity
  8
0
100
AcDbLine
 62
7
  6
CONTINUOUS
 10
69146.8526284961
 20
103541.5856658219
 11
107696.8526284961
 21
103541.5856658219
  0
LINE
  5
2D0
100
AcDbEntity
  8
0
100
AcDbLine
 62
7
  6
CONTINUOUS
 10
17071.9526284961
 20
103788.8734252813
 11
19146.9526284961
 21
103788.8734252813
  0
LINE
  5
2D1
100
AcDbEntity
  8
0
100
AcDbLine
 62
7
  6
CONTINUOUS
 10
57696.9526284961
 20
103788.8734252813
 11
59771.9526284961
 21
103788.8734252813
  0
LINE
  5
2D2
100
AcDbEntity
  8
0
100
AcDbLine
 62
7
  6
CONTINUOUS
 10
67071.8526284961
 20
103788.8734252813
 11
69146.8526284961
 21
103788.8734252813
  0
LINE
  5
2D3
100
AcDbEntity
  8
0
100
AcDbLine
 62
7
  6
CONTINUOUS
 10
107696.8526284961
 20
103788.8734252813
 11
109771.8526284961
 21
103788.8734252813
  0
LINE
  5
2D4
100
AcDbEntity
  8
0
100
AcDbLine
 62
7
  6
CONTINUOUS
 10
19146.9526284961
 20
103789.2003483669
 11
57696.9526284961
 21
103789.2003483669
  0
LINE
  5
2D5
100
AcDbEntity
  8
0
100
AcDbLine
 62
7
  6
CONTINUOUS
 10
69146.8526284961
 20
103789.2003483669
 11
107696.8526284961
 21
103789.2003483669
  0
LINE
  5
2D6
100
AcDbEntity
  8
0
100
AcDbLine
 62
7
  6
CONTINUOUS
 10
17597.4239411303
 20
103823.9702908702
 11
19146.9526284961
 21
103823.9702908702
  0
LINE
  5
2D7
100
AcDbEntity
  8
0
100
AcDbLine
 62
7
  6
CONTINUOUS
 10
57696.9526284961
 20
103823.9702908702
 11
59246.4813158619
 21
103823.9702908702
  0
LINE
  5
2D8
100
AcDbEntity
  8
0
100
AcDbLine
 62
7
  6
CONTINUOUS
 10
67597.3239411303
 20
103823.9702908702
 11
69146.8526284961
 21
103823.9702908702
  0
LINE
  5
2D9
100
AcDbEntity
  8
0
100
AcDbLine
 62
7
  6
CONTINUOUS
 10
107696.8526284961
 20
103823.9702908702
 11
109246.3813158618
 21
103823.9702908702
  0
LINE
  5
2DA
100
AcDbEntity
  8
0
100
AcDbLine
 62
7
  6
CONTINUOUS
 10
19146.9526284961
 20
103824.2972139558
 11
57696.9526284961
 21
103824.2972139558
  0
LINE
  5
2DB
100
AcDbEntity
  8
0
100
AcDbLine
 62
7
  6
CONTINUOUS
 10
69146.8526284961
 20
103824.2972139558
 11
107696.8526284961
 21
103824.2972139558
  0
LINE
  5
2DC
100
AcDbEntity
  8
0
100
AcDbLine
 62
7
  6
CONTINUOUS
 10
17071.9528563932
 20
102976.6009934632
 11
19146.9526284961
 21
102974.8557841628
  0
LINE
  5
2DD
100
AcDbEntity
  8
0
100
AcDbLine
 62
7
  6
CONTINUOUS
 10
67071.8528563933
 20
102976.6009934632
 11
69146.8526284961
 21
102974.8557841628
  0
LINE
  5
2DE
100
AcDbEntity
  8
0
100
AcDbLine
 62
7
  6
CONTINUOUS
 10
59272.2901522075
 20
103823.0869937974
 11
59246.4813158619
 21
103823.9702908702
  0
LINE
  5
2DF
100
AcDbEntity
  8
0
100
AcDbLine
 62
7
  6
CONTINUOUS
 10
63228.9526284937
 20
102431.8557841629
 11
62221.9526284963
 21
102466.8557841628
  0
LINE
  5
2E0
100
AcDbEntity
  8
0
100
AcDbLine
 62
7
  6
CONTINUOUS
 10
113228.8526284937
 20
102431.8557841629
 11
112221.8526284963
 21
102466.8557841628
  0
LINE
  5
2E1
100
AcDbEntity
  8
0
100
AcDbLine
 62
7
  6
CONTINUOUS
 10
59579.0447007012
 20
103812.6558494588
 11
59268.9523899466
 21
103823.8565167611
  0
LINE
  5
2E2
100
AcDbEntity
  8
0
100
AcDbLine
 62
7
  6
CONTINUOUS
 10
59882.3526284959
 20
103802.0557841628
 11
59583.9846632127
 21
103812.4193741694
  0
LINE
  5
2E3
100
AcDbEntity
  8
0
100
AcDbLine
 62
7
  6
CONTINUOUS
 10
59771.9551014616
 20
103806.0545198459
 11
59269.452628496
 21
103824.2557841628
  0
LINE
  5
2E4
100
AcDbEntity
  8
0
100
AcDbLine
 62
7
  6
CONTINUOUS
 10
62221.8101287437
 20
102466.0476257858
 11
59771.9526284961
 21
102898.8557841628
  0
LINE
  5
2E5
100
AcDbEntity
  8
0
100
AcDbLine
 62
7
  6
CONTINUOUS
 10
67573.4933858302
 20
103363.9081816018
 11
67071.8526284961
 21
103452.7273680625
  0
LINE
  5
2E6
100
AcDbEntity
  8
0
100
AcDbLine
 62
7
  6
CONTINUOUS
 10
17574.952628496
 20
103823.8557841628
 11
17264.8603178802
 21
103812.8525086248
  0
LINE
  5
2E7
100
AcDbEntity
  8
0
100
AcDbLine
 62
7
  6
CONTINUOUS
 10
17597.4239411303
 20
103823.9702908702
 11
17572.4347830577
 21
103823.1150469576
  0
LINE
  5
2E8
100
AcDbEntity
  8
0
100
AcDbLine
 62
7
  6
CONTINUOUS
 10
17071.9526284961
 20
103805.9862459458
 11
17254.8524468979
 21
103812.2459188751
  0
LINE
  5
2E9
100
AcDbEntity
  8
0
100
AcDbLine
 62
7
  6
CONTINUOUS
 10
17640.0589269434
 20
104647.0623780965
 11
19146.9526284961
 21
104647.0623780965
  0
LINE
  5
2EA
100
AcDbEntity
  8
0
100
AcDbLine
 62
7
  6
CONTINUOUS
 10
57696.9526284961
 20
104647.0623780965
 11
59203.8463300488
 21
104647.0623780965
  0
LINE
  5
2EB
100
AcDbEntity
  8
0
100
AcDbLine
 62
7
  6
CONTINUOUS
 10
67639.9589269434
 20
104647.0623780965
 11
69146.8526284961
 21
104647.0623780965
  0
LINE
  5
2EC
100
AcDbEntity
  8
0
100
AcDbLine
 62
7
  6
CONTINUOUS
 10
107696.8526284961
 20
104647.0623780965
 11
109203.7463300487
 21
104647.0623780965
  0
LINE
  5
2ED
100
AcDbEntity
  8
0
100
AcDbLine
 62
7
  6
CONTINUOUS
 10
19146.9526284961
 20
104648.8557841628
 11
57696.9526284961
 21
104648.8557841628
  0
LINE
  5
2EE
100
AcDbEntity
  8
0
100
AcDbLine
 62
7
  6
CONTINUOUS
 10
69146.8526284961
 20
104648.8557841628
 11
107696.8526284961
 21
104648.8557841628
  0
LINE
  5
2EF
100
AcDbEntity
  8
0
100
AcDbLine
 62
7
  6
CONTINUOUS
 10
109201.8523792616
 20
104674.8565159198
 11
108921.8523792617
 21
104674.8565124042
  0
LINE
  5
2F0
100
AcDbEntity
  8
0
100
AcDbLine
 62
7
  6
CONTINUOUS
 10
67921.852628496
 20
104674.8557841628
 11
67641.8526284962
 21
104674.8557841628
  0
LINE
  5
2F1
100
AcDbEntity
  8
0
100
AcDbLine
 62
7
  6
CONTINUOUS
 10
17921.952628496
 20
104674.8557841628
 11
17641.9526284961
 21
104674.8557841628
  0
LINE
  5
2F2
100
AcDbEntity
  8
0
100
AcDbLine
 62
7
  6
CONTINUOUS
 10
59201.9523792616
 20
104674.8565159198
 11
58921.9523792617
 21
104674.8565124042
  0
LINE
  5
2F3
100
AcDbEntity
  8
0
100
AcDbLine
 62
7
  6
CONTINUOUS
 10
109272.1901522075
 20
103823.0869937974
 11
109246.3813158618
 21
103823.9702908702
  0
LINE
  5
2F4
100
AcDbEntity
  8
0
100
AcDbLine
 62
7
  6
CONTINUOUS
 10
109583.8846632127
 20
103812.4193741694
 11
109771.8526284961
 21
103805.9862459458
  0
LINE
  5
2F5
100
AcDbEntity
  8
0
100
AcDbLine
 62
7
  6
CONTINUOUS
 10
109578.9447007012
 20
103812.6558494588
 11
109268.8523899467
 21
103823.8565167611
  0
LINE
  5
2F6
100
AcDbEntity
  8
0
100
AcDbLine
 62
7
  6
CONTINUOUS
 10
17071.9528554313
 20
102899.8265269474
 11
14621.9484850613
 21
102466.837673103
  0
LINE
  5
2F7
100
AcDbEntity
  8
0
100
AcDbLine
 62
7
  6
CONTINUOUS
 10
112221.7102151935
 20
102466.047610513
 11
109771.8526284961
 21
102898.8557841628
  0
LWPOLYLINE
  5
2F8
100
AcDbEntity
  8
0
100
AcDbPolyline
 62
7
  6
CONTINUOUS
 90
10
 70
0
 10
107691.5416353694
 20
103324.8557841628
 10
107705.5970810222
 20
103310.8243032522
 10
107715.4812250367
 20
103279.8618650183
 10
107719.7873452701
 20
103259.3663970396
 10
107724.60459892
 20
103231.4152119169
 10
107727.2370701318
 20
103213.9082493928
 10
107733.0158230437
 20
103169.9790051786
 10
107739.5721588641
 20
103111.0716719039
 10
107747.0234572965
 20
103032.5970207464
 10
107751.122745918
 20
102984.2833918395
  0
LINE
  5
2F9
100
AcDbEntity
  8
0
100
AcDbLine
 62
7
  6
CONTINUOUS
 10
107696.8526284961
 20
75001.8557841628
 11
107696.8526284961
 21
76666.6696589819
  0
LINE
  5
2FA
100
AcDbEntity
  8
0
100
AcDbLine
 62
7
  6
CONTINUOUS
 10
107696.8526284961
 20
102984.2833918395
 11
107696.8526284961
 21
104648.8557841629
  0
LINE
  5
2FB
100
AcDbEntity
  8
0
100
AcDbLine
 62
7
  6
CONTINUOUS
 10
108921.8523792617
 20
104674.8565124042
 11
108921.852379573
 21
104650.0612499099
  0
LINE
  5
2FC
100
AcDbEntity
  8
0
100
AcDbLine
 62
7
  6
CONTINUOUS
 10
108921.8526284962
 20
74999.6503210638
 11
108921.8526284962
 21
74974.8557841628
  0
LINE
  5
2FD
100
AcDbEntity
  8
0
100
AcDbLine
 62
7
  6
CONTINUOUS
 10
109244.8523896452
 20
103847.8565164597
 11
109201.8523792616
 21
104674.8565159198
  0
LINE
  5
2FE
100
AcDbEntity
  8
0
100
AcDbLine
 62
7
  6
CONTINUOUS
 10
109270.211871162
 20
103363.9081816018
 11
109272.2347291588
 21
103324.8557841628
  0
LINE
  5
2FF
100
AcDbEntity
  8
0
100
AcDbLine
 62
7
  6
CONTINUOUS
 10
109246.3813158618
 20
103823.9702908702
 11
109245.4016017676
 21
103842.8842157452
  0
LINE
  5
300
100
AcDbEntity
  8
0
100
AcDbLine
 62
7
  6
CONTINUOUS
 10
109371.8523954956
 20
103381.9043841646
 11
109371.8523962119
 21
103324.8557841628
  0
LINE
  5
301
100
AcDbEntity
  8
0
100
AcDbLine
 62
7
  6
CONTINUOUS
 10
109371.8526284962
 20
76674.8557841628
 11
109371.8526284962
 21
76267.8071429065
  0
LINE
  5
302
100
AcDbEntity
  8
0
100
AcDbLine
 62
7
  6
CONTINUOUS
 10
109771.8526284961
 20
75860.9267916478
 11
109771.8524015608
 21
76750.8550452489
  0
LINE
  5
303
100
AcDbEntity
  8
0
100
AcDbLine
 62
7
  6
CONTINUOUS
 10
109771.8526284961
 20
102898.8557841628
 11
109771.8523903848
 21
103788.7651186194
  0
LINE
  5
304
100
AcDbEntity
  8
0
100
AcDbLine
 62
7
  6
CONTINUOUS
 10
113421.8526284961
 20
77417.8557841629
 11
113421.8526284961
 21
102231.8557841627
  0
LINE
  5
305
100
AcDbEntity
  8
0
100
AcDbLine
 62
7
  6
CONTINUOUS
 10
109290.3642255616
 20
76674.8557841628
 11
109270.211871162
 21
76285.8033867238
  0
LINE
  5
306
100
AcDbEntity
  8
0
100
AcDbLine
 62
7
  6
CONTINUOUS
 10
109245.3331666979
 20
75805.5061755397
 11
109246.3813158618
 21
75825.7412774553
  0
LINE
  5
307
100
AcDbEntity
  8
0
100
AcDbLine
 62
7
  6
CONTINUOUS
 10
109201.852628496
 20
74974.8557841628
 11
109244.852628496
 21
75801.8557841627
  0
ARC
  5
308
100
AcDbEntity
  8
0
100
AcDbCircle
 62
7
  6
CONTINUOUS
 10
59876.058265526
 20
76046.8541960868
 40
199.9943629764
100
AcDbArc
 50
271.7748881466
 51
0.0004549631
  0
ARC
  5
309
100
AcDbEntity
  8
0
100
AcDbCircle
 62
7
  6
CONTINUOUS
 10
66967.8469914662
 20
103602.8573722388
 40
199.9943629764
100
AcDbArc
 50
91.7748881466
 51
180.0004549631
  0
ARC
  5
30A
100
AcDbEntity
  8
0
100
AcDbCircle
 62
7
  6
CONTINUOUS
 10
66967.7653075958
 20
76047.4719219398
 40
199.9126966896
100
AcDbArc
 50
180.0
 51
268.2191345567
  0
ARC
  5
30B
100
AcDbEntity
  8
0
100
AcDbCircle
 62
7
  6
CONTINUOUS
 10
59876.1399493963
 20
103602.2396463858
 40
199.9126966896
100
AcDbArc
 50
0.0
 51
88.2191345567
  0
ARC
  5
30C
100
AcDbEntity
  8
0
100
AcDbCircle
 62
7
  6
CONTINUOUS
 10
63222.0994577019
 20
77417.5915939791
 40
199.8533454134
100
AcDbArc
 50
271.9651147461
 51
358.6329511927
  0
ARC
  5
30D
100
AcDbEntity
  8
0
100
AcDbCircle
 62
7
  6
CONTINUOUS
 10
63621.7057992902
 20
77416.9915939791
 40
199.8533454134
100
AcDbArc
 50
180.6353663714
 51
268.0348852539
  0
ARC
  5
30E
100
AcDbEntity
  8
0
100
AcDbCircle
 62
7
  6
CONTINUOUS
 10
113221.9994577019
 20
77417.5915939791
 40
199.8533454134
100
AcDbArc
 50
271.9651147461
 51
359.9242595277
  0
ARC
  5
30F
100
AcDbEntity
  8
0
100
AcDbCircle
 62
7
  6
CONTINUOUS
 10
113221.9994577019
 20
102232.1199743465
 40
199.8533454134
100
AcDbArc
 50
0.0757404737
 51
88.0348852539
  0
ARC
  5
310
100
AcDbEntity
  8
0
100
AcDbCircle
 62
7
  6
CONTINUOUS
 10
63621.7057992902
 20
102231.5199743465
 40
199.8533454134
100
AcDbArc
 50
91.9651147461
 51
178.6329511927
  0
ARC
  5
311
100
AcDbEntity
  8
0
100
AcDbCircle
 62
7
  6
CONTINUOUS
 10
63222.0994577019
 20
102232.1199743465
 40
199.8533454134
100
AcDbArc
 50
0.6353663714
 51
88.0348852539
  0
ARC
  5
312
100
AcDbEntity
  8
0
100
AcDbCircle
 62
7
  6
CONTINUOUS
 10
13621.8057992903
 20
102231.5199743465
 40
199.8533454134
100
AcDbArc
 50
91.9651147461
 51
179.9242595277
  0
ARC
  5
313
100
AcDbEntity
  8
0
100
AcDbCircle
 62
7
  6
CONTINUOUS
 10
13621.8057992902
 20
77416.9915939791
 40
199.8533454134
100
AcDbArc
 50
180.0757404737
 51
268.0348852539
  0
ARC
  5
314
100
AcDbEntity
  8
0
100
AcDbCircle
 62
7
  6
CONTINUOUS
 10
62667.7488062416
 20
76920.9917982753
 40
47.1255642648
100
AcDbArc
 50
180.0
 51
273.5327370182
  0
ARC
  5
315
100
AcDbEntity
  8
0
100
AcDbCircle
 62
7
  6
CONTINUOUS
 10
64175.9564507505
 20
76920.9917982753
 40
47.1255642648
100
AcDbArc
 50
266.4672629818
 51
360.0
  0
ARC
  5
316
100
AcDbEntity
  8
0
100
AcDbCircle
 62
7
  6
CONTINUOUS
 10
64176.1564507505
 20
102728.7197700503
 40
47.1255642648
100
AcDbArc
 50
0.0
 51
93.5327370182
  0
ARC
  5
317
100
AcDbEntity
  8
0
100
AcDbCircle
 62
7
  6
CONTINUOUS
 10
62667.9488062416
 20
102728.7197700503
 40
47.1255642648
100
AcDbArc
 50
86.4672629818
 51
180.0
  0
ARC
  5
318
100
AcDbEntity
  8
0
100
AcDbCircle
 62
7
  6
CONTINUOUS
 10
59270.4526284962
 20
75800.3557841625
 40
25.5440795492
100
AcDbArc
 50
93.3664606635
 51
176.6335393362
  0
ARC
  5
319
100
AcDbEntity
  8
0
100
AcDbCircle
 62
7
  6
CONTINUOUS
 10
17573.452628496
 20
103849.3557841631
 40
25.5440795492
100
AcDbArc
 50
273.3664606634
 51
356.6335393361
  0
ARC
  5
31A
100
AcDbEntity
  8
0
100
AcDbCircle
 62
7
  6
CONTINUOUS
 10
67573.3526284959
 20
103849.3557841631
 40
25.5440795492
100
AcDbArc
 50
273.3664606635
 51
356.6335393362
  0
ARC
  5
31B
100
AcDbEntity
  8
0
100
AcDbCircle
 62
7
  6
CONTINUOUS
 10
109270.3526284962
 20
75800.3557841625
 40
25.5440795492
100
AcDbArc
 50
93.3664606634
 51
176.6335393361
  0
ARC
  5
31C
100
AcDbEntity
  8
0
100
AcDbCircle
 62
7
  6
CONTINUOUS
 10
17574.8017545601
 20
75801.7039387739
 40
24.1515855382
100
AcDbArc
 50
0.3584940161
 51
89.641507423
  0
ARC
  5
31D
100
AcDbEntity
  8
0
100
AcDbCircle
 62
7
  6
CONTINUOUS
 10
59269.1035024321
 20
103848.0076295517
 40
24.1515855382
100
AcDbArc
 50
180.3584940161
 51
269.641507423
  0
ARC
  5
31E
100
AcDbEntity
  8
0
100
AcDbCircle
 62
7
  6
CONTINUOUS
 10
109269.0035024321
 20
103848.0076295517
 40
24.1515855382
100
AcDbArc
 50
180.3584940161
 51
269.641507423
  0
ARC
  5
31F
100
AcDbEntity
  8
0
100
AcDbCircle
 62
7
  6
CONTINUOUS
 10
67574.7017545601
 20
75801.7039387739
 40
24.1515855382
100
AcDbArc
 50
0.3584940161
 51
89.641507423
  0
ENDSEC
  0
SECTION
  2
OBJECTS
  0
DICTIONARY
  5
C
100
AcDbDictionary
280
0
281
1
  3
ACAD_GROUP
350
D
  3
ACAD_MLINESTYLE
350
17
  3
ACAD_LAYOUT
350
1A
  3
ACAD_PLOTSETTINGS
350
19
  3
ACAD_PLOTSTYLENAME
350
E
  0
DICTIONARY
  5
D
102
{ACAD_REACTORS
330
C
102
}
100
AcDbDictionary
280
0
281
1
  0
ACDBDICTIONARYWDFLT
  5
E
102
{ACAD_REACTORS
330
C
102
}
100
AcDbDictionary
281
1
  3
Normal
350
F
100
AcDbDictionaryWithDefault
340
F
  0
DICTIONARY
  5
17
102
{ACAD_REACTORS
330
C
102
}
100
AcDbDictionary
280
0
281
1
  3
Standard
350
18
  0
DICTIONARY
  5
19
102
{ACAD_REACTORS
330
C
102
}
100
AcDbDictionary
281
1
  0
DICTIONARY
  5
1A
102
{ACAD_REACTORS
330
C
102
}
100
AcDbDictionary
281
1
  3
Model
350
320
  3
Layout1
350
321
  0
ACDBPLACEHOLDER
  5
F
102
{ACAD_REACTORS
330
E
102
}
  0
MLINESTYLE
  5
18
102
{ACAD_REACTORS
330
17
102
}
100
AcDbMlineStyle
  2
STANDARD
 70
0
  3

 62
256
 51
90.0
 52
90.0
 71
2
 49
0.5
 62
256
  6
BYLAYER
 49
-0.5
 62
256
  6
BYLAYER
  0
LAYOUT
  5
320
102
{ACAD_REACTORS
330
1A
102
}
100
AcDbPlotSettings
  1

  2
none_device
  4

  6

 40
0.0
 41
0.0
 42
0.0
 43
0.0
 44
210.0
 45
297.0
 46
0.0
 47
0.0
 48
0.0
 49
0.0
140
0.0
141
0.0
142
1.0
143
1.0
 70
1024
 72
1
 73
0
 74
0
  7

 75
0
147
1.0
148
0.0
149
0.0
100
AcDbLayout
  1
Model
 70
0
 71
0
 10
0.0
 20
0.0
 11
210.0
 21
297.0
 12
0.0
 22
0.0
 32
0.0
 14
0.0
 24
0.0
 34
0.0
 15
0.0
 25
0.0
 35
0.0
146
0.0
 13
0.0
 23
0.0
 33
0.0
 16
1.0
 26
0.0
 36
0.0
 17
0.0
 27
1.0
 37
0.0
 76
0
330
210
345
0
346
0
  0
LAYOUT
  5
321
102
{ACAD_REACTORS
330
1A
102
}
100
AcDbPlotSettings
  1

  2
none_device
  4

  6

 40
0.0
 41
0.0
 42
0.0
 43
0.0
 44
210.0
 45
297.0
 46
0.0
 47
0.0
 48
0.0
 49
0.0
140
0.0
141
0.0
142
1.0
143
1.0
 70
0
 72
1
 73
0
 74
0
  7

 75
0
147
1.0
148
0.0
149
0.0
100
AcDbLayout
  1
Layout1
 70
0
 71
1
 10
0.0
 20
0.0
 11
210.0
 21
297.0
 12
0.0
 22
0.0
 32
0.0
 14
0.0
 24
0.0
 34
0.0
 15
0.0
 25
0.0
 35
0.0
146
0.0
 13
0.0
 23
0.0
 33
0.0
 16
1.0
 26
0.0
 36
0.0
 17
0.0
 27
1.0
 37
0.0
 76
0
330
211
345
0
346
0
  0
ENDSEC
  0
EOF
