999
DXF file: C:\2D\Gen2D\CAD\LC1G265EHES207N\drw0001_4.dxf
999
Pro/ENGINEER 2019471 by Parametric Technology Corporation
  0
SECTION
  2
HEADER
  9
$ACADVER
  1
AC1024
  9
$DWGCODEPAGE
  3
ANSI_1252
  9
$EXTMAX
 10
187.0176586004
 20
264.4964028777
 30
0.0
  9
$EXTMIN
 10
0.0
 20
0.0
 30
0.0
  9
$LIMMIN
 10
0.0
 20
0.0
  9
$LIMMAX
 10
187.0176586004
 20
264.4964028777
  9
$VIEWCTR
 10
93.5088293002
 20
132.2482014389
  9
$VIEWSIZE
 40
264.4964028777
  9
$CLAYER
  8
0
  9
$LTSCALE
 40
17.2412470024
  9
$CELTYPE
  6
BYLAYER
  9
$DIMSCALE
 40
1.0
  9
$DIMASZ
 40
2.2264006976
  9
$DIMEXO
 40
1.0
  9
$DIMDLI
 40
11.9121342926
  9
$DIMEXE
 40
1.0
  9
$DIMCEN
 40
2.821294964
  9
$DIMLFAC
 40
1.0
  9
$DIMBLK
  1
_FILLED
  9
$DIMALT
 70
0
  9
$DIMALTF
 40
0.0393700787
  9
$DIMTXT
 40
3.1169609767
  9
$DIMTOL
 70
1
  9
$DIMLIM
 70
0
  9
$DIMTFAC
 40
1.0
  9
$DIMTP
 40
0.01
  9
$DIMTM
 40
0.01
  9
$DIMGAP
 40
0.625
  9
$DIMDSEP
 70
46
  9
$AUNITS
 70
0
  9
$PDMODE
 70
3
  9
$PDSIZE
 40
0.3125
  9
$HANDSEED
  5
6C2
  9
$TILEMODE
 70
1
  9
$MEASUREMENT
 70
1
  9
$INSUNITS
 70
4
  0
ENDSEC
  0
SECTION
  2
CLASSES
  0
CLASS
  1
ACDBDICTIONARYWDFLT
  2
AcDbDictionaryWithDefault
  3
AutoCAD 2000
 90
0
 91
1
280
0
281
0
  0
CLASS
  1
ACDBPLACEHOLDER
  2
AcDbPlaceHolder
  3
AutoCAD 2000
 90
0
 91
1
280
0
281
0
  0
CLASS
  1
LAYOUT
  2
AcDbLayout
  3
AutoCAD 2000
 90
0
 91
0
280
0
281
0
  0
ENDSEC
  0
SECTION
  2
TABLES
  0
TABLE
  2
VPORT
  5
8
100
AcDbSymbolTable
 70
2
  0
VPORT
  5
1F4
100
AcDbSymbolTableRecord
100
AcDbViewportTableRecord
  2
*ACTIVE
 70
0
 10
0.0
 20
0.0
 11
1.0
 21
1.0
 12
93.5088293002
 22
132.2482014389
 13
0.0
 23
0.0
 14
1.0
 24
1.0
 15
0.0
 25
0.0
 16
0.0
 26
0.0
 36
1.0
 17
0.0
 27
0.0
 37
0.0
 40
264.4964028777
 41
0.7070707071
 42
50.0
 43
0.0
 44
0.0
 50
0.0
 51
0.0
 71
0
 72
100
 73
1
 74
1
 75
0
 76
0
 77
0
 78
0
  0
ENDTAB
  0
TABLE
  2
LTYPE
  5
5
100
AcDbSymbolTable
 70
6
  0
LTYPE
  5
14
100
AcDbSymbolTableRecord
100
AcDbLinetypeTableRecord
  2
BYBLOCK
 70
0
  3

 72
65
 73
0
 40
0.0
  0
LTYPE
  5
15
100
AcDbSymbolTableRecord
100
AcDbLinetypeTableRecord
  2
BYLAYER
 70
0
  3

 72
65
 73
0
 40
0.0
  0
LTYPE
  5
16
100
AcDbSymbolTableRecord
100
AcDbLinetypeTableRecord
  2
CONTINUOUS
 70
64
  3
Solid line
 72
65
 73
0
 40
0.0
  0
LTYPE
  5
1F5
100
AcDbSymbolTableRecord
100
AcDbLinetypeTableRecord
  2
CENTER
 70
64
  3
____ _ ____ _ ____ _ ____ _ ____ _ ____ _ ____
 72
65
 73
4
 40
0.6
 49
0.375
 74
0
 49
-0.075
 74
0
 49
0.075
 74
0
 49
-0.075
 74
0
  0
LTYPE
  5
1F6
100
AcDbSymbolTableRecord
100
AcDbLinetypeTableRecord
  2
HIDDEN
 70
64
  3
- - - - - - - - - - - - - - - - - - - -
 72
65
 73
2
 40
0.2
 49
0.1
 74
0
 49
-0.1
 74
0
  0
LTYPE
  5
1F7
100
AcDbSymbolTableRecord
100
AcDbLinetypeTableRecord
  2
PHANTOM
 70
64
  3
_____ _ _ _____ _ _ _____ _ _ _____
 72
65
 73
6
 40
0.8
 49
0.45
 74
0
 49
-0.05
 74
0
 49
0.1
 74
0
 49
-0.05
 74
0
 49
0.1
 74
0
 49
-0.05
 74
0
  0
LTYPE
  5
1F8
100
AcDbSymbolTableRecord
100
AcDbLinetypeTableRecord
  2
DOT
 70
64
  3
. . . . . . . . . . . . . . . . . . . .
 72
65
 73
2
 40
0.2
 49
0.1
 74
0
 49
-0.1
 74
0
  0
LTYPE
  5
1F9
100
AcDbSymbolTableRecord
100
AcDbLinetypeTableRecord
  2
DASHED
 70
64
  3
- - - - - - - - - - - - - - - - - - - -
 72
65
 73
2
 40
0.2
 49
0.1
 74
0
 49
-0.1
 74
0
  0
ENDTAB
  0
TABLE
  2
LAYER
  5
2
100
AcDbSymbolTable
 70
36
  0
LAYER
  5
10
100
AcDbSymbolTableRecord
100
AcDbLayerTableRecord
  2
0
 70
0
 62
7
  6
CONTINUOUS
370
-3
390
F
  0
LAYER
  5
1FA
100
AcDbSymbolTableRecord
100
AcDbLayerTableRecord
  2
DEFAULT_1
 70
0
 62
7
  6
CENTER
370
-3
390
F
  0
LAYER
  5
1FB
100
AcDbSymbolTableRecord
100
AcDbLayerTableRecord
  2
DEFAULT_2
 70
0
 62
8
  6
HIDDEN
370
-3
390
F
  0
LAYER
  5
1FC
100
AcDbSymbolTableRecord
100
AcDbLayerTableRecord
  2
DEFAULT_3
 70
0
 62
7
  6
PHANTOM
370
-3
390
F
  0
LAYER
  5
1FD
100
AcDbSymbolTableRecord
100
AcDbLayerTableRecord
  2
00_COMPONENTS
 70
0
 62
7
  6
CONTINUOUS
370
-3
390
F
  0
LAYER
  5
1FE
100
AcDbSymbolTableRecord
100
AcDbLayerTableRecord
  2
01_1_DEFAULT_DATUMS
 70
0
 62
7
  6
CONTINUOUS
370
-3
390
F
  0
LAYER
  5
1FF
100
AcDbSymbolTableRecord
100
AcDbLayerTableRecord
  2
01_PLANES
 70
0
 62
7
  6
CONTINUOUS
370
-3
390
F
  0
LAYER
  5
200
100
AcDbSymbolTableRecord
100
AcDbLayerTableRecord
  2
02_COORD_SYS
 70
0
 62
7
  6
CONTINUOUS
370
-3
390
F
  0
LAYER
  5
201
100
AcDbSymbolTableRecord
100
AcDbLayerTableRecord
  2
03_AXES
 70
0
 62
7
  6
CONTINUOUS
370
-3
390
F
  0
LAYER
  5
202
100
AcDbSymbolTableRecord
100
AcDbLayerTableRecord
  2
04_POINTS
 70
0
 62
7
  6
CONTINUOUS
370
-3
390
F
  0
LAYER
  5
203
100
AcDbSymbolTableRecord
100
AcDbLayerTableRecord
  2
05_CURVES
 70
0
 62
7
  6
CONTINUOUS
370
-3
390
F
  0
LAYER
  5
204
100
AcDbSymbolTableRecord
100
AcDbLayerTableRecord
  2
06_SURFS
 70
0
 62
7
  6
CONTINUOUS
370
-3
390
F
  0
LAYER
  5
205
100
AcDbSymbolTableRecord
100
AcDbLayerTableRecord
  2
07_COSMETICS
 70
0
 62
7
  6
CONTINUOUS
370
-3
390
F
  0
LAYER
  5
206
100
AcDbSymbolTableRecord
100
AcDbLayerTableRecord
  2
10_NOTES
 70
0
 62
7
  6
CONTINUOUS
370
-3
390
F
  0
LAYER
  5
207
100
AcDbSymbolTableRecord
100
AcDbLayerTableRecord
  2
11_NOTES_PUB
 70
0
 62
7
  6
CONTINUOUS
370
-3
390
F
  0
LAYER
  5
208
100
AcDbSymbolTableRecord
100
AcDbLayerTableRecord
  2
13_REF_GTOL
 70
0
 62
7
  6
CONTINUOUS
370
-3
390
F
  0
LAYER
  5
209
100
AcDbSymbolTableRecord
100
AcDbLayerTableRecord
  2
16_MISC
 70
0
 62
7
  6
CONTINUOUS
370
-3
390
F
  0
LAYER
  5
20A
100
AcDbSymbolTableRecord
100
AcDbLayerTableRecord
  2
17_NO_PRINT
 70
0
 62
7
  6
CONTINUOUS
370
-3
390
F
  0
LAYER
  5
20B
100
AcDbSymbolTableRecord
100
AcDbLayerTableRecord
  2
18_DATUM_CAMS_JOINTS
 70
0
 62
7
  6
CONTINUOUS
370
-3
390
F
  0
LAYER
  5
20C
100
AcDbSymbolTableRecord
100
AcDbLayerTableRecord
  2
19_DATUM_FUNCTIONAL
 70
0
 62
7
  6
CONTINUOUS
370
-3
390
F
  0
LAYER
  5
20D
100
AcDbSymbolTableRecord
100
AcDbLayerTableRecord
  2
20_DATUM_KINEMATIC_SCHEME
 70
0
 62
7
  6
CONTINUOUS
370
-3
390
F
  0
LAYER
  5
20E
100
AcDbSymbolTableRecord
100
AcDbLayerTableRecord
  2
INTFCLR_9
 70
0
 62
7
  6
CONTINUOUS
370
-3
390
F
  0
LAYER
  5
20F
100
AcDbSymbolTableRecord
100
AcDbLayerTableRecord
  2
INTF_BLANK
 70
0
 62
7
  6
CONTINUOUS
370
-3
390
F
  0
LAYER
  5
210
100
AcDbSymbolTableRecord
100
AcDbLayerTableRecord
  2
_BLACK_HOLE
 70
0
 62
7
  6
CONTINUOUS
370
-3
390
F
  0
ENDTAB
  0
TABLE
  2
STYLE
  5
3
100
AcDbSymbolTable
 70
1
  0
STYLE
  5
11
100
AcDbSymbolTableRecord
100
AcDbTextStyleTableRecord
  2
STANDARD
 70
0
 40
0.0
 41
0.8
 50
0.0
 71
0
 42
0.2
  3
txt
  4

  0
STYLE
  5
211
100
AcDbSymbolTableRecord
100
AcDbTextStyleTableRecord
  2
TEXTSTYLE_1
 70
0
 40
0.0
 41
0.8
 50
0.0
 71
0
 42
0.2
  3
gdt
  4

  0
ENDTAB
  0
TABLE
  2
VIEW
  5
6
100
AcDbSymbolTable
 70
0
  0
ENDTAB
  0
TABLE
  2
UCS
  5
7
100
AcDbSymbolTable
 70
0
  0
ENDTAB
  0
TABLE
  2
APPID
  5
9
100
AcDbSymbolTable
 70
1
  0
APPID
  5
212
100
AcDbSymbolTableRecord
100
AcDbRegAppTableRecord
  2
ACAD
 70
0
  0
ENDTAB
  0
TABLE
  2
BLOCK_RECORD
  5
1
100
AcDbSymbolTable
 70
0
  0
BLOCK_RECORD
  5
213
100
AcDbSymbolTableRecord
100
AcDbBlockTableRecord
  2
*Model_Space
  0
BLOCK_RECORD
  5
214
100
AcDbSymbolTableRecord
100
AcDbBlockTableRecord
  2
*Paper_Space
  0
BLOCK_RECORD
  5
215
100
AcDbSymbolTableRecord
100
AcDbBlockTableRecord
  2
_FILLED
  0
ENDTAB
  0
TABLE
  2
DIMSTYLE
  5
A
100
AcDbSymbolTable
 70
1
100
AcDbDimStyleTable
 71
0
  0
DIMSTYLE
105
216
100
AcDbSymbolTableRecord
100
AcDbDimStyleTableRecord
  2
STANDARD
 70
0
  3

  4

 40
1.0
 41
2.2264006976
 42
1.0
 43
0.38
 44
1.0
 45
0.0
 46
0.0
 47
0.01
 48
0.01
140
3.1169609767
141
0.09
142
0.0
143
25.4
144
1.0
145
0.0
146
1.0
147
0.625
 71
1
 72
0
 73
0
 74
0
 75
0
 76
0
 77
1
 78
8
 79
2
170
0
171
1
172
0
173
0
174
0
175
0
176
0
177
0
178
0
270
2
179
2
271
2
272
2
273
2
274
2
275
0
280
0
281
0
282
0
283
1
284
8
285
0
286
0
287
3
288
0
340
11
278
46
341
215
342
215
343
215
344
215
  0
ENDTAB
  0
ENDSEC
  0
SECTION
  2
BLOCKS
  0
BLOCK
  5
20
100
AcDbEntity
  8
0
100
AcDbBlockBegin
  2
*Model_Space
 70
0
 10
0.0
 20
0.0
 30
0.0
  3
*Model_Space
  1

  0
ENDBLK
  5
21
100
AcDbEntity
  8
0
100
AcDbBlockEnd
  0
BLOCK
  5
1C
100
AcDbEntity
  8
0
100
AcDbBlockBegin
  2
*Paper_Space
 70
0
 10
0.0
 20
0.0
 30
0.0
  3
*Paper_Space
  1

  0
ENDBLK
  5
1D
100
AcDbEntity
  8
0
100
AcDbBlockEnd
  0
BLOCK
  5
217
100
AcDbEntity
  8
0
100
AcDbBlockBegin
  2
_FILLED
 70
64
 10
0.0
 20
0.0
  3
_FILLED
  1

  0
SOLID
  5
218
100
AcDbEntity
  8
0
  6
BYBLOCK
 62
0
100
AcDbTrace
 10
0.0
 20
0.0
 11
-1.0
 21
0.25
 12
-1.0
 22
-0.25
 13
-1.0
 23
-0.25
  0
ENDBLK
  5
219
100
AcDbEntity
  8
0
  6
BYBLOCK
 62
0
100
AcDbBlockEnd
  0
ENDSEC
  0
SECTION
  2
ENTITIES
  0
LINE
  5
21A
100
AcDbEntity
  8
0
100
AcDbLine
 62
7
  6
CONTINUOUS
 10
28.3909206543
 20
19.5336129996
 11
28.8909016158
 21
19.5379762673
  0
LINE
  5
21B
100
AcDbEntity
  8
0
100
AcDbLine
 62
7
  6
CONTINUOUS
 10
162.7831526607
 20
18.9388489209
 11
157.6812807292
 21
18.9388489209
  0
LINE
  5
21C
100
AcDbEntity
  8
0
100
AcDbLine
 62
7
  6
CONTINUOUS
 10
79.0927697395
 20
18.9388489209
 11
75.6168418238
 21
18.9388489209
  0
LINE
  5
21D
100
AcDbEntity
  8
0
100
AcDbLine
 62
7
  6
CONTINUOUS
 10
71.1572086449
 20
18.9388489209
 11
67.6812807292
 21
18.9388489209
  0
LINE
  5
21E
100
AcDbEntity
  8
0
100
AcDbLine
 62
7
  6
CONTINUOUS
 10
34.0927697395
 20
18.9388489209
 11
28.9908978078
 21
18.9388489209
  0
LINE
  5
21F
100
AcDbEntity
  8
0
100
AcDbLine
 62
7
  6
CONTINUOUS
 10
34.1870252353
 20
18.9388489209
 11
67.5870252342
 21
18.9388489209
  0
LINE
  5
220
100
AcDbEntity
  8
0
100
AcDbLine
 62
7
  6
CONTINUOUS
 10
79.1870252353
 20
18.9388489209
 11
112.5870252342
 21
18.9388489209
  0
LINE
  5
221
100
AcDbEntity
  8
0
100
AcDbLine
 62
7
  6
CONTINUOUS
 10
112.6812807292
 20
18.9388489209
 11
116.6370252344
 21
18.9388489209
  0
LINE
  5
222
100
AcDbEntity
  8
0
100
AcDbLine
 62
7
  6
CONTINUOUS
 10
120.1370252344
 20
18.9388489209
 11
124.0927697395
 21
18.9388489209
  0
LINE
  5
223
100
AcDbEntity
  8
0
100
AcDbLine
 62
7
  6
CONTINUOUS
 10
124.1870252353
 20
18.9388489209
 11
157.5870252342
 21
18.9388489209
  0
LINE
  5
224
100
AcDbEntity
  8
0
100
AcDbLine
 62
7
  6
CONTINUOUS
 10
43.7334353959
 20
19.0388489209
 11
47.2870252344
 21
19.0388489209
  0
LINE
  5
225
100
AcDbEntity
  8
0
100
AcDbLine
 62
7
  6
CONTINUOUS
 10
54.4870252344
 20
19.0388489209
 11
58.0406150728
 21
19.0388489209
  0
LINE
  5
226
100
AcDbEntity
  8
0
100
AcDbLine
 62
7
  6
CONTINUOUS
 10
88.7334353959
 20
19.0388489209
 11
92.2870252344
 21
19.0388489209
  0
LINE
  5
227
100
AcDbEntity
  8
0
100
AcDbLine
 62
7
  6
CONTINUOUS
 10
99.4870252344
 20
19.0388489209
 11
103.0406150728
 21
19.0388489209
  0
LINE
  5
228
100
AcDbEntity
  8
0
100
AcDbLine
 62
7
  6
CONTINUOUS
 10
133.7334353959
 20
19.0388489209
 11
137.2870252344
 21
19.0388489209
  0
LINE
  5
229
100
AcDbEntity
  8
0
100
AcDbLine
 62
7
  6
CONTINUOUS
 10
144.4870252344
 20
19.0388489209
 11
148.0406150729
 21
19.0388489209
  0
LINE
  5
22A
100
AcDbEntity
  8
0
100
AcDbLine
 62
7
  6
CONTINUOUS
 10
155.4870251684
 20
19.4388489294
 11
148.6179653458
 21
19.4388489274
  0
LINE
  5
22B
100
AcDbEntity
  8
0
100
AcDbLine
 62
7
  6
CONTINUOUS
 10
143.8870252344
 20
19.438848926
 11
137.8870252344
 21
19.4388489243
  0
LINE
  5
22C
100
AcDbEntity
  8
0
100
AcDbLine
 62
7
  6
CONTINUOUS
 10
133.1560851255
 20
19.4388489229
 11
126.2870252991
 21
19.4388489209
  0
LINE
  5
22D
100
AcDbEntity
  8
0
100
AcDbLine
 62
7
  6
CONTINUOUS
 10
110.4870251684
 20
19.4388489294
 11
103.6179653458
 21
19.4388489274
  0
LINE
  5
22E
100
AcDbEntity
  8
0
100
AcDbLine
 62
7
  6
CONTINUOUS
 10
98.8870252344
 20
19.438848926
 11
92.8870252344
 21
19.4388489243
  0
LINE
  5
22F
100
AcDbEntity
  8
0
100
AcDbLine
 62
7
  6
CONTINUOUS
 10
88.1560851255
 20
19.4388489229
 11
81.2870252991
 21
19.4388489209
  0
LINE
  5
230
100
AcDbEntity
  8
0
100
AcDbLine
 62
7
  6
CONTINUOUS
 10
65.4870251684
 20
19.4388489294
 11
58.6179653458
 21
19.4388489274
  0
LINE
  5
231
100
AcDbEntity
  8
0
100
AcDbLine
 62
7
  6
CONTINUOUS
 10
53.8870252344
 20
19.438848926
 11
47.8870252344
 21
19.4388489243
  0
LINE
  5
232
100
AcDbEntity
  8
0
100
AcDbLine
 62
7
  6
CONTINUOUS
 10
43.1560851255
 20
19.4388489229
 11
36.2870252991
 21
19.4388489209
  0
LINE
  5
233
100
AcDbEntity
  8
0
100
AcDbLine
 62
7
  6
CONTINUOUS
 10
28.9917962726
 20
19.4388501899
 11
35.6870252344
 21
19.4388489209
  0
LINE
  5
234
100
AcDbEntity
  8
0
100
AcDbLine
 62
7
  6
CONTINUOUS
 10
66.0870252344
 20
19.4388489209
 11
67.1407561313
 21
19.4388489209
  0
LINE
  5
235
100
AcDbEntity
  8
0
100
AcDbLine
 62
7
  6
CONTINUOUS
 10
67.1838918931
 20
19.4388489209
 11
71.5742112178
 21
19.4388489209
  0
LINE
  5
236
100
AcDbEntity
  8
0
100
AcDbLine
 62
7
  6
CONTINUOUS
 10
75.1996895666
 20
19.4388489209
 11
79.5901585757
 21
19.4388489209
  0
LINE
  5
237
100
AcDbEntity
  8
0
100
AcDbLine
 62
7
  6
CONTINUOUS
 10
79.6430260858
 20
19.4388489209
 11
80.6870252344
 21
19.4388489209
  0
LINE
  5
238
100
AcDbEntity
  8
0
100
AcDbLine
 62
7
  6
CONTINUOUS
 10
111.0870252344
 20
19.4388489209
 11
112.140970109
 21
19.4388489209
  0
LINE
  5
239
100
AcDbEntity
  8
0
100
AcDbLine
 62
7
  6
CONTINUOUS
 10
112.1838918931
 20
19.4388489209
 11
116.5742112178
 21
19.4388489209
  0
LINE
  5
23A
100
AcDbEntity
  8
0
100
AcDbLine
 62
7
  6
CONTINUOUS
 10
120.1996895666
 20
19.4388489209
 11
124.5901585756
 21
19.4388489209
  0
LINE
  5
23B
100
AcDbEntity
  8
0
100
AcDbLine
 62
7
  6
CONTINUOUS
 10
124.6435524309
 20
19.4388489209
 11
125.6870252344
 21
19.4388489209
  0
LINE
  5
23C
100
AcDbEntity
  8
0
100
AcDbLine
 62
7
  6
CONTINUOUS
 10
156.0870252344
 20
19.4388489209
 11
157.140970109
 21
19.4388489209
  0
LINE
  5
23D
100
AcDbEntity
  8
0
100
AcDbLine
 62
7
  6
CONTINUOUS
 10
157.1838918931
 20
19.4388489209
 11
162.7831678061
 21
19.4388489209
  0
LINE
  5
23E
100
AcDbEntity
  8
0
100
AcDbLine
 62
7
  6
CONTINUOUS
 10
157.1349827844
 20
22.2388489209
 11
156.0870252344
 21
22.2388489209
  0
LINE
  5
23F
100
AcDbEntity
  8
0
100
AcDbLine
 62
7
  6
CONTINUOUS
 10
125.6870252344
 20
22.2388489209
 11
124.6390676843
 21
22.2388489209
  0
LINE
  5
240
100
AcDbEntity
  8
0
100
AcDbLine
 62
7
  6
CONTINUOUS
 10
112.1351967619
 20
22.2388489209
 11
111.0870252344
 21
22.2388489209
  0
LINE
  5
241
100
AcDbEntity
  8
0
100
AcDbLine
 62
7
  6
CONTINUOUS
 10
80.6870252344
 20
22.2388489209
 11
79.6388537068
 21
22.2388489209
  0
LINE
  5
242
100
AcDbEntity
  8
0
100
AcDbLine
 62
7
  6
CONTINUOUS
 10
67.1349827844
 20
22.2388489209
 11
66.0870252344
 21
22.2388489209
  0
LINE
  5
243
100
AcDbEntity
  8
0
100
AcDbLine
 62
7
  6
CONTINUOUS
 10
35.6870252344
 20
22.2388489209
 11
34.6390676843
 21
22.2388489209
  0
LINE
  5
244
100
AcDbEntity
  8
0
100
AcDbLine
 62
7
  6
CONTINUOUS
 10
34.635926063
 20
22.8388489209
 11
36.2870252344
 21
22.8388489209
  0
LINE
  5
245
100
AcDbEntity
  8
0
100
AcDbLine
 62
7
  6
CONTINUOUS
 10
65.4870252344
 20
22.8388489209
 11
67.1381244057
 21
22.8388489209
  0
LINE
  5
246
100
AcDbEntity
  8
0
100
AcDbLine
 62
7
  6
CONTINUOUS
 10
79.6357120854
 20
22.8388489209
 11
81.2870252344
 21
22.8388489209
  0
LINE
  5
247
100
AcDbEntity
  8
0
100
AcDbLine
 62
7
  6
CONTINUOUS
 10
110.4870252344
 20
22.8388489209
 11
112.1383383833
 21
22.8388489209
  0
LINE
  5
248
100
AcDbEntity
  8
0
100
AcDbLine
 62
7
  6
CONTINUOUS
 10
124.635926063
 20
22.8388489209
 11
126.2870252344
 21
22.8388489209
  0
LINE
  5
249
100
AcDbEntity
  8
0
100
AcDbLine
 62
7
  6
CONTINUOUS
 10
155.4870252344
 20
22.8388489209
 11
157.1381244058
 21
22.8388489209
  0
LINE
  5
24A
100
AcDbEntity
  8
0
100
AcDbLine
 62
7
  6
CONTINUOUS
 10
46.2682230808
 20
25.0388489209
 11
55.5058273879
 21
25.0388489209
  0
LINE
  5
24B
100
AcDbEntity
  8
0
100
AcDbLine
 62
7
  6
CONTINUOUS
 10
91.2682230808
 20
25.0388489209
 11
100.5058273879
 21
25.0388489209
  0
LINE
  5
24C
100
AcDbEntity
  8
0
100
AcDbLine
 62
7
  6
CONTINUOUS
 10
136.2682230809
 20
25.0388489209
 11
145.5058273879
 21
25.0388489209
  0
LINE
  5
24D
100
AcDbEntity
  8
0
100
AcDbLine
 62
7
  6
CONTINUOUS
 10
162.8831488529
 20
19.5379762673
 11
163.3831298144
 21
19.5336129996
  0
LINE
  5
24E
100
AcDbEntity
  8
0
100
AcDbLine
 62
7
  6
CONTINUOUS
 10
35.8870252343
 20
230.8484678641
 11
43.2138201537
 21
243.5388489209
  0
LINE
  5
24F
100
AcDbEntity
  8
0
100
AcDbLine
 62
7
  6
CONTINUOUS
 10
41.6494209273
 20
229.8388489209
 11
46.2682230808
 21
237.8388489209
  0
LINE
  5
250
100
AcDbEntity
  8
0
100
AcDbLine
 62
7
  6
CONTINUOUS
 10
66.0870252344
 20
240.6388489209
 11
65.4870252344
 21
240.0388489209
  0
LINE
  5
251
100
AcDbEntity
  8
0
100
AcDbLine
 62
7
  6
CONTINUOUS
 10
28.7911585379
 20
30.9674009257
 11
28.2911775763
 21
30.9630376579
  0
LINE
  5
252
100
AcDbEntity
  8
0
100
AcDbLine
 62
7
  6
CONTINUOUS
 10
67.3121216028
 20
31.92884681
 11
68.5070252459
 21
31.9388489203
  0
LINE
  5
253
100
AcDbEntity
  8
0
100
AcDbLine
 62
7
  6
CONTINUOUS
 10
112.3119840843
 20
31.9324601531
 11
113.5070252463
 21
31.9388489202
  0
LINE
  5
254
100
AcDbEntity
  8
0
100
AcDbLine
 62
7
  6
CONTINUOUS
 10
160.6870252344
 20
30.9588489207
 11
160.1870252344
 21
30.9588489207
  0
LINE
  5
255
100
AcDbEntity
  8
0
100
AcDbLine
 62
7
  6
CONTINUOUS
 10
122.7870252343
 20
30.9588489207
 11
122.2870252343
 21
30.9588489207
  0
LINE
  5
256
100
AcDbEntity
  8
0
100
AcDbLine
 62
7
  6
CONTINUOUS
 10
114.4870252344
 20
30.9588489207
 11
113.9870252344
 21
30.9588489207
  0
LINE
  5
257
100
AcDbEntity
  8
0
100
AcDbLine
 62
7
  6
CONTINUOUS
 10
77.7870252343
 20
30.9588489207
 11
77.2870252343
 21
30.9588489207
  0
LINE
  5
258
100
AcDbEntity
  8
0
100
AcDbLine
 62
7
  6
CONTINUOUS
 10
69.4870252344
 20
30.9588489207
 11
68.9870252344
 21
30.9588489207
  0
LINE
  5
259
100
AcDbEntity
  8
0
100
AcDbLine
 62
7
  6
CONTINUOUS
 10
31.5870252343
 20
30.9588489207
 11
31.0870252343
 21
30.9588489207
  0
LINE
  5
25A
100
AcDbEntity
  8
0
100
AcDbLine
 62
7
  6
CONTINUOUS
 10
165.8870252344
 20
31.4388489209
 11
163.9628546155
 21
31.4388489209
  0
LINE
  5
25B
100
AcDbEntity
  8
0
100
AcDbLine
 62
7
  6
CONTINUOUS
 10
159.7070252329
 20
31.4388489208
 11
157.8877730892
 21
31.4388489208
  0
LINE
  5
25C
100
AcDbEntity
  8
0
100
AcDbLine
 62
7
  6
CONTINUOUS
 10
123.9850107449
 20
31.4388489208
 11
123.2670252344
 21
31.4388489208
  0
LINE
  5
25D
100
AcDbEntity
  8
0
100
AcDbLine
 62
7
  6
CONTINUOUS
 10
113.507025233
 20
31.4388489208
 11
112.7890397238
 21
31.4388489208
  0
LINE
  5
25E
100
AcDbEntity
  8
0
100
AcDbLine
 62
7
  6
CONTINUOUS
 10
78.9850107449
 20
31.4388489208
 11
78.2670252344
 21
31.4388489208
  0
LINE
  5
25F
100
AcDbEntity
  8
0
100
AcDbLine
 62
7
  6
CONTINUOUS
 10
68.507025233
 20
31.4388489208
 11
67.7890397238
 21
31.4388489208
  0
LINE
  5
260
100
AcDbEntity
  8
0
100
AcDbLine
 62
7
  6
CONTINUOUS
 10
34.0085145803
 20
31.4388489208
 11
32.0670252344
 21
31.4388489208
  0
LINE
  5
261
100
AcDbEntity
  8
0
100
AcDbLine
 62
7
  6
CONTINUOUS
 10
27.811195852
 20
31.4388489209
 11
25.8870252344
 21
31.4388489209
  0
LINE
  5
262
100
AcDbEntity
  8
0
100
AcDbLine
 62
7
  6
CONTINUOUS
 10
25.8870252344
 20
31.9388489209
 11
27.811195859
 21
31.9388489203
  0
LINE
  5
263
100
AcDbEntity
  8
0
100
AcDbLine
 62
7
  6
CONTINUOUS
 10
32.0670252331
 20
31.9388489207
 11
34.4618757033
 21
31.9388489208
  0
LINE
  5
264
100
AcDbEntity
  8
0
100
AcDbLine
 62
7
  6
CONTINUOUS
 10
157.3121747654
 20
31.9388489208
 11
159.7070252471
 21
31.9388489202
  0
LINE
  5
265
100
AcDbEntity
  8
0
100
AcDbLine
 62
7
  6
CONTINUOUS
 10
163.9628546155
 20
31.9388489209
 11
165.8870252344
 21
31.9388489209
  0
LINE
  5
266
100
AcDbEntity
  8
0
100
AcDbLine
 62
7
  6
CONTINUOUS
 10
79.4620669153
 20
31.9324615849
 11
78.267025233
 21
31.9388489207
  0
LINE
  5
267
100
AcDbEntity
  8
0
100
AcDbLine
 62
7
  6
CONTINUOUS
 10
124.4620711771
 20
31.9324615114
 11
123.267025233
 21
31.9388489207
  0
LINE
  5
268
100
AcDbEntity
  8
0
100
AcDbLine
 62
7
  6
CONTINUOUS
 10
163.4828728924
 20
30.9630376579
 11
162.9828919308
 21
30.9674009257
  0
LINE
  5
269
100
AcDbEntity
  8
0
100
AcDbLine
 62
7
  6
CONTINUOUS
 10
66.0870252344
 20
22.2388489209
 11
65.4870252344
 21
22.8388489209
  0
LINE
  5
26A
100
AcDbEntity
  8
0
100
AcDbLine
 62
7
  6
CONTINUOUS
 10
43.2138201536
 20
19.3388489209
 11
35.8870252343
 21
32.0292299776
  0
LINE
  5
26B
100
AcDbEntity
  8
0
100
AcDbLine
 62
7
  6
CONTINUOUS
 10
46.2682230808
 20
25.0388489209
 11
41.6494209273
 21
33.0388489209
  0
LINE
  5
26C
100
AcDbEntity
  8
0
100
AcDbLine
 62
7
  6
CONTINUOUS
 10
49.6870252359
 20
214.0388489224
 11
48.8870252356
 21
213.2388489221
  0
LINE
  5
26D
100
AcDbEntity
  8
0
100
AcDbLine
 62
7
  6
CONTINUOUS
 10
145.5058273878
 20
41.0388489209
 11
136.2682230808
 21
41.0388489209
  0
LINE
  5
26E
100
AcDbEntity
  8
0
100
AcDbLine
 62
7
  6
CONTINUOUS
 10
100.5058273879
 20
41.0388489209
 11
91.2682230808
 21
41.0388489209
  0
LINE
  5
26F
100
AcDbEntity
  8
0
100
AcDbLine
 62
7
  6
CONTINUOUS
 10
55.5058273879
 20
41.0388489209
 11
46.2682230808
 21
41.0388489209
  0
LINE
  5
270
100
AcDbEntity
  8
0
100
AcDbLine
 62
7
  6
CONTINUOUS
 10
74.313066562
 20
43.4388519943
 11
72.4611487156
 21
43.4388589034
  0
LINE
  5
271
100
AcDbEntity
  8
0
100
AcDbLine
 62
7
  6
CONTINUOUS
 10
119.3131400424
 20
43.4388557066
 11
117.4610678687
 21
43.4388524904
  0
LINE
  5
272
100
AcDbEntity
  8
0
100
AcDbLine
 62
7
  6
CONTINUOUS
 10
60.1246295414
 20
229.8388489209
 11
55.5058273879
 21
221.8388489209
  0
LINE
  5
273
100
AcDbEntity
  8
0
100
AcDbLine
 62
7
  6
CONTINUOUS
 10
80.6706394568
 20
213.1888489208
 11
80.1413414942
 21
212.8832578662
  0
LINE
  5
274
100
AcDbEntity
  8
0
100
AcDbLine
 62
7
  6
CONTINUOUS
 10
119.2530506381
 20
45.9388489209
 11
117.5209998306
 21
45.9388489209
  0
LINE
  5
275
100
AcDbEntity
  8
0
100
AcDbLine
 62
7
  6
CONTINUOUS
 10
74.2530506381
 20
45.9388489209
 11
72.5209998306
 21
45.9388489209
  0
LINE
  5
276
100
AcDbEntity
  8
0
100
AcDbLine
 62
7
  6
CONTINUOUS
 10
48.1870252344
 20
48.0388489209
 11
53.5870252344
 21
48.0388489209
  0
LINE
  5
277
100
AcDbEntity
  8
0
100
AcDbLine
 62
7
  6
CONTINUOUS
 10
93.1870252344
 20
48.0388489209
 11
98.5870252344
 21
48.0388489209
  0
LINE
  5
278
100
AcDbEntity
  8
0
100
AcDbLine
 62
7
  6
CONTINUOUS
 10
138.1870252344
 20
48.0388489209
 11
143.5870252344
 21
48.0388489209
  0
LINE
  5
279
100
AcDbEntity
  8
0
100
AcDbLine
 62
7
  6
CONTINUOUS
 10
72.5209998306
 20
48.9388489209
 11
74.2530506381
 21
48.9388489209
  0
LINE
  5
27A
100
AcDbEntity
  8
0
100
AcDbLine
 62
7
  6
CONTINUOUS
 10
117.5209998306
 20
48.9388489209
 11
119.2530506381
 21
48.9388489209
  0
LINE
  5
27B
100
AcDbEntity
  8
0
100
AcDbLine
 62
7
  6
CONTINUOUS
 10
157.1838918931
 20
49.1888489209
 11
155.8870252344
 21
49.1888489209
  0
LINE
  5
27C
100
AcDbEntity
  8
0
100
AcDbLine
 62
7
  6
CONTINUOUS
 10
125.8870252343
 20
49.1888489209
 11
124.5901585756
 21
49.1888489209
  0
LINE
  5
27D
100
AcDbEntity
  8
0
100
AcDbLine
 62
7
  6
CONTINUOUS
 10
112.1838918931
 20
49.1888489209
 11
110.8870252344
 21
49.1888489209
  0
LINE
  5
27E
100
AcDbEntity
  8
0
100
AcDbLine
 62
7
  6
CONTINUOUS
 10
80.8870252343
 20
49.1888489209
 11
79.5901585757
 21
49.1888489209
  0
LINE
  5
27F
100
AcDbEntity
  8
0
100
AcDbLine
 62
7
  6
CONTINUOUS
 10
67.1838918931
 20
49.1888489209
 11
65.8870252344
 21
49.1888489209
  0
LINE
  5
280
100
AcDbEntity
  8
0
100
AcDbLine
 62
7
  6
CONTINUOUS
 10
35.8870252343
 20
49.1888489209
 11
34.5901585757
 21
49.1888489209
  0
LINE
  5
281
100
AcDbEntity
  8
0
100
AcDbLine
 62
7
  6
CONTINUOUS
 10
25.8870252344
 20
52.1888489209
 11
165.8870252344
 21
52.1888489209
  0
LINE
  5
282
100
AcDbEntity
  8
0
100
AcDbLine
 62
7
  6
CONTINUOUS
 10
55.5058273879
 20
41.0388489209
 11
60.1246295414
 21
33.0388489209
  0
LINE
  5
283
100
AcDbEntity
  8
0
100
AcDbLine
 62
7
  6
CONTINUOUS
 10
25.8870252344
 20
31.4388489209
 11
25.8870252344
 21
231.4388489209
  0
LINE
  5
284
100
AcDbEntity
  8
0
100
AcDbLine
 62
7
  6
CONTINUOUS
 10
34.3870252334
 20
168.4211653744
 11
34.8870252333
 21
168.9210892216
  0
LINE
  5
285
100
AcDbEntity
  8
0
100
AcDbLine
 62
7
  6
CONTINUOUS
 10
81.0707289999
 20
212.788878773
 11
80.5412580513
 21
212.4831885783
  0
LINE
  5
286
100
AcDbEntity
  8
0
100
AcDbLine
 62
7
  6
CONTINUOUS
 10
67.0870252344
 20
59.9888489209
 11
45.1870252344
 21
59.9888489209
  0
LINE
  5
287
100
AcDbEntity
  8
0
100
AcDbLine
 62
7
  6
CONTINUOUS
 10
45.1870252344
 20
60.2888489209
 11
67.0870252344
 21
60.2888489209
  0
LINE
  5
288
100
AcDbEntity
  8
0
100
AcDbLine
 62
7
  6
CONTINUOUS
 10
67.0870252344
 20
61.8888489209
 11
66.7870252344
 21
61.8888489209
  0
LINE
  5
289
100
AcDbEntity
  8
0
100
AcDbLine
 62
7
  6
CONTINUOUS
 10
45.4870252344
 20
61.8888489209
 11
45.1870252344
 21
61.8888489209
  0
LINE
  5
28A
100
AcDbEntity
  8
0
100
AcDbLine
 62
7
  6
CONTINUOUS
 10
34.3870252342
 20
94.4564832409
 11
34.8870252342
 21
93.9566086186
  0
LINE
  5
28B
100
AcDbEntity
  8
0
100
AcDbLine
 62
7
  6
CONTINUOUS
 10
28.3909178585
 20
19.5339333599
 11
28.2911775763
 21
30.9630376579
  0
LINE
  5
28C
100
AcDbEntity
  8
0
100
AcDbLine
 62
7
  6
CONTINUOUS
 10
28.890901748
 20
19.5379611224
 11
28.7911585379
 21
30.9674009257
  0
LINE
  5
28D
100
AcDbEntity
  8
0
100
AcDbLine
 62
7
  6
CONTINUOUS
 10
27.8111958533
 20
31.4388489209
 11
27.8111958533
 21
31.9388489209
  0
LINE
  5
28E
100
AcDbEntity
  8
0
100
AcDbLine
 62
7
  6
CONTINUOUS
 10
27.8111958533
 20
230.9388489209
 11
27.8111958533
 21
231.4388489209
  0
LINE
  5
28F
100
AcDbEntity
  8
0
100
AcDbLine
 62
7
  6
CONTINUOUS
 10
28.7368229962
 20
198.0744767176
 11
28.7368229962
 21
196.8093215018
  0
LINE
  5
290
100
AcDbEntity
  8
0
100
AcDbLine
 62
7
  6
CONTINUOUS
 10
28.7771847246
 20
66.0419399054
 11
28.7771847246
 21
64.8066866886
  0
LINE
  5
291
100
AcDbEntity
  8
0
100
AcDbLine
 62
7
  6
CONTINUOUS
 10
28.9908978081
 20
243.9388489209
 11
28.9908978081
 21
243.4388489209
  0
LINE
  5
292
100
AcDbEntity
  8
0
100
AcDbLine
 62
7
  6
CONTINUOUS
 10
28.9908978081
 20
19.4388489209
 11
28.9908978081
 21
18.9388489209
  0
LINE
  5
293
100
AcDbEntity
  8
0
100
AcDbLine
 62
7
  6
CONTINUOUS
 10
30.7438378724
 20
68.2036330349
 11
30.7438378724
 21
66.0419399054
  0
LINE
  5
294
100
AcDbEntity
  8
0
100
AcDbLine
 62
7
  6
CONTINUOUS
 10
30.7438378724
 20
64.8066866886
 11
30.7438378724
 21
62.7100068863
  0
LINE
  5
295
100
AcDbEntity
  8
0
100
AcDbLine
 62
7
  6
CONTINUOUS
 10
30.7684894713
 20
200.1386498563
 11
30.7684894713
 21
198.0744767176
  0
LINE
  5
296
100
AcDbEntity
  8
0
100
AcDbLine
 62
7
  6
CONTINUOUS
 10
30.7684894713
 20
196.8093215018
 11
30.7684894713
 21
194.685976077
  0
LINE
  5
297
100
AcDbEntity
  8
0
100
AcDbLine
 62
7
  6
CONTINUOUS
 10
31.0870252343
 20
18.9388489209
 11
31.0870252343
 21
30.9588489208
  0
LINE
  5
298
100
AcDbEntity
  8
0
100
AcDbLine
 62
7
  6
CONTINUOUS
 10
31.0870252348
 20
231.9188489101
 11
31.0870252343
 21
243.9388489209
  0
LINE
  5
299
100
AcDbEntity
  8
0
100
AcDbLine
 62
7
  6
CONTINUOUS
 10
31.5870252343
 20
243.4388489209
 11
31.5870252343
 21
231.9188489218
  0
LINE
  5
29A
100
AcDbEntity
  8
0
100
AcDbLine
 62
7
  6
CONTINUOUS
 10
31.5870252343
 20
30.9588489207
 11
31.5870252343
 21
19.4388489209
  0
LINE
  5
29B
100
AcDbEntity
  8
0
100
AcDbLine
 62
7
  6
CONTINUOUS
 10
31.9790910893
 20
62.7100068863
 11
31.9790910893
 21
64.8066866886
  0
LINE
  5
29C
100
AcDbEntity
  8
0
100
AcDbLine
 62
7
  6
CONTINUOUS
 10
31.9790910893
 20
66.0419399054
 11
31.9790910893
 21
68.2036330349
  0
LINE
  5
29D
100
AcDbEntity
  8
0
100
AcDbLine
 62
7
  6
CONTINUOUS
 10
31.9790910893
 20
194.685976077
 11
31.9790910893
 21
196.8093215018
  0
LINE
  5
29E
100
AcDbEntity
  8
0
100
AcDbLine
 62
7
  6
CONTINUOUS
 10
31.9790910893
 20
198.0744767176
 11
31.9790910893
 21
200.1386498563
  0
LINE
  5
29F
100
AcDbEntity
  8
0
100
AcDbLine
 62
7
  6
CONTINUOUS
 10
32.0670252344
 20
231.438848921
 11
32.0670252344
 21
230.938848921
  0
LINE
  5
2A0
100
AcDbEntity
  8
0
100
AcDbLine
 62
7
  6
CONTINUOUS
 10
32.0670252344
 20
31.9388489207
 11
32.0670252344
 21
31.4388489208
  0
LINE
  5
2A1
100
AcDbEntity
  8
0
100
AcDbLine
 62
7
  6
CONTINUOUS
 10
34.0595175597
 20
64.8066866886
 11
34.0595175597
 21
66.0419399054
  0
LINE
  5
2A2
100
AcDbEntity
  8
0
100
AcDbLine
 62
7
  6
CONTINUOUS
 10
34.0595175597
 20
196.8093215018
 11
34.0595175597
 21
198.0744767176
  0
LINE
  5
2A3
100
AcDbEntity
  8
0
100
AcDbLine
 62
7
  6
CONTINUOUS
 10
34.3870252344
 20
94.4564832409
 11
34.3870252344
 21
168.4211653741
  0
LINE
  5
2A4
100
AcDbEntity
  8
0
100
AcDbLine
 62
7
  6
CONTINUOUS
 10
34.4618757033
 20
31.7524047092
 11
34.4618757033
 21
52.1888489209
  0
LINE
  5
2A5
100
AcDbEntity
  8
0
100
AcDbLine
 62
7
  6
CONTINUOUS
 10
34.4618757033
 20
210.6888489209
 11
34.4618757033
 21
231.1252931325
  0
LINE
  5
2A6
100
AcDbEntity
  8
0
100
AcDbLine
 62
7
  6
CONTINUOUS
 10
34.5901585757
 20
49.1888489209
 11
34.5901585757
 21
19.4388489209
  0
LINE
  5
2A7
100
AcDbEntity
  8
0
100
AcDbLine
 62
7
  6
CONTINUOUS
 10
34.5901585757
 20
213.6888489209
 11
34.5901585757
 21
243.4388489209
  0
LINE
  5
2A8
100
AcDbEntity
  8
0
100
AcDbLine
 62
7
  6
CONTINUOUS
 10
34.635926063
 20
240.0388489209
 11
34.635926063
 21
213.6888489209
  0
LINE
  5
2A9
100
AcDbEntity
  8
0
100
AcDbLine
 62
7
  6
CONTINUOUS
 10
34.635926063
 20
22.8388489209
 11
34.635926063
 21
49.1888489209
  0
LINE
  5
2AA
100
AcDbEntity
  8
0
100
AcDbLine
 62
7
  6
CONTINUOUS
 10
34.6430301981
 20
243.4388489209
 11
34.6430314994
 21
240.6388489209
  0
LINE
  5
2AB
100
AcDbEntity
  8
0
100
AcDbLine
 62
7
  6
CONTINUOUS
 10
34.6430260858
 20
19.4388489209
 11
34.6430314994
 21
22.2388489209
  0
LINE
  5
2AC
100
AcDbEntity
  8
0
100
AcDbLine
 62
7
  6
CONTINUOUS
 10
34.6870252344
 20
243.4388489209
 11
34.6870252344
 21
240.6388489209
  0
LINE
  5
2AD
100
AcDbEntity
  8
0
100
AcDbLine
 62
7
  6
CONTINUOUS
 10
34.6870252344
 20
22.2388489209
 11
34.6870252344
 21
19.4388489208
  0
LINE
  5
2AE
100
AcDbEntity
  8
0
100
AcDbLine
 62
7
  6
CONTINUOUS
 10
34.8870252342
 20
93.9566086185
 11
34.887025233
 21
168.9210892227
  0
LINE
  5
2AF
100
AcDbEntity
  8
0
100
AcDbLine
 62
7
  6
CONTINUOUS
 10
28.2911775763
 20
231.9146601837
 11
28.3909174833
 21
243.3437214842
  0
LINE
  5
2B0
100
AcDbEntity
  8
0
100
AcDbLine
 62
7
  6
CONTINUOUS
 10
28.7911585378
 20
231.9102969156
 11
28.8909016158
 21
243.3397215744
  0
LINE
  5
2B1
100
AcDbEntity
  8
0
100
AcDbLine
 62
7
  6
CONTINUOUS
 10
72.5209998306
 20
216.9388489209
 11
71.6549744268
 21
215.4388489209
  0
LINE
  5
2B2
100
AcDbEntity
  8
0
100
AcDbLine
 62
7
  6
CONTINUOUS
 10
80.8870252343
 20
230.8484678641
 11
88.2138201537
 21
243.5388489209
  0
LINE
  5
2B3
100
AcDbEntity
  8
0
100
AcDbLine
 62
7
  6
CONTINUOUS
 10
111.0870252344
 20
240.6388489209
 11
110.4870252344
 21
240.0388489209
  0
LINE
  5
2B4
100
AcDbEntity
  8
0
100
AcDbLine
 62
7
  6
CONTINUOUS
 10
34.3870252263
 20
167.7439599626
 11
34.8870252296
 21
168.2438838144
  0
LINE
  5
2B5
100
AcDbEntity
  8
0
100
AcDbLine
 62
7
  6
CONTINUOUS
 10
115.6706394568
 20
213.1888489208
 11
115.1413414942
 21
212.8832578662
  0
LINE
  5
2B6
100
AcDbEntity
  8
0
100
AcDbLine
 62
7
  6
CONTINUOUS
 10
30.7438378724
 20
62.7100068863
 11
31.9790910893
 21
62.7100068863
  0
LINE
  5
2B7
100
AcDbEntity
  8
0
100
AcDbLine
 62
7
  6
CONTINUOUS
 10
159.7509118636
 20
62.7100068863
 11
160.9861650804
 21
62.7100068863
  0
LINE
  5
2B8
100
AcDbEntity
  8
0
100
AcDbLine
 62
7
  6
CONTINUOUS
 10
28.7771847246
 20
64.8066866886
 11
30.7438378724
 21
64.8066866886
  0
LINE
  5
2B9
100
AcDbEntity
  8
0
100
AcDbLine
 62
7
  6
CONTINUOUS
 10
31.9790910893
 20
64.8066866886
 11
34.0595175597
 21
64.8066866886
  0
LINE
  5
2BA
100
AcDbEntity
  8
0
100
AcDbLine
 62
7
  6
CONTINUOUS
 10
157.8105281633
 20
64.8066866886
 11
159.7509118636
 21
64.8066866886
  0
LINE
  5
2BB
100
AcDbEntity
  8
0
100
AcDbLine
 62
7
  6
CONTINUOUS
 10
160.9861650804
 20
64.8066866886
 11
162.998591674
 21
64.8066866886
  0
LINE
  5
2BC
100
AcDbEntity
  8
0
100
AcDbLine
 62
7
  6
CONTINUOUS
 10
45.1870252344
 20
65.8888489209
 11
45.4870252344
 21
65.8888489209
  0
LINE
  5
2BD
100
AcDbEntity
  8
0
100
AcDbLine
 62
7
  6
CONTINUOUS
 10
66.7870252344
 20
65.8888489209
 11
67.0870252344
 21
65.8888489209
  0
LINE
  5
2BE
100
AcDbEntity
  8
0
100
AcDbLine
 62
7
  6
CONTINUOUS
 10
34.0595175597
 20
66.0419399054
 11
31.9790910893
 21
66.0419399054
  0
LINE
  5
2BF
100
AcDbEntity
  8
0
100
AcDbLine
 62
7
  6
CONTINUOUS
 10
30.7438378724
 20
66.0419399054
 11
28.7771847246
 21
66.0419399054
  0
LINE
  5
2C0
100
AcDbEntity
  8
0
100
AcDbLine
 62
7
  6
CONTINUOUS
 10
162.998591674
 20
66.0718419044
 11
160.9861650804
 21
66.0718419044
  0
LINE
  5
2C1
100
AcDbEntity
  8
0
100
AcDbLine
 62
7
  6
CONTINUOUS
 10
159.7509118636
 20
66.0718419044
 11
157.8105281633
 21
66.0718419044
  0
LINE
  5
2C2
100
AcDbEntity
  8
0
100
AcDbLine
 62
7
  6
CONTINUOUS
 10
67.0870252344
 20
67.4888489209
 11
45.1870252344
 21
67.4888489209
  0
LINE
  5
2C3
100
AcDbEntity
  8
0
100
AcDbLine
 62
7
  6
CONTINUOUS
 10
45.1870252344
 20
67.7888489209
 11
67.0870252344
 21
67.7888489209
  0
LINE
  5
2C4
100
AcDbEntity
  8
0
100
AcDbLine
 62
7
  6
CONTINUOUS
 10
160.9861650804
 20
68.1626806655
 11
159.7509118636
 21
68.1626806655
  0
LINE
  5
2C5
100
AcDbEntity
  8
0
100
AcDbLine
 62
7
  6
CONTINUOUS
 10
31.9790910893
 20
68.2036330349
 11
30.7438378724
 21
68.2036330349
  0
LINE
  5
2C6
100
AcDbEntity
  8
0
100
AcDbLine
 62
7
  6
CONTINUOUS
 10
34.3870252279
 20
95.1337378756
 11
34.8870252305
 21
94.6338140244
  0
LINE
  5
2C7
100
AcDbEntity
  8
0
100
AcDbLine
 62
7
  6
CONTINUOUS
 10
111.0870252344
 20
22.2388489209
 11
110.4870252344
 21
22.8388489209
  0
LINE
  5
2C8
100
AcDbEntity
  8
0
100
AcDbLine
 62
7
  6
CONTINUOUS
 10
71.6549744268
 20
47.4388489209
 11
72.5209998306
 21
45.9388489209
  0
LINE
  5
2C9
100
AcDbEntity
  8
0
100
AcDbLine
 62
7
  6
CONTINUOUS
 10
88.2138201536
 20
19.3388489209
 11
80.8870252343
 21
32.0292299776
  0
LINE
  5
2CA
100
AcDbEntity
  8
0
100
AcDbLine
 62
7
  6
CONTINUOUS
 10
35.2870252344
 20
243.9388489209
 11
35.287025234
 21
240.6388489209
  0
LINE
  5
2CB
100
AcDbEntity
  8
0
100
AcDbLine
 62
7
  6
CONTINUOUS
 10
35.287025234
 20
22.2388489209
 11
35.2870252344
 21
18.9388489209
  0
LINE
  5
2CC
100
AcDbEntity
  8
0
100
AcDbLine
 62
7
  6
CONTINUOUS
 10
35.6870252344
 20
19.5388489209
 11
35.6870252344
 21
22.2388489209
  0
LINE
  5
2CD
100
AcDbEntity
  8
0
100
AcDbLine
 62
7
  6
CONTINUOUS
 10
35.6870252344
 20
240.6388489209
 11
35.6870252344
 21
243.3388489209
  0
LINE
  5
2CE
100
AcDbEntity
  8
0
100
AcDbLine
 62
7
  6
CONTINUOUS
 10
35.8870252343
 20
52.1888489209
 11
35.8870252343
 21
32.0292299776
  0
LINE
  5
2CF
100
AcDbEntity
  8
0
100
AcDbLine
 62
7
  6
CONTINUOUS
 10
35.8870252343
 20
210.6888489209
 11
35.8870252343
 21
230.8484678641
  0
LINE
  5
2D0
100
AcDbEntity
  8
0
100
AcDbLine
 62
7
  6
CONTINUOUS
 10
36.2870253638
 20
243.9388489209
 11
36.2870252344
 21
240.0388489209
  0
LINE
  5
2D1
100
AcDbEntity
  8
0
100
AcDbLine
 62
7
  6
CONTINUOUS
 10
36.2870252344
 20
22.8388489209
 11
36.2870253638
 21
18.9388489209
  0
LINE
  5
2D2
100
AcDbEntity
  8
0
100
AcDbLine
 62
7
  6
CONTINUOUS
 10
36.3870252344
 20
62.1888489209
 11
36.3870252344
 21
203.5483539092
  0
LINE
  5
2D3
100
AcDbEntity
  8
0
100
AcDbLine
 62
7
  6
CONTINUOUS
 10
74.2530506381
 20
213.9388489209
 11
75.1190760419
 21
215.4388489209
  0
LINE
  5
2D4
100
AcDbEntity
  8
0
100
AcDbLine
 62
7
  6
CONTINUOUS
 10
86.6494209273
 20
229.8388489209
 11
91.2682230808
 21
237.8388489209
  0
LINE
  5
2D5
100
AcDbEntity
  8
0
100
AcDbLine
 62
7
  6
CONTINUOUS
 10
116.0707289999
 20
212.7888787731
 11
115.5412580513
 21
212.4831885784
  0
LINE
  5
2D6
100
AcDbEntity
  8
0
100
AcDbLine
 62
7
  6
CONTINUOUS
 10
75.1190760419
 20
47.4388489209
 11
74.2530506381
 21
48.9388489209
  0
LINE
  5
2D7
100
AcDbEntity
  8
0
100
AcDbLine
 62
7
  6
CONTINUOUS
 10
91.2682230808
 20
25.0388489209
 11
86.6494209273
 21
33.0388489209
  0
LINE
  5
2D8
100
AcDbEntity
  8
0
100
AcDbLine
 62
7
  6
CONTINUOUS
 10
45.1870252344
 20
67.7888489209
 11
45.1870252344
 21
65.8888489209
  0
LINE
  5
2D9
100
AcDbEntity
  8
0
100
AcDbLine
 62
7
  6
CONTINUOUS
 10
45.1870252344
 20
61.8888489209
 11
45.1870252344
 21
59.9888489209
  0
LINE
  5
2DA
100
AcDbEntity
  8
0
100
AcDbLine
 62
7
  6
CONTINUOUS
 10
45.4870252344
 20
65.8888489209
 11
45.4870252344
 21
61.8888489209
  0
LINE
  5
2DB
100
AcDbEntity
  8
0
100
AcDbLine
 62
7
  6
CONTINUOUS
 10
47.8870252344
 20
243.2388489209
 11
47.8870252344
 21
240.5346889515
  0
LINE
  5
2DC
100
AcDbEntity
  8
0
100
AcDbLine
 62
7
  6
CONTINUOUS
 10
47.8870252344
 20
219.1430088903
 11
47.8870252344
 21
215.1388489209
  0
LINE
  5
2DD
100
AcDbEntity
  8
0
100
AcDbLine
 62
7
  6
CONTINUOUS
 10
47.8870252344
 20
19.6388489209
 11
47.8870252344
 21
22.3430088903
  0
LINE
  5
2DE
100
AcDbEntity
  8
0
100
AcDbLine
 62
7
  6
CONTINUOUS
 10
47.8870252344
 20
43.7346889515
 11
47.8870252344
 21
47.7388489209
  0
LINE
  5
2DF
100
AcDbEntity
  8
0
100
AcDbLine
 62
7
  6
CONTINUOUS
 10
48.8870252344
 20
210.6888489209
 11
48.8870252344
 21
213.2388489226
  0
LINE
  5
2E0
100
AcDbEntity
  8
0
100
AcDbLine
 62
7
  6
CONTINUOUS
 10
51.3870251794
 20
210.6888489209
 11
51.387025173
 21
214.0388489219
  0
LINE
  5
2E1
100
AcDbEntity
  8
0
100
AcDbLine
 62
7
  6
CONTINUOUS
 10
165.8870252344
 20
81.3395804239
 11
155.3870252344
 21
81.3395804239
  0
LINE
  5
2E2
100
AcDbEntity
  8
0
100
AcDbLine
 62
7
  6
CONTINUOUS
 10
36.3870252344
 20
81.3395804239
 11
25.8870252344
 21
81.3395804239
  0
LINE
  5
2E3
100
AcDbEntity
  8
0
100
AcDbLine
 62
7
  6
CONTINUOUS
 10
25.8870252344
 20
84.294003683
 11
36.3870252344
 21
84.294003683
  0
LINE
  5
2E4
100
AcDbEntity
  8
0
100
AcDbLine
 62
7
  6
CONTINUOUS
 10
155.3870252344
 20
84.294003683
 11
165.8870252344
 21
84.294003683
  0
LINE
  5
2E5
100
AcDbEntity
  8
0
100
AcDbLine
 62
7
  6
CONTINUOUS
 10
165.8870252344
 20
87.2401655489
 11
155.3870252344
 21
87.2401082754
  0
LINE
  5
2E6
100
AcDbEntity
  8
0
100
AcDbLine
 62
7
  6
CONTINUOUS
 10
25.8870252344
 20
87.2401718118
 11
36.3870252344
 21
87.240171814
  0
LINE
  5
2E7
100
AcDbEntity
  8
0
100
AcDbLine
 62
7
  6
CONTINUOUS
 10
53.8870252344
 20
47.7388489209
 11
53.8870252344
 21
43.7346889515
  0
LINE
  5
2E8
100
AcDbEntity
  8
0
100
AcDbLine
 62
7
  6
CONTINUOUS
 10
53.8870252344
 20
22.3430088903
 11
53.8870252344
 21
19.6388489209
  0
LINE
  5
2E9
100
AcDbEntity
  8
0
100
AcDbLine
 62
7
  6
CONTINUOUS
 10
53.8870252344
 20
215.1388489209
 11
53.8870252344
 21
219.1430088903
  0
LINE
  5
2EA
100
AcDbEntity
  8
0
100
AcDbLine
 62
7
  6
CONTINUOUS
 10
53.8870252344
 20
240.5346889515
 11
53.8870252344
 21
243.2388489208
  0
LINE
  5
2EB
100
AcDbEntity
  8
0
100
AcDbLine
 62
7
  6
CONTINUOUS
 10
57.0870252348
 20
187.8888489204
 11
57.0870252351
 21
202.7888489046
  0
LINE
  5
2EC
100
AcDbEntity
  8
0
100
AcDbLine
 62
7
  6
CONTINUOUS
 10
57.6870252348
 20
187.8888489207
 11
57.6870252348
 21
202.788848909
  0
LINE
  5
2ED
100
AcDbEntity
  8
0
100
AcDbLine
 62
7
  6
CONTINUOUS
 10
58.6870252339
 20
204.3888489209
 11
58.6870252342
 21
203.7888489209
  0
LINE
  5
2EE
100
AcDbEntity
  8
0
100
AcDbLine
 62
7
  6
CONTINUOUS
 10
58.6870252428
 20
186.8888489215
 11
58.6870252429
 21
186.2888489217
  0
LINE
  5
2EF
100
AcDbEntity
  8
0
100
AcDbLine
 62
7
  6
CONTINUOUS
 10
60.187025265
 20
214.0388489224
 11
60.187025263
 21
210.6888489209
  0
LINE
  5
2F0
100
AcDbEntity
  8
0
100
AcDbLine
 62
7
  6
CONTINUOUS
 10
105.1246295414
 20
229.8388489209
 11
100.5058273879
 21
221.8388489209
  0
LINE
  5
2F1
100
AcDbEntity
  8
0
100
AcDbLine
 62
7
  6
CONTINUOUS
 10
111.4560038576
 20
200.5888022909
 11
108.7430718643
 21
197.8758702977
  0
LINE
  5
2F2
100
AcDbEntity
  8
0
100
AcDbLine
 62
7
  6
CONTINUOUS
 10
109.2380466111
 20
197.3808955508
 11
111.9509786044
 21
200.0938275441
  0
LINE
  5
2F3
100
AcDbEntity
  8
0
100
AcDbLine
 62
7
  6
CONTINUOUS
 10
156.0870252344
 20
240.6388489209
 11
155.4870252344
 21
240.0388489209
  0
LINE
  5
2F4
100
AcDbEntity
  8
0
100
AcDbLine
 62
7
  6
CONTINUOUS
 10
155.3870252344
 20
89.0303452572
 11
165.9870252344
 21
89.0303452572
  0
LINE
  5
2F5
100
AcDbEntity
  8
0
100
AcDbLine
 62
7
  6
CONTINUOUS
 10
155.3870252344
 20
89.0608800778
 11
165.9870252344
 21
89.0608800778
  0
LINE
  5
2F6
100
AcDbEntity
  8
0
100
AcDbLine
 62
7
  6
CONTINUOUS
 10
155.3870252344
 20
90.262440611
 11
165.9870252344
 21
90.262440611
  0
LINE
  5
2F7
100
AcDbEntity
  8
0
100
AcDbLine
 62
7
  6
CONTINUOUS
 10
158.7889902998
 20
91.5124398671
 11
162.9889902999
 21
91.5124398671
  0
LINE
  5
2F8
100
AcDbEntity
  8
0
100
AcDbLine
 62
7
  6
CONTINUOUS
 10
25.8870252344
 20
92.1643731319
 11
36.3870252344
 21
92.1647395092
  0
LINE
  5
2F9
100
AcDbEntity
  8
0
100
AcDbLine
 62
7
  6
CONTINUOUS
 10
34.8870252342
 20
93.9566086185
 11
36.3870252344
 21
93.9566086185
  0
LINE
  5
2FA
100
AcDbEntity
  8
0
100
AcDbLine
 62
7
  6
CONTINUOUS
 10
36.3870252344
 20
94.1888489209
 11
155.3870252344
 21
94.1888489209
  0
LINE
  5
2FB
100
AcDbEntity
  8
0
100
AcDbLine
 62
7
  6
CONTINUOUS
 10
36.3870252344
 20
94.5888489209
 11
155.3870252344
 21
94.5888489209
  0
LINE
  5
2FC
100
AcDbEntity
  8
0
100
AcDbLine
 62
7
  6
CONTINUOUS
 10
36.3870252344
 20
94.633814023
 11
34.8870252293
 21
94.6338140206
  0
LINE
  5
2FD
100
AcDbEntity
  8
0
100
AcDbLine
 62
7
  6
CONTINUOUS
 10
162.9889902999
 20
95.7124373643
 11
158.7889902998
 21
95.7124373643
  0
LINE
  5
2FE
100
AcDbEntity
  8
0
100
AcDbLine
 62
7
  6
CONTINUOUS
 10
157.1870252344
 20
96.9130916711
 11
160.2870252344
 21
96.9130916711
  0
LINE
  5
2FF
100
AcDbEntity
  8
0
100
AcDbLine
 62
7
  6
CONTINUOUS
 10
161.4870252344
 20
96.9130916711
 11
164.5870252344
 21
96.9130916711
  0
LINE
  5
300
100
AcDbEntity
  8
0
100
AcDbLine
 62
7
  6
CONTINUOUS
 10
156.0870252344
 20
22.2388489209
 11
155.4870252344
 21
22.8388489209
  0
LINE
  5
301
100
AcDbEntity
  8
0
100
AcDbLine
 62
7
  6
CONTINUOUS
 10
100.5058273879
 20
41.0388489209
 11
105.1246295414
 21
33.0388489209
  0
LINE
  5
302
100
AcDbEntity
  8
0
100
AcDbLine
 62
7
  6
CONTINUOUS
 10
75.1172659697
 20
19.4182584858
 11
74.6331709745
 21
31.1636232452
  0
LINE
  5
303
100
AcDbEntity
  8
0
100
AcDbLine
 62
7
  6
CONTINUOUS
 10
75.1914474663
 20
19.5264832174
 11
74.8922883412
 21
26.7839920072
  0
LINE
  5
304
100
AcDbEntity
  8
0
100
AcDbLine
 62
7
  6
CONTINUOUS
 10
62.6870252344
 20
210.6888489209
 11
62.6870252344
 21
213.238848922
  0
LINE
  5
305
100
AcDbEntity
  8
0
100
AcDbLine
 62
7
  6
CONTINUOUS
 10
65.4870251049
 20
243.9388489209
 11
65.4870252344
 21
240.0388489209
  0
LINE
  5
306
100
AcDbEntity
  8
0
100
AcDbLine
 62
7
  6
CONTINUOUS
 10
65.4870251049
 20
18.9388489209
 11
65.4870252344
 21
22.8388489209
  0
LINE
  5
307
100
AcDbEntity
  8
0
100
AcDbLine
 62
7
  6
CONTINUOUS
 10
65.8870252343
 20
230.8484678641
 11
65.8870252344
 21
210.6888489209
  0
LINE
  5
308
100
AcDbEntity
  8
0
100
AcDbLine
 62
7
  6
CONTINUOUS
 10
65.8870252344
 20
32.0292299776
 11
65.8870252344
 21
52.1888489209
  0
LINE
  5
309
100
AcDbEntity
  8
0
100
AcDbLine
 62
7
  6
CONTINUOUS
 10
66.0870252344
 20
243.3388489209
 11
66.0870252344
 21
240.6388489209
  0
LINE
  5
30A
100
AcDbEntity
  8
0
100
AcDbLine
 62
7
  6
CONTINUOUS
 10
66.0870252344
 20
22.2388489209
 11
66.0870252344
 21
19.5388489209
  0
LINE
  5
30B
100
AcDbEntity
  8
0
100
AcDbLine
 62
7
  6
CONTINUOUS
 10
66.4870252344
 20
18.9388489209
 11
66.4870252329
 21
22.2388489209
  0
LINE
  5
30C
100
AcDbEntity
  8
0
100
AcDbLine
 62
7
  6
CONTINUOUS
 10
66.4870252329
 20
240.6388489209
 11
66.4870252344
 21
243.9388489209
  0
LINE
  5
30D
100
AcDbEntity
  8
0
100
AcDbLine
 62
7
  6
CONTINUOUS
 10
66.7870252344
 20
61.8888489209
 11
66.7870252344
 21
65.8888489209
  0
LINE
  5
30E
100
AcDbEntity
  8
0
100
AcDbLine
 62
7
  6
CONTINUOUS
 10
67.0870252344
 20
19.4388489206
 11
67.0870252344
 21
22.2388489209
  0
LINE
  5
30F
100
AcDbEntity
  8
0
100
AcDbLine
 62
7
  6
CONTINUOUS
 10
67.0870252344
 20
59.9888489209
 11
67.0870252344
 21
61.8888489209
  0
LINE
  5
310
100
AcDbEntity
  8
0
100
AcDbLine
 62
7
  6
CONTINUOUS
 10
67.0870252344
 20
65.8888489209
 11
67.0870252344
 21
67.7888489209
  0
LINE
  5
311
100
AcDbEntity
  8
0
100
AcDbLine
 62
7
  6
CONTINUOUS
 10
67.0870252344
 20
240.6388489209
 11
67.0870252344
 21
243.4388489209
  0
LINE
  5
312
100
AcDbEntity
  8
0
100
AcDbLine
 62
7
  6
CONTINUOUS
 10
67.1381244057
 20
240.0388489209
 11
67.1381244057
 21
213.6888489209
  0
LINE
  5
313
100
AcDbEntity
  8
0
100
AcDbLine
 62
7
  6
CONTINUOUS
 10
67.1381244057
 20
22.8388489209
 11
67.1381244057
 21
49.1888489209
  0
LINE
  5
314
100
AcDbEntity
  8
0
100
AcDbLine
 62
7
  6
CONTINUOUS
 10
67.1407561313
 20
19.4388489208
 11
67.1407516057
 21
22.2388489209
  0
LINE
  5
315
100
AcDbEntity
  8
0
100
AcDbLine
 62
7
  6
CONTINUOUS
 10
67.1407561313
 20
243.4388489211
 11
67.1407561313
 21
240.6388489209
  0
LINE
  5
316
100
AcDbEntity
  8
0
100
AcDbLine
 62
7
  6
CONTINUOUS
 10
67.1838918931
 20
49.1888489209
 11
67.1838918931
 21
19.4388489209
  0
LINE
  5
317
100
AcDbEntity
  8
0
100
AcDbLine
 62
7
  6
CONTINUOUS
 10
67.1838918931
 20
213.6888489209
 11
67.1838918931
 21
243.438848921
  0
LINE
  5
318
100
AcDbEntity
  8
0
100
AcDbLine
 62
7
  6
CONTINUOUS
 10
67.3121747654
 20
210.6888489209
 11
67.3121216004
 21
230.948851035
  0
LINE
  5
319
100
AcDbEntity
  8
0
100
AcDbLine
 62
7
  6
CONTINUOUS
 10
67.8870252344
 20
210.6888489209
 11
67.8870252344
 21
213.1888489209
  0
LINE
  5
31A
100
AcDbEntity
  8
0
100
AcDbLine
 62
7
  6
CONTINUOUS
 10
68.5070252343
 20
31.4388489208
 11
68.5070252343
 21
31.9388489208
  0
LINE
  5
31B
100
AcDbEntity
  8
0
100
AcDbLine
 62
7
  6
CONTINUOUS
 10
68.5070252343
 20
230.938848921
 11
68.5070252343
 21
231.438848921
  0
LINE
  5
31C
100
AcDbEntity
  8
0
100
AcDbLine
 62
7
  6
CONTINUOUS
 10
68.9870252344
 20
19.4388489209
 11
68.9870252344
 21
30.9588489207
  0
LINE
  5
31D
100
AcDbEntity
  8
0
100
AcDbLine
 62
7
  6
CONTINUOUS
 10
68.9870252344
 20
231.9188489211
 11
68.9870252344
 21
243.4388489209
  0
LINE
  5
31E
100
AcDbEntity
  8
0
100
AcDbLine
 62
7
  6
CONTINUOUS
 10
69.0823050539
 20
52.1888489209
 11
69.0823050539
 21
40.6824874336
  0
LINE
  5
31F
100
AcDbEntity
  8
0
100
AcDbLine
 62
7
  6
CONTINUOUS
 10
69.0823050539
 20
213.6888489209
 11
69.0823050539
 21
222.1952104081
  0
LINE
  5
320
100
AcDbEntity
  8
0
100
AcDbLine
 62
7
  6
CONTINUOUS
 10
69.4603365055
 20
216.4389731803
 11
69.4603365055
 21
213.6888489209
  0
LINE
  5
321
100
AcDbEntity
  8
0
100
AcDbLine
 62
7
  6
CONTINUOUS
 10
69.4603329171
 20
46.4386996469
 11
69.4603365055
 21
52.1888489209
  0
LINE
  5
322
100
AcDbEntity
  8
0
100
AcDbLine
 62
7
  6
CONTINUOUS
 10
69.4870252344
 20
243.9388489209
 11
69.4870252344
 21
231.9188489211
  0
LINE
  5
323
100
AcDbEntity
  8
0
100
AcDbLine
 62
7
  6
CONTINUOUS
 10
69.4870252344
 20
30.9588489207
 11
69.4870252344
 21
18.9388489209
  0
LINE
  5
324
100
AcDbEntity
  8
0
100
AcDbLine
 62
7
  6
CONTINUOUS
 10
67.3121747654
 20
52.1888489209
 11
67.3121216028
 21
31.92884681
  0
LINE
  5
325
100
AcDbEntity
  8
0
100
AcDbLine
 62
7
  6
CONTINUOUS
 10
74.6331709745
 20
231.7140745965
 11
75.1172659697
 21
243.459439356
  0
LINE
  5
326
100
AcDbEntity
  8
0
100
AcDbLine
 62
7
  6
CONTINUOUS
 10
74.8922883412
 20
236.0937058346
 11
75.1914474663
 21
243.3512146251
  0
LINE
  5
327
100
AcDbEntity
  8
0
100
AcDbLine
 62
7
  6
CONTINUOUS
 10
164.5870252344
 20
98.0630909858
 11
161.4870252344
 21
98.0630909858
  0
LINE
  5
328
100
AcDbEntity
  8
0
100
AcDbLine
 62
7
  6
CONTINUOUS
 10
160.2870252344
 20
98.0630909858
 11
157.1870252344
 21
98.0630909858
  0
LINE
  5
329
100
AcDbEntity
  8
0
100
AcDbLine
 62
7
  6
CONTINUOUS
 10
157.1870252344
 20
99.0630903899
 11
160.2870252344
 21
99.0630903899
  0
LINE
  5
32A
100
AcDbEntity
  8
0
100
AcDbLine
 62
7
  6
CONTINUOUS
 10
161.4870252344
 20
99.0630903899
 11
164.5870252344
 21
99.0630903899
  0
LINE
  5
32B
100
AcDbEntity
  8
0
100
AcDbLine
 62
7
  6
CONTINUOUS
 10
164.5870252344
 20
100.2130897046
 11
161.4870252344
 21
100.2130897046
  0
LINE
  5
32C
100
AcDbEntity
  8
0
100
AcDbLine
 62
7
  6
CONTINUOUS
 10
160.2870252344
 20
100.2130897046
 11
157.1870252344
 21
100.2130897046
  0
LINE
  5
32D
100
AcDbEntity
  8
0
100
AcDbLine
 62
7
  6
CONTINUOUS
 10
155.3870252344
 20
103.0843433509
 11
165.9870252344
 21
103.0843433509
  0
LINE
  5
32E
100
AcDbEntity
  8
0
100
AcDbLine
 62
7
  6
CONTINUOUS
 10
155.3870252344
 20
104.285903884
 11
165.9870252344
 21
104.285903884
  0
LINE
  5
32F
100
AcDbEntity
  8
0
100
AcDbLine
 62
7
  6
CONTINUOUS
 10
34.3870252263
 20
104.6322909778
 11
36.3870252344
 21
104.6322909751
  0
LINE
  5
330
100
AcDbEntity
  8
0
100
AcDbLine
 62
7
  6
CONTINUOUS
 10
158.7889902998
 20
105.5359031401
 11
162.9850601689
 21
105.5359031401
  0
LINE
  5
331
100
AcDbEntity
  8
0
100
AcDbLine
 62
7
  6
CONTINUOUS
 10
71.5822933396
 20
243.3587162804
 11
71.8817621275
 21
236.0937058346
  0
LINE
  5
332
100
AcDbEntity
  8
0
100
AcDbLine
 62
7
  6
CONTINUOUS
 10
71.656784499
 20
243.459439356
 11
72.1408794942
 21
231.7140745965
  0
LINE
  5
333
100
AcDbEntity
  8
0
100
AcDbLine
 62
7
  6
CONTINUOUS
 10
75.9774897443
 20
222.8893823294
 11
75.977212711
 21
224.7988316448
  0
LINE
  5
334
100
AcDbEntity
  8
0
100
AcDbLine
 62
7
  6
CONTINUOUS
 10
71.8870252344
 20
210.6888489209
 11
71.8870252344
 21
213.1888489209
  0
LINE
  5
335
100
AcDbEntity
  8
0
100
AcDbLine
 62
7
  6
CONTINUOUS
 10
75.7033214688
 20
212.788878773
 11
75.7033214688
 21
210.6888489209
  0
LINE
  5
336
100
AcDbEntity
  8
0
100
AcDbLine
 62
7
  6
CONTINUOUS
 10
77.2870252343
 20
18.9388489209
 11
77.2870252343
 21
30.9588489208
  0
LINE
  5
337
100
AcDbEntity
  8
0
100
AcDbLine
 62
7
  6
CONTINUOUS
 10
77.2870252348
 20
231.9188489159
 11
77.2870252343
 21
243.9388489209
  0
LINE
  5
338
100
AcDbEntity
  8
0
100
AcDbLine
 62
7
  6
CONTINUOUS
 10
77.3039852668
 20
212.8760257592
 11
77.3056416182
 21
210.6888489211
  0
LINE
  5
339
100
AcDbEntity
  8
0
100
AcDbLine
 62
7
  6
CONTINUOUS
 10
77.3137139632
 20
52.1888489209
 11
77.3137240796
 21
46.4385544263
  0
LINE
  5
33A
100
AcDbEntity
  8
0
100
AcDbLine
 62
7
  6
CONTINUOUS
 10
77.3137139632
 20
213.1888489209
 11
77.3137139632
 21
216.4389230402
  0
LINE
  5
33B
100
AcDbEntity
  8
0
100
AcDbLine
 62
7
  6
CONTINUOUS
 10
77.6917454148
 20
52.1888489209
 11
77.6917454148
 21
40.6824874336
  0
LINE
  5
33C
100
AcDbEntity
  8
0
100
AcDbLine
 62
7
  6
CONTINUOUS
 10
77.6917454148
 20
213.1888489209
 11
77.6917454148
 21
222.1952104081
  0
LINE
  5
33D
100
AcDbEntity
  8
0
100
AcDbLine
 62
7
  6
CONTINUOUS
 10
77.7870252343
 20
243.4388489209
 11
77.7870252343
 21
231.9188489218
  0
LINE
  5
33E
100
AcDbEntity
  8
0
100
AcDbLine
 62
7
  6
CONTINUOUS
 10
77.7870252343
 20
30.9588489207
 11
77.7870252343
 21
19.4388489208
  0
LINE
  5
33F
100
AcDbEntity
  8
0
100
AcDbLine
 62
7
  6
CONTINUOUS
 10
78.2670252344
 20
231.438848921
 11
78.2670252344
 21
230.938848921
  0
LINE
  5
340
100
AcDbEntity
  8
0
100
AcDbLine
 62
7
  6
CONTINUOUS
 10
78.2670252344
 20
31.9388489207
 11
78.2670252344
 21
31.4388489208
  0
LINE
  5
341
100
AcDbEntity
  8
0
100
AcDbLine
 62
7
  6
CONTINUOUS
 10
70.7966483785
 20
222.9337113873
 11
70.7968379996
 21
224.7988323546
  0
LINE
  5
342
100
AcDbEntity
  8
0
100
AcDbLine
 62
7
  6
CONTINUOUS
 10
79.4698827842
 20
212.471168811
 11
79.4684090516
 21
210.6888489196
  0
LINE
  5
343
100
AcDbEntity
  8
0
100
AcDbLine
 62
7
  6
CONTINUOUS
 10
71.8817621275
 20
26.7839920072
 11
71.5822933396
 21
19.518981561
  0
LINE
  5
344
100
AcDbEntity
  8
0
100
AcDbLine
 62
7
  6
CONTINUOUS
 10
72.1408794942
 20
31.1636232452
 11
71.656784499
 21
19.4182584858
  0
LINE
  5
345
100
AcDbEntity
  8
0
100
AcDbLine
 62
7
  6
CONTINUOUS
 10
117.5209998306
 20
216.9388489209
 11
116.6549744268
 21
215.4388489209
  0
LINE
  5
346
100
AcDbEntity
  8
0
100
AcDbLine
 62
7
  6
CONTINUOUS
 10
125.8870252343
 20
230.8484678641
 11
133.2138201537
 21
243.5388489211
  0
LINE
  5
347
100
AcDbEntity
  8
0
100
AcDbLine
 62
7
  6
CONTINUOUS
 10
119.2530506381
 20
213.9388489209
 11
120.1190760419
 21
215.4388489209
  0
LINE
  5
348
100
AcDbEntity
  8
0
100
AcDbLine
 62
7
  6
CONTINUOUS
 10
131.6494209273
 20
229.8388489209
 11
136.2682230809
 21
237.8388489209
  0
LINE
  5
349
100
AcDbEntity
  8
0
100
AcDbLine
 62
7
  6
CONTINUOUS
 10
131.7760038576
 20
200.5888022909
 11
129.0630718643
 21
197.8758702976
  0
LINE
  5
34A
100
AcDbEntity
  8
0
100
AcDbLine
 62
7
  6
CONTINUOUS
 10
129.5580466111
 20
197.3808955508
 11
132.2709786044
 21
200.0938275441
  0
LINE
  5
34B
100
AcDbEntity
  8
0
100
AcDbLine
 62
7
  6
CONTINUOUS
 10
162.9850601689
 20
109.7359006373
 11
158.7889902998
 21
109.7359006373
  0
LINE
  5
34C
100
AcDbEntity
  8
0
100
AcDbLine
 62
7
  6
CONTINUOUS
 10
157.1870252344
 20
110.9365549441
 11
160.2870252344
 21
110.9365549441
  0
LINE
  5
34D
100
AcDbEntity
  8
0
100
AcDbLine
 62
7
  6
CONTINUOUS
 10
161.4870252344
 20
110.9365549441
 11
164.5870252344
 21
110.9365549441
  0
LINE
  5
34E
100
AcDbEntity
  8
0
100
AcDbLine
 62
7
  6
CONTINUOUS
 10
164.5870252344
 20
112.0865542588
 11
161.4870252344
 21
112.0865542588
  0
LINE
  5
34F
100
AcDbEntity
  8
0
100
AcDbLine
 62
7
  6
CONTINUOUS
 10
160.2870252344
 20
112.0865542588
 11
157.1870252344
 21
112.0865542588
  0
LINE
  5
350
100
AcDbEntity
  8
0
100
AcDbLine
 62
7
  6
CONTINUOUS
 10
157.1870252344
 20
113.0865536629
 11
160.2870252344
 21
113.0865536629
  0
LINE
  5
351
100
AcDbEntity
  8
0
100
AcDbLine
 62
7
  6
CONTINUOUS
 10
161.4870252344
 20
113.0865536629
 11
164.5870252344
 21
113.0865536629
  0
LINE
  5
352
100
AcDbEntity
  8
0
100
AcDbLine
 62
7
  6
CONTINUOUS
 10
164.5870252344
 20
114.2365529776
 11
161.4870252344
 21
114.2365529776
  0
LINE
  5
353
100
AcDbEntity
  8
0
100
AcDbLine
 62
7
  6
CONTINUOUS
 10
160.2870252344
 20
114.2365529776
 11
157.1870252344
 21
114.2365529776
  0
LINE
  5
354
100
AcDbEntity
  8
0
100
AcDbLine
 62
7
  6
CONTINUOUS
 10
116.6549744268
 20
47.4388489209
 11
117.5209998306
 21
45.9388489209
  0
LINE
  5
355
100
AcDbEntity
  8
0
100
AcDbLine
 62
7
  6
CONTINUOUS
 10
133.2138201535
 20
19.3388489209
 11
125.8870252343
 21
32.0292299775
  0
LINE
  5
356
100
AcDbEntity
  8
0
100
AcDbLine
 62
7
  6
CONTINUOUS
 10
120.1190760419
 20
47.4388489209
 11
119.2530506381
 21
48.9388489209
  0
LINE
  5
357
100
AcDbEntity
  8
0
100
AcDbLine
 62
7
  6
CONTINUOUS
 10
136.2682230809
 20
25.0388489209
 11
131.6494209273
 21
33.0388489209
  0
LINE
  5
358
100
AcDbEntity
  8
0
100
AcDbLine
 62
7
  6
CONTINUOUS
 10
79.4618757033
 20
52.1888489209
 11
79.4620669153
 21
31.9324615849
  0
LINE
  5
359
100
AcDbEntity
  8
0
100
AcDbLine
 62
7
  6
CONTINUOUS
 10
79.4618757033
 20
213.1888489209
 11
79.4618757033
 21
230.9452363161
  0
LINE
  5
35A
100
AcDbEntity
  8
0
100
AcDbLine
 62
7
  6
CONTINUOUS
 10
79.4700929192
 20
212.8760257592
 11
79.4700929192
 21
212.471168811
  0
LINE
  5
35B
100
AcDbEntity
  8
0
100
AcDbLine
 62
7
  6
CONTINUOUS
 10
79.5901585757
 20
49.1888489209
 11
79.5901585757
 21
19.4388489209
  0
LINE
  5
35C
100
AcDbEntity
  8
0
100
AcDbLine
 62
7
  6
CONTINUOUS
 10
79.5901585757
 20
213.6888489209
 11
79.5901585757
 21
243.4388489209
  0
LINE
  5
35D
100
AcDbEntity
  8
0
100
AcDbLine
 62
7
  6
CONTINUOUS
 10
79.6357120854
 20
240.0388489209
 11
79.6357120854
 21
213.6888489209
  0
LINE
  5
35E
100
AcDbEntity
  8
0
100
AcDbLine
 62
7
  6
CONTINUOUS
 10
79.6357120854
 20
22.8388489209
 11
79.6357120854
 21
49.1888489209
  0
LINE
  5
35F
100
AcDbEntity
  8
0
100
AcDbLine
 62
7
  6
CONTINUOUS
 10
79.6430301981
 20
243.4388489209
 11
79.6430314994
 21
240.6388489209
  0
LINE
  5
360
100
AcDbEntity
  8
0
100
AcDbLine
 62
7
  6
CONTINUOUS
 10
79.6430260858
 20
19.4388489209
 11
79.6430314994
 21
22.2388489209
  0
LINE
  5
361
100
AcDbEntity
  8
0
100
AcDbLine
 62
7
  6
CONTINUOUS
 10
79.6870252344
 20
243.4388489209
 11
79.6870252344
 21
240.6388489209
  0
LINE
  5
362
100
AcDbEntity
  8
0
100
AcDbLine
 62
7
  6
CONTINUOUS
 10
79.6870252344
 20
22.2388489209
 11
79.6870252344
 21
19.4388489208
  0
LINE
  5
363
100
AcDbEntity
  8
0
100
AcDbLine
 62
7
  6
CONTINUOUS
 10
80.2870252344
 20
243.9388489209
 11
80.287025234
 21
240.6388489209
  0
LINE
  5
364
100
AcDbEntity
  8
0
100
AcDbLine
 62
7
  6
CONTINUOUS
 10
80.287025234
 20
22.2388489209
 11
80.2870252344
 21
18.9388489209
  0
LINE
  5
365
100
AcDbEntity
  8
0
100
AcDbLine
 62
7
  6
CONTINUOUS
 10
80.5412580513
 20
212.4831885783
 11
80.5413068626
 21
210.6888489209
  0
LINE
  5
366
100
AcDbEntity
  8
0
100
AcDbLine
 62
7
  6
CONTINUOUS
 10
80.6870252344
 20
19.5388489209
 11
80.6870252344
 21
22.2388489209
  0
LINE
  5
367
100
AcDbEntity
  8
0
100
AcDbLine
 62
7
  6
CONTINUOUS
 10
80.6870252344
 20
240.6388489209
 11
80.6870252344
 21
243.3388489209
  0
LINE
  5
368
100
AcDbEntity
  8
0
100
AcDbLine
 62
7
  6
CONTINUOUS
 10
80.8870252343
 20
52.1888489209
 11
80.8870252343
 21
32.0292299776
  0
LINE
  5
369
100
AcDbEntity
  8
0
100
AcDbLine
 62
7
  6
CONTINUOUS
 10
80.8870252343
 20
213.1189329194
 11
80.8870252343
 21
230.8484678641
  0
LINE
  5
36A
100
AcDbEntity
  8
0
100
AcDbLine
 62
7
  6
CONTINUOUS
 10
81.0707289999
 20
212.788878773
 11
81.0707289999
 21
210.6888489209
  0
LINE
  5
36B
100
AcDbEntity
  8
0
100
AcDbLine
 62
7
  6
CONTINUOUS
 10
81.2870253638
 20
243.9388489209
 11
81.2870252344
 21
240.0388489209
  0
LINE
  5
36C
100
AcDbEntity
  8
0
100
AcDbLine
 62
7
  6
CONTINUOUS
 10
81.2870252344
 20
22.8388489209
 11
81.2870253638
 21
18.9388489209
  0
LINE
  5
36D
100
AcDbEntity
  8
0
100
AcDbLine
 62
7
  6
CONTINUOUS
 10
84.0870252348
 20
186.2888489214
 11
84.0870252348
 21
186.8888489214
  0
LINE
  5
36E
100
AcDbEntity
  8
0
100
AcDbLine
 62
7
  6
CONTINUOUS
 10
84.0870252181
 20
204.3888489206
 11
84.0870252225
 21
203.7888489208
  0
LINE
  5
36F
100
AcDbEntity
  8
0
100
AcDbLine
 62
7
  6
CONTINUOUS
 10
85.0870252343
 20
202.7888489215
 11
85.0870252343
 21
187.8888489316
  0
LINE
  5
370
100
AcDbEntity
  8
0
100
AcDbLine
 62
7
  6
CONTINUOUS
 10
85.6870252343
 20
202.7888489219
 11
85.687025234
 21
187.8888489376
  0
LINE
  5
371
100
AcDbEntity
  8
0
100
AcDbLine
 62
7
  6
CONTINUOUS
 10
92.8870252344
 20
243.2388489209
 11
92.8870252344
 21
240.5346889515
  0
LINE
  5
372
100
AcDbEntity
  8
0
100
AcDbLine
 62
7
  6
CONTINUOUS
 10
92.8870252344
 20
219.1430088903
 11
92.8870252344
 21
215.1388489209
  0
LINE
  5
373
100
AcDbEntity
  8
0
100
AcDbLine
 62
7
  6
CONTINUOUS
 10
92.8870252344
 20
19.6388489209
 11
92.8870252344
 21
22.3430088903
  0
LINE
  5
374
100
AcDbEntity
  8
0
100
AcDbLine
 62
7
  6
CONTINUOUS
 10
92.8870252344
 20
43.7346889515
 11
92.8870252344
 21
47.7388489209
  0
LINE
  5
375
100
AcDbEntity
  8
0
100
AcDbLine
 62
7
  6
CONTINUOUS
 10
150.1246295414
 20
229.8388489209
 11
145.5058273878
 21
221.8388489209
  0
LINE
  5
376
100
AcDbEntity
  8
0
100
AcDbLine
 62
7
  6
CONTINUOUS
 10
165.9870252344
 20
124.3858919073
 11
165.287025234
 21
124.3858919073
  0
LINE
  5
377
100
AcDbEntity
  8
0
100
AcDbLine
 62
7
  6
CONTINUOUS
 10
165.8870252344
 20
125.3805419664
 11
165.9870252344
 21
125.3805419664
  0
LINE
  5
378
100
AcDbEntity
  8
0
100
AcDbLine
 62
7
  6
CONTINUOUS
 10
145.5058273879
 20
41.0388489209
 11
150.1246295414
 21
33.0388489209
  0
LINE
  5
379
100
AcDbEntity
  8
0
100
AcDbLine
 62
7
  6
CONTINUOUS
 10
98.8870252344
 20
47.7388489209
 11
98.8870252344
 21
43.7346889515
  0
LINE
  5
37A
100
AcDbEntity
  8
0
100
AcDbLine
 62
7
  6
CONTINUOUS
 10
98.8870252344
 20
22.3430088903
 11
98.8870252344
 21
19.6388489209
  0
LINE
  5
37B
100
AcDbEntity
  8
0
100
AcDbLine
 62
7
  6
CONTINUOUS
 10
98.8870252344
 20
215.1388489209
 11
98.8870252344
 21
219.1430088903
  0
LINE
  5
37C
100
AcDbEntity
  8
0
100
AcDbLine
 62
7
  6
CONTINUOUS
 10
98.8870252344
 20
240.5346889515
 11
98.8870252344
 21
243.2388489208
  0
LINE
  5
37D
100
AcDbEntity
  8
0
100
AcDbLine
 62
7
  6
CONTINUOUS
 10
41.6494209273
 20
33.0388489209
 11
46.2682230808
 21
41.0388489209
  0
LINE
  5
37E
100
AcDbEntity
  8
0
100
AcDbLine
 62
7
  6
CONTINUOUS
 10
165.9870252344
 20
137.5805346963
 11
165.8870252344
 21
137.5805346963
  0
LINE
  5
37F
100
AcDbEntity
  8
0
100
AcDbLine
 62
7
  6
CONTINUOUS
 10
165.287025234
 20
138.5858834454
 11
165.9870252344
 21
138.5858834454
  0
LINE
  5
380
100
AcDbEntity
  8
0
100
AcDbLine
 62
7
  6
CONTINUOUS
 10
46.2682230808
 20
221.8388489209
 11
41.6494209273
 21
229.8388489209
  0
LINE
  5
381
100
AcDbEntity
  8
0
100
AcDbLine
 62
7
  6
CONTINUOUS
 10
106.0870252348
 20
187.8888489204
 11
106.0870252351
 21
202.7888489046
  0
LINE
  5
382
100
AcDbEntity
  8
0
100
AcDbLine
 62
7
  6
CONTINUOUS
 10
106.6870252348
 20
187.8888489207
 11
106.6870252348
 21
202.788848909
  0
LINE
  5
383
100
AcDbEntity
  8
0
100
AcDbLine
 62
7
  6
CONTINUOUS
 10
107.6870252339
 20
204.3888489209
 11
107.6870252342
 21
203.7888489209
  0
LINE
  5
384
100
AcDbEntity
  8
0
100
AcDbLine
 62
7
  6
CONTINUOUS
 10
107.6870252428
 20
186.8888489215
 11
107.6870252429
 21
186.2888489217
  0
LINE
  5
385
100
AcDbEntity
  8
0
100
AcDbLine
 62
7
  6
CONTINUOUS
 10
107.8070252344
 20
202.7848489209
 11
107.8070252344
 21
194.9648489209
  0
LINE
  5
386
100
AcDbEntity
  8
0
100
AcDbLine
 62
7
  6
CONTINUOUS
 10
110.4870251049
 20
243.9388489209
 11
110.4870252344
 21
240.0388489209
  0
LINE
  5
387
100
AcDbEntity
  8
0
100
AcDbLine
 62
7
  6
CONTINUOUS
 10
110.4870251049
 20
18.9388489209
 11
110.4870252344
 21
22.8388489209
  0
LINE
  5
388
100
AcDbEntity
  8
0
100
AcDbLine
 62
7
  6
CONTINUOUS
 10
110.7033214688
 20
212.788878773
 11
110.7033214688
 21
210.6888489209
  0
LINE
  5
389
100
AcDbEntity
  8
0
100
AcDbLine
 62
7
  6
CONTINUOUS
 10
110.8870252343
 20
230.8484678641
 11
110.8870252344
 21
213.1189328308
  0
LINE
  5
38A
100
AcDbEntity
  8
0
100
AcDbLine
 62
7
  6
CONTINUOUS
 10
110.8870252344
 20
32.0292299776
 11
110.8870252344
 21
52.1888489209
  0
LINE
  5
38B
100
AcDbEntity
  8
0
100
AcDbLine
 62
7
  6
CONTINUOUS
 10
111.0870252344
 20
243.3388489209
 11
111.0870252344
 21
240.6388489209
  0
LINE
  5
38C
100
AcDbEntity
  8
0
100
AcDbLine
 62
7
  6
CONTINUOUS
 10
111.0870252344
 20
22.2388489209
 11
111.0870252344
 21
19.5388489209
  0
LINE
  5
38D
100
AcDbEntity
  8
0
100
AcDbLine
 62
7
  6
CONTINUOUS
 10
111.4870252344
 20
18.9388489209
 11
111.4870252329
 21
22.2388489209
  0
LINE
  5
38E
100
AcDbEntity
  8
0
100
AcDbLine
 62
7
  6
CONTINUOUS
 10
111.4870252329
 20
240.6388489209
 11
111.4870252344
 21
243.9388489209
  0
LINE
  5
38F
100
AcDbEntity
  8
0
100
AcDbLine
 62
7
  6
CONTINUOUS
 10
112.0870252344
 20
19.4388489206
 11
112.0870252344
 21
22.2388489209
  0
LINE
  5
390
100
AcDbEntity
  8
0
100
AcDbLine
 62
7
  6
CONTINUOUS
 10
112.0870252344
 20
240.6388489209
 11
112.0870252344
 21
243.4388489209
  0
LINE
  5
391
100
AcDbEntity
  8
0
100
AcDbLine
 62
7
  6
CONTINUOUS
 10
112.1383383833
 20
240.0388489209
 11
112.1383383833
 21
213.6888489209
  0
LINE
  5
392
100
AcDbEntity
  8
0
100
AcDbLine
 62
7
  6
CONTINUOUS
 10
112.1383383833
 20
22.8388489209
 11
112.1383383833
 21
49.1888489209
  0
LINE
  5
393
100
AcDbEntity
  8
0
100
AcDbLine
 62
7
  6
CONTINUOUS
 10
112.140970109
 20
19.4388489208
 11
112.1409655834
 21
22.2388489209
  0
LINE
  5
394
100
AcDbEntity
  8
0
100
AcDbLine
 62
7
  6
CONTINUOUS
 10
112.140970109
 20
243.4388489211
 11
112.140970109
 21
240.6388489209
  0
LINE
  5
395
100
AcDbEntity
  8
0
100
AcDbLine
 62
7
  6
CONTINUOUS
 10
112.1838918931
 20
49.1888489209
 11
112.1838918931
 21
19.4388489209
  0
LINE
  5
396
100
AcDbEntity
  8
0
100
AcDbLine
 62
7
  6
CONTINUOUS
 10
112.1838918931
 20
213.6888489209
 11
112.1838918931
 21
243.438848921
  0
LINE
  5
397
100
AcDbEntity
  8
0
100
AcDbLine
 62
7
  6
CONTINUOUS
 10
112.3039852668
 20
212.8760257592
 11
112.3056416182
 21
210.6888489211
  0
LINE
  5
398
100
AcDbEntity
  8
0
100
AcDbLine
 62
7
  6
CONTINUOUS
 10
112.3121747654
 20
52.1888489222
 11
112.3121747654
 21
31.9324601531
  0
LINE
  5
399
100
AcDbEntity
  8
0
100
AcDbLine
 62
7
  6
CONTINUOUS
 10
112.3121512359
 20
213.1888489209
 11
112.3119841161
 21
230.9452376882
  0
LINE
  5
39A
100
AcDbEntity
  8
0
100
AcDbLine
 62
7
  6
CONTINUOUS
 10
112.5770252344
 20
187.7748489209
 11
112.5770252344
 21
195.2493738242
  0
LINE
  5
39B
100
AcDbEntity
  8
0
100
AcDbLine
 62
7
  6
CONTINUOUS
 10
112.5770252344
 20
195.2748489209
 11
112.5770252344
 21
202.7748489209
  0
LINE
  5
39C
100
AcDbEntity
  8
0
100
AcDbLine
 62
7
  6
CONTINUOUS
 10
113.3770252344
 20
195.0748489209
 11
113.3770252344
 21
198.1409699991
  0
LINE
  5
39D
100
AcDbEntity
  8
0
100
AcDbLine
 62
7
  6
CONTINUOUS
 10
113.4770252344
 20
195.3498489209
 11
113.4770252344
 21
197.3498489209
  0
LINE
  5
39E
100
AcDbEntity
  8
0
100
AcDbLine
 62
7
  6
CONTINUOUS
 10
113.5070252343
 20
31.4388489208
 11
113.5070252343
 21
31.9388489208
  0
LINE
  5
39F
100
AcDbEntity
  8
0
100
AcDbLine
 62
7
  6
CONTINUOUS
 10
113.5070252343
 20
230.938848921
 11
113.5070252343
 21
231.438848921
  0
LINE
  5
3A0
100
AcDbEntity
  8
0
100
AcDbLine
 62
7
  6
CONTINUOUS
 10
113.9870252344
 20
19.4388489209
 11
113.9870252344
 21
30.9588489207
  0
LINE
  5
3A1
100
AcDbEntity
  8
0
100
AcDbLine
 62
7
  6
CONTINUOUS
 10
113.9870252344
 20
231.9188489211
 11
113.9870252344
 21
243.4388489209
  0
LINE
  5
3A2
100
AcDbEntity
  8
0
100
AcDbLine
 62
7
  6
CONTINUOUS
 10
114.0520252344
 20
190.6748489209
 11
114.0520252369
 21
189.4998488886
  0
LINE
  5
3A3
100
AcDbEntity
  8
0
100
AcDbLine
 62
7
  6
CONTINUOUS
 10
114.0823050539
 20
52.1888489209
 11
114.0823050539
 21
40.6824874336
  0
LINE
  5
3A4
100
AcDbEntity
  8
0
100
AcDbLine
 62
7
  6
CONTINUOUS
 10
114.0823050539
 20
213.1888489209
 11
114.0823050539
 21
222.1952104081
  0
LINE
  5
3A5
100
AcDbEntity
  8
0
100
AcDbLine
 62
7
  6
CONTINUOUS
 10
114.2520252343
 20
190.6748489209
 11
114.2520252353
 21
189.4998489408
  0
LINE
  5
3A6
100
AcDbEntity
  8
0
100
AcDbLine
 62
7
  6
CONTINUOUS
 10
114.4603365071
 20
216.4389731811
 11
114.4603365071
 21
213.1888489209
  0
LINE
  5
3A7
100
AcDbEntity
  8
0
100
AcDbLine
 62
7
  6
CONTINUOUS
 10
114.4603268871
 20
46.4386238123
 11
114.4603365071
 21
52.1888489209
  0
LINE
  5
3A8
100
AcDbEntity
  8
0
100
AcDbLine
 62
7
  6
CONTINUOUS
 10
114.4870252344
 20
243.9388489209
 11
114.4870252344
 21
231.9188489211
  0
LINE
  5
3A9
100
AcDbEntity
  8
0
100
AcDbLine
 62
7
  6
CONTINUOUS
 10
114.4870252344
 20
30.9588489207
 11
114.4870252344
 21
18.9388489209
  0
LINE
  5
3AA
100
AcDbEntity
  8
0
100
AcDbLine
 62
7
  6
CONTINUOUS
 10
114.4700929192
 20
212.8760257592
 11
114.4684090515
 21
210.6888489196
  0
LINE
  5
3AB
100
AcDbEntity
  8
0
100
AcDbLine
 62
7
  6
CONTINUOUS
 10
60.1246295414
 20
33.0388489209
 11
55.5058273879
 21
25.0388489209
  0
LINE
  5
3AC
100
AcDbEntity
  8
0
100
AcDbLine
 62
7
  6
CONTINUOUS
 10
157.1870252344
 20
148.7365324188
 11
160.2870252344
 21
148.7365324188
  0
LINE
  5
3AD
100
AcDbEntity
  8
0
100
AcDbLine
 62
7
  6
CONTINUOUS
 10
161.4870252344
 20
148.7365324188
 11
164.5870252344
 21
148.7365324188
  0
LINE
  5
3AE
100
AcDbEntity
  8
0
100
AcDbLine
 62
7
  6
CONTINUOUS
 10
164.5870252344
 20
149.8865317335
 11
161.4870252344
 21
149.8865317335
  0
LINE
  5
3AF
100
AcDbEntity
  8
0
100
AcDbLine
 62
7
  6
CONTINUOUS
 10
160.2870252344
 20
149.8865317335
 11
157.1870252344
 21
149.8865317335
  0
LINE
  5
3B0
100
AcDbEntity
  8
0
100
AcDbLine
 62
7
  6
CONTINUOUS
 10
55.5058273879
 20
237.8388489209
 11
60.1246295414
 21
229.8388489209
  0
LINE
  5
3B1
100
AcDbEntity
  8
0
100
AcDbLine
 62
7
  6
CONTINUOUS
 10
120.1370252344
 20
18.9388489209
 11
119.6331709745
 21
31.1636232452
  0
LINE
  5
3B2
100
AcDbEntity
  8
0
100
AcDbLine
 62
7
  6
CONTINUOUS
 10
120.1914474663
 20
19.5264832174
 11
119.8922883412
 21
26.7839920072
  0
LINE
  5
3B3
100
AcDbEntity
  8
0
100
AcDbLine
 62
7
  6
CONTINUOUS
 10
116.5822933396
 20
243.3587162804
 11
116.8817621275
 21
236.0937058346
  0
LINE
  5
3B4
100
AcDbEntity
  8
0
100
AcDbLine
 62
7
  6
CONTINUOUS
 10
116.656784499
 20
243.459439356
 11
117.1408794942
 21
231.7140745965
  0
LINE
  5
3B5
100
AcDbEntity
  8
0
100
AcDbLine
 62
7
  6
CONTINUOUS
 10
115.797264183
 20
35.9332639275
 11
115.796853298
 21
37.9783561649
  0
LINE
  5
3B6
100
AcDbEntity
  8
0
100
AcDbLine
 62
7
  6
CONTINUOUS
 10
115.5412580513
 20
212.4831885784
 11
115.5413068629
 21
210.6888489209
  0
LINE
  5
3B7
100
AcDbEntity
  8
0
100
AcDbLine
 62
7
  6
CONTINUOUS
 10
116.0707289999
 20
212.7888787731
 11
116.0707289999
 21
210.6888489209
  0
LINE
  5
3B8
100
AcDbEntity
  8
0
100
AcDbLine
 62
7
  6
CONTINUOUS
 10
116.6020252338
 20
189.4998489482
 11
116.6020252343
 21
190.6748489209
  0
LINE
  5
3B9
100
AcDbEntity
  8
0
100
AcDbLine
 62
7
  6
CONTINUOUS
 10
116.802025233
 20
189.4998489444
 11
116.8020252343
 21
190.6748489209
  0
LINE
  5
3BA
100
AcDbEntity
  8
0
100
AcDbLine
 62
7
  6
CONTINUOUS
 10
117.3770252344
 20
195.3498489209
 11
117.3770252344
 21
197.3498489209
  0
LINE
  5
3BB
100
AcDbEntity
  8
0
100
AcDbLine
 62
7
  6
CONTINUOUS
 10
117.4770252344
 20
195.2478579705
 11
117.4770252344
 21
195.0748489209
  0
LINE
  5
3BC
100
AcDbEntity
  8
0
100
AcDbLine
 62
7
  6
CONTINUOUS
 10
117.4770252344
 20
195.2748489209
 11
117.4770252344
 21
198.1409699991
  0
LINE
  5
3BD
100
AcDbEntity
  8
0
100
AcDbLine
 62
7
  6
CONTINUOUS
 10
118.4570252344
 20
195.0748489209
 11
118.4570252344
 21
198.1409699991
  0
LINE
  5
3BE
100
AcDbEntity
  8
0
100
AcDbLine
 62
7
  6
CONTINUOUS
 10
118.5570252344
 20
197.3498489209
 11
118.5570252344
 21
195.3498489209
  0
LINE
  5
3BF
100
AcDbEntity
  8
0
100
AcDbLine
 62
7
  6
CONTINUOUS
 10
119.1320252348
 20
189.4998489246
 11
119.1320252343
 21
190.6748489209
  0
LINE
  5
3C0
100
AcDbEntity
  8
0
100
AcDbLine
 62
7
  6
CONTINUOUS
 10
119.3320252343
 20
189.499848924
 11
119.3320252343
 21
190.6748489209
  0
LINE
  5
3C1
100
AcDbEntity
  8
0
100
AcDbLine
 62
7
  6
CONTINUOUS
 10
119.8870252344
 20
210.6888489209
 11
119.8870252344
 21
213.1888489209
  0
LINE
  5
3C2
100
AcDbEntity
  8
0
100
AcDbLine
 62
7
  6
CONTINUOUS
 10
120.8872046271
 20
222.8639820723
 11
120.8872705341
 21
224.8492929294
  0
LINE
  5
3C3
100
AcDbEntity
  8
0
100
AcDbLine
 62
7
  6
CONTINUOUS
 10
121.6820252343
 20
190.6748489209
 11
121.6820252343
 21
189.499848922
  0
LINE
  5
3C4
100
AcDbEntity
  8
0
100
AcDbLine
 62
7
  6
CONTINUOUS
 10
121.8820252343
 20
190.6748489209
 11
121.8820252343
 21
189.4998489222
  0
LINE
  5
3C5
100
AcDbEntity
  8
0
100
AcDbLine
 62
7
  6
CONTINUOUS
 10
122.2870252343
 20
18.9388489209
 11
122.2870252343
 21
30.9588489209
  0
LINE
  5
3C6
100
AcDbEntity
  8
0
100
AcDbLine
 62
7
  6
CONTINUOUS
 10
122.2870252343
 20
231.9188489207
 11
122.2870252343
 21
243.9388489209
  0
LINE
  5
3C7
100
AcDbEntity
  8
0
100
AcDbLine
 62
7
  6
CONTINUOUS
 10
122.3137139632
 20
52.1888489209
 11
122.3137207493
 21
46.4385962751
  0
LINE
  5
3C8
100
AcDbEntity
  8
0
100
AcDbLine
 62
7
  6
CONTINUOUS
 10
122.3137139632
 20
213.6888489209
 11
122.3137139632
 21
216.4389230396
  0
LINE
  5
3C9
100
AcDbEntity
  8
0
100
AcDbLine
 62
7
  6
CONTINUOUS
 10
122.4570252344
 20
195.3498489209
 11
122.4570252344
 21
197.3498489209
  0
LINE
  5
3CA
100
AcDbEntity
  8
0
100
AcDbLine
 62
7
  6
CONTINUOUS
 10
122.5570252344
 20
195.2478579705
 11
122.5570252344
 21
195.0748489209
  0
LINE
  5
3CB
100
AcDbEntity
  8
0
100
AcDbLine
 62
7
  6
CONTINUOUS
 10
122.5570252344
 20
195.2748489209
 11
122.5570252344
 21
198.1409699991
  0
LINE
  5
3CC
100
AcDbEntity
  8
0
100
AcDbLine
 62
7
  6
CONTINUOUS
 10
122.6917454148
 20
52.1888489209
 11
122.6917454148
 21
40.6824874336
  0
LINE
  5
3CD
100
AcDbEntity
  8
0
100
AcDbLine
 62
7
  6
CONTINUOUS
 10
122.6917454148
 20
213.6888489209
 11
122.6917454148
 21
222.1952104081
  0
LINE
  5
3CE
100
AcDbEntity
  8
0
100
AcDbLine
 62
7
  6
CONTINUOUS
 10
122.7870252343
 20
243.4388489211
 11
122.7870252343
 21
231.9188489211
  0
LINE
  5
3CF
100
AcDbEntity
  8
0
100
AcDbLine
 62
7
  6
CONTINUOUS
 10
122.7870252343
 20
30.9588489207
 11
122.7870252343
 21
19.4388489208
  0
LINE
  5
3D0
100
AcDbEntity
  8
0
100
AcDbLine
 62
7
  6
CONTINUOUS
 10
123.2670252344
 20
231.438848921
 11
123.2670252344
 21
230.938848921
  0
LINE
  5
3D1
100
AcDbEntity
  8
0
100
AcDbLine
 62
7
  6
CONTINUOUS
 10
123.2670252344
 20
31.9388489207
 11
123.2670252344
 21
31.4388489208
  0
LINE
  5
3D2
100
AcDbEntity
  8
0
100
AcDbLine
 62
7
  6
CONTINUOUS
 10
123.5370252344
 20
195.0748489209
 11
123.5370252344
 21
198.1409699991
  0
LINE
  5
3D3
100
AcDbEntity
  8
0
100
AcDbLine
 62
7
  6
CONTINUOUS
 10
115.8871708823
 20
222.7797871095
 11
115.8872678379
 21
224.8495453019
  0
LINE
  5
3D4
100
AcDbEntity
  8
0
100
AcDbLine
 62
7
  6
CONTINUOUS
 10
120.9768658915
 20
35.8885940446
 11
120.977197406
 21
37.9783566524
  0
LINE
  5
3D5
100
AcDbEntity
  8
0
100
AcDbLine
 62
7
  6
CONTINUOUS
 10
119.6331709745
 20
231.7140745965
 11
120.1172659697
 21
243.4594393559
  0
LINE
  5
3D6
100
AcDbEntity
  8
0
100
AcDbLine
 62
7
  6
CONTINUOUS
 10
119.8922883412
 20
236.0937058346
 11
120.1914474662
 21
243.3512146241
  0
LINE
  5
3D7
100
AcDbEntity
  8
0
100
AcDbLine
 62
7
  6
CONTINUOUS
 10
116.8817621275
 20
26.7839920072
 11
116.5822933396
 21
19.5189815616
  0
LINE
  5
3D8
100
AcDbEntity
  8
0
100
AcDbLine
 62
7
  6
CONTINUOUS
 10
117.1408794942
 20
31.1636232452
 11
116.6370252344
 21
18.9388489209
  0
LINE
  5
3D9
100
AcDbEntity
  8
0
100
AcDbLine
 62
7
  6
CONTINUOUS
 10
72.5209998306
 20
48.9388489209
 11
71.6549744268
 21
47.4388489209
  0
LINE
  5
3DA
100
AcDbEntity
  8
0
100
AcDbLine
 62
7
  6
CONTINUOUS
 10
65.8870252344
 20
32.0292299776
 11
58.5602303151
 21
19.3388489209
  0
LINE
  5
3DB
100
AcDbEntity
  8
0
100
AcDbLine
 62
7
  6
CONTINUOUS
 10
74.2530506381
 20
45.9388489209
 11
75.1190760419
 21
47.4388489209
  0
LINE
  5
3DC
100
AcDbEntity
  8
0
100
AcDbLine
 62
7
  6
CONTINUOUS
 10
157.1870252344
 20
150.8865311376
 11
160.2870252344
 21
150.8865311376
  0
LINE
  5
3DD
100
AcDbEntity
  8
0
100
AcDbLine
 62
7
  6
CONTINUOUS
 10
161.4870252344
 20
150.8865311376
 11
164.5870252344
 21
150.8865311376
  0
LINE
  5
3DE
100
AcDbEntity
  8
0
100
AcDbLine
 62
7
  6
CONTINUOUS
 10
164.5870252344
 20
152.0365304523
 11
161.4870252344
 21
152.0365304523
  0
LINE
  5
3DF
100
AcDbEntity
  8
0
100
AcDbLine
 62
7
  6
CONTINUOUS
 10
160.2870252344
 20
152.0365304523
 11
157.1870252344
 21
152.0365304523
  0
LINE
  5
3E0
100
AcDbEntity
  8
0
100
AcDbLine
 62
7
  6
CONTINUOUS
 10
158.7889902994
 20
153.2358747154
 11
162.9889903003
 21
153.2358747154
  0
LINE
  5
3E1
100
AcDbEntity
  8
0
100
AcDbLine
 62
7
  6
CONTINUOUS
 10
162.9889903003
 20
157.4358722125
 11
158.7850601684
 21
157.4358722125
  0
LINE
  5
3E2
100
AcDbEntity
  8
0
100
AcDbLine
 62
7
  6
CONTINUOUS
 10
36.3870252344
 20
158.2454068667
 11
34.3870252279
 21
158.2454067567
  0
LINE
  5
3E3
100
AcDbEntity
  8
0
100
AcDbLine
 62
7
  6
CONTINUOUS
 10
155.3870252344
 20
158.6858714687
 11
165.9870252344
 21
158.6858714687
  0
LINE
  5
3E4
100
AcDbEntity
  8
0
100
AcDbLine
 62
7
  6
CONTINUOUS
 10
71.6549744268
 20
215.4388489209
 11
72.5209998306
 21
213.9388489209
  0
LINE
  5
3E5
100
AcDbEntity
  8
0
100
AcDbLine
 62
7
  6
CONTINUOUS
 10
58.5602303151
 20
243.5388489209
 11
65.8870252343
 21
230.8484678641
  0
LINE
  5
3E6
100
AcDbEntity
  8
0
100
AcDbLine
 62
7
  6
CONTINUOUS
 10
75.1190760419
 20
215.4388489209
 11
74.2530506381
 21
216.9388489209
  0
LINE
  5
3E7
100
AcDbEntity
  8
0
100
AcDbLine
 62
7
  6
CONTINUOUS
 10
123.6370252344
 20
195.3498489209
 11
123.6370252344
 21
197.3498489209
  0
LINE
  5
3E8
100
AcDbEntity
  8
0
100
AcDbLine
 62
7
  6
CONTINUOUS
 10
123.8870252344
 20
210.6888489209
 11
123.8870252344
 21
213.1888489209
  0
LINE
  5
3E9
100
AcDbEntity
  8
0
100
AcDbLine
 62
7
  6
CONTINUOUS
 10
124.1870252344
 20
18.9388489209
 11
124.1870252344
 21
18.9504957466
  0
LINE
  5
3EA
100
AcDbEntity
  8
0
100
AcDbLine
 62
7
  6
CONTINUOUS
 10
124.1870252344
 20
243.9272020951
 11
124.1870252344
 21
243.9388489209
  0
LINE
  5
3EB
100
AcDbEntity
  8
0
100
AcDbLine
 62
7
  6
CONTINUOUS
 10
124.2120252348
 20
189.4998489246
 11
124.2120252343
 21
190.6748489209
  0
LINE
  5
3EC
100
AcDbEntity
  8
0
100
AcDbLine
 62
7
  6
CONTINUOUS
 10
124.4120252343
 20
189.4998489241
 11
124.4120252343
 21
190.6748489209
  0
LINE
  5
3ED
100
AcDbEntity
  8
0
100
AcDbLine
 62
7
  6
CONTINUOUS
 10
124.4618757033
 20
52.1888489209
 11
124.4620711771
 21
31.9324615114
  0
LINE
  5
3EE
100
AcDbEntity
  8
0
100
AcDbLine
 62
7
  6
CONTINUOUS
 10
124.4618757033
 20
210.6888489209
 11
124.4618757033
 21
230.9452362649
  0
LINE
  5
3EF
100
AcDbEntity
  8
0
100
AcDbLine
 62
7
  6
CONTINUOUS
 10
124.5901585756
 20
49.1888489209
 11
124.5901585756
 21
19.4388489209
  0
LINE
  5
3F0
100
AcDbEntity
  8
0
100
AcDbLine
 62
7
  6
CONTINUOUS
 10
124.5901585757
 20
213.6888489209
 11
124.5901585757
 21
243.4388489209
  0
LINE
  5
3F1
100
AcDbEntity
  8
0
100
AcDbLine
 62
7
  6
CONTINUOUS
 10
124.635926063
 20
240.0388489209
 11
124.635926063
 21
213.6888489209
  0
LINE
  5
3F2
100
AcDbEntity
  8
0
100
AcDbLine
 62
7
  6
CONTINUOUS
 10
124.635926063
 20
22.8388489209
 11
124.635926063
 21
49.1888489209
  0
LINE
  5
3F3
100
AcDbEntity
  8
0
100
AcDbLine
 62
7
  6
CONTINUOUS
 10
124.643578751
 20
243.4388489209
 11
124.6436620448
 21
240.6388489209
  0
LINE
  5
3F4
100
AcDbEntity
  8
0
100
AcDbLine
 62
7
  6
CONTINUOUS
 10
124.643578751
 20
19.4388489209
 11
124.6436620448
 21
22.2388489209
  0
LINE
  5
3F5
100
AcDbEntity
  8
0
100
AcDbLine
 62
7
  6
CONTINUOUS
 10
124.6870252344
 20
243.4388489209
 11
124.6870252344
 21
240.6388489209
  0
LINE
  5
3F6
100
AcDbEntity
  8
0
100
AcDbLine
 62
7
  6
CONTINUOUS
 10
124.6870252344
 20
22.2388489209
 11
124.6870252344
 21
19.4388489208
  0
LINE
  5
3F7
100
AcDbEntity
  8
0
100
AcDbLine
 62
7
  6
CONTINUOUS
 10
125.2870252344
 20
243.9388489209
 11
125.287025234
 21
240.6388489209
  0
LINE
  5
3F8
100
AcDbEntity
  8
0
100
AcDbLine
 62
7
  6
CONTINUOUS
 10
125.287025234
 20
22.2388489209
 11
125.2870252344
 21
18.9388489209
  0
LINE
  5
3F9
100
AcDbEntity
  8
0
100
AcDbLine
 62
7
  6
CONTINUOUS
 10
125.6870252344
 20
19.5388489209
 11
125.6870252344
 21
22.2388489209
  0
LINE
  5
3FA
100
AcDbEntity
  8
0
100
AcDbLine
 62
7
  6
CONTINUOUS
 10
125.6870252344
 20
240.6388489209
 11
125.6870252344
 21
243.3388489209
  0
LINE
  5
3FB
100
AcDbEntity
  8
0
100
AcDbLine
 62
7
  6
CONTINUOUS
 10
125.8870252343
 20
52.1888489209
 11
125.8870252343
 21
32.0292299776
  0
LINE
  5
3FC
100
AcDbEntity
  8
0
100
AcDbLine
 62
7
  6
CONTINUOUS
 10
125.8870252343
 20
210.6888489209
 11
125.8870252343
 21
230.8484678641
  0
LINE
  5
3FD
100
AcDbEntity
  8
0
100
AcDbLine
 62
7
  6
CONTINUOUS
 10
126.2870253638
 20
243.9388489209
 11
126.2870252344
 21
240.0388489209
  0
LINE
  5
3FE
100
AcDbEntity
  8
0
100
AcDbLine
 62
7
  6
CONTINUOUS
 10
126.2870252344
 20
22.8388489209
 11
126.2870253638
 21
18.9388489209
  0
LINE
  5
3FF
100
AcDbEntity
  8
0
100
AcDbLine
 62
7
  6
CONTINUOUS
 10
126.7620252344
 20
190.6748489209
 11
126.7620252344
 21
189.4998489219
  0
LINE
  5
400
100
AcDbEntity
  8
0
100
AcDbLine
 62
7
  6
CONTINUOUS
 10
126.9620252344
 20
190.6748489209
 11
126.9620252344
 21
189.4998489222
  0
LINE
  5
401
100
AcDbEntity
  8
0
100
AcDbLine
 62
7
  6
CONTINUOUS
 10
127.5370252344
 20
195.3498489209
 11
127.5370252344
 21
197.3498489209
  0
LINE
  5
402
100
AcDbEntity
  8
0
100
AcDbLine
 62
7
  6
CONTINUOUS
 10
127.6370252344
 20
195.2478579705
 11
127.6370252344
 21
195.0748489209
  0
LINE
  5
403
100
AcDbEntity
  8
0
100
AcDbLine
 62
7
  6
CONTINUOUS
 10
127.6370252344
 20
195.2748489209
 11
127.6370252344
 21
198.1409699991
  0
LINE
  5
404
100
AcDbEntity
  8
0
100
AcDbLine
 62
7
  6
CONTINUOUS
 10
128.4370252344
 20
187.7748489209
 11
128.4370252344
 21
202.7748489209
  0
LINE
  5
405
100
AcDbEntity
  8
0
100
AcDbLine
 62
7
  6
CONTINUOUS
 10
35.6870252344
 20
22.2388489209
 11
36.2870252344
 21
22.8388489209
  0
LINE
  5
406
100
AcDbEntity
  8
0
100
AcDbLine
 62
7
  6
CONTINUOUS
 10
155.3870252344
 20
159.8843095033
 11
165.9870252344
 21
159.8843095033
  0
LINE
  5
407
100
AcDbEntity
  8
0
100
AcDbLine
 62
7
  6
CONTINUOUS
 10
157.1870252344
 20
162.7130524603
 11
160.2870252344
 21
162.7130524603
  0
LINE
  5
408
100
AcDbEntity
  8
0
100
AcDbLine
 62
7
  6
CONTINUOUS
 10
161.4870252344
 20
162.7130524603
 11
164.5870252344
 21
162.7130524603
  0
LINE
  5
409
100
AcDbEntity
  8
0
100
AcDbLine
 62
7
  6
CONTINUOUS
 10
164.5870252344
 20
163.8630517751
 11
161.4870252344
 21
163.8630517751
  0
LINE
  5
40A
100
AcDbEntity
  8
0
100
AcDbLine
 62
7
  6
CONTINUOUS
 10
160.2870252344
 20
163.8630517751
 11
157.1870252344
 21
163.8630517751
  0
LINE
  5
40B
100
AcDbEntity
  8
0
100
AcDbLine
 62
7
  6
CONTINUOUS
 10
157.1870252344
 20
164.8630511791
 11
160.2870252344
 21
164.8630511791
  0
LINE
  5
40C
100
AcDbEntity
  8
0
100
AcDbLine
 62
7
  6
CONTINUOUS
 10
161.4870252344
 20
164.8630511791
 11
164.5870252344
 21
164.8630511791
  0
LINE
  5
40D
100
AcDbEntity
  8
0
100
AcDbLine
 62
7
  6
CONTINUOUS
 10
164.5870252344
 20
166.0130504938
 11
161.4870252344
 21
166.0130504938
  0
LINE
  5
40E
100
AcDbEntity
  8
0
100
AcDbLine
 62
7
  6
CONTINUOUS
 10
160.2870252344
 20
166.0130504938
 11
157.1870252344
 21
166.0130504938
  0
LINE
  5
40F
100
AcDbEntity
  8
0
100
AcDbLine
 62
7
  6
CONTINUOUS
 10
158.7870237365
 20
167.2123942802
 11
162.9870267326
 21
167.2123942802
  0
LINE
  5
410
100
AcDbEntity
  8
0
100
AcDbLine
 62
7
  6
CONTINUOUS
 10
61.8870252333
 20
214.0388489219
 11
62.6870252335
 21
213.2388489217
  0
LINE
  5
411
100
AcDbEntity
  8
0
100
AcDbLine
 62
7
  6
CONTINUOUS
 10
35.6870252344
 20
240.6388489209
 11
36.2870252344
 21
240.0388489209
  0
LINE
  5
412
100
AcDbEntity
  8
0
100
AcDbLine
 62
7
  6
CONTINUOUS
 10
133.087025218
 20
204.3888489206
 11
133.0870252225
 21
203.7888489208
  0
LINE
  5
413
100
AcDbEntity
  8
0
100
AcDbLine
 62
7
  6
CONTINUOUS
 10
133.0870252349
 20
186.2888489214
 11
133.0870252348
 21
186.8888489214
  0
LINE
  5
414
100
AcDbEntity
  8
0
100
AcDbLine
 62
7
  6
CONTINUOUS
 10
133.2070252344
 20
194.9648489209
 11
133.2070252344
 21
202.7848489209
  0
LINE
  5
415
100
AcDbEntity
  8
0
100
AcDbLine
 62
7
  6
CONTINUOUS
 10
134.0870252344
 20
202.7888489215
 11
134.0870252344
 21
187.8888489316
  0
LINE
  5
416
100
AcDbEntity
  8
0
100
AcDbLine
 62
7
  6
CONTINUOUS
 10
134.6870252344
 20
202.7888489219
 11
134.6870252341
 21
187.8888489376
  0
LINE
  5
417
100
AcDbEntity
  8
0
100
AcDbLine
 62
7
  6
CONTINUOUS
 10
137.8870252344
 20
243.2388489209
 11
137.8870252344
 21
240.5346889515
  0
LINE
  5
418
100
AcDbEntity
  8
0
100
AcDbLine
 62
7
  6
CONTINUOUS
 10
137.8870252344
 20
219.1430088903
 11
137.8870252344
 21
215.1388489209
  0
LINE
  5
419
100
AcDbEntity
  8
0
100
AcDbLine
 62
7
  6
CONTINUOUS
 10
137.8870252344
 20
19.6388489209
 11
137.8870252344
 21
22.3430088903
  0
LINE
  5
41A
100
AcDbEntity
  8
0
100
AcDbLine
 62
7
  6
CONTINUOUS
 10
137.8870252344
 20
43.7346889515
 11
137.8870252344
 21
47.7388489209
  0
LINE
  5
41B
100
AcDbEntity
  8
0
100
AcDbLine
 62
7
  6
CONTINUOUS
 10
86.6494209273
 20
33.0388489209
 11
91.2682230808
 21
41.0388489209
  0
LINE
  5
41C
100
AcDbEntity
  8
0
100
AcDbLine
 62
7
  6
CONTINUOUS
 10
36.3870252344
 20
168.2438838188
 11
34.887025228
 21
168.2438838192
  0
LINE
  5
41D
100
AcDbEntity
  8
0
100
AcDbLine
 62
7
  6
CONTINUOUS
 10
36.3870252344
 20
168.921089223
 11
34.887025233
 21
168.9210892227
  0
LINE
  5
41E
100
AcDbEntity
  8
0
100
AcDbLine
 62
7
  6
CONTINUOUS
 10
25.8870252344
 20
170.7133184669
 11
36.3870252344
 21
170.7131240304
  0
LINE
  5
41F
100
AcDbEntity
  8
0
100
AcDbLine
 62
7
  6
CONTINUOUS
 10
162.9870267323
 20
171.4123927308
 11
158.7870237362
 21
171.4123927308
  0
LINE
  5
420
100
AcDbEntity
  8
0
100
AcDbLine
 62
7
  6
CONTINUOUS
 10
155.3870252344
 20
172.6623915103
 11
165.9870252344
 21
172.6623915103
  0
LINE
  5
421
100
AcDbEntity
  8
0
100
AcDbLine
 62
7
  6
CONTINUOUS
 10
155.3870252344
 20
173.8608295449
 11
165.9870252344
 21
173.8608295449
  0
LINE
  5
422
100
AcDbEntity
  8
0
100
AcDbLine
 62
7
  6
CONTINUOUS
 10
165.8870252344
 20
175.6375255843
 11
155.3870252344
 21
175.6375255821
  0
LINE
  5
423
100
AcDbEntity
  8
0
100
AcDbLine
 62
7
  6
CONTINUOUS
 10
25.8870252344
 20
175.6375325716
 11
36.3870252344
 21
175.6375898476
  0
LINE
  5
424
100
AcDbEntity
  8
0
100
AcDbLine
 62
7
  6
CONTINUOUS
 10
91.2682230808
 20
221.8388489209
 11
86.6494209273
 21
229.8388489209
  0
LINE
  5
425
100
AcDbEntity
  8
0
100
AcDbLine
 62
7
  6
CONTINUOUS
 10
143.8870252344
 20
47.7388489209
 11
143.8870252344
 21
43.7346889515
  0
LINE
  5
426
100
AcDbEntity
  8
0
100
AcDbLine
 62
7
  6
CONTINUOUS
 10
143.8870252344
 20
22.3430088903
 11
143.8870252344
 21
19.6388489209
  0
LINE
  5
427
100
AcDbEntity
  8
0
100
AcDbLine
 62
7
  6
CONTINUOUS
 10
143.8870252344
 20
215.1388489209
 11
143.8870252344
 21
219.1430088903
  0
LINE
  5
428
100
AcDbEntity
  8
0
100
AcDbLine
 62
7
  6
CONTINUOUS
 10
143.8870252344
 20
240.5346889515
 11
143.8870252344
 21
243.2388489208
  0
LINE
  5
429
100
AcDbEntity
  8
0
100
AcDbLine
 62
7
  6
CONTINUOUS
 10
165.8870252344
 20
178.5836941587
 11
155.3870252344
 21
178.5836941587
  0
LINE
  5
42A
100
AcDbEntity
  8
0
100
AcDbLine
 62
7
  6
CONTINUOUS
 10
36.3870252344
 20
178.5836941588
 11
25.8870252344
 21
178.5836941588
  0
LINE
  5
42B
100
AcDbEntity
  8
0
100
AcDbLine
 62
7
  6
CONTINUOUS
 10
25.8870252344
 20
181.5381174178
 11
36.3870252344
 21
181.5381174178
  0
LINE
  5
42C
100
AcDbEntity
  8
0
100
AcDbLine
 62
7
  6
CONTINUOUS
 10
155.3870252344
 20
181.5381174178
 11
165.8870252344
 21
181.5381174178
  0
LINE
  5
42D
100
AcDbEntity
  8
0
100
AcDbLine
 62
7
  6
CONTINUOUS
 10
155.3870252344
 20
62.1888489209
 11
155.3870252344
 21
203.5483546638
  0
LINE
  5
42E
100
AcDbEntity
  8
0
100
AcDbLine
 62
7
  6
CONTINUOUS
 10
155.487025105
 20
18.9388489209
 11
155.4870252344
 21
22.8388489209
  0
LINE
  5
42F
100
AcDbEntity
  8
0
100
AcDbLine
 62
7
  6
CONTINUOUS
 10
155.4870252344
 20
240.0388489209
 11
155.487025105
 21
243.9388489209
  0
LINE
  5
430
100
AcDbEntity
  8
0
100
AcDbLine
 62
7
  6
CONTINUOUS
 10
155.8870252344
 20
230.8484678642
 11
155.8870252344
 21
210.6888489209
  0
LINE
  5
431
100
AcDbEntity
  8
0
100
AcDbLine
 62
7
  6
CONTINUOUS
 10
155.8870252344
 20
32.0292299776
 11
155.8870252344
 21
52.1888489209
  0
LINE
  5
432
100
AcDbEntity
  8
0
100
AcDbLine
 62
7
  6
CONTINUOUS
 10
156.0870252344
 20
243.3388489209
 11
156.0870252344
 21
240.6388489209
  0
LINE
  5
433
100
AcDbEntity
  8
0
100
AcDbLine
 62
7
  6
CONTINUOUS
 10
156.0870252344
 20
22.2388489209
 11
156.0870252344
 21
19.5388489209
  0
LINE
  5
434
100
AcDbEntity
  8
0
100
AcDbLine
 62
7
  6
CONTINUOUS
 10
156.4870252344
 20
18.9388489209
 11
156.4870252329
 21
22.2388489209
  0
LINE
  5
435
100
AcDbEntity
  8
0
100
AcDbLine
 62
7
  6
CONTINUOUS
 10
156.4870252329
 20
240.6388489209
 11
156.4870252344
 21
243.9388489209
  0
LINE
  5
436
100
AcDbEntity
  8
0
100
AcDbLine
 62
7
  6
CONTINUOUS
 10
156.9870252344
 20
169.6123933267
 11
156.9870252344
 21
169.0123936843
  0
LINE
  5
437
100
AcDbEntity
  8
0
100
AcDbLine
 62
7
  6
CONTINUOUS
 10
156.9870252344
 20
155.6358732852
 11
156.9870252344
 21
155.0358736427
  0
LINE
  5
438
100
AcDbEntity
  8
0
100
AcDbLine
 62
7
  6
CONTINUOUS
 10
156.9870252344
 20
107.93590171
 11
156.9870252344
 21
107.3359020675
  0
LINE
  5
439
100
AcDbEntity
  8
0
100
AcDbLine
 62
7
  6
CONTINUOUS
 10
156.9870252344
 20
93.9124384369
 11
156.9870252344
 21
93.3124387945
  0
LINE
  5
43A
100
AcDbEntity
  8
0
100
AcDbLine
 62
7
  6
CONTINUOUS
 10
157.0870252344
 20
19.4388489206
 11
157.0870252344
 21
22.2388489209
  0
LINE
  5
43B
100
AcDbEntity
  8
0
100
AcDbLine
 62
7
  6
CONTINUOUS
 10
157.0870252344
 20
240.6388489209
 11
157.0870252344
 21
243.4388489209
  0
LINE
  5
43C
100
AcDbEntity
  8
0
100
AcDbLine
 62
7
  6
CONTINUOUS
 10
157.1381244058
 20
240.0388489209
 11
157.1381244058
 21
213.6888489209
  0
LINE
  5
43D
100
AcDbEntity
  8
0
100
AcDbLine
 62
7
  6
CONTINUOUS
 10
157.1381244057
 20
22.8388489209
 11
157.1381244057
 21
49.1888489209
  0
LINE
  5
43E
100
AcDbEntity
  8
0
100
AcDbLine
 62
7
  6
CONTINUOUS
 10
157.140970109
 20
19.4388489208
 11
157.1409655834
 21
22.2388489209
  0
LINE
  5
43F
100
AcDbEntity
  8
0
100
AcDbLine
 62
7
  6
CONTINUOUS
 10
157.140970109
 20
243.4388489211
 11
157.140970109
 21
240.6388489209
  0
LINE
  5
440
100
AcDbEntity
  8
0
100
AcDbLine
 62
7
  6
CONTINUOUS
 10
157.1838918931
 20
49.1888489209
 11
157.1838918931
 21
19.4388489209
  0
LINE
  5
441
100
AcDbEntity
  8
0
100
AcDbLine
 62
7
  6
CONTINUOUS
 10
157.1838918931
 20
213.6888489209
 11
157.1838918931
 21
243.438848921
  0
LINE
  5
442
100
AcDbEntity
  8
0
100
AcDbLine
 62
7
  6
CONTINUOUS
 10
157.1870252344
 20
166.0130504938
 11
157.1870252344
 21
164.8630511791
  0
LINE
  5
443
100
AcDbEntity
  8
0
100
AcDbLine
 62
7
  6
CONTINUOUS
 10
157.1870252344
 20
163.863051775
 11
157.1870252344
 21
162.7130524603
  0
LINE
  5
444
100
AcDbEntity
  8
0
100
AcDbLine
 62
7
  6
CONTINUOUS
 10
157.1870252344
 20
152.0365304522
 11
157.1870252344
 21
150.8865311375
  0
LINE
  5
445
100
AcDbEntity
  8
0
100
AcDbLine
 62
7
  6
CONTINUOUS
 10
157.1870252344
 20
149.8865317334
 11
157.1870252344
 21
148.7365324187
  0
LINE
  5
446
100
AcDbEntity
  8
0
100
AcDbLine
 62
7
  6
CONTINUOUS
 10
157.1870252344
 20
114.2365529776
 11
157.1870252344
 21
113.0865536629
  0
LINE
  5
447
100
AcDbEntity
  8
0
100
AcDbLine
 62
7
  6
CONTINUOUS
 10
157.1870252344
 20
112.0865542588
 11
157.1870252344
 21
110.9365549441
  0
LINE
  5
448
100
AcDbEntity
  8
0
100
AcDbLine
 62
7
  6
CONTINUOUS
 10
157.1870252344
 20
100.2130897046
 11
157.1870252344
 21
99.0630903899
  0
LINE
  5
449
100
AcDbEntity
  8
0
100
AcDbLine
 62
7
  6
CONTINUOUS
 10
157.1870252344
 20
98.0630909858
 11
157.1870252344
 21
96.9130916711
  0
LINE
  5
44A
100
AcDbEntity
  8
0
100
AcDbLine
 62
7
  6
CONTINUOUS
 10
157.3121747654
 20
52.1888489209
 11
157.3121747654
 21
31.8523686729
  0
LINE
  5
44B
100
AcDbEntity
  8
0
100
AcDbLine
 62
7
  6
CONTINUOUS
 10
157.3121747654
 20
210.6888489209
 11
157.3121747654
 21
231.0253291689
  0
LINE
  5
44C
100
AcDbEntity
  8
0
100
AcDbLine
 62
7
  6
CONTINUOUS
 10
157.8037483028
 20
198.0522809918
 11
157.8037483028
 21
196.8093215018
  0
LINE
  5
44D
100
AcDbEntity
  8
0
100
AcDbLine
 62
7
  6
CONTINUOUS
 10
157.8105281633
 20
66.0718419044
 11
157.8105281633
 21
64.8066866886
  0
LINE
  5
44E
100
AcDbEntity
  8
0
100
AcDbLine
 62
7
  6
CONTINUOUS
 10
105.1246295414
 20
33.0388489209
 11
100.5058273879
 21
25.0388489209
  0
LINE
  5
44F
100
AcDbEntity
  8
0
100
AcDbLine
 62
7
  6
CONTINUOUS
 10
117.5209998306
 20
48.9388489209
 11
116.6549744268
 21
47.4388489209
  0
LINE
  5
450
100
AcDbEntity
  8
0
100
AcDbLine
 62
7
  6
CONTINUOUS
 10
110.8870252344
 20
32.0292299776
 11
103.5602303151
 21
19.3388489209
  0
LINE
  5
451
100
AcDbEntity
  8
0
100
AcDbLine
 62
7
  6
CONTINUOUS
 10
119.2530506381
 20
45.9388489209
 11
120.1190760419
 21
47.4388489209
  0
LINE
  5
452
100
AcDbEntity
  8
0
100
AcDbLine
 62
7
  6
CONTINUOUS
 10
133.0870252349
 20
186.2888489214
 11
107.6870252429
 21
186.2888489217
  0
LINE
  5
453
100
AcDbEntity
  8
0
100
AcDbLine
 62
7
  6
CONTINUOUS
 10
84.0870252348
 20
186.2888489214
 11
58.6870252429
 21
186.2888489217
  0
LINE
  5
454
100
AcDbEntity
  8
0
100
AcDbLine
 62
7
  6
CONTINUOUS
 10
133.0870252348
 20
186.8888489214
 11
107.6870252428
 21
186.8888489214
  0
LINE
  5
455
100
AcDbEntity
  8
0
100
AcDbLine
 62
7
  6
CONTINUOUS
 10
84.0870252348
 20
186.8888489214
 11
58.6870252428
 21
186.8888489214
  0
LINE
  5
456
100
AcDbEntity
  8
0
100
AcDbLine
 62
7
  6
CONTINUOUS
 10
128.4370252344
 20
187.7748489209
 11
112.5770252344
 21
187.7748489209
  0
LINE
  5
457
100
AcDbEntity
  8
0
100
AcDbLine
 62
7
  6
CONTINUOUS
 10
134.6870252341
 20
187.8888489376
 11
134.0870252343
 21
187.8888489316
  0
LINE
  5
458
100
AcDbEntity
  8
0
100
AcDbLine
 62
7
  6
CONTINUOUS
 10
85.687025234
 20
187.8888489376
 11
85.0870252342
 21
187.8888489316
  0
LINE
  5
459
100
AcDbEntity
  8
0
100
AcDbLine
 62
7
  6
CONTINUOUS
 10
57.0870252348
 20
187.8888489204
 11
57.6870252348
 21
187.8888489207
  0
LINE
  5
45A
100
AcDbEntity
  8
0
100
AcDbLine
 62
7
  6
CONTINUOUS
 10
106.0870252348
 20
187.8888489204
 11
106.6870252348
 21
187.8888489207
  0
LINE
  5
45B
100
AcDbEntity
  8
0
100
AcDbLine
 62
7
  6
CONTINUOUS
 10
112.5770252344
 20
188.0748489209
 11
128.4370252344
 21
188.0748489209
  0
LINE
  5
45C
100
AcDbEntity
  8
0
100
AcDbLine
 62
7
  6
CONTINUOUS
 10
114.3315801193
 20
189.0748489209
 11
116.5224703494
 21
189.0748489209
  0
LINE
  5
45D
100
AcDbEntity
  8
0
100
AcDbLine
 62
7
  6
CONTINUOUS
 10
119.4115801193
 20
189.0748489209
 11
121.6024703493
 21
189.0748489209
  0
LINE
  5
45E
100
AcDbEntity
  8
0
100
AcDbLine
 62
7
  6
CONTINUOUS
 10
124.4915801193
 20
189.0748489209
 11
126.6824703494
 21
189.0748489209
  0
LINE
  5
45F
100
AcDbEntity
  8
0
100
AcDbLine
 62
7
  6
CONTINUOUS
 10
114.2520252353
 20
189.4998489408
 11
114.0520252363
 21
189.4998489356
  0
LINE
  5
460
100
AcDbEntity
  8
0
100
AcDbLine
 62
7
  6
CONTINUOUS
 10
116.6020252338
 20
189.4998489482
 11
116.8020252333
 21
189.4998489512
  0
LINE
  5
461
100
AcDbEntity
  8
0
100
AcDbLine
 62
7
  6
CONTINUOUS
 10
119.1320252348
 20
189.4998489246
 11
119.3320252346
 21
189.4998489241
  0
LINE
  5
462
100
AcDbEntity
  8
0
100
AcDbLine
 62
7
  6
CONTINUOUS
 10
121.6820252343
 20
189.499848922
 11
121.8820252343
 21
189.4998489222
  0
LINE
  5
463
100
AcDbEntity
  8
0
100
AcDbLine
 62
7
  6
CONTINUOUS
 10
124.2120252348
 20
189.4998489246
 11
124.4120252346
 21
189.4998489241
  0
LINE
  5
464
100
AcDbEntity
  8
0
100
AcDbLine
 62
7
  6
CONTINUOUS
 10
126.7620252344
 20
189.499848922
 11
126.9620252344
 21
189.4998489222
  0
LINE
  5
465
100
AcDbEntity
  8
0
100
AcDbLine
 62
7
  6
CONTINUOUS
 10
114.0520252343
 20
190.6748489209
 11
116.8020252343
 21
190.6748489209
  0
LINE
  5
466
100
AcDbEntity
  8
0
100
AcDbLine
 62
7
  6
CONTINUOUS
 10
119.1320252344
 20
190.6748489209
 11
121.8820252343
 21
190.6748489209
  0
LINE
  5
467
100
AcDbEntity
  8
0
100
AcDbLine
 62
7
  6
CONTINUOUS
 10
124.2120252343
 20
190.6748489209
 11
126.9620252344
 21
190.6748489209
  0
LINE
  5
468
100
AcDbEntity
  8
0
100
AcDbLine
 62
7
  6
CONTINUOUS
 10
128.4370252344
 20
190.7748489209
 11
112.5770252344
 21
190.7748489209
  0
LINE
  5
469
100
AcDbEntity
  8
0
100
AcDbLine
 62
7
  6
CONTINUOUS
 10
112.5770252344
 20
191.1748489209
 11
128.4370252344
 21
191.1748489209
  0
LINE
  5
46A
100
AcDbEntity
  8
0
100
AcDbLine
 62
7
  6
CONTINUOUS
 10
76.2328720207
 20
212.4831426193
 11
75.7033214688
 21
212.7888787729
  0
LINE
  5
46B
100
AcDbEntity
  8
0
100
AcDbLine
 62
7
  6
CONTINUOUS
 10
76.6327921628
 20
212.8832055191
 11
76.1034110119
 21
213.1888489208
  0
LINE
  5
46C
100
AcDbEntity
  8
0
100
AcDbLine
 62
7
  6
CONTINUOUS
 10
100.5058273879
 20
237.8388489209
 11
105.1246295414
 21
229.8388489209
  0
LINE
  5
46D
100
AcDbEntity
  8
0
100
AcDbLine
 62
7
  6
CONTINUOUS
 10
116.6549744268
 20
215.4388489209
 11
117.5209998306
 21
213.9388489209
  0
LINE
  5
46E
100
AcDbEntity
  8
0
100
AcDbLine
 62
7
  6
CONTINUOUS
 10
103.5602303151
 20
243.5388489209
 11
110.8870252343
 21
230.8484678641
  0
LINE
  5
46F
100
AcDbEntity
  8
0
100
AcDbLine
 62
7
  6
CONTINUOUS
 10
120.1190760419
 20
215.4388489209
 11
119.2530506381
 21
216.9388489209
  0
LINE
  5
470
100
AcDbEntity
  8
0
100
AcDbLine
 62
7
  6
CONTINUOUS
 10
162.8831487208
 20
243.3397367194
 11
162.9828919314
 21
231.9102969069
  0
LINE
  5
471
100
AcDbEntity
  8
0
100
AcDbLine
 62
7
  6
CONTINUOUS
 10
163.3831325973
 20
243.3437659603
 11
163.4828728924
 21
231.9146601845
  0
LINE
  5
472
100
AcDbEntity
  8
0
100
AcDbLine
 62
7
  6
CONTINUOUS
 10
159.7070252343
 20
31.4388489208
 11
159.7070252343
 21
31.9388489208
  0
LINE
  5
473
100
AcDbEntity
  8
0
100
AcDbLine
 62
7
  6
CONTINUOUS
 10
159.7070252343
 20
230.938848921
 11
159.7070252343
 21
231.438848921
  0
LINE
  5
474
100
AcDbEntity
  8
0
100
AcDbLine
 62
7
  6
CONTINUOUS
 10
159.7338314541
 20
200.1245807963
 11
159.7338314541
 21
198.0522809918
  0
LINE
  5
475
100
AcDbEntity
  8
0
100
AcDbLine
 62
7
  6
CONTINUOUS
 10
159.7338314541
 20
196.8093215018
 11
159.7338314541
 21
194.685976077
  0
LINE
  5
476
100
AcDbEntity
  8
0
100
AcDbLine
 62
7
  6
CONTINUOUS
 10
159.7509118636
 20
68.1626806655
 11
159.7509118636
 21
66.0718419044
  0
LINE
  5
477
100
AcDbEntity
  8
0
100
AcDbLine
 62
7
  6
CONTINUOUS
 10
159.7509118636
 20
64.8066866886
 11
159.7509118636
 21
62.7100068863
  0
LINE
  5
478
100
AcDbEntity
  8
0
100
AcDbLine
 62
7
  6
CONTINUOUS
 10
160.1870252344
 20
19.4388489209
 11
160.1870252344
 21
30.9588489207
  0
LINE
  5
479
100
AcDbEntity
  8
0
100
AcDbLine
 62
7
  6
CONTINUOUS
 10
160.1870252344
 20
231.9188489211
 11
160.1870252344
 21
243.4388489209
  0
LINE
  5
47A
100
AcDbEntity
  8
0
100
AcDbLine
 62
7
  6
CONTINUOUS
 10
160.2870252344
 20
96.9130916711
 11
160.2870252344
 21
98.0630909858
  0
LINE
  5
47B
100
AcDbEntity
  8
0
100
AcDbLine
 62
7
  6
CONTINUOUS
 10
160.2870252344
 20
99.0630903899
 11
160.2870252344
 21
100.2130897046
  0
LINE
  5
47C
100
AcDbEntity
  8
0
100
AcDbLine
 62
7
  6
CONTINUOUS
 10
160.2870252344
 20
110.9365549441
 11
160.2870252344
 21
112.0865542588
  0
LINE
  5
47D
100
AcDbEntity
  8
0
100
AcDbLine
 62
7
  6
CONTINUOUS
 10
160.2870252344
 20
113.0865536629
 11
160.2870252344
 21
114.2365529776
  0
LINE
  5
47E
100
AcDbEntity
  8
0
100
AcDbLine
 62
7
  6
CONTINUOUS
 10
160.2870252344
 20
148.7365324187
 11
160.2870252344
 21
149.8865317334
  0
LINE
  5
47F
100
AcDbEntity
  8
0
100
AcDbLine
 62
7
  6
CONTINUOUS
 10
160.2870252344
 20
150.8865311375
 11
160.2870252344
 21
152.0365304522
  0
LINE
  5
480
100
AcDbEntity
  8
0
100
AcDbLine
 62
7
  6
CONTINUOUS
 10
160.2870252344
 20
162.7130524603
 11
160.2870252344
 21
163.863051775
  0
LINE
  5
481
100
AcDbEntity
  8
0
100
AcDbLine
 62
7
  6
CONTINUOUS
 10
160.2870252344
 20
164.8630511791
 11
160.2870252344
 21
166.0130504938
  0
LINE
  5
482
100
AcDbEntity
  8
0
100
AcDbLine
 62
7
  6
CONTINUOUS
 10
160.6870252344
 20
243.9388489209
 11
160.6870252344
 21
231.9188489211
  0
LINE
  5
483
100
AcDbEntity
  8
0
100
AcDbLine
 62
7
  6
CONTINUOUS
 10
160.6870252344
 20
30.9588489207
 11
160.6870252344
 21
18.9388489209
  0
LINE
  5
484
100
AcDbEntity
  8
0
100
AcDbLine
 62
7
  6
CONTINUOUS
 10
160.9861650804
 20
62.7100068863
 11
160.9861650804
 21
64.8066866886
  0
LINE
  5
485
100
AcDbEntity
  8
0
100
AcDbLine
 62
7
  6
CONTINUOUS
 10
160.9861650804
 20
66.0718419044
 11
160.9861650804
 21
68.1626806655
  0
LINE
  5
486
100
AcDbEntity
  8
0
100
AcDbLine
 62
7
  6
CONTINUOUS
 10
160.9861650804
 20
194.685976077
 11
160.9861650804
 21
196.8093215018
  0
LINE
  5
487
100
AcDbEntity
  8
0
100
AcDbLine
 62
7
  6
CONTINUOUS
 10
160.9861650804
 20
198.0522809918
 11
160.9861650804
 21
200.1245807963
  0
LINE
  5
488
100
AcDbEntity
  8
0
100
AcDbLine
 62
7
  6
CONTINUOUS
 10
161.4870252344
 20
166.0130504938
 11
161.4870252344
 21
164.8630511791
  0
LINE
  5
489
100
AcDbEntity
  8
0
100
AcDbLine
 62
7
  6
CONTINUOUS
 10
161.4870252344
 20
163.863051775
 11
161.4870252344
 21
162.7130524603
  0
LINE
  5
48A
100
AcDbEntity
  8
0
100
AcDbLine
 62
7
  6
CONTINUOUS
 10
161.4870252344
 20
152.0365304522
 11
161.4870252344
 21
150.8865311375
  0
LINE
  5
48B
100
AcDbEntity
  8
0
100
AcDbLine
 62
7
  6
CONTINUOUS
 10
161.4870252344
 20
149.8865317334
 11
161.4870252344
 21
148.7365324187
  0
LINE
  5
48C
100
AcDbEntity
  8
0
100
AcDbLine
 62
7
  6
CONTINUOUS
 10
161.4870252344
 20
114.2365529776
 11
161.4870252344
 21
113.0865536629
  0
LINE
  5
48D
100
AcDbEntity
  8
0
100
AcDbLine
 62
7
  6
CONTINUOUS
 10
161.4870252344
 20
112.0865542588
 11
161.4870252344
 21
110.9365549441
  0
LINE
  5
48E
100
AcDbEntity
  8
0
100
AcDbLine
 62
7
  6
CONTINUOUS
 10
161.4870252344
 20
100.2130897046
 11
161.4870252344
 21
99.0630903899
  0
LINE
  5
48F
100
AcDbEntity
  8
0
100
AcDbLine
 62
7
  6
CONTINUOUS
 10
161.4870252344
 20
98.0630909858
 11
161.4870252344
 21
96.9130916711
  0
LINE
  5
490
100
AcDbEntity
  8
0
100
AcDbLine
 62
7
  6
CONTINUOUS
 10
162.7831526607
 20
18.9388489209
 11
162.7831526607
 21
19.4388489209
  0
LINE
  5
491
100
AcDbEntity
  8
0
100
AcDbLine
 62
7
  6
CONTINUOUS
 10
162.7831526607
 20
243.4388489209
 11
162.7831526607
 21
243.9388489209
  0
LINE
  5
492
100
AcDbEntity
  8
0
100
AcDbLine
 62
7
  6
CONTINUOUS
 10
162.998591674
 20
64.8066866886
 11
162.998591674
 21
66.0718419044
  0
LINE
  5
493
100
AcDbEntity
  8
0
100
AcDbLine
 62
7
  6
CONTINUOUS
 10
162.998591674
 20
196.8093215018
 11
162.998591674
 21
198.0522809918
  0
LINE
  5
494
100
AcDbEntity
  8
0
100
AcDbLine
 62
7
  6
CONTINUOUS
 10
163.9628546155
 20
231.4388489209
 11
163.9628546155
 21
230.9388489209
  0
LINE
  5
495
100
AcDbEntity
  8
0
100
AcDbLine
 62
7
  6
CONTINUOUS
 10
163.9628546155
 20
31.9388489209
 11
163.9628546155
 21
31.4388489209
  0
LINE
  5
496
100
AcDbEntity
  8
0
100
AcDbLine
 62
7
  6
CONTINUOUS
 10
164.5870252344
 20
96.9130916711
 11
164.5870252344
 21
98.0630909858
  0
LINE
  5
497
100
AcDbEntity
  8
0
100
AcDbLine
 62
7
  6
CONTINUOUS
 10
164.5870252344
 20
99.0630903899
 11
164.5870252344
 21
100.2130897046
  0
LINE
  5
498
100
AcDbEntity
  8
0
100
AcDbLine
 62
7
  6
CONTINUOUS
 10
164.5870252344
 20
110.9365549441
 11
164.5870252344
 21
112.0865542588
  0
LINE
  5
499
100
AcDbEntity
  8
0
100
AcDbLine
 62
7
  6
CONTINUOUS
 10
164.5870252344
 20
113.0865536629
 11
164.5870252344
 21
114.2365529776
  0
LINE
  5
49A
100
AcDbEntity
  8
0
100
AcDbLine
 62
7
  6
CONTINUOUS
 10
164.5870252344
 20
148.7365324187
 11
164.5870252344
 21
149.8865317334
  0
LINE
  5
49B
100
AcDbEntity
  8
0
100
AcDbLine
 62
7
  6
CONTINUOUS
 10
164.5870252344
 20
150.8865311375
 11
164.5870252344
 21
152.0365304522
  0
LINE
  5
49C
100
AcDbEntity
  8
0
100
AcDbLine
 62
7
  6
CONTINUOUS
 10
164.5870252344
 20
162.7130524603
 11
164.5870252344
 21
163.863051775
  0
LINE
  5
49D
100
AcDbEntity
  8
0
100
AcDbLine
 62
7
  6
CONTINUOUS
 10
164.5870252344
 20
164.8630511791
 11
164.5870252344
 21
166.0130504938
  0
LINE
  5
49E
100
AcDbEntity
  8
0
100
AcDbLine
 62
7
  6
CONTINUOUS
 10
164.7870252344
 20
93.3124387945
 11
164.7870252344
 21
93.9124384369
  0
LINE
  5
49F
100
AcDbEntity
  8
0
100
AcDbLine
 62
7
  6
CONTINUOUS
 10
164.7870252344
 20
107.3359020675
 11
164.7870252344
 21
107.93590171
  0
LINE
  5
4A0
100
AcDbEntity
  8
0
100
AcDbLine
 62
7
  6
CONTINUOUS
 10
164.7870252344
 20
155.0358736427
 11
164.7870252344
 21
155.6358732852
  0
LINE
  5
4A1
100
AcDbEntity
  8
0
100
AcDbLine
 62
7
  6
CONTINUOUS
 10
164.7870252344
 20
169.0123936843
 11
164.7870252344
 21
169.6123933267
  0
LINE
  5
4A2
100
AcDbEntity
  8
0
100
AcDbLine
 62
7
  6
CONTINUOUS
 10
165.2870252344
 20
124.3858919073
 11
165.2870252343
 21
138.5858834454
  0
LINE
  5
4A3
100
AcDbEntity
  8
0
100
AcDbLine
 62
7
  6
CONTINUOUS
 10
165.8870252344
 20
31.4388489209
 11
165.8870252344
 21
89.0303452572
  0
LINE
  5
4A4
100
AcDbEntity
  8
0
100
AcDbLine
 62
7
  6
CONTINUOUS
 10
165.8870252344
 20
124.3852368854
 11
165.8870252344
 21
138.5852284236
  0
LINE
  5
4A5
100
AcDbEntity
  8
0
100
AcDbLine
 62
7
  6
CONTINUOUS
 10
165.8870252344
 20
173.8608295449
 11
165.8870252344
 21
231.4388489209
  0
LINE
  5
4A6
100
AcDbEntity
  8
0
100
AcDbLine
 62
7
  6
CONTINUOUS
 10
165.9870252344
 20
89.0608800779
 11
165.9870252344
 21
103.0624329844
  0
LINE
  5
4A7
100
AcDbEntity
  8
0
100
AcDbLine
 62
7
  6
CONTINUOUS
 10
165.9870252344
 20
103.0843433509
 11
165.9870252344
 21
173.8608295449
  0
LINE
  5
4A8
100
AcDbEntity
  8
0
100
AcDbLine
 62
7
  6
CONTINUOUS
 10
162.9828919315
 20
30.9674009372
 11
162.8831554243
 21
19.5388747078
  0
LINE
  5
4A9
100
AcDbEntity
  8
0
100
AcDbLine
 62
7
  6
CONTINUOUS
 10
163.4828728924
 20
30.9630376573
 11
163.3831326359
 21
19.5339363074
  0
LINE
  5
4AA
100
AcDbEntity
  8
0
100
AcDbLine
 62
7
  6
CONTINUOUS
 10
80.6870252344
 20
22.2388489209
 11
81.2870252344
 21
22.8388489209
  0
LINE
  5
4AB
100
AcDbEntity
  8
0
100
AcDbLine
 62
7
  6
CONTINUOUS
 10
127.6370252344
 20
197.8688929329
 11
128.4370252344
 21
197.869077663
  0
LINE
  5
4AC
100
AcDbEntity
  8
0
100
AcDbLine
 62
7
  6
CONTINUOUS
 10
30.7684894713
 20
194.685976077
 11
31.9790910893
 21
194.685976077
  0
LINE
  5
4AD
100
AcDbEntity
  8
0
100
AcDbLine
 62
7
  6
CONTINUOUS
 10
159.7338314541
 20
194.685976077
 11
160.9861650804
 21
194.685976077
  0
LINE
  5
4AE
100
AcDbEntity
  8
0
100
AcDbLine
 62
7
  6
CONTINUOUS
 10
133.2070252344
 20
194.9648489209
 11
128.4370252344
 21
194.9648489209
  0
LINE
  5
4AF
100
AcDbEntity
  8
0
100
AcDbLine
 62
7
  6
CONTINUOUS
 10
112.5770252344
 20
194.9648489209
 11
107.8070252344
 21
194.9648489209
  0
LINE
  5
4B0
100
AcDbEntity
  8
0
100
AcDbLine
 62
7
  6
CONTINUOUS
 10
128.4370252344
 20
195.0748489209
 11
127.6370252344
 21
195.0748489209
  0
LINE
  5
4B1
100
AcDbEntity
  8
0
100
AcDbLine
 62
7
  6
CONTINUOUS
 10
123.5370252344
 20
195.0748489209
 11
122.5570252344
 21
195.0748489209
  0
LINE
  5
4B2
100
AcDbEntity
  8
0
100
AcDbLine
 62
7
  6
CONTINUOUS
 10
118.4570252344
 20
195.0748489209
 11
117.4770252344
 21
195.0748489209
  0
LINE
  5
4B3
100
AcDbEntity
  8
0
100
AcDbLine
 62
7
  6
CONTINUOUS
 10
113.3770252344
 20
195.0748489209
 11
112.5770252344
 21
195.0748489209
  0
LINE
  5
4B4
100
AcDbEntity
  8
0
100
AcDbLine
 62
7
  6
CONTINUOUS
 10
133.2070252344
 20
195.2648489209
 11
127.6370252344
 21
195.2748489209
  0
LINE
  5
4B5
100
AcDbEntity
  8
0
100
AcDbLine
 62
7
  6
CONTINUOUS
 10
123.5370252344
 20
195.2748489209
 11
122.5570252344
 21
195.2748489209
  0
LINE
  5
4B6
100
AcDbEntity
  8
0
100
AcDbLine
 62
7
  6
CONTINUOUS
 10
118.4570252344
 20
195.2748489209
 11
117.4770252344
 21
195.2748489209
  0
LINE
  5
4B7
100
AcDbEntity
  8
0
100
AcDbLine
 62
7
  6
CONTINUOUS
 10
113.3770252344
 20
195.2748489209
 11
107.8070252344
 21
195.2648489209
  0
LINE
  5
4B8
100
AcDbEntity
  8
0
100
AcDbLine
 62
7
  6
CONTINUOUS
 10
127.5370252344
 20
195.3498489209
 11
123.6370252344
 21
195.3498489209
  0
LINE
  5
4B9
100
AcDbEntity
  8
0
100
AcDbLine
 62
7
  6
CONTINUOUS
 10
117.3770252344
 20
195.3498489209
 11
113.4770252344
 21
195.3498489209
  0
LINE
  5
4BA
100
AcDbEntity
  8
0
100
AcDbLine
 62
7
  6
CONTINUOUS
 10
118.5570252344
 20
195.3498489209
 11
122.4570252344
 21
195.3498489209
  0
LINE
  5
4BB
100
AcDbEntity
  8
0
100
AcDbLine
 62
7
  6
CONTINUOUS
 10
113.4770252344
 20
195.5498489209
 11
117.3770252344
 21
195.5498489209
  0
LINE
  5
4BC
100
AcDbEntity
  8
0
100
AcDbLine
 62
7
  6
CONTINUOUS
 10
123.6370252344
 20
195.5498489209
 11
127.5370252344
 21
195.5498489209
  0
LINE
  5
4BD
100
AcDbEntity
  8
0
100
AcDbLine
 62
7
  6
CONTINUOUS
 10
112.5770252344
 20
195.5748489209
 11
113.3770252344
 21
195.5748489209
  0
LINE
  5
4BE
100
AcDbEntity
  8
0
100
AcDbLine
 62
7
  6
CONTINUOUS
 10
117.4770252344
 20
195.5748489209
 11
118.4570252344
 21
195.5748489209
  0
LINE
  5
4BF
100
AcDbEntity
  8
0
100
AcDbLine
 62
7
  6
CONTINUOUS
 10
122.5570252344
 20
195.5748489209
 11
123.5370252344
 21
195.5748489209
  0
LINE
  5
4C0
100
AcDbEntity
  8
0
100
AcDbLine
 62
7
  6
CONTINUOUS
 10
127.6370252344
 20
195.5748489209
 11
128.4370252344
 21
195.5748489209
  0
LINE
  5
4C1
100
AcDbEntity
  8
0
100
AcDbLine
 62
7
  6
CONTINUOUS
 10
127.5370252344
 20
195.6645631236
 11
123.6370252344
 21
195.6645631236
  0
LINE
  5
4C2
100
AcDbEntity
  8
0
100
AcDbLine
 62
7
  6
CONTINUOUS
 10
117.3770252344
 20
195.6645631236
 11
113.4770252344
 21
195.6645631236
  0
LINE
  5
4C3
100
AcDbEntity
  8
0
100
AcDbLine
 62
7
  6
CONTINUOUS
 10
113.4770252344
 20
195.9086371254
 11
117.3770252344
 21
195.9086371254
  0
LINE
  5
4C4
100
AcDbEntity
  8
0
100
AcDbLine
 62
7
  6
CONTINUOUS
 10
123.6370252344
 20
195.9086371254
 11
127.5370252344
 21
195.9086371254
  0
LINE
  5
4C5
100
AcDbEntity
  8
0
100
AcDbLine
 62
7
  6
CONTINUOUS
 10
127.5370252344
 20
196.0569601188
 11
123.6370252344
 21
196.0569601188
  0
LINE
  5
4C6
100
AcDbEntity
  8
0
100
AcDbLine
 62
7
  6
CONTINUOUS
 10
117.3770252344
 20
196.0569601188
 11
113.4770252344
 21
196.0569601188
  0
LINE
  5
4C7
100
AcDbEntity
  8
0
100
AcDbLine
 62
7
  6
CONTINUOUS
 10
108.8370252344
 20
196.0698489209
 11
112.5770252344
 21
196.0698489209
  0
LINE
  5
4C8
100
AcDbEntity
  8
0
100
AcDbLine
 62
7
  6
CONTINUOUS
 10
128.4370252344
 20
196.0698489209
 11
132.1770252343
 21
196.0698489209
  0
LINE
  5
4C9
100
AcDbEntity
  8
0
100
AcDbLine
 62
7
  6
CONTINUOUS
 10
113.4770252344
 20
196.642737723
 11
117.3770252344
 21
196.642737723
  0
LINE
  5
4CA
100
AcDbEntity
  8
0
100
AcDbLine
 62
7
  6
CONTINUOUS
 10
123.6370252344
 20
196.642737723
 11
127.5370252344
 21
196.642737723
  0
LINE
  5
4CB
100
AcDbEntity
  8
0
100
AcDbLine
 62
7
  6
CONTINUOUS
 10
127.5370252344
 20
196.7910607164
 11
123.6370252344
 21
196.7910607164
  0
LINE
  5
4CC
100
AcDbEntity
  8
0
100
AcDbLine
 62
7
  6
CONTINUOUS
 10
117.3770252344
 20
196.7910607164
 11
113.4770252344
 21
196.7910607164
  0
LINE
  5
4CD
100
AcDbEntity
  8
0
100
AcDbLine
 62
7
  6
CONTINUOUS
 10
28.7368229962
 20
196.8093215018
 11
30.7684894713
 21
196.8093215018
  0
LINE
  5
4CE
100
AcDbEntity
  8
0
100
AcDbLine
 62
7
  6
CONTINUOUS
 10
31.9790910893
 20
196.8093215018
 11
34.0595175597
 21
196.8093215018
  0
LINE
  5
4CF
100
AcDbEntity
  8
0
100
AcDbLine
 62
7
  6
CONTINUOUS
 10
157.8037483028
 20
196.8093215018
 11
159.7338314541
 21
196.8093215018
  0
LINE
  5
4D0
100
AcDbEntity
  8
0
100
AcDbLine
 62
7
  6
CONTINUOUS
 10
160.9861650804
 20
196.8093215018
 11
162.998591674
 21
196.8093215018
  0
LINE
  5
4D1
100
AcDbEntity
  8
0
100
AcDbLine
 62
7
  6
CONTINUOUS
 10
113.4770252344
 20
197.0351347182
 11
117.3770252344
 21
197.0351347182
  0
LINE
  5
4D2
100
AcDbEntity
  8
0
100
AcDbLine
 62
7
  6
CONTINUOUS
 10
123.6370252344
 20
197.0351347182
 11
127.5370252344
 21
197.0351347182
  0
LINE
  5
4D3
100
AcDbEntity
  8
0
100
AcDbLine
 62
7
  6
CONTINUOUS
 10
127.5370252344
 20
197.1498489209
 11
123.6370252344
 21
197.1498489209
  0
LINE
  5
4D4
100
AcDbEntity
  8
0
100
AcDbLine
 62
7
  6
CONTINUOUS
 10
117.3770252344
 20
197.1498489209
 11
113.4770252344
 21
197.1498489209
  0
LINE
  5
4D5
100
AcDbEntity
  8
0
100
AcDbLine
 62
7
  6
CONTINUOUS
 10
128.4370252344
 20
197.1842663554
 11
127.6370252344
 21
197.1842663554
  0
LINE
  5
4D6
100
AcDbEntity
  8
0
100
AcDbLine
 62
7
  6
CONTINUOUS
 10
123.5370252344
 20
197.1842663554
 11
122.5570252344
 21
197.1842663554
  0
LINE
  5
4D7
100
AcDbEntity
  8
0
100
AcDbLine
 62
7
  6
CONTINUOUS
 10
118.4570252344
 20
197.1842663554
 11
117.4770252344
 21
197.1842663554
  0
LINE
  5
4D8
100
AcDbEntity
  8
0
100
AcDbLine
 62
7
  6
CONTINUOUS
 10
113.3770252344
 20
197.1842663554
 11
112.5770252344
 21
197.1842663554
  0
LINE
  5
4D9
100
AcDbEntity
  8
0
100
AcDbLine
 62
7
  6
CONTINUOUS
 10
122.4570252344
 20
197.3498489209
 11
118.5570252344
 21
197.3498489209
  0
LINE
  5
4DA
100
AcDbEntity
  8
0
100
AcDbLine
 62
7
  6
CONTINUOUS
 10
113.4770252344
 20
197.3498489209
 11
117.3770252344
 21
197.3498489209
  0
LINE
  5
4DB
100
AcDbEntity
  8
0
100
AcDbLine
 62
7
  6
CONTINUOUS
 10
123.6370252344
 20
197.3498489209
 11
127.5370252344
 21
197.3498489209
  0
LINE
  5
4DC
100
AcDbEntity
  8
0
100
AcDbLine
 62
7
  6
CONTINUOUS
 10
128.4370252344
 20
197.4563434215
 11
127.6370252344
 21
197.456340515
  0
LINE
  5
4DD
100
AcDbEntity
  8
0
100
AcDbLine
 62
7
  6
CONTINUOUS
 10
123.5370252344
 20
197.4563434215
 11
122.5570252344
 21
197.456340515
  0
LINE
  5
4DE
100
AcDbEntity
  8
0
100
AcDbLine
 62
7
  6
CONTINUOUS
 10
118.4570252344
 20
197.4563434215
 11
117.4770252344
 21
197.456340515
  0
LINE
  5
4DF
100
AcDbEntity
  8
0
100
AcDbLine
 62
7
  6
CONTINUOUS
 10
113.3770252344
 20
197.4563434215
 11
112.5770252344
 21
197.456340515
  0
LINE
  5
4E0
100
AcDbEntity
  8
0
100
AcDbLine
 62
7
  6
CONTINUOUS
 10
122.5570252344
 20
197.8688929329
 11
123.5370252344
 21
197.8688958394
  0
LINE
  5
4E1
100
AcDbEntity
  8
0
100
AcDbLine
 62
7
  6
CONTINUOUS
 10
117.4770252344
 20
197.8688929329
 11
118.4570252344
 21
197.8688958394
  0
LINE
  5
4E2
100
AcDbEntity
  8
0
100
AcDbLine
 62
7
  6
CONTINUOUS
 10
162.998591674
 20
198.0522809918
 11
160.9861650804
 21
198.0522809918
  0
LINE
  5
4E3
100
AcDbEntity
  8
0
100
AcDbLine
 62
7
  6
CONTINUOUS
 10
159.7338314541
 20
198.0522809918
 11
157.8037483028
 21
198.0522809918
  0
LINE
  5
4E4
100
AcDbEntity
  8
0
100
AcDbLine
 62
7
  6
CONTINUOUS
 10
34.0595175597
 20
198.0744767176
 11
31.9790910893
 21
198.0744767176
  0
LINE
  5
4E5
100
AcDbEntity
  8
0
100
AcDbLine
 62
7
  6
CONTINUOUS
 10
30.7684894713
 20
198.0744767176
 11
28.7368229962
 21
198.0744767176
  0
LINE
  5
4E6
100
AcDbEntity
  8
0
100
AcDbLine
 62
7
  6
CONTINUOUS
 10
112.5770252344
 20
198.1409699991
 11
113.3770252344
 21
198.1409699991
  0
LINE
  5
4E7
100
AcDbEntity
  8
0
100
AcDbLine
 62
7
  6
CONTINUOUS
 10
117.4770252344
 20
198.1409699991
 11
118.4570252344
 21
198.1409699991
  0
LINE
  5
4E8
100
AcDbEntity
  8
0
100
AcDbLine
 62
7
  6
CONTINUOUS
 10
122.5570252344
 20
198.1409699991
 11
123.5370252344
 21
198.1409699991
  0
LINE
  5
4E9
100
AcDbEntity
  8
0
100
AcDbLine
 62
7
  6
CONTINUOUS
 10
127.6370252344
 20
198.1409699991
 11
128.4370252344
 21
198.1409699991
  0
LINE
  5
4EA
100
AcDbEntity
  8
0
100
AcDbLine
 62
7
  6
CONTINUOUS
 10
160.9861650804
 20
200.1245807963
 11
159.7338314541
 21
200.1245807963
  0
LINE
  5
4EB
100
AcDbEntity
  8
0
100
AcDbLine
 62
7
  6
CONTINUOUS
 10
31.9790910893
 20
200.1386498563
 11
30.7684894713
 21
200.1386498563
  0
LINE
  5
4EC
100
AcDbEntity
  8
0
100
AcDbLine
 62
7
  6
CONTINUOUS
 10
132.1770252344
 20
201.8698489209
 11
128.4370252344
 21
201.8698489209
  0
LINE
  5
4ED
100
AcDbEntity
  8
0
100
AcDbLine
 62
7
  6
CONTINUOUS
 10
112.5770252344
 20
201.8698489209
 11
108.8370252344
 21
201.8698489209
  0
LINE
  5
4EE
100
AcDbEntity
  8
0
100
AcDbLine
 62
7
  6
CONTINUOUS
 10
128.4370252344
 20
202.4748489209
 11
112.5770252344
 21
202.4748489209
  0
LINE
  5
4EF
100
AcDbEntity
  8
0
100
AcDbLine
 62
7
  6
CONTINUOUS
 10
133.2070252344
 20
202.7848489209
 11
107.8070252344
 21
202.7848489209
  0
LINE
  5
4F0
100
AcDbEntity
  8
0
100
AcDbLine
 62
7
  6
CONTINUOUS
 10
134.6870252344
 20
202.7888489219
 11
134.0870252344
 21
202.7888489215
  0
LINE
  5
4F1
100
AcDbEntity
  8
0
100
AcDbLine
 62
7
  6
CONTINUOUS
 10
85.6870252343
 20
202.7888489219
 11
85.0870252344
 21
202.7888489214
  0
LINE
  5
4F2
100
AcDbEntity
  8
0
100
AcDbLine
 62
7
  6
CONTINUOUS
 10
57.0870252351
 20
202.7888489046
 11
57.6870252349
 21
202.788848909
  0
LINE
  5
4F3
100
AcDbEntity
  8
0
100
AcDbLine
 62
7
  6
CONTINUOUS
 10
106.0870252351
 20
202.7888489046
 11
106.6870252349
 21
202.788848909
  0
LINE
  5
4F4
100
AcDbEntity
  8
0
100
AcDbLine
 62
7
  6
CONTINUOUS
 10
112.5770252344
 20
197.869077663
 11
113.3770252344
 21
197.8688958394
  0
LINE
  5
4F5
100
AcDbEntity
  8
0
100
AcDbLine
 62
7
  6
CONTINUOUS
 10
80.6870252344
 20
240.6388489209
 11
81.2870252344
 21
240.0388489209
  0
LINE
  5
4F6
100
AcDbEntity
  8
0
100
AcDbLine
 62
7
  6
CONTINUOUS
 10
131.6494209273
 20
33.0388489209
 11
136.2682230809
 21
41.0388489209
  0
LINE
  5
4F7
100
AcDbEntity
  8
0
100
AcDbLine
 62
7
  6
CONTINUOUS
 10
58.6870252342
 20
203.7888489209
 11
84.0870252225
 21
203.7888489209
  0
LINE
  5
4F8
100
AcDbEntity
  8
0
100
AcDbLine
 62
7
  6
CONTINUOUS
 10
107.6870252342
 20
203.7888489209
 11
133.0870252224
 21
203.7888489209
  0
LINE
  5
4F9
100
AcDbEntity
  8
0
100
AcDbLine
 62
7
  6
CONTINUOUS
 10
58.6870252339
 20
204.3888489209
 11
84.0870252181
 21
204.3888489206
  0
LINE
  5
4FA
100
AcDbEntity
  8
0
100
AcDbLine
 62
7
  6
CONTINUOUS
 10
107.6870252339
 20
204.3888489209
 11
133.087025218
 21
204.3888489206
  0
LINE
  5
4FB
100
AcDbEntity
  8
0
100
AcDbLine
 62
7
  6
CONTINUOUS
 10
25.8870252344
 20
210.6888489209
 11
165.8870252344
 21
210.6888489209
  0
LINE
  5
4FC
100
AcDbEntity
  8
0
100
AcDbLine
 62
7
  6
CONTINUOUS
 10
67.8870252344
 20
211.5888489209
 11
71.8870252344
 21
211.5888489209
  0
LINE
  5
4FD
100
AcDbEntity
  8
0
100
AcDbLine
 62
7
  6
CONTINUOUS
 10
119.8870252344
 20
211.5888489209
 11
123.8870252344
 21
211.5888489209
  0
LINE
  5
4FE
100
AcDbEntity
  8
0
100
AcDbLine
 62
7
  6
CONTINUOUS
 10
111.2328720207
 20
212.4831426193
 11
110.7033214688
 21
212.7888787729
  0
LINE
  5
4FF
100
AcDbEntity
  8
0
100
AcDbLine
 62
7
  6
CONTINUOUS
 10
111.6327921628
 20
212.8832055191
 11
111.1034110119
 21
213.1888489208
  0
LINE
  5
500
100
AcDbEntity
  8
0
100
AcDbLine
 62
7
  6
CONTINUOUS
 10
136.2682230809
 20
221.8388489209
 11
131.6494209273
 21
229.8388489209
  0
LINE
  5
501
100
AcDbEntity
  8
0
100
AcDbLine
 62
7
  6
CONTINUOUS
 10
114.4698827842
 20
212.471168811
 11
112.3041923269
 21
212.471168811
  0
LINE
  5
502
100
AcDbEntity
  8
0
100
AcDbLine
 62
7
  6
CONTINUOUS
 10
79.4698827842
 20
212.471168811
 11
77.3041923269
 21
212.471168811
  0
LINE
  5
503
100
AcDbEntity
  8
0
100
AcDbLine
 62
7
  6
CONTINUOUS
 10
77.3039802827
 20
212.8760257542
 11
79.4701112554
 21
212.876025754
  0
LINE
  5
504
100
AcDbEntity
  8
0
100
AcDbLine
 62
7
  6
CONTINUOUS
 10
112.3039802829
 20
212.8760257542
 11
114.4701112554
 21
212.876025754
  0
LINE
  5
505
100
AcDbEntity
  8
0
100
AcDbLine
 62
7
  6
CONTINUOUS
 10
115.6706394568
 20
213.1888489209
 11
111.1034110119
 21
213.1888489209
  0
LINE
  5
506
100
AcDbEntity
  8
0
100
AcDbLine
 62
7
  6
CONTINUOUS
 10
80.6706394568
 20
213.1888489209
 11
76.1034110119
 21
213.1888489209
  0
LINE
  5
507
100
AcDbEntity
  8
0
100
AcDbLine
 62
7
  6
CONTINUOUS
 10
48.8870252344
 20
213.2388489209
 11
62.6870252344
 21
213.2388489209
  0
LINE
  5
508
100
AcDbEntity
  8
0
100
AcDbLine
 62
7
  6
CONTINUOUS
 10
157.1838918931
 20
213.6888489209
 11
155.8870252344
 21
213.6888489209
  0
LINE
  5
509
100
AcDbEntity
  8
0
100
AcDbLine
 62
7
  6
CONTINUOUS
 10
125.8870252343
 20
213.6888489209
 11
124.5901585756
 21
213.6888489209
  0
LINE
  5
50A
100
AcDbEntity
  8
0
100
AcDbLine
 62
7
  6
CONTINUOUS
 10
112.1838918931
 20
213.6888489209
 11
110.8870252344
 21
213.6888489209
  0
LINE
  5
50B
100
AcDbEntity
  8
0
100
AcDbLine
 62
7
  6
CONTINUOUS
 10
80.8870252343
 20
213.6888489209
 11
79.5901585757
 21
213.6888489209
  0
LINE
  5
50C
100
AcDbEntity
  8
0
100
AcDbLine
 62
7
  6
CONTINUOUS
 10
67.1838918931
 20
213.6888489209
 11
65.8870252344
 21
213.6888489209
  0
LINE
  5
50D
100
AcDbEntity
  8
0
100
AcDbLine
 62
7
  6
CONTINUOUS
 10
35.8870252343
 20
213.6888489209
 11
34.5901585757
 21
213.6888489209
  0
LINE
  5
50E
100
AcDbEntity
  8
0
100
AcDbLine
 62
7
  6
CONTINUOUS
 10
68.3870252344
 20
213.6888489209
 11
71.3870252344
 21
213.6888489209
  0
LINE
  5
50F
100
AcDbEntity
  8
0
100
AcDbLine
 62
7
  6
CONTINUOUS
 10
120.3870252344
 20
213.6888489209
 11
123.3870252344
 21
213.6888489209
  0
LINE
  5
510
100
AcDbEntity
  8
0
100
AcDbLine
 62
7
  6
CONTINUOUS
 10
72.5209998306
 20
213.9388489209
 11
74.2530506381
 21
213.9388489209
  0
LINE
  5
511
100
AcDbEntity
  8
0
100
AcDbLine
 62
7
  6
CONTINUOUS
 10
117.5209998306
 20
213.9388489209
 11
119.2530506381
 21
213.9388489209
  0
LINE
  5
512
100
AcDbEntity
  8
0
100
AcDbLine
 62
7
  6
CONTINUOUS
 10
49.6870252364
 20
214.0388489209
 11
61.8870252329
 21
214.0388489209
  0
LINE
  5
513
100
AcDbEntity
  8
0
100
AcDbLine
 62
7
  6
CONTINUOUS
 10
48.1870252344
 20
214.8388489209
 11
53.5870252344
 21
214.8388489209
  0
LINE
  5
514
100
AcDbEntity
  8
0
100
AcDbLine
 62
7
  6
CONTINUOUS
 10
93.1870252344
 20
214.8388489209
 11
98.5870252344
 21
214.8388489209
  0
LINE
  5
515
100
AcDbEntity
  8
0
100
AcDbLine
 62
7
  6
CONTINUOUS
 10
138.1870252344
 20
214.8388489209
 11
143.5870252344
 21
214.8388489209
  0
LINE
  5
516
100
AcDbEntity
  8
0
100
AcDbLine
 62
7
  6
CONTINUOUS
 10
119.2530506381
 20
216.9388489209
 11
117.5209998306
 21
216.9388489209
  0
LINE
  5
517
100
AcDbEntity
  8
0
100
AcDbLine
 62
7
  6
CONTINUOUS
 10
74.2530506381
 20
216.9388489209
 11
72.5209998306
 21
216.9388489209
  0
LINE
  5
518
100
AcDbEntity
  8
0
100
AcDbLine
 62
7
  6
CONTINUOUS
 10
119.3131827881
 20
219.4388489209
 11
117.4608793536
 21
219.4388489209
  0
LINE
  5
519
100
AcDbEntity
  8
0
100
AcDbLine
 62
7
  6
CONTINUOUS
 10
74.3131827878
 20
219.4388489209
 11
72.4608793528
 21
219.4388489209
  0
LINE
  5
51A
100
AcDbEntity
  8
0
100
AcDbLine
 62
7
  6
CONTINUOUS
 10
150.1246295414
 20
33.0388489209
 11
145.5058273878
 21
25.0388489209
  0
LINE
  5
51B
100
AcDbEntity
  8
0
100
AcDbLine
 62
7
  6
CONTINUOUS
 10
125.6870252344
 20
22.2388489209
 11
126.2870252344
 21
22.8388489209
  0
LINE
  5
51C
100
AcDbEntity
  8
0
100
AcDbLine
 62
7
  6
CONTINUOUS
 10
46.2682230808
 20
221.8388489209
 11
55.5058273879
 21
221.8388489209
  0
LINE
  5
51D
100
AcDbEntity
  8
0
100
AcDbLine
 62
7
  6
CONTINUOUS
 10
91.2682230808
 20
221.8388489209
 11
100.5058273879
 21
221.8388489209
  0
LINE
  5
51E
100
AcDbEntity
  8
0
100
AcDbLine
 62
7
  6
CONTINUOUS
 10
136.2682230809
 20
221.8388489209
 11
145.5058273879
 21
221.8388489209
  0
LINE
  5
51F
100
AcDbEntity
  8
0
100
AcDbLine
 62
7
  6
CONTINUOUS
 10
125.6870252344
 20
240.6388489209
 11
126.2870252344
 21
240.0388489209
  0
LINE
  5
520
100
AcDbEntity
  8
0
100
AcDbLine
 62
7
  6
CONTINUOUS
 10
145.5058273879
 20
237.8388489209
 11
150.1246295414
 21
229.8388489209
  0
LINE
  5
521
100
AcDbEntity
  8
0
100
AcDbLine
 62
7
  6
CONTINUOUS
 10
155.8870252344
 20
32.0292299776
 11
148.5602303152
 21
19.338848921
  0
LINE
  5
522
100
AcDbEntity
  8
0
100
AcDbLine
 62
7
  6
CONTINUOUS
 10
162.9828919308
 20
231.9102969161
 11
163.4828728924
 21
231.9146601838
  0
LINE
  5
523
100
AcDbEntity
  8
0
100
AcDbLine
 62
7
  6
CONTINUOUS
 10
123.2670252342
 20
230.938848921
 11
124.462066823
 21
230.9452362649
  0
LINE
  5
524
100
AcDbEntity
  8
0
100
AcDbLine
 62
7
  6
CONTINUOUS
 10
79.462070856
 20
230.9452363161
 11
78.2670252347
 21
230.938848921
  0
LINE
  5
525
100
AcDbEntity
  8
0
100
AcDbLine
 62
7
  6
CONTINUOUS
 10
165.8870252344
 20
230.9388489209
 11
163.9628546155
 21
230.9388489209
  0
LINE
  5
526
100
AcDbEntity
  8
0
100
AcDbLine
 62
7
  6
CONTINUOUS
 10
159.7070252391
 20
230.9388489215
 11
157.3121747654
 21
230.9388489209
  0
LINE
  5
527
100
AcDbEntity
  8
0
100
AcDbLine
 62
7
  6
CONTINUOUS
 10
34.4618757033
 20
230.938848921
 11
32.0670252344
 21
230.938848921
  0
LINE
  5
528
100
AcDbEntity
  8
0
100
AcDbLine
 62
7
  6
CONTINUOUS
 10
27.8111958544
 20
230.938848921
 11
25.8870252344
 21
230.9388489209
  0
LINE
  5
529
100
AcDbEntity
  8
0
100
AcDbLine
 62
7
  6
CONTINUOUS
 10
25.8870252344
 20
231.4388489209
 11
27.8111958533
 21
231.4388489209
  0
LINE
  5
52A
100
AcDbEntity
  8
0
100
AcDbLine
 62
7
  6
CONTINUOUS
 10
32.0670252344
 20
231.438848921
 11
34.0085145803
 21
231.438848921
  0
LINE
  5
52B
100
AcDbEntity
  8
0
100
AcDbLine
 62
7
  6
CONTINUOUS
 10
67.7890397238
 20
231.438848921
 11
68.5070252336
 21
231.438848921
  0
LINE
  5
52C
100
AcDbEntity
  8
0
100
AcDbLine
 62
7
  6
CONTINUOUS
 10
78.2670252344
 20
231.438848921
 11
78.9850107449
 21
231.438848921
  0
LINE
  5
52D
100
AcDbEntity
  8
0
100
AcDbLine
 62
7
  6
CONTINUOUS
 10
112.7890397238
 20
231.438848921
 11
113.5070252336
 21
231.438848921
  0
LINE
  5
52E
100
AcDbEntity
  8
0
100
AcDbLine
 62
7
  6
CONTINUOUS
 10
123.2670252344
 20
231.438848921
 11
123.9850107449
 21
231.438848921
  0
LINE
  5
52F
100
AcDbEntity
  8
0
100
AcDbLine
 62
7
  6
CONTINUOUS
 10
157.8877730892
 20
231.438848921
 11
159.7070252336
 21
231.438848921
  0
LINE
  5
530
100
AcDbEntity
  8
0
100
AcDbLine
 62
7
  6
CONTINUOUS
 10
163.9628546155
 20
231.4388489209
 11
165.8870252344
 21
231.4388489209
  0
LINE
  5
531
100
AcDbEntity
  8
0
100
AcDbLine
 62
7
  6
CONTINUOUS
 10
31.0870252343
 20
231.9188489211
 11
31.5870252343
 21
231.9188489211
  0
LINE
  5
532
100
AcDbEntity
  8
0
100
AcDbLine
 62
7
  6
CONTINUOUS
 10
68.9870252344
 20
231.9188489211
 11
69.4870252344
 21
231.9188489211
  0
LINE
  5
533
100
AcDbEntity
  8
0
100
AcDbLine
 62
7
  6
CONTINUOUS
 10
77.2870252343
 20
231.9188489211
 11
77.7870252343
 21
231.9188489211
  0
LINE
  5
534
100
AcDbEntity
  8
0
100
AcDbLine
 62
7
  6
CONTINUOUS
 10
113.9870252344
 20
231.9188489211
 11
114.4870252344
 21
231.9188489211
  0
LINE
  5
535
100
AcDbEntity
  8
0
100
AcDbLine
 62
7
  6
CONTINUOUS
 10
122.2870252343
 20
231.9188489211
 11
122.7870252343
 21
231.9188489211
  0
LINE
  5
536
100
AcDbEntity
  8
0
100
AcDbLine
 62
7
  6
CONTINUOUS
 10
160.1870252344
 20
231.9188489211
 11
160.6870252344
 21
231.9188489211
  0
LINE
  5
537
100
AcDbEntity
  8
0
100
AcDbLine
 62
7
  6
CONTINUOUS
 10
145.5058273878
 20
237.8388489209
 11
136.2682230808
 21
237.8388489209
  0
LINE
  5
538
100
AcDbEntity
  8
0
100
AcDbLine
 62
7
  6
CONTINUOUS
 10
100.5058273879
 20
237.8388489209
 11
91.2682230808
 21
237.8388489209
  0
LINE
  5
539
100
AcDbEntity
  8
0
100
AcDbLine
 62
7
  6
CONTINUOUS
 10
55.5058273879
 20
237.8388489209
 11
46.2682230808
 21
237.8388489209
  0
LINE
  5
53A
100
AcDbEntity
  8
0
100
AcDbLine
 62
7
  6
CONTINUOUS
 10
113.5070252389
 20
230.9388489214
 11
112.3119841161
 21
230.9452376882
  0
LINE
  5
53B
100
AcDbEntity
  8
0
100
AcDbLine
 62
7
  6
CONTINUOUS
 10
68.5070252389
 20
230.9388489215
 11
67.3121216004
 21
230.948851035
  0
LINE
  5
53C
100
AcDbEntity
  8
0
100
AcDbLine
 62
7
  6
CONTINUOUS
 10
28.2911775763
 20
231.9146601838
 11
28.7911585378
 21
231.9102969161
  0
LINE
  5
53D
100
AcDbEntity
  8
0
100
AcDbLine
 62
7
  6
CONTINUOUS
 10
148.5602303153
 20
243.5388489207
 11
155.8870252344
 21
230.8484678642
  0
LINE
  5
53E
100
AcDbEntity
  8
0
100
AcDbLine
 62
7
  6
CONTINUOUS
 10
163.3831298144
 20
243.3440848421
 11
162.8831488529
 21
243.3397215743
  0
LINE
  5
53F
100
AcDbEntity
  8
0
100
AcDbLine
 62
7
  6
CONTINUOUS
 10
157.1381244058
 20
240.0388489209
 11
155.4870252344
 21
240.0388489209
  0
LINE
  5
540
100
AcDbEntity
  8
0
100
AcDbLine
 62
7
  6
CONTINUOUS
 10
126.2870252344
 20
240.0388489209
 11
124.635926063
 21
240.0388489209
  0
LINE
  5
541
100
AcDbEntity
  8
0
100
AcDbLine
 62
7
  6
CONTINUOUS
 10
112.1383383833
 20
240.0388489209
 11
110.4870252344
 21
240.0388489209
  0
LINE
  5
542
100
AcDbEntity
  8
0
100
AcDbLine
 62
7
  6
CONTINUOUS
 10
81.2870252344
 20
240.0388489209
 11
79.6357120854
 21
240.0388489209
  0
LINE
  5
543
100
AcDbEntity
  8
0
100
AcDbLine
 62
7
  6
CONTINUOUS
 10
67.1381244057
 20
240.0388489209
 11
65.4870252344
 21
240.0388489209
  0
LINE
  5
544
100
AcDbEntity
  8
0
100
AcDbLine
 62
7
  6
CONTINUOUS
 10
36.2870252344
 20
240.0388489209
 11
34.635926063
 21
240.0388489209
  0
LINE
  5
545
100
AcDbEntity
  8
0
100
AcDbLine
 62
7
  6
CONTINUOUS
 10
34.6390676843
 20
240.6388489209
 11
35.6870252344
 21
240.6388489209
  0
LINE
  5
546
100
AcDbEntity
  8
0
100
AcDbLine
 62
7
  6
CONTINUOUS
 10
66.0870252344
 20
240.6388489209
 11
67.1349827844
 21
240.6388489209
  0
LINE
  5
547
100
AcDbEntity
  8
0
100
AcDbLine
 62
7
  6
CONTINUOUS
 10
79.6388537068
 20
240.6388489209
 11
80.6870252344
 21
240.6388489209
  0
LINE
  5
548
100
AcDbEntity
  8
0
100
AcDbLine
 62
7
  6
CONTINUOUS
 10
111.0870252344
 20
240.6388489209
 11
112.1351967619
 21
240.6388489209
  0
LINE
  5
549
100
AcDbEntity
  8
0
100
AcDbLine
 62
7
  6
CONTINUOUS
 10
124.6390676843
 20
240.6388489209
 11
125.6870252344
 21
240.6388489209
  0
LINE
  5
54A
100
AcDbEntity
  8
0
100
AcDbLine
 62
7
  6
CONTINUOUS
 10
156.0870252344
 20
240.6388489209
 11
157.1349827844
 21
240.6388489209
  0
LINE
  5
54B
100
AcDbEntity
  8
0
100
AcDbLine
 62
7
  6
CONTINUOUS
 10
157.140970109
 20
243.4388489209
 11
156.0870252344
 21
243.4388489209
  0
LINE
  5
54C
100
AcDbEntity
  8
0
100
AcDbLine
 62
7
  6
CONTINUOUS
 10
125.6870252344
 20
243.4388489209
 11
124.6435524309
 21
243.4388489209
  0
LINE
  5
54D
100
AcDbEntity
  8
0
100
AcDbLine
 62
7
  6
CONTINUOUS
 10
124.5901585756
 20
243.4388489209
 11
120.1996895666
 21
243.4388489209
  0
LINE
  5
54E
100
AcDbEntity
  8
0
100
AcDbLine
 62
7
  6
CONTINUOUS
 10
116.5742112178
 20
243.4388489209
 11
112.1838918931
 21
243.438848921
  0
LINE
  5
54F
100
AcDbEntity
  8
0
100
AcDbLine
 62
7
  6
CONTINUOUS
 10
112.140970109
 20
243.4388489209
 11
111.0870252344
 21
243.4388489209
  0
LINE
  5
550
100
AcDbEntity
  8
0
100
AcDbLine
 62
7
  6
CONTINUOUS
 10
80.6870252344
 20
243.4388489209
 11
75.1996895666
 21
243.4388489209
  0
LINE
  5
551
100
AcDbEntity
  8
0
100
AcDbLine
 62
7
  6
CONTINUOUS
 10
71.5742112178
 20
243.4388489209
 11
67.1838918931
 21
243.438848921
  0
LINE
  5
552
100
AcDbEntity
  8
0
100
AcDbLine
 62
7
  6
CONTINUOUS
 10
67.1407561313
 20
243.4388489209
 11
66.0870252344
 21
243.4388489209
  0
LINE
  5
553
100
AcDbEntity
  8
0
100
AcDbLine
 62
7
  6
CONTINUOUS
 10
35.6870252344
 20
243.4388489209
 11
34.6430260858
 21
243.4388489209
  0
LINE
  5
554
100
AcDbEntity
  8
0
100
AcDbLine
 62
7
  6
CONTINUOUS
 10
34.5901585757
 20
243.4388489209
 11
28.9911933084
 21
243.4388489209
  0
LINE
  5
555
100
AcDbEntity
  8
0
100
AcDbLine
 62
7
  6
CONTINUOUS
 10
36.2870253003
 20
243.4388489123
 11
43.1560851229
 21
243.4388489143
  0
LINE
  5
556
100
AcDbEntity
  8
0
100
AcDbLine
 62
7
  6
CONTINUOUS
 10
47.8870252343
 20
243.4388489157
 11
53.8870252343
 21
243.4388489175
  0
LINE
  5
557
100
AcDbEntity
  8
0
100
AcDbLine
 62
7
  6
CONTINUOUS
 10
58.6179653432
 20
243.4388489189
 11
65.4870251696
 21
243.4388489209
  0
LINE
  5
558
100
AcDbEntity
  8
0
100
AcDbLine
 62
7
  6
CONTINUOUS
 10
81.2870253003
 20
243.4388489123
 11
88.1560851229
 21
243.4388489143
  0
LINE
  5
559
100
AcDbEntity
  8
0
100
AcDbLine
 62
7
  6
CONTINUOUS
 10
92.8870252343
 20
243.4388489157
 11
98.8870252343
 21
243.4388489175
  0
LINE
  5
55A
100
AcDbEntity
  8
0
100
AcDbLine
 62
7
  6
CONTINUOUS
 10
103.6179653432
 20
243.4388489189
 11
110.4870251696
 21
243.4388489209
  0
LINE
  5
55B
100
AcDbEntity
  8
0
100
AcDbLine
 62
7
  6
CONTINUOUS
 10
126.2870253003
 20
243.4388489123
 11
133.1560851229
 21
243.4388489143
  0
LINE
  5
55C
100
AcDbEntity
  8
0
100
AcDbLine
 62
7
  6
CONTINUOUS
 10
137.8870252343
 20
243.4388489157
 11
143.8870252343
 21
243.4388489175
  0
LINE
  5
55D
100
AcDbEntity
  8
0
100
AcDbLine
 62
7
  6
CONTINUOUS
 10
148.6179653432
 20
243.4388489189
 11
155.4870251696
 21
243.4388489209
  0
LINE
  5
55E
100
AcDbEntity
  8
0
100
AcDbLine
 62
7
  6
CONTINUOUS
 10
157.1838918931
 20
243.438848921
 11
162.782254196
 21
243.4388476519
  0
LINE
  5
55F
100
AcDbEntity
  8
0
100
AcDbLine
 62
7
  6
CONTINUOUS
 10
43.7334353959
 20
243.8388489209
 11
47.2870252343
 21
243.8388489209
  0
LINE
  5
560
100
AcDbEntity
  8
0
100
AcDbLine
 62
7
  6
CONTINUOUS
 10
54.4870252344
 20
243.8388489209
 11
58.0406150728
 21
243.8388489209
  0
LINE
  5
561
100
AcDbEntity
  8
0
100
AcDbLine
 62
7
  6
CONTINUOUS
 10
88.7334353959
 20
243.8388489209
 11
92.2870252343
 21
243.8388489209
  0
LINE
  5
562
100
AcDbEntity
  8
0
100
AcDbLine
 62
7
  6
CONTINUOUS
 10
99.4870252344
 20
243.8388489209
 11
103.0406150728
 21
243.8388489209
  0
LINE
  5
563
100
AcDbEntity
  8
0
100
AcDbLine
 62
7
  6
CONTINUOUS
 10
133.7334353959
 20
243.8388489209
 11
137.2870252343
 21
243.8388489209
  0
LINE
  5
564
100
AcDbEntity
  8
0
100
AcDbLine
 62
7
  6
CONTINUOUS
 10
144.4870252344
 20
243.8388489209
 11
148.0406150728
 21
243.8388489209
  0
LINE
  5
565
100
AcDbEntity
  8
0
100
AcDbLine
 62
7
  6
CONTINUOUS
 10
28.9908978081
 20
243.9388489209
 11
34.0927697395
 21
243.9388489209
  0
LINE
  5
566
100
AcDbEntity
  8
0
100
AcDbLine
 62
7
  6
CONTINUOUS
 10
34.1870252355
 20
243.9388489209
 11
67.5870252342
 21
243.9388489209
  0
LINE
  5
567
100
AcDbEntity
  8
0
100
AcDbLine
 62
7
  6
CONTINUOUS
 10
67.6812807292
 20
243.9388489209
 11
71.1572086449
 21
243.9388489209
  0
LINE
  5
568
100
AcDbEntity
  8
0
100
AcDbLine
 62
7
  6
CONTINUOUS
 10
75.6168418238
 20
243.9388489209
 11
79.0927697395
 21
243.9388489209
  0
LINE
  5
569
100
AcDbEntity
  8
0
100
AcDbLine
 62
7
  6
CONTINUOUS
 10
79.1870252355
 20
243.9388489209
 11
112.5870252342
 21
243.9388489209
  0
LINE
  5
56A
100
AcDbEntity
  8
0
100
AcDbLine
 62
7
  6
CONTINUOUS
 10
112.6812807292
 20
243.9388489209
 11
116.1572086449
 21
243.9388489209
  0
LINE
  5
56B
100
AcDbEntity
  8
0
100
AcDbLine
 62
7
  6
CONTINUOUS
 10
120.6168418238
 20
243.9388489209
 11
124.0927697395
 21
243.9388489209
  0
LINE
  5
56C
100
AcDbEntity
  8
0
100
AcDbLine
 62
7
  6
CONTINUOUS
 10
124.1870252355
 20
243.9388489209
 11
157.5870252342
 21
243.9388489209
  0
LINE
  5
56D
100
AcDbEntity
  8
0
100
AcDbLine
 62
7
  6
CONTINUOUS
 10
157.6812807293
 20
243.9388489209
 11
162.7831526607
 21
243.9388489209
  0
LINE
  5
56E
100
AcDbEntity
  8
0
100
AcDbLine
 62
7
  6
CONTINUOUS
 10
28.8909016158
 20
243.3397215743
 11
28.3909206543
 21
243.3440848421
  0
CIRCLE
  5
56F
100
AcDbEntity
  8
0
100
AcDbCircle
 62
7
  6
CONTINUOUS
 10
50.8870252344
 20
33.0388489209
 40
11.1086
  0
CIRCLE
  5
570
100
AcDbEntity
  8
0
100
AcDbCircle
 62
7
  6
CONTINUOUS
 10
30.2870252344
 20
41.9388489209
 40
1.6011806034
  0
ARC
  5
571
100
AcDbEntity
  8
0
100
AcDbCircle
 62
7
  6
CONTINUOUS
 10
32.0670252344
 20
30.9588489207
 40
0.9800000001
100
AcDbArc
 50
90.000000077
 51
179.9999999921
  0
ARC
  5
572
100
AcDbEntity
  8
0
100
AcDbCircle
 62
7
  6
CONTINUOUS
 10
27.8111958533
 20
30.9588489209
 40
0.98
100
AcDbArc
 50
0.4999999999
 51
89.9999996649
  0
ARC
  5
573
100
AcDbEntity
  8
0
100
AcDbCircle
 62
7
  6
CONTINUOUS
 10
36.2870252344
 20
19.5388489209
 40
0.6
100
AcDbArc
 50
180.0
 51
270.0
  0
ARC
  5
574
100
AcDbEntity
  8
0
100
AcDbCircle
 62
7
  6
CONTINUOUS
 10
47.2870252344
 20
19.6388489209
 40
0.6
100
AcDbArc
 50
270.0
 51
360.0
  0
ARC
  5
575
100
AcDbEntity
  8
0
100
AcDbCircle
 62
7
  6
CONTINUOUS
 10
43.7334353959
 20
19.6388489209
 40
0.6
100
AcDbArc
 50
209.9999999993
 51
269.9999999999
  0
ARC
  5
576
100
AcDbEntity
  8
0
100
AcDbCircle
 62
7
  6
CONTINUOUS
 10
58.0406150728
 20
19.6388489209
 40
0.6
100
AcDbArc
 50
270.0
 51
330.0000000015
  0
ARC
  5
577
100
AcDbEntity
  8
0
100
AcDbCircle
 62
7
  6
CONTINUOUS
 10
54.4870252344
 20
19.6388489209
 40
0.6
100
AcDbArc
 50
179.9999999979
 51
269.9999999999
  0
ARC
  5
578
100
AcDbEntity
  8
0
100
AcDbCircle
 62
7
  6
CONTINUOUS
 10
28.9908978081
 20
19.5388489209
 40
0.6
100
AcDbArc
 50
180.3745679704
 51
269.9999996827
  0
ARC
  5
579
100
AcDbEntity
  8
0
100
AcDbCircle
 62
7
  6
CONTINUOUS
 10
34.1870252344
 20
19.4388489209
 40
0.5
100
AcDbArc
 50
270.0
 51
359.9999999986
  0
ARC
  5
57A
100
AcDbEntity
  8
0
100
AcDbCircle
 62
7
  6
CONTINUOUS
 10
31.0870252343
 20
19.4388489209
 40
0.5
100
AcDbArc
 50
270.0
 51
360.0
  0
ARC
  5
57B
100
AcDbEntity
  8
0
100
AcDbCircle
 62
7
  6
CONTINUOUS
 10
32.0670252344
 20
30.9588489207
 40
0.4800000001
100
AcDbArc
 50
89.9999999978
 51
179.9999999978
  0
ARC
  5
57C
100
AcDbEntity
  8
0
100
AcDbCircle
 62
7
  6
CONTINUOUS
 10
27.8111958533
 20
30.9588489209
 40
0.48
100
AcDbArc
 50
0.4999999999
 51
90.0000001086
  0
ARC
  5
57D
100
AcDbEntity
  8
0
100
AcDbCircle
 62
7
  6
CONTINUOUS
 10
28.9908978081
 20
19.5388489209
 40
0.1
100
AcDbArc
 50
180.508677746
 51
270.5147749313
  0
ARC
  5
57E
100
AcDbEntity
  8
0
100
AcDbCircle
 62
7
  6
CONTINUOUS
 10
46.3870252344
 20
62.1888489209
 40
10.0
100
AcDbArc
 50
180.0
 51
270.0
  0
CIRCLE
  5
57F
100
AcDbEntity
  8
0
100
AcDbCircle
 62
7
  6
CONTINUOUS
 10
31.3870252344
 20
65.4388489209
 40
4.3
  0
CIRCLE
  5
580
100
AcDbEntity
  8
0
100
AcDbCircle
 62
7
  6
CONTINUOUS
 10
31.3870252344
 20
65.4388489209
 40
4.0
  0
ARC
  5
581
100
AcDbEntity
  8
0
100
AcDbCircle
 62
7
  6
CONTINUOUS
 10
53.5870252344
 20
47.7388489209
 40
0.3
100
AcDbArc
 50
0.0
 51
90.0
  0
ARC
  5
582
100
AcDbEntity
  8
0
100
AcDbCircle
 62
7
  6
CONTINUOUS
 10
48.1870252344
 20
47.7388489209
 40
0.3
100
AcDbArc
 50
90.0
 51
180.0
  0
ARC
  5
583
100
AcDbEntity
  8
0
100
AcDbCircle
 62
7
  6
CONTINUOUS
 10
75.7957356816
 20
19.5391124403
 40
0.6044201721
100
AcDbArc
 50
181.1972694987
 51
189.5485804807
  0
ARC
  5
584
100
AcDbEntity
  8
0
100
AcDbCircle
 62
7
  6
CONTINUOUS
 10
70.9805913657
 20
19.5391949003
 40
0.6020413976
100
AcDbArc
 50
350.4053771269
 51
358.075951695
  0
ARC
  5
585
100
AcDbEntity
  8
0
100
AcDbCircle
 62
7
  6
CONTINUOUS
 10
65.4870252344
 20
19.5388489209
 40
0.6
100
AcDbArc
 50
270.0
 51
360.0
  0
ARC
  5
586
100
AcDbEntity
  8
0
100
AcDbCircle
 62
7
  6
CONTINUOUS
 10
71.1572086449
 20
19.4388489209
 40
0.5
100
AcDbArc
 50
270.0
 51
357.6398425351
  0
ARC
  5
587
100
AcDbEntity
  8
0
100
AcDbCircle
 62
7
  6
CONTINUOUS
 10
75.6168418238
 20
19.4388489209
 40
0.5
100
AcDbArc
 50
182.3601574655
 51
270.0
  0
ARC
  5
588
100
AcDbEntity
  8
0
100
AcDbCircle
 62
7
  6
CONTINUOUS
 10
67.5870252344
 20
19.4388489209
 40
0.5
100
AcDbArc
 50
180.0000000197
 51
270.0
  0
ARC
  5
589
100
AcDbEntity
  8
0
100
AcDbCircle
 62
7
  6
CONTINUOUS
 10
69.4870252344
 20
19.4388489209
 40
0.5
100
AcDbArc
 50
180.0
 51
270.0
  0
ARC
  5
58A
100
AcDbEntity
  8
0
100
AcDbCircle
 62
7
  6
CONTINUOUS
 10
77.2870252343
 20
19.4388489209
 40
0.5
100
AcDbArc
 50
270.0
 51
359.9999999973
  0
ARC
  5
58B
100
AcDbEntity
  8
0
100
AcDbCircle
 62
7
  6
CONTINUOUS
 10
67.6406918991
 20
19.4388203079
 40
0.4999357686
100
AcDbArc
 50
179.9967207785
 51
225.0027238389
  0
ARC
  5
58C
100
AcDbEntity
  8
0
100
AcDbCircle
 62
7
  6
CONTINUOUS
 10
73.3870252344
 20
37.9388489209
 40
5.1047201804
100
AcDbArc
 50
147.4883630431
 51
32.5116369569
  0
CIRCLE
  5
58D
100
AcDbEntity
  8
0
100
AcDbCircle
 62
7
  6
CONTINUOUS
 10
73.3870252344
 20
37.9388489209
 40
3.3031529918
  0
ARC
  5
58E
100
AcDbEntity
  8
0
100
AcDbCircle
 62
7
  6
CONTINUOUS
 10
73.3870252344
 20
37.9388489209
 40
3.2500495244
100
AcDbArc
 50
127.9791908202
 51
147.9746641605
  0
ARC
  5
58F
100
AcDbEntity
  8
0
100
AcDbCircle
 62
7
  6
CONTINUOUS
 10
73.3870252344
 20
37.9388489209
 40
3.2500495244
100
AcDbArc
 50
174.5287889421
 51
222.0346607356
  0
ARC
  5
590
100
AcDbEntity
  8
0
100
AcDbCircle
 62
7
  6
CONTINUOUS
 10
73.3870252344
 20
37.9388489209
 40
3.2500495244
100
AcDbArc
 50
307.9791908202
 51
327.9746641605
  0
ARC
  5
591
100
AcDbEntity
  8
0
100
AcDbCircle
 62
7
  6
CONTINUOUS
 10
73.3870252344
 20
37.9388489209
 40
3.2500495244
100
AcDbArc
 50
354.5287889421
 51
42.0346607356
  0
ARC
  5
592
100
AcDbEntity
  8
0
100
AcDbCircle
 62
7
  6
CONTINUOUS
 10
73.3870252344
 20
28.9388489209
 40
2.6285405341
100
AcDbArc
 50
304.9360067376
 51
235.0639932626
  0
ARC
  5
593
100
AcDbEntity
  8
0
100
AcDbCircle
 62
7
  6
CONTINUOUS
 10
73.3870252344
 20
28.9388489209
 40
2.55
100
AcDbArc
 50
60.7458389753
 51
109.0408262539
  0
ARC
  5
594
100
AcDbEntity
  8
0
100
AcDbCircle
 62
7
  6
CONTINUOUS
 10
68.5070252343
 20
30.9588489207
 40
0.9800000001
100
AcDbArc
 50
0.0000000009
 51
89.9999993212
  0
ARC
  5
595
100
AcDbEntity
  8
0
100
AcDbCircle
 62
7
  6
CONTINUOUS
 10
78.2670252344
 20
30.9588489207
 40
0.9800000001
100
AcDbArc
 50
90.0000000841
 51
179.9999999912
  0
ARC
  5
596
100
AcDbEntity
  8
0
100
AcDbCircle
 62
7
  6
CONTINUOUS
 10
68.5070252343
 20
30.9588489207
 40
0.4800000001
100
AcDbArc
 50
0.0
 51
90.0000001128
  0
ARC
  5
597
100
AcDbEntity
  8
0
100
AcDbCircle
 62
7
  6
CONTINUOUS
 10
78.2670252344
 20
30.9588489207
 40
0.4800000001
100
AcDbArc
 50
89.9999999972
 51
179.9999999985
  0
ARC
  5
598
100
AcDbEntity
  8
0
100
AcDbCircle
 62
7
  6
CONTINUOUS
 10
92.2870252344
 20
19.6388489209
 40
0.6
100
AcDbArc
 50
270.0
 51
360.0
  0
ARC
  5
599
100
AcDbEntity
  8
0
100
AcDbCircle
 62
7
  6
CONTINUOUS
 10
88.7334353959
 20
19.6388489209
 40
0.6
100
AcDbArc
 50
209.9999999987
 51
269.9999999999
  0
ARC
  5
59A
100
AcDbEntity
  8
0
100
AcDbCircle
 62
7
  6
CONTINUOUS
 10
81.2870252344
 20
19.5388489209
 40
0.6
100
AcDbArc
 50
180.0
 51
270.0
  0
ARC
  5
59B
100
AcDbEntity
  8
0
100
AcDbCircle
 62
7
  6
CONTINUOUS
 10
79.1870252344
 20
19.4388489209
 40
0.5
100
AcDbArc
 50
270.0
 51
359.9999999986
  0
CIRCLE
  5
59C
100
AcDbEntity
  8
0
100
AcDbCircle
 62
7
  6
CONTINUOUS
 10
73.3870252344
 20
47.4388489209
 40
3.61
  0
CIRCLE
  5
59D
100
AcDbEntity
  8
0
100
AcDbCircle
 62
7
  6
CONTINUOUS
 10
73.3870252344
 20
47.4388489209
 40
3.11
  0
ARC
  5
59E
100
AcDbEntity
  8
0
100
AcDbCircle
 62
7
  6
CONTINUOUS
 10
74.3134652224
 20
46.4391372361
 40
3.000279106
100
AcDbArc
 50
269.9923868698
 51
359.9888701129
  0
ARC
  5
59F
100
AcDbEntity
  8
0
100
AcDbCircle
 62
7
  6
CONTINUOUS
 10
72.4605037167
 20
46.4390568431
 40
3.0001779905
100
AcDbArc
 50
180.0068215561
 51
270.0123177587
  0
ARC
  5
5A0
100
AcDbEntity
  8
0
100
AcDbCircle
 62
7
  6
CONTINUOUS
 10
93.1870252344
 20
47.7388489209
 40
0.3
100
AcDbArc
 50
90.0
 51
180.0
  0
ARC
  5
5A1
100
AcDbEntity
  8
0
100
AcDbCircle
 62
7
  6
CONTINUOUS
 10
45.8194819191
 20
200.8885698708
 40
9.8002798579
100
AcDbArc
 50
90.0043110995
 51
164.252640929
  0
CIRCLE
  5
5A2
100
AcDbEntity
  8
0
100
AcDbCircle
 62
7
  6
CONTINUOUS
 10
31.3870252344
 20
197.4388489209
 40
4.3
  0
CIRCLE
  5
5A3
100
AcDbEntity
  8
0
100
AcDbCircle
 62
7
  6
CONTINUOUS
 10
31.3870252344
 20
197.4388489209
 40
4.0
  0
ARC
  5
5A4
100
AcDbEntity
  8
0
100
AcDbCircle
 62
7
  6
CONTINUOUS
 10
58.6870252348
 20
187.8888489214
 40
1.6
100
AcDbArc
 50
180.0000000059
 51
269.999999932
  0
ARC
  5
5A5
100
AcDbEntity
  8
0
100
AcDbCircle
 62
7
  6
CONTINUOUS
 10
58.6870252348
 20
202.7888489209
 40
1.6
100
AcDbArc
 50
89.9999999987
 51
179.9999999249
  0
ARC
  5
5A6
100
AcDbEntity
  8
0
100
AcDbCircle
 62
7
  6
CONTINUOUS
 10
58.6870252348
 20
202.7888489209
 40
1.0
100
AcDbArc
 50
90.0000000216
 51
180.0000004041
  0
ARC
  5
5A7
100
AcDbEntity
  8
0
100
AcDbCircle
 62
7
  6
CONTINUOUS
 10
58.6870252348
 20
187.8888489214
 40
1.0
100
AcDbArc
 50
180.0000000248
 51
270.0000002897
  0
ARC
  5
5A8
100
AcDbEntity
  8
0
100
AcDbCircle
 62
7
  6
CONTINUOUS
 10
48.1870252344
 20
215.1388489209
 40
0.3
100
AcDbArc
 50
180.0
 51
270.0
  0
ARC
  5
5A9
100
AcDbEntity
  8
0
100
AcDbCircle
 62
7
  6
CONTINUOUS
 10
53.5870252344
 20
215.1388489209
 40
0.3
100
AcDbArc
 50
270.0
 51
360.0
  0
CIRCLE
  5
5AA
100
AcDbEntity
  8
0
100
AcDbCircle
 62
7
  6
CONTINUOUS
 10
50.8870252344
 20
229.8388489209
 40
11.1086
  0
CIRCLE
  5
5AB
100
AcDbEntity
  8
0
100
AcDbCircle
 62
7
  6
CONTINUOUS
 10
30.2870252344
 20
220.9388489209
 40
1.6011806034
  0
ARC
  5
5AC
100
AcDbEntity
  8
0
100
AcDbCircle
 62
7
  6
CONTINUOUS
 10
27.8111958533
 20
231.9188489209
 40
0.98
100
AcDbArc
 50
270.0000000652
 51
359.4999999733
  0
ARC
  5
5AD
100
AcDbEntity
  8
0
100
AcDbCircle
 62
7
  6
CONTINUOUS
 10
32.0670252344
 20
231.9188489211
 40
0.9800000001
100
AcDbArc
 50
180.0000006423
 51
270.0000000003
  0
ARC
  5
5AE
100
AcDbEntity
  8
0
100
AcDbCircle
 62
7
  6
CONTINUOUS
 10
36.2870252344
 20
243.3388489209
 40
0.6
100
AcDbArc
 50
90.0
 51
180.0
  0
ARC
  5
5AF
100
AcDbEntity
  8
0
100
AcDbCircle
 62
7
  6
CONTINUOUS
 10
54.4870252344
 20
243.2388489209
 40
0.6
100
AcDbArc
 50
89.999999998
 51
180.0000000021
  0
ARC
  5
5B0
100
AcDbEntity
  8
0
100
AcDbCircle
 62
7
  6
CONTINUOUS
 10
58.0406150728
 20
243.2388489209
 40
0.6
100
AcDbArc
 50
29.9999999992
 51
90.0000000024
  0
ARC
  5
5B1
100
AcDbEntity
  8
0
100
AcDbCircle
 62
7
  6
CONTINUOUS
 10
43.7334353959
 20
243.2388489209
 40
0.6
100
AcDbArc
 50
89.9999999979
 51
149.9999999904
  0
ARC
  5
5B2
100
AcDbEntity
  8
0
100
AcDbCircle
 62
7
  6
CONTINUOUS
 10
47.2870252344
 20
243.2388489209
 40
0.6
100
AcDbArc
 50
0.0
 51
90.0000000021
  0
ARC
  5
5B3
100
AcDbEntity
  8
0
100
AcDbCircle
 62
7
  6
CONTINUOUS
 10
28.9908978081
 20
243.3388489209
 40
0.6
100
AcDbArc
 50
90.0000119459
 51
179.6422669342
  0
ARC
  5
5B4
100
AcDbEntity
  8
0
100
AcDbCircle
 62
7
  6
CONTINUOUS
 10
34.1870252344
 20
243.4388489209
 40
0.5
100
AcDbArc
 50
0.0
 51
90.0
  0
ARC
  5
5B5
100
AcDbEntity
  8
0
100
AcDbCircle
 62
7
  6
CONTINUOUS
 10
31.0870252343
 20
243.4388489209
 40
0.5
100
AcDbArc
 50
0.0
 51
90.0
  0
ARC
  5
5B6
100
AcDbEntity
  8
0
100
AcDbCircle
 62
7
  6
CONTINUOUS
 10
34.1432115082
 20
243.4390343408
 40
0.4998146119
100
AcDbArc
 50
359.9787445561
 51
90.0204700422
  0
ARC
  5
5B7
100
AcDbEntity
  8
0
100
AcDbCircle
 62
7
  6
CONTINUOUS
 10
32.0670252344
 20
231.9188489211
 40
0.4800000001
100
AcDbArc
 50
179.9999999388
 51
270.0000000003
  0
ARC
  5
5B8
100
AcDbEntity
  8
0
100
AcDbCircle
 62
7
  6
CONTINUOUS
 10
27.8111958533
 20
231.9188489209
 40
0.48
100
AcDbArc
 50
270.000000004
 51
359.4999999915
  0
ARC
  5
5B9
100
AcDbEntity
  8
0
100
AcDbCircle
 62
7
  6
CONTINUOUS
 10
73.3870252344
 20
215.4388489209
 40
3.61
100
AcDbArc
 50
244.4299740433
 51
311.0833615856
  0
ARC
  5
5BA
100
AcDbEntity
  8
0
100
AcDbCircle
 62
7
  6
CONTINUOUS
 10
73.3870252344
 20
215.4388489209
 40
3.61
100
AcDbArc
 50
321.014956354
 51
209.6488013527
  0
ARC
  5
5BB
100
AcDbEntity
  8
0
100
AcDbCircle
 62
7
  6
CONTINUOUS
 10
73.3870252344
 20
215.4388489209
 40
3.11
100
AcDbArc
 50
233.3465669967
 51
211.5246546205
  0
ARC
  5
5BC
100
AcDbEntity
  8
0
100
AcDbCircle
 62
7
  6
CONTINUOUS
 10
84.0870252343
 20
187.8888489214
 40
1.6
100
AcDbArc
 50
269.9999999987
 51
359.9999999248
  0
ARC
  5
5BD
100
AcDbEntity
  8
0
100
AcDbCircle
 62
7
  6
CONTINUOUS
 10
84.0870252343
 20
202.7888489209
 40
1.6
100
AcDbArc
 50
0.0000000058
 51
89.999999932
  0
ARC
  5
5BE
100
AcDbEntity
  8
0
100
AcDbCircle
 62
7
  6
CONTINUOUS
 10
84.0870252343
 20
187.8888489214
 40
1.0
100
AcDbArc
 50
270.0000000155
 51
360.0
  0
ARC
  5
5BF
100
AcDbEntity
  8
0
100
AcDbCircle
 62
7
  6
CONTINUOUS
 10
84.0870252343
 20
202.7888489209
 40
1.0
100
AcDbArc
 50
0.0
 51
90.0000003995
  0
ARC
  5
5C0
100
AcDbEntity
  8
0
100
AcDbCircle
 62
7
  6
CONTINUOUS
 10
71.3870252344
 20
213.1888489209
 40
0.5
100
AcDbArc
 50
0.0
 51
90.0
  0
ARC
  5
5C1
100
AcDbEntity
  8
0
100
AcDbCircle
 62
7
  6
CONTINUOUS
 10
68.3870252344
 20
213.1888489209
 40
0.5
100
AcDbArc
 50
90.0
 51
179.9999999994
  0
ARC
  5
5C2
100
AcDbEntity
  8
0
100
AcDbCircle
 62
7
  6
CONTINUOUS
 10
80.1411878368
 20
212.4831929672
 40
0.400065146
100
AcDbArc
 50
359.9987947843
 51
89.9781216836
  0
ARC
  5
5C3
100
AcDbEntity
  8
0
100
AcDbCircle
 62
7
  6
CONTINUOUS
 10
76.6329420545
 20
212.4831406348
 40
0.4000651428
100
AcDbArc
 50
90.0202717586
 51
180.0012054557
  0
ARC
  5
5C4
100
AcDbEntity
  8
0
100
AcDbCircle
 62
7
  6
CONTINUOUS
 10
93.1870252344
 20
215.1388489209
 40
0.3
100
AcDbArc
 50
180.0
 51
270.0
  0
ARC
  5
5C5
100
AcDbEntity
  8
0
100
AcDbCircle
 62
7
  6
CONTINUOUS
 10
73.3870252344
 20
224.9388489209
 40
5.1047201804
100
AcDbArc
 50
327.4883630428
 51
212.5116369571
  0
CIRCLE
  5
5C6
100
AcDbEntity
  8
0
100
AcDbCircle
 62
7
  6
CONTINUOUS
 10
73.3870252344
 20
224.9388489209
 40
3.3031529918
  0
ARC
  5
5C7
100
AcDbEntity
  8
0
100
AcDbCircle
 62
7
  6
CONTINUOUS
 10
74.3134652224
 20
216.4385606056
 40
3.000279106
100
AcDbArc
 50
0.0093503247
 51
90.007765526
  0
ARC
  5
5C8
100
AcDbEntity
  8
0
100
AcDbCircle
 62
7
  6
CONTINUOUS
 10
72.4605037166
 20
216.4386409987
 40
3.0001779905
100
AcDbArc
 50
89.9912178533
 51
179.9912127453
  0
ARC
  5
5C9
100
AcDbEntity
  8
0
100
AcDbCircle
 62
7
  6
CONTINUOUS
 10
73.3870252344
 20
233.9388489209
 40
2.6285405341
100
AcDbArc
 50
124.9360067373
 51
55.0639932623
  0
ARC
  5
5CA
100
AcDbEntity
  8
0
100
AcDbCircle
 62
7
  6
CONTINUOUS
 10
73.3870252344
 20
233.9388489209
 40
2.55
100
AcDbArc
 50
240.7458389752
 51
289.0408262544
  0
ARC
  5
5CB
100
AcDbEntity
  8
0
100
AcDbCircle
 62
7
  6
CONTINUOUS
 10
78.2670252344
 20
231.9188489211
 40
0.9800000001
100
AcDbArc
 50
180.0000003018
 51
270.000000018
  0
ARC
  5
5CC
100
AcDbEntity
  8
0
100
AcDbCircle
 62
7
  6
CONTINUOUS
 10
68.5070252343
 20
231.9188489211
 40
0.9800000001
100
AcDbArc
 50
270.0000002706
 51
360.0
  0
ARC
  5
5CD
100
AcDbEntity
  8
0
100
AcDbCircle
 62
7
  6
CONTINUOUS
 10
75.7957356817
 20
243.3385854013
 40
0.6044201723
100
AcDbArc
 50
170.4514195168
 51
178.8027304205
  0
ARC
  5
5CE
100
AcDbEntity
  8
0
100
AcDbCircle
 62
7
  6
CONTINUOUS
 10
70.9805913658
 20
243.3385029415
 40
0.6020413975
100
AcDbArc
 50
1.9240482593
 51
9.5946228678
  0
ARC
  5
5CF
100
AcDbEntity
  8
0
100
AcDbCircle
 62
7
  6
CONTINUOUS
 10
65.4870252344
 20
243.3388489209
 40
0.6
100
AcDbArc
 50
0.0
 51
90.0
  0
ARC
  5
5D0
100
AcDbEntity
  8
0
100
AcDbCircle
 62
7
  6
CONTINUOUS
 10
67.5870252344
 20
243.4388489209
 40
0.5
100
AcDbArc
 50
90.0
 51
180.0000000015
  0
ARC
  5
5D1
100
AcDbEntity
  8
0
100
AcDbCircle
 62
7
  6
CONTINUOUS
 10
77.2870252343
 20
243.4388489209
 40
0.5
100
AcDbArc
 50
0.0
 51
90.0
  0
ARC
  5
5D2
100
AcDbEntity
  8
0
100
AcDbCircle
 62
7
  6
CONTINUOUS
 10
69.4870252344
 20
243.4388489209
 40
0.5
100
AcDbArc
 50
90.0
 51
180.0000000007
  0
ARC
  5
5D3
100
AcDbEntity
  8
0
100
AcDbCircle
 62
7
  6
CONTINUOUS
 10
75.6168418238
 20
243.4388489209
 40
0.5
100
AcDbArc
 50
90.0
 51
177.6398425368
  0
ARC
  5
5D4
100
AcDbEntity
  8
0
100
AcDbCircle
 62
7
  6
CONTINUOUS
 10
71.1572086449
 20
243.4388489209
 40
0.5
100
AcDbArc
 50
2.3601574655
 51
90.0
  0
ARC
  5
5D5
100
AcDbEntity
  8
0
100
AcDbCircle
 62
7
  6
CONTINUOUS
 10
67.6406918991
 20
243.4388775338
 40
0.4999357686
100
AcDbArc
 50
134.9972759856
 51
180.003279203
  0
ARC
  5
5D6
100
AcDbEntity
  8
0
100
AcDbCircle
 62
7
  6
CONTINUOUS
 10
78.2670252344
 20
231.9188489211
 40
0.4800000001
100
AcDbArc
 50
179.9999999383
 51
270.0000000001
  0
ARC
  5
5D7
100
AcDbEntity
  8
0
100
AcDbCircle
 62
7
  6
CONTINUOUS
 10
68.5070252343
 20
231.9188489211
 40
0.4800000001
100
AcDbArc
 50
269.9999999411
 51
360.0
  0
ARC
  5
5D8
100
AcDbEntity
  8
0
100
AcDbCircle
 62
7
  6
CONTINUOUS
 10
67.7891497072
 20
230.9594469764
 40
0.4770387903
100
AcDbArc
 50
169.8027325253
 51
181.2719614432
  0
ARC
  5
5D9
100
AcDbEntity
  8
0
100
AcDbCircle
 62
7
  6
CONTINUOUS
 10
67.7894375961
 20
230.9626656379
 40
0.4761890554
100
AcDbArc
 50
90.0478731485
 51
145.8364477492
  0
ARC
  5
5DA
100
AcDbEntity
  8
0
100
AcDbCircle
 62
7
  6
CONTINUOUS
 10
81.2870252344
 20
243.3388489209
 40
0.6
100
AcDbArc
 50
90.0
 51
180.0
  0
ARC
  5
5DB
100
AcDbEntity
  8
0
100
AcDbCircle
 62
7
  6
CONTINUOUS
 10
92.2870252344
 20
243.2388489209
 40
0.6
100
AcDbArc
 50
0.0
 51
90.0000000021
  0
ARC
  5
5DC
100
AcDbEntity
  8
0
100
AcDbCircle
 62
7
  6
CONTINUOUS
 10
88.7334353959
 20
243.2388489209
 40
0.6
100
AcDbArc
 50
89.9999999979
 51
149.9999999922
  0
ARC
  5
5DD
100
AcDbEntity
  8
0
100
AcDbCircle
 62
7
  6
CONTINUOUS
 10
79.1870252344
 20
243.4388489209
 40
0.5
100
AcDbArc
 50
0.0
 51
90.0
  0
ARC
  5
5DE
100
AcDbEntity
  8
0
100
AcDbCircle
 62
7
  6
CONTINUOUS
 10
79.1432115082
 20
243.4390343408
 40
0.4998146119
100
AcDbArc
 50
359.9787445564
 51
90.0204700419
  0
CIRCLE
  5
5DF
100
AcDbEntity
  8
0
100
AcDbCircle
 62
7
  6
CONTINUOUS
 10
95.8870252344
 20
33.0388489209
 40
11.1086
  0
ARC
  5
5E0
100
AcDbEntity
  8
0
100
AcDbCircle
 62
7
  6
CONTINUOUS
 10
103.0406150728
 20
19.6388489209
 40
0.6
100
AcDbArc
 50
270.0
 51
330.0000000014
  0
ARC
  5
5E1
100
AcDbEntity
  8
0
100
AcDbCircle
 62
7
  6
CONTINUOUS
 10
99.4870252344
 20
19.6388489209
 40
0.6
100
AcDbArc
 50
179.9999999979
 51
269.9999999999
  0
ARC
  5
5E2
100
AcDbEntity
  8
0
100
AcDbCircle
 62
7
  6
CONTINUOUS
 10
110.4870252344
 20
19.5388489209
 40
0.6
100
AcDbArc
 50
270.0
 51
360.0
  0
ARC
  5
5E3
100
AcDbEntity
  8
0
100
AcDbCircle
 62
7
  6
CONTINUOUS
 10
98.5870252344
 20
47.7388489209
 40
0.3
100
AcDbArc
 50
0.0
 51
90.0
  0
ARC
  5
5E4
100
AcDbEntity
  8
0
100
AcDbCircle
 62
7
  6
CONTINUOUS
 10
118.3870252344
 20
28.9388489209
 40
2.6285405341
100
AcDbArc
 50
304.9360067377
 51
235.0639932626
  0
ARC
  5
5E5
100
AcDbEntity
  8
0
100
AcDbCircle
 62
7
  6
CONTINUOUS
 10
118.3870252344
 20
28.9388489209
 40
2.55
100
AcDbArc
 50
60.7458389756
 51
109.0408262538
  0
ARC
  5
5E6
100
AcDbEntity
  8
0
100
AcDbCircle
 62
7
  6
CONTINUOUS
 10
113.5070252343
 20
30.9588489207
 40
0.9800000001
100
AcDbArc
 50
0.0000000009
 51
89.9999992961
  0
ARC
  5
5E7
100
AcDbEntity
  8
0
100
AcDbCircle
 62
7
  6
CONTINUOUS
 10
123.2670252344
 20
30.9588489207
 40
0.9800000001
100
AcDbArc
 50
90.0000000836
 51
179.9999999906
  0
ARC
  5
5E8
100
AcDbEntity
  8
0
100
AcDbCircle
 62
7
  6
CONTINUOUS
 10
120.7957356815
 20
19.5391124403
 40
0.604420172
100
AcDbArc
 50
181.1972694931
 51
189.5485804807
  0
ARC
  5
5E9
100
AcDbEntity
  8
0
100
AcDbCircle
 62
7
  6
CONTINUOUS
 10
115.980591366
 20
19.5391949002
 40
0.6020413974
100
AcDbArc
 50
350.4053771278
 51
358.0759517556
  0
ARC
  5
5EA
100
AcDbEntity
  8
0
100
AcDbCircle
 62
7
  6
CONTINUOUS
 10
126.2870252344
 20
19.5388489209
 40
0.6
100
AcDbArc
 50
180.0
 51
270.0
  0
ARC
  5
5EB
100
AcDbEntity
  8
0
100
AcDbCircle
 62
7
  6
CONTINUOUS
 10
116.1572086449
 20
19.4388489209
 40
0.5
100
AcDbArc
 50
270.0
 51
357.6398425352
  0
ARC
  5
5EC
100
AcDbEntity
  8
0
100
AcDbCircle
 62
7
  6
CONTINUOUS
 10
120.6168418238
 20
19.4388489209
 40
0.5
100
AcDbArc
 50
182.360157457
 51
270.0
  0
ARC
  5
5ED
100
AcDbEntity
  8
0
100
AcDbCircle
 62
7
  6
CONTINUOUS
 10
124.1870252344
 20
19.4388489209
 40
0.5
100
AcDbArc
 50
270.0
 51
359.9999999986
  0
ARC
  5
5EE
100
AcDbEntity
  8
0
100
AcDbCircle
 62
7
  6
CONTINUOUS
 10
122.2870252343
 20
19.4388489209
 40
0.5
100
AcDbArc
 50
270.0
 51
359.9999999972
  0
ARC
  5
5EF
100
AcDbEntity
  8
0
100
AcDbCircle
 62
7
  6
CONTINUOUS
 10
112.5870252344
 20
19.4388489209
 40
0.5
100
AcDbArc
 50
180.0000000197
 51
270.0
  0
ARC
  5
5F0
100
AcDbEntity
  8
0
100
AcDbCircle
 62
7
  6
CONTINUOUS
 10
114.4870252344
 20
19.4388489209
 40
0.5
100
AcDbArc
 50
180.0
 51
270.0
  0
ARC
  5
5F1
100
AcDbEntity
  8
0
100
AcDbCircle
 62
7
  6
CONTINUOUS
 10
112.6409058768
 20
19.4388203079
 40
0.4999357686
100
AcDbArc
 50
179.9967207784
 51
225.0027238391
  0
ARC
  5
5F2
100
AcDbEntity
  8
0
100
AcDbCircle
 62
7
  6
CONTINUOUS
 10
123.2670252344
 20
30.9588489207
 40
0.4800000001
100
AcDbArc
 50
89.9999999985
 51
179.9999999982
  0
ARC
  5
5F3
100
AcDbEntity
  8
0
100
AcDbCircle
 62
7
  6
CONTINUOUS
 10
113.5070252343
 20
30.9588489207
 40
0.4800000001
100
AcDbArc
 50
0.0
 51
90.0000001128
  0
ARC
  5
5F4
100
AcDbEntity
  8
0
100
AcDbCircle
 62
7
  6
CONTINUOUS
 10
118.3870252344
 20
37.9388489209
 40
5.1047201804
100
AcDbArc
 50
147.4883630431
 51
32.5116369569
  0
CIRCLE
  5
5F5
100
AcDbEntity
  8
0
100
AcDbCircle
 62
7
  6
CONTINUOUS
 10
118.3870252344
 20
47.4388489209
 40
3.61
  0
CIRCLE
  5
5F6
100
AcDbEntity
  8
0
100
AcDbCircle
 62
7
  6
CONTINUOUS
 10
118.3870252344
 20
37.9388489209
 40
3.3031529918
  0
CIRCLE
  5
5F7
100
AcDbEntity
  8
0
100
AcDbCircle
 62
7
  6
CONTINUOUS
 10
118.3870252344
 20
47.4388489209
 40
3.11
  0
ARC
  5
5F8
100
AcDbEntity
  8
0
100
AcDbCircle
 62
7
  6
CONTINUOUS
 10
117.460586735
 20
46.4391387282
 40
3.0002791102
100
AcDbArc
 50
180.0098333182
 51
270.009188101
  0
ARC
  5
5F9
100
AcDbEntity
  8
0
100
AcDbCircle
 62
7
  6
CONTINUOUS
 10
119.3135057736
 20
46.4390978256
 40
3.0002285603
100
AcDbArc
 50
269.9930156115
 51
359.9904217757
  0
CIRCLE
  5
5FA
100
AcDbEntity
  8
0
100
AcDbCircle
 62
7
  6
CONTINUOUS
 10
140.8870252344
 20
33.0388489209
 40
11.1086
  0
ARC
  5
5FB
100
AcDbEntity
  8
0
100
AcDbCircle
 62
7
  6
CONTINUOUS
 10
145.3870252344
 20
62.1888489209
 40
10.0
100
AcDbArc
 50
270.0
 51
360.0
  0
CIRCLE
  5
5FC
100
AcDbEntity
  8
0
100
AcDbCircle
 62
7
  6
CONTINUOUS
 10
161.4870252344
 20
41.9388489209
 40
1.6011806034
  0
ARC
  5
5FD
100
AcDbEntity
  8
0
100
AcDbCircle
 62
7
  6
CONTINUOUS
 10
159.7070252343
 20
30.9588489207
 40
0.9800000001
100
AcDbArc
 50
0.0000000009
 51
89.9999992512
  0
ARC
  5
5FE
100
AcDbEntity
  8
0
100
AcDbCircle
 62
7
  6
CONTINUOUS
 10
163.9628546155
 20
30.9588489209
 40
0.98
100
AcDbArc
 50
90.0
 51
179.4999993219
  0
ARC
  5
5FF
100
AcDbEntity
  8
0
100
AcDbCircle
 62
7
  6
CONTINUOUS
 10
162.7831526607
 20
19.5388489209
 40
0.6
100
AcDbArc
 50
270.0000022404
 51
359.6263760661
  0
ARC
  5
600
100
AcDbEntity
  8
0
100
AcDbCircle
 62
7
  6
CONTINUOUS
 10
155.4870252344
 20
19.5388489209
 40
0.6
100
AcDbArc
 50
270.0
 51
360.0
  0
ARC
  5
601
100
AcDbEntity
  8
0
100
AcDbCircle
 62
7
  6
CONTINUOUS
 10
137.2870252344
 20
19.6388489209
 40
0.6
100
AcDbArc
 50
270.0
 51
360.0
  0
ARC
  5
602
100
AcDbEntity
  8
0
100
AcDbCircle
 62
7
  6
CONTINUOUS
 10
133.7334353959
 20
19.6388489209
 40
0.6
100
AcDbArc
 50
209.9999999918
 51
269.9999999999
  0
ARC
  5
603
100
AcDbEntity
  8
0
100
AcDbCircle
 62
7
  6
CONTINUOUS
 10
148.0406150729
 20
19.6388489209
 40
0.6
100
AcDbArc
 50
270.0
 51
330.0000000198
  0
ARC
  5
604
100
AcDbEntity
  8
0
100
AcDbCircle
 62
7
  6
CONTINUOUS
 10
144.4870252344
 20
19.6388489209
 40
0.6
100
AcDbArc
 50
179.9999999979
 51
269.9999999999
  0
ARC
  5
605
100
AcDbEntity
  8
0
100
AcDbCircle
 62
7
  6
CONTINUOUS
 10
160.6870252344
 20
19.4388489209
 40
0.5
100
AcDbArc
 50
180.0
 51
270.0
  0
ARC
  5
606
100
AcDbEntity
  8
0
100
AcDbCircle
 62
7
  6
CONTINUOUS
 10
157.5870252344
 20
19.4388489209
 40
0.5
100
AcDbArc
 50
180.0000000197
 51
270.0
  0
ARC
  5
607
100
AcDbEntity
  8
0
100
AcDbCircle
 62
7
  6
CONTINUOUS
 10
157.6409058768
 20
19.4388203079
 40
0.4999357686
100
AcDbArc
 50
179.9967207784
 51
225.0027238418
  0
ARC
  5
608
100
AcDbEntity
  8
0
100
AcDbCircle
 62
7
  6
CONTINUOUS
 10
163.9628546155
 20
30.9588489209
 40
0.48
100
AcDbArc
 50
89.9999999998
 51
179.500000052
  0
ARC
  5
609
100
AcDbEntity
  8
0
100
AcDbCircle
 62
7
  6
CONTINUOUS
 10
159.7070252343
 20
30.9588489207
 40
0.4800000001
100
AcDbArc
 50
0.0
 51
90.0000001152
  0
ARC
  5
60A
100
AcDbEntity
  8
0
100
AcDbCircle
 62
7
  6
CONTINUOUS
 10
143.5870252344
 20
47.7388489209
 40
0.3
100
AcDbArc
 50
0.0
 51
90.0
  0
ARC
  5
60B
100
AcDbEntity
  8
0
100
AcDbCircle
 62
7
  6
CONTINUOUS
 10
138.1870252344
 20
47.7388489209
 40
0.3
100
AcDbArc
 50
90.0
 51
180.0
  0
ARC
  5
60C
100
AcDbEntity
  8
0
100
AcDbCircle
 62
7
  6
CONTINUOUS
 10
162.7831526606
 20
19.5388489209
 40
0.1000000001
100
AcDbArc
 50
270.0086777472
 51
0.0147744056
  0
CIRCLE
  5
60D
100
AcDbEntity
  8
0
100
AcDbCircle
 62
7
  6
CONTINUOUS
 10
160.3870252344
 20
65.4388489209
 40
4.3
  0
CIRCLE
  5
60E
100
AcDbEntity
  8
0
100
AcDbCircle
 62
7
  6
CONTINUOUS
 10
160.3870252344
 20
65.4388489209
 40
4.0
  0
ARC
  5
60F
100
AcDbEntity
  8
0
100
AcDbCircle
 62
7
  6
CONTINUOUS
 10
162.9870252344
 20
107.93590171
 40
1.8
100
AcDbArc
 50
0.0
 51
90.06254999
  0
ARC
  5
610
100
AcDbEntity
  8
0
100
AcDbCircle
 62
7
  6
CONTINUOUS
 10
162.9870252344
 20
107.3359020675
 40
1.8
100
AcDbArc
 50
269.93745001
 51
360.0
  0
ARC
  5
611
100
AcDbEntity
  8
0
100
AcDbCircle
 62
7
  6
CONTINUOUS
 10
158.7870252344
 20
107.3359020675
 40
1.8
100
AcDbArc
 50
180.0
 51
270.06254999
  0
ARC
  5
612
100
AcDbEntity
  8
0
100
AcDbCircle
 62
7
  6
CONTINUOUS
 10
158.7870252344
 20
107.93590171
 40
1.8
100
AcDbArc
 50
89.93745001
 51
180.0
  0
ARC
  5
613
100
AcDbEntity
  8
0
100
AcDbCircle
 62
7
  6
CONTINUOUS
 10
162.9870252344
 20
93.9124384369
 40
1.8
100
AcDbArc
 50
0.0
 51
89.93745001
  0
ARC
  5
614
100
AcDbEntity
  8
0
100
AcDbCircle
 62
7
  6
CONTINUOUS
 10
162.9870252344
 20
93.3124387945
 40
1.8
100
AcDbArc
 50
270.06254999
 51
360.0
  0
ARC
  5
615
100
AcDbEntity
  8
0
100
AcDbCircle
 62
7
  6
CONTINUOUS
 10
158.7870252344
 20
93.3124387945
 40
1.8
100
AcDbArc
 50
180.0
 51
270.06254999
  0
ARC
  5
616
100
AcDbEntity
  8
0
100
AcDbCircle
 62
7
  6
CONTINUOUS
 10
158.7870252344
 20
93.9124384369
 40
1.8
100
AcDbArc
 50
89.93745001
 51
180.0
  0
CIRCLE
  5
617
100
AcDbEntity
  8
0
100
AcDbCircle
 62
7
  6
CONTINUOUS
 10
110.3470252344
 20
198.9848489209
 40
1.95
  0
ARC
  5
618
100
AcDbEntity
  8
0
100
AcDbCircle
 62
7
  6
CONTINUOUS
 10
107.6870252348
 20
187.8888489214
 40
1.6
100
AcDbArc
 50
180.0000000058
 51
269.999999932
  0
ARC
  5
619
100
AcDbEntity
  8
0
100
AcDbCircle
 62
7
  6
CONTINUOUS
 10
125.5870252343
 20
189.4998489209
 40
1.375
100
AcDbArc
 50
180.0000000869
 51
360.0
  0
ARC
  5
61A
100
AcDbEntity
  8
0
100
AcDbCircle
 62
7
  6
CONTINUOUS
 10
120.5070252343
 20
189.4998489209
 40
1.375
100
AcDbArc
 50
180.0000000855
 51
359.9999999894
  0
ARC
  5
61B
100
AcDbEntity
  8
0
100
AcDbCircle
 62
7
  6
CONTINUOUS
 10
115.4270252343
 20
189.4998489209
 40
1.375
100
AcDbArc
 50
180.000001345
 51
0.0000009787
  0
ARC
  5
61C
100
AcDbEntity
  8
0
100
AcDbCircle
 62
7
  6
CONTINUOUS
 10
125.5870252343
 20
189.4998489209
 40
1.175
100
AcDbArc
 50
179.999999907
 51
360.0
  0
ARC
  5
61D
100
AcDbEntity
  8
0
100
AcDbCircle
 62
7
  6
CONTINUOUS
 10
120.5070252343
 20
189.4998489209
 40
1.175
100
AcDbArc
 50
179.9999999083
 51
360.0
  0
ARC
  5
61E
100
AcDbEntity
  8
0
100
AcDbCircle
 62
7
  6
CONTINUOUS
 10
115.4270252343
 20
189.4998489209
 40
1.175
100
AcDbArc
 50
179.9999994272
 51
360.0
  0
ARC
  5
61F
100
AcDbEntity
  8
0
100
AcDbCircle
 62
7
  6
CONTINUOUS
 10
108.8370252344
 20
197.0698489209
 40
1.0
100
AcDbArc
 50
180.0
 51
270.0000000013
  0
ARC
  5
620
100
AcDbEntity
  8
0
100
AcDbCircle
 62
7
  6
CONTINUOUS
 10
107.6870252348
 20
187.8888489214
 40
1.0
100
AcDbArc
 50
180.0000000248
 51
270.0000002897
  0
ARC
  5
621
100
AcDbEntity
  8
0
100
AcDbCircle
 62
7
  6
CONTINUOUS
 10
107.6870252348
 20
202.7888489209
 40
1.6
100
AcDbArc
 50
89.9999999987
 51
179.9999999249
  0
ARC
  5
622
100
AcDbEntity
  8
0
100
AcDbCircle
 62
7
  6
CONTINUOUS
 10
108.8370252344
 20
200.8698489209
 40
1.0
100
AcDbArc
 50
90.0
 51
180.0
  0
ARC
  5
623
100
AcDbEntity
  8
0
100
AcDbCircle
 62
7
  6
CONTINUOUS
 10
107.6870252348
 20
202.7888489209
 40
1.0
100
AcDbArc
 50
90.0000000216
 51
180.0000004041
  0
ARC
  5
624
100
AcDbEntity
  8
0
100
AcDbCircle
 62
7
  6
CONTINUOUS
 10
98.5870252344
 20
215.1388489209
 40
0.3
100
AcDbArc
 50
270.0
 51
360.0
  0
CIRCLE
  5
625
100
AcDbEntity
  8
0
100
AcDbCircle
 62
7
  6
CONTINUOUS
 10
95.8870252344
 20
229.8388489209
 40
11.1086
  0
ARC
  5
626
100
AcDbEntity
  8
0
100
AcDbCircle
 62
7
  6
CONTINUOUS
 10
110.4870252344
 20
243.3388489209
 40
0.6
100
AcDbArc
 50
0.0
 51
90.0
  0
ARC
  5
627
100
AcDbEntity
  8
0
100
AcDbCircle
 62
7
  6
CONTINUOUS
 10
103.0406150728
 20
243.2388489209
 40
0.6
100
AcDbArc
 50
29.9999999992
 51
90.0000000024
  0
ARC
  5
628
100
AcDbEntity
  8
0
100
AcDbCircle
 62
7
  6
CONTINUOUS
 10
99.4870252344
 20
243.2388489209
 40
0.6
100
AcDbArc
 50
89.999999998
 51
180.0000000021
  0
CIRCLE
  5
629
100
AcDbEntity
  8
0
100
AcDbCircle
 62
7
  6
CONTINUOUS
 10
115.6270252344
 20
199.9248489209
 40
2.3
  0
CIRCLE
  5
62A
100
AcDbEntity
  8
0
100
AcDbCircle
 62
7
  6
CONTINUOUS
 10
115.6270252344
 20
199.9248489209
 40
2.0
  0
ARC
  5
62B
100
AcDbEntity
  8
0
100
AcDbCircle
 62
7
  6
CONTINUOUS
 10
118.3870252344
 20
215.4388489209
 40
3.61
100
AcDbArc
 50
228.8907673458
 51
295.7429798409
  0
ARC
  5
62C
100
AcDbEntity
  8
0
100
AcDbCircle
 62
7
  6
CONTINUOUS
 10
118.3870252344
 20
215.4388489209
 40
3.61
100
AcDbArc
 50
330.168678234
 51
219.8641686624
  0
ARC
  5
62D
100
AcDbEntity
  8
0
100
AcDbCircle
 62
7
  6
CONTINUOUS
 10
118.3870252344
 20
215.4388489209
 40
3.11
100
AcDbArc
 50
325.2271863476
 51
306.3926202272
  0
ARC
  5
62E
100
AcDbEntity
  8
0
100
AcDbCircle
 62
7
  6
CONTINUOUS
 10
117.460586735
 20
216.4385591135
 40
3.0002791102
100
AcDbArc
 50
89.9919662156
 51
179.9882018476
  0
ARC
  5
62F
100
AcDbEntity
  8
0
100
AcDbCircle
 62
7
  6
CONTINUOUS
 10
115.1411878368
 20
212.4831929672
 40
0.4000651461
100
AcDbArc
 50
359.998794802
 51
89.9781216863
  0
ARC
  5
630
100
AcDbEntity
  8
0
100
AcDbCircle
 62
7
  6
CONTINUOUS
 10
111.6329420545
 20
212.4831406348
 40
0.4000651428
100
AcDbArc
 50
90.0202717598
 51
180.0012054545
  0
CIRCLE
  5
631
100
AcDbEntity
  8
0
100
AcDbCircle
 62
7
  6
CONTINUOUS
 10
125.7870252344
 20
199.9248489209
 40
2.3
  0
CIRCLE
  5
632
100
AcDbEntity
  8
0
100
AcDbCircle
 62
7
  6
CONTINUOUS
 10
120.7070252344
 20
199.9248489209
 40
2.3
  0
CIRCLE
  5
633
100
AcDbEntity
  8
0
100
AcDbCircle
 62
7
  6
CONTINUOUS
 10
125.7870252344
 20
199.9248489209
 40
2.0
  0
CIRCLE
  5
634
100
AcDbEntity
  8
0
100
AcDbCircle
 62
7
  6
CONTINUOUS
 10
120.7070252344
 20
199.9248489209
 40
2.0
  0
ARC
  5
635
100
AcDbEntity
  8
0
100
AcDbCircle
 62
7
  6
CONTINUOUS
 10
119.3135057736
 20
216.4386000161
 40
3.0002285604
100
AcDbArc
 50
0.0094263785
 51
90.0094334476
  0
ARC
  5
636
100
AcDbEntity
  8
0
100
AcDbCircle
 62
7
  6
CONTINUOUS
 10
120.3870252344
 20
213.1888489209
 40
0.5
100
AcDbArc
 50
90.0
 51
179.9999999994
  0
ARC
  5
637
100
AcDbEntity
  8
0
100
AcDbCircle
 62
7
  6
CONTINUOUS
 10
123.3870252344
 20
213.1888489209
 40
0.5
100
AcDbArc
 50
0.0
 51
90.0
  0
ARC
  5
638
100
AcDbEntity
  8
0
100
AcDbCircle
 62
7
  6
CONTINUOUS
 10
118.3870252344
 20
224.9388489209
 40
5.1047201804
100
AcDbArc
 50
327.4883630428
 51
212.5116369571
  0
CIRCLE
  5
639
100
AcDbEntity
  8
0
100
AcDbCircle
 62
7
  6
CONTINUOUS
 10
118.3870252344
 20
224.9388489209
 40
3.3031529918
  0
ARC
  5
63A
100
AcDbEntity
  8
0
100
AcDbCircle
 62
7
  6
CONTINUOUS
 10
118.3870252344
 20
233.9388489209
 40
2.6285405341
100
AcDbArc
 50
124.9360067376
 51
55.0639932623
  0
ARC
  5
63B
100
AcDbEntity
  8
0
100
AcDbCircle
 62
7
  6
CONTINUOUS
 10
118.3870252344
 20
233.9388489209
 40
2.55
100
AcDbArc
 50
240.7458389752
 51
289.0408262544
  0
ARC
  5
63C
100
AcDbEntity
  8
0
100
AcDbCircle
 62
7
  6
CONTINUOUS
 10
118.3872691876
 20
224.8494854134
 40
2.5000013525
100
AcDbArc
 50
359.998839519
 51
180.0
  0
ARC
  5
63D
100
AcDbEntity
  8
0
100
AcDbCircle
 62
7
  6
CONTINUOUS
 10
113.5070252343
 20
231.9188489211
 40
0.9800000001
100
AcDbArc
 50
270.0000002669
 51
360.0
  0
ARC
  5
63E
100
AcDbEntity
  8
0
100
AcDbCircle
 62
7
  6
CONTINUOUS
 10
113.5070252343
 20
231.9188489211
 40
0.4800000001
100
AcDbArc
 50
269.9999999411
 51
360.0
  0
ARC
  5
63F
100
AcDbEntity
  8
0
100
AcDbCircle
 62
7
  6
CONTINUOUS
 10
115.9805913656
 20
243.3385029415
 40
0.6020413977
100
AcDbArc
 50
1.9240482655
 51
9.5946228713
  0
ARC
  5
640
100
AcDbEntity
  8
0
100
AcDbCircle
 62
7
  6
CONTINUOUS
 10
114.4870252344
 20
243.4388489209
 40
0.5
100
AcDbArc
 50
90.0
 51
180.0000000007
  0
ARC
  5
641
100
AcDbEntity
  8
0
100
AcDbCircle
 62
7
  6
CONTINUOUS
 10
116.1572086449
 20
243.4388489209
 40
0.5
100
AcDbArc
 50
2.3601574655
 51
90.0
  0
ARC
  5
642
100
AcDbEntity
  8
0
100
AcDbCircle
 62
7
  6
CONTINUOUS
 10
112.5870252344
 20
243.4388489209
 40
0.5
100
AcDbArc
 50
90.0
 51
180.0000000014
  0
ARC
  5
643
100
AcDbEntity
  8
0
100
AcDbCircle
 62
7
  6
CONTINUOUS
 10
112.6409058768
 20
243.4388775338
 40
0.4999357686
100
AcDbArc
 50
134.9972759854
 51
180.0032792029
  0
ARC
  5
644
100
AcDbEntity
  8
0
100
AcDbCircle
 62
7
  6
CONTINUOUS
 10
123.2670252344
 20
231.9188489211
 40
0.9800000001
100
AcDbArc
 50
180.0000000196
 51
269.9999999863
  0
ARC
  5
645
100
AcDbEntity
  8
0
100
AcDbCircle
 62
7
  6
CONTINUOUS
 10
123.2670252344
 20
231.9188489211
 40
0.4800000001
100
AcDbArc
 50
179.9999999974
 51
269.9999999996
  0
ARC
  5
646
100
AcDbEntity
  8
0
100
AcDbCircle
 62
7
  6
CONTINUOUS
 10
120.7957356817
 20
243.3385854013
 40
0.6044201722
100
AcDbArc
 50
170.4514195157
 51
178.8027305217
  0
ARC
  5
647
100
AcDbEntity
  8
0
100
AcDbCircle
 62
7
  6
CONTINUOUS
 10
126.2870252344
 20
243.3388489209
 40
0.6
100
AcDbArc
 50
90.0
 51
180.0
  0
ARC
  5
648
100
AcDbEntity
  8
0
100
AcDbCircle
 62
7
  6
CONTINUOUS
 10
120.6168418238
 20
243.4388489209
 40
0.5
100
AcDbArc
 50
90.0
 51
177.6398425401
  0
ARC
  5
649
100
AcDbEntity
  8
0
100
AcDbCircle
 62
7
  6
CONTINUOUS
 10
124.1870252344
 20
243.4388489209
 40
0.5
100
AcDbArc
 50
0.0
 51
90.0
  0
ARC
  5
64A
100
AcDbEntity
  8
0
100
AcDbCircle
 62
7
  6
CONTINUOUS
 10
122.2870252343
 20
243.4388489209
 40
0.5
100
AcDbArc
 50
0.0000000212
 51
90.0
  0
ARC
  5
64B
100
AcDbEntity
  8
0
100
AcDbCircle
 62
7
  6
CONTINUOUS
 10
124.1437108775
 20
243.4390073653
 40
0.4998415785
100
AcDbArc
 50
359.9818378467
 51
90.0173767516
  0
CIRCLE
  5
64C
100
AcDbEntity
  8
0
100
AcDbCircle
 62
7
  6
CONTINUOUS
 10
160.3870252344
 20
197.4388489209
 40
4.3
  0
CIRCLE
  5
64D
100
AcDbEntity
  8
0
100
AcDbCircle
 62
7
  6
CONTINUOUS
 10
160.3870252344
 20
197.4388489209
 40
4.0
  0
CIRCLE
  5
64E
100
AcDbEntity
  8
0
100
AcDbCircle
 62
7
  6
CONTINUOUS
 10
130.6670252344
 20
198.9848489209
 40
1.95
  0
ARC
  5
64F
100
AcDbEntity
  8
0
100
AcDbCircle
 62
7
  6
CONTINUOUS
 10
162.9870252344
 20
169.6123933267
 40
1.8
100
AcDbArc
 50
0.0
 51
89.9999713914
  0
ARC
  5
650
100
AcDbEntity
  8
0
100
AcDbCircle
 62
7
  6
CONTINUOUS
 10
162.9870252344
 20
169.0123936843
 40
1.8
100
AcDbArc
 50
270.0000286148
 51
360.0
  0
ARC
  5
651
100
AcDbEntity
  8
0
100
AcDbCircle
 62
7
  6
CONTINUOUS
 10
158.7870252344
 20
169.0123936843
 40
1.8
100
AcDbArc
 50
180.0
 51
269.9999713914
  0
ARC
  5
652
100
AcDbEntity
  8
0
100
AcDbCircle
 62
7
  6
CONTINUOUS
 10
158.7870252344
 20
169.6123933267
 40
1.8
100
AcDbArc
 50
90.0000286116
 51
180.0
  0
ARC
  5
653
100
AcDbEntity
  8
0
100
AcDbCircle
 62
7
  6
CONTINUOUS
 10
162.9870252344
 20
155.6358732852
 40
1.8
100
AcDbArc
 50
0.0
 51
89.9374500103
  0
ARC
  5
654
100
AcDbEntity
  8
0
100
AcDbCircle
 62
7
  6
CONTINUOUS
 10
162.9870252344
 20
155.0358736427
 40
1.8
100
AcDbArc
 50
270.0625499895
 51
360.0
  0
ARC
  5
655
100
AcDbEntity
  8
0
100
AcDbCircle
 62
7
  6
CONTINUOUS
 10
158.7870252344
 20
155.0358736427
 40
1.8
100
AcDbArc
 50
180.0
 51
270.0625499895
  0
ARC
  5
656
100
AcDbEntity
  8
0
100
AcDbCircle
 62
7
  6
CONTINUOUS
 10
158.7870252344
 20
155.6358732852
 40
1.8
100
AcDbArc
 50
90.0625499897
 51
180.0
  0
ARC
  5
657
100
AcDbEntity
  8
0
100
AcDbCircle
 62
7
  6
CONTINUOUS
 10
133.0870252344
 20
187.8888489214
 40
1.6
100
AcDbArc
 50
269.9999999987
 51
359.9999999284
  0
ARC
  5
658
100
AcDbEntity
  8
0
100
AcDbCircle
 62
7
  6
CONTINUOUS
 10
132.1770252344
 20
197.0698489209
 40
1.0
100
AcDbArc
 50
270.0
 51
360.0
  0
ARC
  5
659
100
AcDbEntity
  8
0
100
AcDbCircle
 62
7
  6
CONTINUOUS
 10
133.0870252344
 20
187.8888489214
 40
1.0
100
AcDbArc
 50
270.0000000137
 51
360.0
  0
ARC
  5
65A
100
AcDbEntity
  8
0
100
AcDbCircle
 62
7
  6
CONTINUOUS
 10
145.9545565756
 20
200.8885576775
 40
9.8002948727
100
AcDbArc
 50
15.7474895319
 51
89.9961207813
  0
ARC
  5
65B
100
AcDbEntity
  8
0
100
AcDbCircle
 62
7
  6
CONTINUOUS
 10
133.0870252344
 20
202.7888489209
 40
1.6
100
AcDbArc
 50
0.0
 51
89.9999999284
  0
ARC
  5
65C
100
AcDbEntity
  8
0
100
AcDbCircle
 62
7
  6
CONTINUOUS
 10
132.1770252344
 20
200.8698489209
 40
1.0
100
AcDbArc
 50
0.0
 51
90.0
  0
ARC
  5
65D
100
AcDbEntity
  8
0
100
AcDbCircle
 62
7
  6
CONTINUOUS
 10
133.0870252344
 20
202.7888489209
 40
1.0
100
AcDbArc
 50
0.0
 51
90.0000004041
  0
ARC
  5
65E
100
AcDbEntity
  8
0
100
AcDbCircle
 62
7
  6
CONTINUOUS
 10
143.5870252344
 20
215.1388489209
 40
0.3
100
AcDbArc
 50
270.0
 51
360.0
  0
ARC
  5
65F
100
AcDbEntity
  8
0
100
AcDbCircle
 62
7
  6
CONTINUOUS
 10
138.1870252344
 20
215.1388489209
 40
0.3
100
AcDbArc
 50
180.0
 51
270.0
  0
CIRCLE
  5
660
100
AcDbEntity
  8
0
100
AcDbCircle
 62
7
  6
CONTINUOUS
 10
140.8870252344
 20
229.8388489209
 40
11.1086
  0
ARC
  5
661
100
AcDbEntity
  8
0
100
AcDbCircle
 62
7
  6
CONTINUOUS
 10
137.2870252344
 20
243.2388489209
 40
0.6
100
AcDbArc
 50
0.0
 51
90.0000000021
  0
ARC
  5
662
100
AcDbEntity
  8
0
100
AcDbCircle
 62
7
  6
CONTINUOUS
 10
133.7334353959
 20
243.2388489209
 40
0.6
100
AcDbArc
 50
89.9999999988
 51
149.9999999773
  0
ARC
  5
663
100
AcDbEntity
  8
0
100
AcDbCircle
 62
7
  6
CONTINUOUS
 10
148.0406150729
 20
243.2388489209
 40
0.6
100
AcDbArc
 50
29.9999999754
 51
90.0000000024
  0
ARC
  5
664
100
AcDbEntity
  8
0
100
AcDbCircle
 62
7
  6
CONTINUOUS
 10
144.4870252344
 20
243.2388489209
 40
0.6
100
AcDbArc
 50
89.999999999
 51
180.0000000021
  0
CIRCLE
  5
665
100
AcDbEntity
  8
0
100
AcDbCircle
 62
7
  6
CONTINUOUS
 10
161.4870252344
 20
220.9388489209
 40
1.6011806034
  0
ARC
  5
666
100
AcDbEntity
  8
0
100
AcDbCircle
 62
7
  6
CONTINUOUS
 10
159.7070252343
 20
231.9188489211
 40
0.9800000001
100
AcDbArc
 50
270.0000002843
 51
360.0
  0
ARC
  5
667
100
AcDbEntity
  8
0
100
AcDbCircle
 62
7
  6
CONTINUOUS
 10
163.9628546155
 20
231.9188489209
 40
0.98
100
AcDbArc
 50
180.5000005365
 51
270.0
  0
ARC
  5
668
100
AcDbEntity
  8
0
100
AcDbCircle
 62
7
  6
CONTINUOUS
 10
155.4870252344
 20
243.3388489209
 40
0.6
100
AcDbArc
 50
0.0
 51
90.0
  0
ARC
  5
669
100
AcDbEntity
  8
0
100
AcDbCircle
 62
7
  6
CONTINUOUS
 10
162.7831526607
 20
243.3388489209
 40
0.6
100
AcDbArc
 50
0.375317559
 51
90.0000000259
  0
ARC
  5
66A
100
AcDbEntity
  8
0
100
AcDbCircle
 62
7
  6
CONTINUOUS
 10
157.8806653879
 20
230.8374782369
 40
0.5987232754
100
AcDbArc
 50
140.1683775105
 51
161.7144794654
  0
ARC
  5
66B
100
AcDbEntity
  8
0
100
AcDbCircle
 62
7
  6
CONTINUOUS
 10
160.6870252344
 20
243.4388489209
 40
0.5
100
AcDbArc
 50
90.0
 51
180.0
  0
ARC
  5
66C
100
AcDbEntity
  8
0
100
AcDbCircle
 62
7
  6
CONTINUOUS
 10
157.5870252344
 20
243.4388489209
 40
0.5
100
AcDbArc
 50
90.0
 51
180.0000000014
  0
ARC
  5
66D
100
AcDbEntity
  8
0
100
AcDbCircle
 62
7
  6
CONTINUOUS
 10
157.6409058768
 20
243.4388775338
 40
0.4999357686
100
AcDbArc
 50
134.9972759804
 51
180.0032792031
  0
ARC
  5
66E
100
AcDbEntity
  8
0
100
AcDbCircle
 62
7
  6
CONTINUOUS
 10
159.7070252343
 20
231.9188489211
 40
0.4800000001
100
AcDbArc
 50
269.9999999388
 51
360.0
  0
ARC
  5
66F
100
AcDbEntity
  8
0
100
AcDbCircle
 62
7
  6
CONTINUOUS
 10
163.9628546155
 20
231.9188489209
 40
0.48
100
AcDbArc
 50
180.499999947
 51
270.0000000001
  0
ARC
  5
670
100
AcDbEntity
  8
0
100
AcDbCircle
 62
7
  6
CONTINUOUS
 10
162.7831526607
 20
243.3388489209
 40
0.1
100
AcDbArc
 50
0.5086777572
 51
90.5147750027
  0
SPLINE
  5
671
100
AcDbEntity
  8
0
100
AcDbSpline
 62
7
  6
CONTINUOUS
 70
0
 71
3
 72
11
 73
7
 74
0
 42
0.0000001
 43
0.0000001
 44
0.0000000001
 40
0.0
 40
0.0
 40
0.0
 40
0.0
 40
0.2871363749
 40
0.5561922686
 40
0.8270199832
 40
1.0
 40
1.0
 40
1.0
 40
1.0
 10
115.9857741681
 20
243.9388489208
 30
0.0
 10
116.0656020052
 20
243.9388489208
 30
0.0
 10
116.2220856282
 20
243.9067488001
 30
0.0
 10
116.4166535712
 20
243.7745889247
 30
0.0
 10
116.5308235963
 20
243.6069643807
 30
0.0
 10
116.5661579879
 20
243.4865695966
 30
0.0
 10
116.5742112178
 20
243.4388489209
 30
0.0
  0
SPLINE
  5
672
100
AcDbEntity
  8
0
100
AcDbSpline
 62
7
  6
CONTINUOUS
 70
0
 71
3
 72
13
 73
9
 74
0
 42
0.0000001
 43
0.0000001
 44
0.0000000001
 40
0.0
 40
0.0
 40
0.0
 40
0.0
 40
0.2521433272
 40
0.4925894102
 40
0.7339225344
 40
0.9820952516
 40
0.9916130031
 40
1.0
 40
1.0
 40
1.0
 40
1.0
 10
123.9850107449
 20
231.4388489209
 30
0.0
 10
124.0489263268
 20
231.4388489209
 30
0.0
 10
124.1752843275
 20
231.4128756536
 30
0.0
 10
124.3323798478
 20
231.3050979102
 30
0.0
 10
124.4372463959
 20
231.1472636762
 30
0.0
 10
124.4624878386
 20
231.0193176788
 30
0.0
 10
124.4618968283
 20
230.9518996143
 30
0.0
 10
124.4617911875
 20
230.9473678561
 30
0.0
 10
124.4617272145
 20
230.9452463749
 30
0.0
  0
SPLINE
  5
673
100
AcDbEntity
  8
0
100
AcDbSpline
 62
7
  6
CONTINUOUS
 70
0
 71
3
 72
11
 73
7
 74
0
 42
0.0000001
 43
0.0000001
 44
0.0000000001
 40
0.0
 40
0.0
 40
0.0
 40
0.0
 40
0.0790622032
 40
0.3382537365
 40
0.6372530751
 40
1.0
 40
1.0
 40
1.0
 40
1.0
 10
157.4208877515
 20
231.2209806301
 30
0.0
 10
157.4298541458
 20
231.2317346906
 30
0.0
 10
157.4698239497
 20
231.2764051794
 30
0.0
 10
157.5573788978
 20
231.3489064917
 30
0.0
 10
157.7057254266
 20
231.4200925567
 30
0.0
 10
157.8236376687
 20
231.438848921
 30
0.0
 10
157.8877730892
 20
231.438848921
 30
0.0
  0
SPLINE
  5
674
100
AcDbEntity
  8
0
100
AcDbSpline
 62
7
  6
CONTINUOUS
 70
0
 71
3
 72
11
 73
7
 74
0
 42
0.0000001
 43
0.0000001
 44
0.0000000001
 40
0.0
 40
0.0
 40
0.0
 40
0.0
 40
0.1708869857
 40
0.4343376036
 40
0.7091303412
 40
1.0
 40
1.0
 40
1.0
 40
1.0
 10
120.1996895667
 20
243.4388489209
 30
0.0
 10
120.2076103758
 20
243.4860087984
 30
0.0
 10
120.2419105647
 20
243.6038920689
 30
0.0
 10
120.3544755017
 20
243.7709345096
 30
0.0
 10
120.5481097021
 20
243.9059195918
 30
0.0
 10
120.7074062766
 20
243.9388489209
 30
0.0
 10
120.7882763006
 20
243.9388489209
 30
0.0
  0
SPLINE
  5
675
100
AcDbEntity
  8
0
100
AcDbSpline
 62
7
  6
CONTINUOUS
 70
0
 71
3
 72
11
 73
7
 74
0
 42
0.0000001
 43
0.0000001
 44
0.0000000001
 40
0.0
 40
0.0
 40
0.0
 40
0.0
 40
0.1708869857
 40
0.4343376036
 40
0.7091303412
 40
1.0
 40
1.0
 40
1.0
 40
1.0
 10
75.1996895667
 20
243.4388489209
 30
0.0
 10
75.2076103758
 20
243.4860087984
 30
0.0
 10
75.2419105647
 20
243.6038920688
 30
0.0
 10
75.3544755017
 20
243.7709345096
 30
0.0
 10
75.5481097021
 20
243.9059195918
 30
0.0
 10
75.7074062766
 20
243.9388489209
 30
0.0
 10
75.7882763006
 20
243.9388489209
 30
0.0
  0
SPLINE
  5
676
100
AcDbEntity
  8
0
100
AcDbSpline
 62
7
  6
CONTINUOUS
 70
0
 71
3
 72
13
 73
9
 74
0
 42
0.0000001
 43
0.0000001
 44
0.0000000001
 40
0.0
 40
0.0
 40
0.0
 40
0.0
 40
0.0083890465
 40
0.0179031496
 40
0.2681269052
 40
0.5089642503
 40
0.7468721442
 40
1.0
 40
1.0
 40
1.0
 40
1.0
 10
112.3123233833
 20
230.9452477957
 30
0.0
 10
112.3122593472
 20
230.9473697437
 30
0.0
 10
112.3121536504
 20
230.9519010078
 30
0.0
 10
112.3115578696
 20
231.0198376245
 30
0.0
 10
112.3371087946
 20
231.148208382
 30
0.0
 10
112.4422833911
 20
231.3055044106
 30
0.0
 10
112.5988961226
 20
231.4128406249
 30
0.0
 10
112.7248749724
 20
231.438848921
 30
0.0
 10
112.7890397238
 20
231.4388489209
 30
0.0
  0
SPLINE
  5
677
100
AcDbEntity
  8
0
100
AcDbSpline
 62
7
  6
CONTINUOUS
 70
0
 71
3
 72
17
 73
13
 74
0
 42
0.0000001
 43
0.0000001
 44
0.0000000001
 40
0.0
 40
0.0
 40
0.0
 40
0.0
 40
0.1018498417
 40
0.202067462
 40
0.3017028864
 40
0.4009488435
 40
0.499999716
 40
0.5990505885
 40
0.6982965456
 40
0.79793197
 40
0.8981495903
 40
1.0
 40
1.0
 40
1.0
 40
1.0
 10
70.7968379995
 20
224.7988323546
 30
0.0
 10
70.7974767657
 20
225.074159577
 30
0.0
 10
70.8850700388
 20
225.6243407133
 30
0.0
 10
71.2651889634
 20
226.3606960758
 30
0.0
 10
71.849284377
 20
226.9390610116
 30
0.0
 10
72.5799966081
 20
227.3079707872
 30
0.0
 10
73.3870230363
 20
227.4347116074
 30
0.0
 10
74.1940496511
 20
227.3079719836
 30
0.0
 10
74.9247624325
 20
226.9390632875
 30
0.0
 10
75.5088586892
 20
226.3606992294
 30
0.0
 10
75.8889794729
 20
225.6243429975
 30
0.0
 10
75.9765732056
 20
225.0741604009
 30
0.0
 10
75.977212711
 20
224.7988316448
 30
0.0
  0
SPLINE
  5
678
100
AcDbEntity
  8
0
100
AcDbSpline
 62
7
  6
CONTINUOUS
 70
0
 71
3
 72
13
 73
9
 74
0
 42
0.0000001
 43
0.0000001
 44
0.0000000001
 40
0.0
 40
0.0
 40
0.0
 40
0.0
 40
0.2521433844
 40
0.4925895219
 40
0.733922701
 40
0.9820954744
 40
0.9916132532
 40
1.0
 40
1.0
 40
1.0
 40
1.0
 10
78.9850107449
 20
231.4388489209
 30
0.0
 10
79.0489263268
 20
231.4388489209
 30
0.0
 10
79.1752843275
 20
231.4128756536
 30
0.0
 10
79.3323798475
 20
231.3050979103
 30
0.0
 10
79.4372463969
 20
231.1472636764
 30
0.0
 10
79.4624878372
 20
231.0193176726
 30
0.0
 10
79.461896829
 20
230.9518996657
 30
0.0
 10
79.4617911905
 20
230.9473679649
 30
0.0
 10
79.4617272203
 20
230.9452465474
 30
0.0
  0
SPLINE
  5
679
100
AcDbEntity
  8
0
100
AcDbSpline
 62
7
  6
CONTINUOUS
 70
0
 71
3
 72
11
 73
7
 74
0
 42
0.0000001
 43
0.0000001
 44
0.0000000001
 40
0.0
 40
0.0
 40
0.0
 40
0.0
 40
0.2871363749
 40
0.5561922685
 40
0.8270199832
 40
1.0
 40
1.0
 40
1.0
 40
1.0
 10
70.9857741681
 20
243.9388489208
 30
0.0
 10
71.0656020052
 20
243.9388489208
 30
0.0
 10
71.2220856282
 20
243.9067488001
 30
0.0
 10
71.4166535712
 20
243.7745889247
 30
0.0
 10
71.5308235963
 20
243.6069643807
 30
0.0
 10
71.5661579879
 20
243.4865695966
 30
0.0
 10
71.5742112178
 20
243.4388489209
 30
0.0
  0
SPLINE
  5
67A
100
AcDbEntity
  8
0
100
AcDbSpline
 62
7
  6
CONTINUOUS
 70
0
 71
3
 72
15
 73
11
 74
0
 42
0.0000001
 43
0.0000001
 44
0.0000000001
 40
0.0
 40
0.0
 40
0.0
 40
0.0
 40
0.164451636
 40
0.3154703984
 40
0.4564952097
 40
0.5903401353
 40
0.7191079401
 40
0.8440599464
 40
0.965463556
 40
1.0
 40
1.0
 40
1.0
 40
1.0
 10
34.0085145803
 20
231.4388489209
 30
0.0
 10
34.0406316879
 20
231.4388489209
 30
0.0
 10
34.1024240166
 20
231.4327091016
 30
0.0
 10
34.1883114796
 20
231.4071211851
 30
0.0
 10
34.2629885085
 20
231.3695720734
 30
0.0
 10
34.3268468725
 20
231.3227652808
 30
0.0
 10
34.3802224651
 20
231.2686612004
 30
0.0
 10
34.4231921449
 20
231.2089732802
 30
0.0
 10
34.4482789502
 20
231.1599596829
 30
0.0
 10
34.459520071
 20
231.1316194538
 30
0.0
 10
34.4618757033
 20
231.1252931325
 30
0.0
  0
SPLINE
  5
67B
100
AcDbEntity
  8
0
100
AcDbSpline
 62
7
  6
CONTINUOUS
 70
0
 71
3
 72
9
 73
5
 74
0
 42
0.0000001
 43
0.0000001
 44
0.0000000001
 40
0.0
 40
0.0
 40
0.0
 40
0.0
 40
0.5231979221
 40
1.0
 40
1.0
 40
1.0
 40
1.0
 10
67.3196461967
 20
231.0439008755
 30
0.0
 10
67.3258524159
 20
231.0786607282
 30
0.0
 10
67.3449593935
 20
231.1439828312
 30
0.0
 10
67.3773267968
 20
231.2035209585
 30
0.0
 10
67.3954066343
 20
231.2300825382
 30
0.0
  0
SPLINE
  5
67C
100
AcDbEntity
  8
0
100
AcDbSpline
 62
7
  6
CONTINUOUS
 70
0
 71
3
 72
11
 73
7
 74
0
 42
0.0000001
 43
0.0000001
 44
0.0000000001
 40
0.0
 40
0.0
 40
0.0
 40
0.0
 40
0.1729800168
 40
0.4438077314
 40
0.7128636251
 40
1.0
 40
1.0
 40
1.0
 40
1.0
 10
116.5742112178
 20
19.4388489209
 30
0.0
 10
116.5661579879
 20
19.3911282452
 30
0.0
 10
116.5308235963
 20
19.270733461
 30
0.0
 10
116.4166535712
 20
19.1031089171
 30
0.0
 10
116.2220856282
 20
18.9709490416
 30
0.0
 10
116.0656020052
 20
18.9388489209
 30
0.0
 10
115.9857741681
 20
18.9388489209
 30
0.0
  0
SPLINE
  5
67D
100
AcDbEntity
  8
0
100
AcDbSpline
 62
7
  6
CONTINUOUS
 70
0
 71
3
 72
11
 73
7
 74
0
 42
0.0000001
 43
0.0000001
 44
0.0000000001
 40
0.0
 40
0.0
 40
0.0
 40
0.0
 40
0.1729800168
 40
0.4438077314
 40
0.7128636251
 40
1.0
 40
1.0
 40
1.0
 40
1.0
 10
71.5742112178
 20
19.4388489209
 30
0.0
 10
71.5661579879
 20
19.3911282452
 30
0.0
 10
71.5308235963
 20
19.270733461
 30
0.0
 10
71.4166535712
 20
19.103108917
 30
0.0
 10
71.2220856282
 20
18.9709490416
 30
0.0
 10
71.0656020052
 20
18.9388489209
 30
0.0
 10
70.9857741681
 20
18.9388489209
 30
0.0
  0
SPLINE
  5
67E
100
AcDbEntity
  8
0
100
AcDbSpline
 62
7
  6
CONTINUOUS
 70
0
 71
3
 72
15
 73
11
 74
0
 42
0.0000001
 43
0.0000001
 44
0.0000000001
 40
0.0
 40
0.0
 40
0.0
 40
0.0
 40
0.0345364439
 40
0.1559400536
 40
0.2808920598
 40
0.4096598647
 40
0.5435047902
 40
0.6845296015
 40
0.835548364
 40
1.0
 40
1.0
 40
1.0
 40
1.0
 10
34.4618757033
 20
31.7524047093
 30
0.0
 10
34.459520071
 20
31.7460783879
 30
0.0
 10
34.4482789502
 20
31.7177381589
 30
0.0
 10
34.4231921449
 20
31.6687245616
 30
0.0
 10
34.3802224651
 20
31.6090366413
 30
0.0
 10
34.3268468725
 20
31.554932561
 30
0.0
 10
34.2629885085
 20
31.5081257684
 30
0.0
 10
34.1883114796
 20
31.4705766567
 30
0.0
 10
34.1024240166
 20
31.4449887402
 30
0.0
 10
34.0406316879
 20
31.4388489208
 30
0.0
 10
34.0085145803
 20
31.4388489208
 30
0.0
  0
SPLINE
  5
67F
100
AcDbEntity
  8
0
100
AcDbSpline
 62
7
  6
CONTINUOUS
 70
0
 71
3
 72
8
 73
4
 74
0
 42
0.0000001
 43
0.0000001
 44
0.0000000001
 40
0.0
 40
0.0
 40
0.0
 40
0.0
 40
1.0
 40
1.0
 40
1.0
 40
1.0
 10
34.1430329396
 20
18.9388489209
 30
0.0
 10
34.2271866976
 20
18.9388489209
 30
0.0
 10
34.3138064202
 20
18.9616211093
 30
0.0
 10
34.3873158084
 20
19.0025872517
 30
0.0
  0
SPLINE
  5
680
100
AcDbEntity
  8
0
100
AcDbSpline
 62
7
  6
CONTINUOUS
 70
0
 71
3
 72
9
 73
5
 74
0
 42
0.0000001
 43
0.0000001
 44
0.0000000001
 40
0.0
 40
0.0
 40
0.0
 40
0.0
 40
0.4997857817
 40
1.0
 40
1.0
 40
1.0
 40
1.0
 10
34.3873158084
 20
19.0025872517
 30
0.0
 10
34.4635663099
 20
19.0450809927
 30
0.0
 10
34.5954153055
 20
19.1736801161
 30
0.0
 10
34.6430260858
 20
19.3514822985
 30
0.0
 10
34.6430260858
 20
19.4388489209
 30
0.0
  0
SPLINE
  5
681
100
AcDbEntity
  8
0
100
AcDbSpline
 62
7
  6
CONTINUOUS
 70
0
 71
3
 72
11
 73
7
 74
0
 42
0.0000001
 43
0.0000001
 44
0.0000000001
 40
0.0
 40
0.0
 40
0.0
 40
0.0
 40
0.2908696588
 40
0.5656623963
 40
0.8291130142
 40
1.0
 40
1.0
 40
1.0
 40
1.0
 10
120.7882763006
 20
18.9388489209
 30
0.0
 10
120.7074062766
 20
18.9388489209
 30
0.0
 10
120.5481097021
 20
18.97177825
 30
0.0
 10
120.3544755017
 20
19.1067633322
 30
0.0
 10
120.2419105647
 20
19.2738057729
 30
0.0
 10
120.2076103757
 20
19.3916890433
 30
0.0
 10
120.1996895666
 20
19.4388489209
 30
0.0
  0
SPLINE
  5
682
100
AcDbEntity
  8
0
100
AcDbSpline
 62
7
  6
CONTINUOUS
 70
0
 71
3
 72
8
 73
4
 74
0
 42
0.0000001
 43
0.0000001
 44
0.0000000001
 40
0.0
 40
0.0
 40
0.0
 40
0.0
 40
1.0
 40
1.0
 40
1.0
 40
1.0
 10
124.1435592848
 20
18.9388489209
 30
0.0
 10
124.2298311964
 20
18.9388489209
 30
0.0
 10
124.3187524937
 20
18.9628559973
 30
0.0
 10
124.3935558578
 20
19.005836219
 30
0.0
  0
SPLINE
  5
683
100
AcDbEntity
  8
0
100
AcDbSpline
 62
7
  6
CONTINUOUS
 70
0
 71
3
 72
9
 73
5
 74
0
 42
0.0000001
 43
0.0000001
 44
0.0000000001
 40
0.0
 40
0.0
 40
0.0
 40
0.0
 40
0.4999985161
 40
1.0
 40
1.0
 40
1.0
 40
1.0
 10
124.3935558578
 20
19.005836219
 30
0.0
 10
124.468359666
 20
19.0488166957
 30
0.0
 10
124.5971765736
 20
19.1770024028
 30
0.0
 10
124.6435524309
 20
19.3525759851
 30
0.0
 10
124.6435524309
 20
19.4388489209
 30
0.0
  0
SPLINE
  5
684
100
AcDbEntity
  8
0
100
AcDbSpline
 62
7
  6
CONTINUOUS
 70
0
 71
3
 72
17
 73
13
 74
0
 42
0.0000001
 43
0.0000001
 44
0.0000000001
 40
0.0
 40
0.0
 40
0.0
 40
0.0
 40
0.1018500189
 40
0.2020678562
 40
0.3017032745
 40
0.400949076
 40
0.4999997177
 40
0.5990503594
 40
0.6982961608
 40
0.7979315791
 40
0.8981494165
 40
1.0
 40
1.0
 40
1.0
 40
1.0
 10
115.796853298
 20
37.9783561649
 30
0.0
 10
115.7974057576
 20
38.2537358583
 30
0.0
 10
115.8848670568
 20
38.8040500607
 30
0.0
 10
116.2649028082
 20
39.5406303776
 30
0.0
 10
116.849024718
 20
40.119196327
 30
0.0
 10
117.5798446312
 20
40.4882434324
 30
0.0
 10
118.3870224389
 20
40.6150330421
 30
0.0
 10
119.1942004906
 20
40.4882449941
 30
0.0
 10
119.9250211211
 20
40.119199299
 30
0.0
 10
120.5091441367
 20
39.5406344915
 30
0.0
 10
120.8891820736
 20
38.804053485
 30
0.0
 10
120.9766440893
 20
38.2537378708
 30
0.0
 10
120.977197406
 20
37.9783566524
 30
0.0
  0
SPLINE
  5
685
100
AcDbEntity
  8
0
100
AcDbSpline
 62
7
  6
CONTINUOUS
 70
0
 71
3
 72
12
 73
8
 74
0
 42
0.0000001
 43
0.0000001
 44
0.0000000001
 40
0.0
 40
0.0
 40
0.0
 40
0.0
 40
0.2543373513
 40
0.4933820167
 40
0.7353701308
 40
0.9867895056
 40
1.0
 40
1.0
 40
1.0
 40
1.0
 10
67.7890397238
 20
31.4388489208
 30
0.0
 10
67.7248749724
 20
31.4388489208
 30
0.0
 10
67.5988961226
 20
31.4648572169
 30
0.0
 10
67.4422833911
 20
31.5721934311
 30
0.0
 10
67.3371087946
 20
31.7294894597
 30
0.0
 10
67.3113724009
 20
31.8587920333
 30
0.0
 10
67.312153865
 20
31.9255124143
 30
0.0
 10
67.3122284635
 20
31.9288402351
 30
0.0
  0
SPLINE
  5
686
100
AcDbEntity
  8
0
100
AcDbSpline
 62
7
  6
CONTINUOUS
 70
0
 71
3
 72
13
 73
9
 74
0
 42
0.0000001
 43
0.0000001
 44
0.0000000001
 40
0.0
 40
0.0
 40
0.0
 40
0.0
 40
0.0083867403
 40
0.0179044943
 40
0.2660772757
 40
0.5074104623
 40
0.7478566076
 40
1.0
 40
1.0
 40
1.0
 40
1.0
 10
124.4617272204
 20
31.9324512704
 30
0.0
 10
124.4617911906
 20
31.9303298546
 30
0.0
 10
124.4618968289
 20
31.9257981619
 30
0.0
 10
124.4624878386
 20
31.8583801629
 30
0.0
 10
124.4372463959
 20
31.7304341656
 30
0.0
 10
124.3323798478
 20
31.5725999315
 30
0.0
 10
124.1752843275
 20
31.4648221882
 30
0.0
 10
124.0489263268
 20
31.4388489208
 30
0.0
 10
123.9850107449
 20
31.4388489208
 30
0.0
  0
SPLINE
  5
687
100
AcDbEntity
  8
0
100
AcDbSpline
 62
7
  6
CONTINUOUS
 70
0
 71
3
 72
12
 73
8
 74
0
 42
0.0000001
 43
0.0000001
 44
0.0000000001
 40
0.0
 40
0.0
 40
0.0
 40
0.0
 40
0.2548418396
 40
0.4648988689
 40
0.6469895846
 40
0.8090516361
 40
1.0
 40
1.0
 40
1.0
 40
1.0
 10
157.8877730892
 20
31.4388489208
 30
0.0
 10
157.8236376687
 20
31.4388489208
 30
0.0
 10
157.7057254266
 20
31.4576052851
 30
0.0
 10
157.5573788978
 20
31.5287913501
 30
0.0
 10
157.4489922059
 20
31.6185427298
 30
0.0
 10
157.3655540674
 20
31.7253755599
 30
0.0
 10
157.3272969343
 20
31.8065533911
 30
0.0
 10
157.3121747654
 20
31.8523686729
 30
0.0
  0
SPLINE
  5
688
100
AcDbEntity
  8
0
100
AcDbSpline
 62
7
  6
CONTINUOUS
 70
0
 71
3
 72
8
 73
4
 74
0
 42
0.0000001
 43
0.0000001
 44
0.0000000001
 40
0.0
 40
0.0
 40
0.0
 40
0.0
 40
1.0
 40
1.0
 40
1.0
 40
1.0
 10
79.1430329396
 20
18.9388489209
 30
0.0
 10
79.2271866977
 20
18.9388489209
 30
0.0
 10
79.3138064205
 20
18.9616211094
 30
0.0
 10
79.3873158088
 20
19.0025872519
 30
0.0
  0
SPLINE
  5
689
100
AcDbEntity
  8
0
100
AcDbSpline
 62
7
  6
CONTINUOUS
 70
0
 71
3
 72
9
 73
5
 74
0
 42
0.0000001
 43
0.0000001
 44
0.0000000001
 40
0.0
 40
0.0
 40
0.0
 40
0.0
 40
0.4997857817
 40
1.0
 40
1.0
 40
1.0
 40
1.0
 10
79.3873158088
 20
19.0025872519
 30
0.0
 10
79.4635663102
 20
19.0450809929
 30
0.0
 10
79.5954153056
 20
19.1736801163
 30
0.0
 10
79.6430260858
 20
19.3514822986
 30
0.0
 10
79.6430260858
 20
19.4388489209
 30
0.0
  0
SPLINE
  5
68A
100
AcDbEntity
  8
0
100
AcDbSpline
 62
7
  6
CONTINUOUS
 70
0
 71
3
 72
11
 73
7
 74
0
 42
0.0000001
 43
0.0000001
 44
0.0000000001
 40
0.0
 40
0.0
 40
0.0
 40
0.0
 40
0.2908696588
 40
0.5656623963
 40
0.8291130142
 40
1.0
 40
1.0
 40
1.0
 40
1.0
 10
75.7882763006
 20
18.9388489209
 30
0.0
 10
75.7074062766
 20
18.9388489209
 30
0.0
 10
75.5481097021
 20
18.97177825
 30
0.0
 10
75.3544755017
 20
19.1067633322
 30
0.0
 10
75.2419105647
 20
19.2738057729
 30
0.0
 10
75.2076103758
 20
19.3916890433
 30
0.0
 10
75.1996895666
 20
19.4388489209
 30
0.0
  0
SPLINE
  5
68B
100
AcDbEntity
  8
0
100
AcDbSpline
 62
7
  6
CONTINUOUS
 70
0
 71
3
 72
13
 73
9
 74
0
 42
0.0000001
 43
0.0000001
 44
0.0000000001
 40
0.0
 40
0.0
 40
0.0
 40
0.0
 40
0.008386979
 40
0.0179047556
 40
0.2660774709
 40
0.5074105935
 40
0.7478566747
 40
1.0
 40
1.0
 40
1.0
 40
1.0
 10
79.4617272149
 20
31.9324514721
 30
0.0
 10
79.4617911877
 20
31.9303299954
 30
0.0
 10
79.4618968285
 20
31.9257982354
 30
0.0
 10
79.4624878372
 20
31.8583801691
 30
0.0
 10
79.4372463969
 20
31.7304341654
 30
0.0
 10
79.3323798474
 20
31.5725999314
 30
0.0
 10
79.1752843275
 20
31.4648221882
 30
0.0
 10
79.0489263268
 20
31.4388489208
 30
0.0
 10
78.9850107449
 20
31.4388489208
 30
0.0
  0
SPLINE
  5
68C
100
AcDbEntity
  8
0
100
AcDbSpline
 62
7
  6
CONTINUOUS
 70
0
 71
3
 72
13
 73
9
 74
0
 42
0.0000001
 43
0.0000001
 44
0.0000000001
 40
0.0
 40
0.0
 40
0.0
 40
0.0
 40
0.2531278563
 40
0.4910357506
 40
0.7318730962
 40
0.9820968522
 40
0.9916109554
 40
1.0
 40
1.0
 40
1.0
 40
1.0
 10
112.7890397238
 20
31.4388489208
 30
0.0
 10
112.7248749724
 20
31.4388489208
 30
0.0
 10
112.5988961226
 20
31.4648572169
 30
0.0
 10
112.4422833911
 20
31.5721934312
 30
0.0
 10
112.3371087946
 20
31.7294894597
 30
0.0
 10
112.3115578696
 20
31.8578602172
 30
0.0
 10
112.3121536504
 20
31.9257968334
 30
0.0
 10
112.3122593471
 20
31.930328097
 30
0.0
 10
112.3123233832
 20
31.9324500446
 30
0.0
  0
LINE
  5
68D
100
AcDbEntity
  8
0
100
AcDbLine
 62
7
  6
CONTINUOUS
 10
111.2328720207
 20
212.4831426193
 11
111.2327459823
 21
210.6888489211
  0
SPLINE
  5
68E
100
AcDbEntity
  8
0
100
AcDbSpline
 62
7
  6
CONTINUOUS
 70
0
 71
3
 72
16
 73
12
 74
0
 42
0.0000001
 43
0.0000001
 44
0.0000000001
 40
0.0
 40
0.0
 40
0.0
 40
0.0
 40
0.3677595412
 40
0.5371372345
 40
0.6884558206
 40
0.8158281645
 40
0.9134530842
 40
0.9493352862
 40
0.9759185772
 40
0.9928974042
 40
1.0
 40
1.0
 40
1.0
 40
1.0
 10
79.469882784
 20
212.4711687958
 30
0.0
 10
79.6012468288
 20
212.4711684948
 30
0.0
 10
79.7931158129
 20
212.4715470882
 30
0.0
 10
80.0390227374
 20
212.4729643566
 30
0.0
 10
80.1990831327
 20
212.4743186956
 30
0.0
 10
80.3334483272
 20
212.4761246248
 30
0.0
 10
80.4267205806
 20
212.4776366812
 30
0.0
 10
80.4837395548
 20
212.4795567964
 30
0.0
 10
80.5123482314
 20
212.4801518649
 30
0.0
 10
80.5299312425
 20
212.48219827
 30
0.0
 10
80.5390742095
 20
212.4819036319
 30
0.0
 10
80.5412618011
 20
212.4831885773
 30
0.0
  0
SPLINE
  5
68F
100
AcDbEntity
  8
0
100
AcDbSpline
 62
7
  6
CONTINUOUS
 70
0
 71
3
 72
12
 73
8
 74
0
 42
0.0000001
 43
0.0000001
 44
0.0000000001
 40
0.0
 40
0.0
 40
0.0
 40
0.0
 40
0.3712629585
 40
0.6868103568
 40
0.9013910225
 40
0.9633597242
 40
1.0
 40
1.0
 40
1.0
 40
1.0
 10
126.2870252344
 20
243.4388489123
 30
0.0
 10
126.2101406884
 20
243.4398749775
 30
0.0
 10
126.067686487
 20
243.4339000593
 30
0.0
 10
125.8822989312
 20
243.4157360999
 30
0.0
 10
125.760888777
 20
243.3897143398
 30
0.0
 10
125.7017337783
 20
243.3645894118
 30
0.0
 10
125.6870252344
 20
243.3464374016
 30
0.0
 10
125.6870252344
 20
243.3388489209
 30
0.0
  0
SPLINE
  5
690
100
AcDbEntity
  8
0
100
AcDbSpline
 62
7
  6
CONTINUOUS
 70
0
 71
3
 72
12
 73
8
 74
0
 42
0.0000001
 43
0.0000001
 44
0.0000000001
 40
0.0
 40
0.0
 40
0.0
 40
0.0
 40
0.3726579954
 40
0.6886264315
 40
0.9014023386
 40
0.9635804029
 40
1.0
 40
1.0
 40
1.0
 40
1.0
 10
36.2870252343
 20
19.4388307686
 30
0.0
 10
36.2098710487
 20
19.4388311553
 30
0.0
 10
36.067063882
 20
19.4436629988
 30
0.0
 10
35.8818724689
 20
19.4618733344
 30
0.0
 10
35.7604153526
 20
19.4879478973
 30
0.0
 10
35.7021924774
 20
19.5134635682
 30
0.0
 10
35.6870559827
 20
19.5312941415
 30
0.0
 10
35.6870252417
 20
19.5388343017
 30
0.0
  0
SPLINE
  5
691
100
AcDbEntity
  8
0
100
AcDbSpline
 62
7
  6
CONTINUOUS
 70
0
 71
3
 72
16
 73
12
 74
0
 42
0.0000001
 43
0.0000001
 44
0.0000000001
 40
0.0
 40
0.0
 40
0.0
 40
0.0
 40
0.0071659331
 40
0.0243943063
 40
0.0513173627
 40
0.0875311693
 40
0.1855196259
 40
0.3129081199
 40
0.464006869
 40
0.6330417114
 40
1.0
 40
1.0
 40
1.0
 40
1.0
 10
111.2328461921
 20
212.4831426127
 30
0.0
 10
111.2350362974
 20
212.481817869
 30
0.0
 10
111.2443381017
 20
212.4822032016
 30
0.0
 10
111.2621141586
 20
212.4800876901
 30
0.0
 10
111.2910715615
 20
212.4795353492
 30
0.0
 10
111.3484481307
 20
212.4776067694
 30
0.0
 10
111.4419781737
 20
212.4761117416
 30
0.0
 10
111.5763931865
 20
212.4743068197
 30
0.0
 10
111.7362538904
 20
212.4729571981
 30
0.0
 10
111.9816649505
 20
212.4715435292
 30
0.0
 10
112.1731189287
 20
212.4711685023
 30
0.0
 10
112.304192327
 20
212.4711687962
 30
0.0
  0
SPLINE
  5
692
100
AcDbEntity
  8
0
100
AcDbSpline
 62
7
  6
CONTINUOUS
 70
0
 71
3
 72
12
 73
8
 74
0
 42
0.0000001
 43
0.0000001
 44
0.0000000001
 40
0.0
 40
0.0
 40
0.0
 40
0.0
 40
0.3712629585
 40
0.6868103568
 40
0.9013910225
 40
0.9633597242
 40
1.0
 40
1.0
 40
1.0
 40
1.0
 10
65.4870252344
 20
19.4388489294
 30
0.0
 10
65.5639097803
 20
19.4378228643
 30
0.0
 10
65.7063639817
 20
19.4437977825
 30
0.0
 10
65.8917515375
 20
19.4619617418
 30
0.0
 10
66.0131616917
 20
19.4879835019
 30
0.0
 10
66.0723166904
 20
19.51310843
 30
0.0
 10
66.0870252344
 20
19.5312604401
 30
0.0
 10
66.0870252344
 20
19.5388489209
 30
0.0
  0
SPLINE
  5
693
100
AcDbEntity
  8
0
100
AcDbSpline
 62
7
  6
CONTINUOUS
 70
0
 71
3
 72
12
 73
8
 74
0
 42
0.0000001
 43
0.0000001
 44
0.0000000001
 40
0.0
 40
0.0
 40
0.0
 40
0.0
 40
0.3726579954
 40
0.6886264315
 40
0.9014023387
 40
0.9635804029
 40
1.0
 40
1.0
 40
1.0
 40
1.0
 10
155.4870252344
 20
243.4388670732
 30
0.0
 10
155.56417942
 20
243.4388666864
 30
0.0
 10
155.7069865867
 20
243.4340348429
 30
0.0
 10
155.8921779998
 20
243.4158245073
 30
0.0
 10
156.0136351162
 20
243.3897499444
 30
0.0
 10
156.0718579913
 20
243.3642342735
 30
0.0
 10
156.086994486
 20
243.3464037002
 30
0.0
 10
156.087025227
 20
243.33886354
 30
0.0
  0
SPLINE
  5
694
100
AcDbEntity
  8
0
100
AcDbSpline
 62
7
  6
CONTINUOUS
 70
0
 71
3
 72
10
 73
6
 74
0
 42
0.0000001
 43
0.0000001
 44
0.0000000001
 40
0.0
 40
0.0
 40
0.0
 40
0.0
 40
0.297447488
 40
0.5576888186
 40
1.0
 40
1.0
 40
1.0
 40
1.0
 10
67.183891893
 20
19.4388489208
 30
0.0
 10
67.1838918931
 20
19.3622254743
 30
0.0
 10
67.2182348363
 20
19.2162056757
 30
0.0
 10
67.3796288687
 20
19.0084762352
 30
0.0
 10
67.567339921
 20
18.9388489209
 30
0.0
 10
67.6812807292
 20
18.9388489209
 30
0.0
  0
SPLINE
  5
695
100
AcDbEntity
  8
0
100
AcDbSpline
 62
7
  6
CONTINUOUS
 70
0
 71
3
 72
12
 73
8
 74
0
 42
0.0000001
 43
0.0000001
 44
0.0000000001
 40
0.0
 40
0.0
 40
0.0
 40
0.0
 40
0.3712629585
 40
0.6868103568
 40
0.9013910225
 40
0.9633597242
 40
1.0
 40
1.0
 40
1.0
 40
1.0
 10
81.2870252344
 20
243.4388489123
 30
0.0
 10
81.2101406884
 20
243.4398749775
 30
0.0
 10
81.067686487
 20
243.4339000593
 30
0.0
 10
80.8822989312
 20
243.4157360999
 30
0.0
 10
80.760888777
 20
243.3897143398
 30
0.0
 10
80.7017337783
 20
243.3645894118
 30
0.0
 10
80.6870252344
 20
243.3464374016
 30
0.0
 10
80.6870252344
 20
243.3388489209
 30
0.0
  0
SPLINE
  5
696
100
AcDbEntity
  8
0
100
AcDbSpline
 62
7
  6
CONTINUOUS
 70
0
 71
3
 72
12
 73
8
 74
0
 42
0.0000001
 43
0.0000001
 44
0.0000000001
 40
0.0
 40
0.0
 40
0.0
 40
0.0
 40
0.3726579954
 40
0.6886264315
 40
0.9014023387
 40
0.9635804029
 40
1.0
 40
1.0
 40
1.0
 40
1.0
 10
110.4870252344
 20
243.4388670732
 30
0.0
 10
110.56417942
 20
243.4388666864
 30
0.0
 10
110.7069865867
 20
243.4340348429
 30
0.0
 10
110.8921779998
 20
243.4158245073
 30
0.0
 10
111.0136351162
 20
243.3897499444
 30
0.0
 10
111.0718579913
 20
243.3642342735
 30
0.0
 10
111.086994486
 20
243.3464037002
 30
0.0
 10
111.087025227
 20
243.33886354
 30
0.0
  0
SPLINE
  5
697
100
AcDbEntity
  8
0
100
AcDbSpline
 62
7
  6
CONTINUOUS
 70
0
 71
3
 72
10
 73
6
 74
0
 42
0.0000001
 43
0.0000001
 44
0.0000000001
 40
0.0
 40
0.0
 40
0.0
 40
0.0
 40
0.2974465447
 40
0.5577004509
 40
1.0
 40
1.0
 40
1.0
 40
1.0
 10
124.5901585757
 20
243.4388489209
 30
0.0
 10
124.5901585757
 20
243.5154721351
 30
0.0
 10
124.5558154044
 20
243.6614951514
 30
0.0
 10
124.3944179209
 20
243.8692229008
 30
0.0
 10
124.206707567
 20
243.9388489209
 30
0.0
 10
124.0927697395
 20
243.9388489209
 30
0.0
  0
LINE
  5
698
100
AcDbEntity
  8
0
100
AcDbLine
 62
7
  6
CONTINUOUS
 10
76.2328720207
 20
212.4831426193
 11
76.2327459823
 21
210.6888489211
  0
SPLINE
  5
699
100
AcDbEntity
  8
0
100
AcDbSpline
 62
7
  6
CONTINUOUS
 70
0
 71
3
 72
12
 73
8
 74
0
 42
0.0000001
 43
0.0000001
 44
0.0000000001
 40
0.0
 40
0.0
 40
0.0
 40
0.0
 40
0.3726579955
 40
0.6886264315
 40
0.9014023386
 40
0.9635804029
 40
1.0
 40
1.0
 40
1.0
 40
1.0
 10
126.2870252343
 20
19.4388307686
 30
0.0
 10
126.2098710487
 20
19.4388311553
 30
0.0
 10
126.067063882
 20
19.4436629988
 30
0.0
 10
125.8818724689
 20
19.4618733344
 30
0.0
 10
125.7604153526
 20
19.4879478973
 30
0.0
 10
125.7021924774
 20
19.5134635682
 30
0.0
 10
125.6870559827
 20
19.5312941415
 30
0.0
 10
125.6870252417
 20
19.5388343017
 30
0.0
  0
SPLINE
  5
69A
100
AcDbEntity
  8
0
100
AcDbSpline
 62
7
  6
CONTINUOUS
 70
0
 71
3
 72
12
 73
8
 74
0
 42
0.0000001
 43
0.0000001
 44
0.0000000001
 40
0.0
 40
0.0
 40
0.0
 40
0.0
 40
0.3712629585
 40
0.6868103568
 40
0.9013910225
 40
0.9633597242
 40
1.0
 40
1.0
 40
1.0
 40
1.0
 10
155.4870252344
 20
19.4388489294
 30
0.0
 10
155.5639097803
 20
19.4378228643
 30
0.0
 10
155.7063639817
 20
19.4437977825
 30
0.0
 10
155.8917515375
 20
19.4619617418
 30
0.0
 10
156.0131616917
 20
19.4879835019
 30
0.0
 10
156.0723166904
 20
19.51310843
 30
0.0
 10
156.0870252344
 20
19.5312604401
 30
0.0
 10
156.0870252344
 20
19.5388489209
 30
0.0
  0
SPLINE
  5
69B
100
AcDbEntity
  8
0
100
AcDbSpline
 62
7
  6
CONTINUOUS
 70
0
 71
3
 72
10
 73
6
 74
0
 42
0.0000001
 43
0.0000001
 44
0.0000000001
 40
0.0
 40
0.0
 40
0.0
 40
0.0
 40
0.297444712
 40
0.5577110483
 40
1.0
 40
1.0
 40
1.0
 40
1.0
 10
157.183891893
 20
243.4388489209
 30
0.0
 10
157.1838918931
 20
243.5154716342
 30
0.0
 10
157.2182233731
 20
243.6615024474
 30
0.0
 10
157.3796447673
 20
243.8692129459
 30
0.0
 10
157.5673456745
 20
243.9388489209
 30
0.0
 10
157.6812807293
 20
243.9388489209
 30
0.0
  0
SPLINE
  5
69C
100
AcDbEntity
  8
0
100
AcDbSpline
 62
7
  6
CONTINUOUS
 70
0
 71
3
 72
10
 73
6
 74
0
 42
0.0000001
 43
0.0000001
 44
0.0000000001
 40
0.0
 40
0.0
 40
0.0
 40
0.0
 40
0.297447488
 40
0.5576888186
 40
1.0
 40
1.0
 40
1.0
 40
1.0
 10
34.5901585757
 20
243.4388489209
 30
0.0
 10
34.5901585757
 20
243.5154723674
 30
0.0
 10
34.5558156325
 20
243.661492166
 30
0.0
 10
34.3944216
 20
243.8692216065
 30
0.0
 10
34.2067105477
 20
243.9388489209
 30
0.0
 10
34.0927697395
 20
243.9388489209
 30
0.0
  0
SPLINE
  5
69D
100
AcDbEntity
  8
0
100
AcDbSpline
 62
7
  6
CONTINUOUS
 70
0
 71
3
 72
9
 73
5
 74
0
 42
0.0000001
 43
0.0000001
 44
0.0000000001
 40
0.0
 40
0.0
 40
0.0
 40
0.0
 40
0.500045498
 40
1.0
 40
1.0
 40
1.0
 40
1.0
 10
28.8909016158
 20
243.3397215744
 30
0.0
 10
28.8911234798
 20
243.3651446782
 30
0.0
 10
28.9127757204
 20
243.4179320694
 30
0.0
 10
28.965773863
 20
243.4388489209
 30
0.0
 10
28.9911933084
 20
243.4388489209
 30
0.0
  0
SPLINE
  5
69E
100
AcDbEntity
  8
0
100
AcDbSpline
 62
7
  6
CONTINUOUS
 70
0
 71
3
 72
12
 73
8
 74
0
 42
0.0000001
 43
0.0000001
 44
0.0000000001
 40
0.0
 40
0.0
 40
0.0
 40
0.0
 40
0.3726579954
 40
0.6886264315
 40
0.9014023386
 40
0.9635804029
 40
1.0
 40
1.0
 40
1.0
 40
1.0
 10
65.4870252344
 20
243.4388670732
 30
0.0
 10
65.56417942
 20
243.4388666864
 30
0.0
 10
65.7069865867
 20
243.4340348429
 30
0.0
 10
65.8921779998
 20
243.4158245073
 30
0.0
 10
66.0136351162
 20
243.3897499444
 30
0.0
 10
66.0718579913
 20
243.3642342735
 30
0.0
 10
66.086994486
 20
243.3464037002
 30
0.0
 10
66.087025227
 20
243.33886354
 30
0.0
  0
SPLINE
  5
69F
100
AcDbEntity
  8
0
100
AcDbSpline
 62
7
  6
CONTINUOUS
 70
0
 71
3
 72
12
 73
8
 74
0
 42
0.0000001
 43
0.0000001
 44
0.0000000001
 40
0.0
 40
0.0
 40
0.0
 40
0.0
 40
0.3712629585
 40
0.6868103568
 40
0.9013910225
 40
0.9633597242
 40
1.0
 40
1.0
 40
1.0
 40
1.0
 10
36.2870252344
 20
243.4388489123
 30
0.0
 10
36.2101406884
 20
243.4398749775
 30
0.0
 10
36.067686487
 20
243.4339000593
 30
0.0
 10
35.8822989312
 20
243.4157360999
 30
0.0
 10
35.760888777
 20
243.3897143398
 30
0.0
 10
35.7017337783
 20
243.3645894118
 30
0.0
 10
35.6870252344
 20
243.3464374016
 30
0.0
 10
35.6870252344
 20
243.3388489209
 30
0.0
  0
SPLINE
  5
6A0
100
AcDbEntity
  8
0
100
AcDbSpline
 62
7
  6
CONTINUOUS
 70
0
 71
3
 72
10
 73
6
 74
0
 42
0.0000001
 43
0.0000001
 44
0.0000000001
 40
0.0
 40
0.0
 40
0.0
 40
0.0
 40
0.297444712
 40
0.5577110483
 40
1.0
 40
1.0
 40
1.0
 40
1.0
 10
112.183891893
 20
243.4388489209
 30
0.0
 10
112.1838918931
 20
243.5154716342
 30
0.0
 10
112.2182233732
 20
243.6615024473
 30
0.0
 10
112.3796447673
 20
243.8692129459
 30
0.0
 10
112.5673456745
 20
243.9388489209
 30
0.0
 10
112.6812807292
 20
243.9388489209
 30
0.0
  0
SPLINE
  5
6A1
100
AcDbEntity
  8
0
100
AcDbSpline
 62
7
  6
CONTINUOUS
 70
0
 71
3
 72
14
 73
10
 74
0
 42
0.0000001
 43
0.0000001
 44
0.0000000001
 40
0.0
 40
0.0
 40
0.0
 40
0.0
 40
0.3704145583
 40
0.5404348692
 40
0.6915056007
 40
0.8174151099
 40
0.9135779302
 40
0.9758192439
 40
1.0
 40
1.0
 40
1.0
 40
1.0
 10
112.3039802828
 20
212.8760257392
 30
0.0
 10
112.2210935704
 20
212.8760257742
 30
0.0
 10
112.1001456369
 20
212.8762244552
 30
0.0
 10
111.9454505408
 20
212.8771820679
 30
0.0
 10
111.8453345989
 20
212.8777643358
 30
0.0
 10
111.7621141183
 20
212.8795389711
 30
0.0
 10
111.6978332148
 20
212.8788906832
 30
0.0
 10
111.6582884823
 20
212.883555551
 30
0.0
 10
111.6374757134
 20
212.8805052988
 30
0.0
 10
111.63278676
 20
212.8832055177
 30
0.0
  0
SPLINE
  5
6A2
100
AcDbEntity
  8
0
100
AcDbSpline
 62
7
  6
CONTINUOUS
 70
0
 71
3
 72
14
 73
10
 74
0
 42
0.0000001
 43
0.0000001
 44
0.0000000001
 40
0.0
 40
0.0
 40
0.0
 40
0.0
 40
0.0239235214
 40
0.0854725315
 40
0.1808914482
 40
0.3063871937
 40
0.4576438347
 40
0.6282711249
 40
1.0
 40
1.0
 40
1.0
 40
1.0
 10
115.1413459529
 20
212.8832578651
 30
0.0
 10
115.1367023342
 20
212.8805935669
 30
0.0
 10
115.116133094
 20
212.883518527
 30
0.0
 10
115.0769389058
 20
212.8789383959
 30
0.0
 10
115.0130787822
 20
212.8795409013
 30
0.0
 10
114.9300674166
 20
212.8777768501
 30
0.0
 10
114.8298604536
 20
212.8771891983
 30
0.0
 10
114.6746835004
 20
212.8762277055
 30
0.0
 10
114.5532975937
 20
212.8760257149
 30
0.0
 10
114.4701112555
 20
212.8760257046
 30
0.0
  0
SPLINE
  5
6A3
100
AcDbEntity
  8
0
100
AcDbSpline
 62
7
  6
CONTINUOUS
 70
0
 71
3
 72
10
 73
6
 74
0
 42
0.0000001
 43
0.0000001
 44
0.0000000001
 40
0.0
 40
0.0
 40
0.0
 40
0.0
 40
0.297444712
 40
0.5577110483
 40
1.0
 40
1.0
 40
1.0
 40
1.0
 10
124.5901585756
 20
19.4388489209
 30
0.0
 10
124.5901585756
 20
19.3622262076
 30
0.0
 10
124.5558270956
 20
19.2161953944
 30
0.0
 10
124.3944057014
 20
19.0084848959
 30
0.0
 10
124.2067047942
 20
18.9388489209
 30
0.0
 10
124.0927697395
 20
18.9388489209
 30
0.0
  0
SPLINE
  5
6A4
100
AcDbEntity
  8
0
100
AcDbSpline
 62
7
  6
CONTINUOUS
 70
0
 71
3
 72
16
 73
12
 74
0
 42
0.0000001
 43
0.0000001
 44
0.0000000001
 40
0.0
 40
0.0
 40
0.0
 40
0.0
 40
0.0071659331
 40
0.0243943063
 40
0.0513173627
 40
0.0875311693
 40
0.1855196259
 40
0.3129081199
 40
0.464006869
 40
0.6330417114
 40
1.0
 40
1.0
 40
1.0
 40
1.0
 10
76.2328461921
 20
212.4831426152
 30
0.0
 10
76.2350362974
 20
212.4818178715
 30
0.0
 10
76.2443381017
 20
212.4822032041
 30
0.0
 10
76.2621141586
 20
212.4800876926
 30
0.0
 10
76.2910715615
 20
212.4795353516
 30
0.0
 10
76.3484481307
 20
212.4776067718
 30
0.0
 10
76.4419781737
 20
212.476111744
 30
0.0
 10
76.5763931865
 20
212.4743068222
 30
0.0
 10
76.7362538904
 20
212.4729572005
 30
0.0
 10
76.9816649505
 20
212.4715435316
 30
0.0
 10
77.1731189287
 20
212.4711685047
 30
0.0
 10
77.304192327
 20
212.4711687986
 30
0.0
  0
SPLINE
  5
6A5
100
AcDbEntity
  8
0
100
AcDbSpline
 62
7
  6
CONTINUOUS
 70
0
 71
3
 72
10
 73
6
 74
0
 42
0.0000001
 43
0.0000001
 44
0.0000000001
 40
0.0
 40
0.0
 40
0.0
 40
0.0
 40
0.297447488
 40
0.5576888186
 40
1.0
 40
1.0
 40
1.0
 40
1.0
 10
79.5901585757
 20
243.4388489209
 30
0.0
 10
79.5901585757
 20
243.5154723674
 30
0.0
 10
79.5558156325
 20
243.661492166
 30
0.0
 10
79.3944216
 20
243.8692216065
 30
0.0
 10
79.2067105477
 20
243.9388489209
 30
0.0
 10
79.0927697395
 20
243.9388489209
 30
0.0
  0
SPLINE
  5
6A6
100
AcDbEntity
  8
0
100
AcDbSpline
 62
7
  6
CONTINUOUS
 70
0
 71
3
 72
16
 73
12
 74
0
 42
0.0000001
 43
0.0000001
 44
0.0000000001
 40
0.0
 40
0.0
 40
0.0
 40
0.0
 40
0.3677595416
 40
0.5371372351
 40
0.6884558213
 40
0.8158281652
 40
0.9134530848
 40
0.9493352867
 40
0.9759185775
 40
0.9928974044
 40
1.0
 40
1.0
 40
1.0
 40
1.0
 10
114.4698827841
 20
212.4711687959
 30
0.0
 10
114.601246829
 20
212.4711684949
 30
0.0
 10
114.7931158134
 20
212.4715470883
 30
0.0
 10
115.0390227381
 20
212.4729643566
 30
0.0
 10
115.1990831335
 20
212.4743186956
 30
0.0
 10
115.333448328
 20
212.4761246249
 30
0.0
 10
115.4267205813
 20
212.4776366812
 30
0.0
 10
115.4837395554
 20
212.4795567964
 30
0.0
 10
115.5123482319
 20
212.4801518649
 30
0.0
 10
115.5299312427
 20
212.4821982701
 30
0.0
 10
115.5390742098
 20
212.4819036318
 30
0.0
 10
115.5412618012
 20
212.4831885774
 30
0.0
  0
SPLINE
  5
6A7
100
AcDbEntity
  8
0
100
AcDbSpline
 62
7
  6
CONTINUOUS
 70
0
 71
3
 72
14
 73
10
 74
0
 42
0.0000001
 43
0.0000001
 44
0.0000000001
 40
0.0
 40
0.0
 40
0.0
 40
0.0
 40
0.3704145313
 40
0.5404348444
 40
0.6915056327
 40
0.8174152658
 40
0.9135781995
 40
0.9758195099
 40
1.0
 40
1.0
 40
1.0
 40
1.0
 10
77.3039802827
 20
212.8760257392
 30
0.0
 10
77.2210935801
 20
212.8760257742
 30
0.0
 10
77.1001456684
 20
212.8762243808
 30
0.0
 10
76.9454505459
 20
212.8771819319
 30
0.0
 10
76.8453346315
 20
212.8777643431
 30
0.0
 10
76.7621139116
 20
212.8795390301
 30
0.0
 10
76.6978334097
 20
212.8788914682
 30
0.0
 10
76.6582878508
 20
212.8835554673
 30
0.0
 10
76.6374761472
 20
212.8805061701
 30
0.0
 10
76.6327867612
 20
212.8832055178
 30
0.0
  0
SPLINE
  5
6A8
100
AcDbEntity
  8
0
100
AcDbSpline
 62
7
  6
CONTINUOUS
 70
0
 71
3
 72
14
 73
10
 74
0
 42
0.0000001
 43
0.0000001
 44
0.0000000001
 40
0.0
 40
0.0
 40
0.0
 40
0.0
 40
0.0239235213
 40
0.0854725314
 40
0.1808914482
 40
0.3063871937
 40
0.4576438347
 40
0.6282711249
 40
1.0
 40
1.0
 40
1.0
 40
1.0
 10
80.1413459528
 20
212.8832578651
 30
0.0
 10
80.1367023341
 20
212.8805935669
 30
0.0
 10
80.1161330939
 20
212.883518527
 30
0.0
 10
80.0769389058
 20
212.8789383959
 30
0.0
 10
80.0130787821
 20
212.8795409014
 30
0.0
 10
79.9300674165
 20
212.8777768502
 30
0.0
 10
79.8298604535
 20
212.8771891983
 30
0.0
 10
79.6746835003
 20
212.8762277056
 30
0.0
 10
79.5532975936
 20
212.8760257149
 30
0.0
 10
79.4701112554
 20
212.8760257047
 30
0.0
  0
SPLINE
  5
6A9
100
AcDbEntity
  8
0
100
AcDbSpline
 62
7
  6
CONTINUOUS
 70
0
 71
3
 72
10
 73
6
 74
0
 42
0.0000001
 43
0.0000001
 44
0.0000000001
 40
0.0
 40
0.0
 40
0.0
 40
0.0
 40
0.297444712
 40
0.5577110483
 40
1.0
 40
1.0
 40
1.0
 40
1.0
 10
79.5901585757
 20
19.4388489209
 30
0.0
 10
79.5901585757
 20
19.3622262076
 30
0.0
 10
79.5558270956
 20
19.2161953944
 30
0.0
 10
79.3944057014
 20
19.0084848959
 30
0.0
 10
79.2067047942
 20
18.9388489209
 30
0.0
 10
79.0927697395
 20
18.9388489209
 30
0.0
  0
SPLINE
  5
6AA
100
AcDbEntity
  8
0
100
AcDbSpline
 62
7
  6
CONTINUOUS
 70
0
 71
3
 72
10
 73
6
 74
0
 42
0.0000001
 43
0.0000001
 44
0.0000000001
 40
0.0
 40
0.0
 40
0.0
 40
0.0
 40
0.297444712
 40
0.5577110483
 40
1.0
 40
1.0
 40
1.0
 40
1.0
 10
67.183891893
 20
243.4388489209
 30
0.0
 10
67.1838918931
 20
243.5154716342
 30
0.0
 10
67.2182233732
 20
243.6615024473
 30
0.0
 10
67.3796447673
 20
243.8692129459
 30
0.0
 10
67.5673456745
 20
243.9388489209
 30
0.0
 10
67.6812807292
 20
243.9388489209
 30
0.0
  0
SPLINE
  5
6AB
100
AcDbEntity
  8
0
100
AcDbSpline
 62
7
  6
CONTINUOUS
 70
0
 71
3
 72
10
 73
6
 74
0
 42
0.0000001
 43
0.0000001
 44
0.0000000001
 40
0.0
 40
0.0
 40
0.0
 40
0.0
 40
0.2974465447
 40
0.5577004509
 40
1.0
 40
1.0
 40
1.0
 40
1.0
 10
112.183891893
 20
19.4388489208
 30
0.0
 10
112.1838918931
 20
19.3622257066
 30
0.0
 10
112.2182350643
 20
19.2162026903
 30
0.0
 10
112.3796325478
 20
19.0084749409
 30
0.0
 10
112.5673429017
 20
18.9388489209
 30
0.0
 10
112.6812807292
 20
18.9388489209
 30
0.0
  0
SPLINE
  5
6AC
100
AcDbEntity
  8
0
100
AcDbSpline
 62
7
  6
CONTINUOUS
 70
0
 71
3
 72
10
 73
6
 74
0
 42
0.0000001
 43
0.0000001
 44
0.0000000001
 40
0.0
 40
0.0
 40
0.0
 40
0.0
 40
0.297444712
 40
0.5577110483
 40
1.0
 40
1.0
 40
1.0
 40
1.0
 10
34.5901585757
 20
19.4388489209
 30
0.0
 10
34.5901585757
 20
19.3622262076
 30
0.0
 10
34.5558270956
 20
19.2161953944
 30
0.0
 10
34.3944057014
 20
19.0084848959
 30
0.0
 10
34.2067047942
 20
18.9388489209
 30
0.0
 10
34.0927697395
 20
18.9388489209
 30
0.0
  0
SPLINE
  5
6AD
100
AcDbEntity
  8
0
100
AcDbSpline
 62
7
  6
CONTINUOUS
 70
0
 71
3
 72
12
 73
8
 74
0
 42
0.0000001
 43
0.0000001
 44
0.0000000001
 40
0.0
 40
0.0
 40
0.0
 40
0.0
 40
0.3726579954
 40
0.6886264315
 40
0.9014023386
 40
0.9635804029
 40
1.0
 40
1.0
 40
1.0
 40
1.0
 10
81.2870252343
 20
19.4388307686
 30
0.0
 10
81.2098710487
 20
19.4388311553
 30
0.0
 10
81.067063882
 20
19.4436629988
 30
0.0
 10
80.8818724689
 20
19.4618733344
 30
0.0
 10
80.7604153526
 20
19.4879478973
 30
0.0
 10
80.7021924774
 20
19.5134635682
 30
0.0
 10
80.6870559827
 20
19.5312941415
 30
0.0
 10
80.6870252417
 20
19.5388343017
 30
0.0
  0
SPLINE
  5
6AE
100
AcDbEntity
  8
0
100
AcDbSpline
 62
7
  6
CONTINUOUS
 70
0
 71
3
 72
12
 73
8
 74
0
 42
0.0000001
 43
0.0000001
 44
0.0000000001
 40
0.0
 40
0.0
 40
0.0
 40
0.0
 40
0.3712629585
 40
0.6868103568
 40
0.9013910225
 40
0.9633597242
 40
1.0
 40
1.0
 40
1.0
 40
1.0
 10
110.4870252344
 20
19.4388489294
 30
0.0
 10
110.5639097803
 20
19.4378228643
 30
0.0
 10
110.7063639817
 20
19.4437977825
 30
0.0
 10
110.8917515375
 20
19.4619617418
 30
0.0
 10
111.0131616917
 20
19.4879835019
 30
0.0
 10
111.0723166904
 20
19.51310843
 30
0.0
 10
111.0870252344
 20
19.5312604401
 30
0.0
 10
111.0870252344
 20
19.5388489209
 30
0.0
  0
SPLINE
  5
6AF
100
AcDbEntity
  8
0
100
AcDbSpline
 62
7
  6
CONTINUOUS
 70
0
 71
3
 72
10
 73
6
 74
0
 42
0.0000001
 43
0.0000001
 44
0.0000000001
 40
0.0
 40
0.0
 40
0.0
 40
0.0
 40
0.2974465447
 40
0.5577004509
 40
1.0
 40
1.0
 40
1.0
 40
1.0
 10
157.183891893
 20
19.4388489208
 30
0.0
 10
157.183891893
 20
19.3622257066
 30
0.0
 10
157.2182350643
 20
19.2162026903
 30
0.0
 10
157.3796325478
 20
19.0084749409
 30
0.0
 10
157.5673429017
 20
18.9388489209
 30
0.0
 10
157.6812807292
 20
18.9388489209
 30
0.0
  0
ELLIPSE
  5
6B0
100
AcDbEntity
  8
0
100
AcDbEllipse
 62
7
  6
CONTINUOUS
 10
111.1034110119
 20
212.788878773
 30
0.0
 11
0.400089543
 21
-0.0
 31
0.0
 40
0.9997015789
 41
1.5707963268
 42
3.1415926537
  0
ELLIPSE
  5
6B1
100
AcDbEntity
  8
0
100
AcDbEllipse
 62
7
  6
CONTINUOUS
 10
115.6706394568
 20
212.788878773
 30
0.0
 11
0.400089543
 21
-0.0
 31
0.0
 40
0.9997015789
 41
-0.0000000003
 42
1.5707963269
  0
ELLIPSE
  5
6B2
100
AcDbEntity
  8
0
100
AcDbEllipse
 62
7
  6
CONTINUOUS
 10
80.6706394568
 20
212.788878773
 30
0.0
 11
0.400089543
 21
0.0
 31
0.0
 40
0.9997015789
 41
-0.0000000002
 42
1.5707963269
  0
ELLIPSE
  5
6B3
100
AcDbEntity
  8
0
100
AcDbEllipse
 62
7
  6
CONTINUOUS
 10
76.1034110119
 20
212.788878773
 30
0.0
 11
0.400089543
 21
0.0
 31
0.0
 40
0.9997015789
 41
1.5707963268
 42
3.1415926537
  0
ELLIPSE
  5
6B4
100
AcDbEntity
  8
0
100
AcDbEllipse
 62
7
  6
CONTINUOUS
 10
34.6390676843
 20
22.8388489209
 30
0.0
 11
0.0
 21
0.6
 31
0.0
 40
0.0052360356
 41
-4.7123889804
 42
-3.1415926536
  0
ELLIPSE
  5
6B5
100
AcDbEntity
  8
0
100
AcDbEllipse
 62
7
  6
CONTINUOUS
 10
67.1349827844
 20
22.8388489209
 30
0.0
 11
0.0
 21
0.6
 31
0.0
 40
0.0052360356
 41
-3.1415926536
 42
-1.5707963268
  0
ELLIPSE
  5
6B6
100
AcDbEntity
  8
0
100
AcDbEllipse
 62
7
  6
CONTINUOUS
 10
124.6390676843
 20
22.8388489209
 30
0.0
 11
-0.0
 21
0.6
 31
0.0
 40
0.0052360356
 41
-4.7123889804
 42
-3.1415926536
  0
ELLIPSE
  5
6B7
100
AcDbEntity
  8
0
100
AcDbEllipse
 62
7
  6
CONTINUOUS
 10
157.1349827844
 20
22.8388489209
 30
0.0
 11
0.0
 21
0.6
 31
0.0
 40
0.0052360356
 41
-3.1415926536
 42
-1.5707963268
  0
ELLIPSE
  5
6B8
100
AcDbEntity
  8
0
100
AcDbEllipse
 62
7
  6
CONTINUOUS
 10
79.6388537068
 20
240.0388489209
 30
0.0
 11
-0.0
 21
0.6
 31
0.0
 40
0.0052360356
 41
-0.0
 42
1.5707963268
  0
ELLIPSE
  5
6B9
100
AcDbEntity
  8
0
100
AcDbEllipse
 62
7
  6
CONTINUOUS
 10
124.6390676843
 20
240.0388489209
 30
0.0
 11
-0.0
 21
0.6
 31
0.0
 40
0.0052360356
 41
-0.0
 42
1.5707963268
  0
ELLIPSE
  5
6BA
100
AcDbEntity
  8
0
100
AcDbEllipse
 62
7
  6
CONTINUOUS
 10
112.1351967619
 20
240.0388489209
 30
0.0
 11
0.0
 21
0.6
 31
0.0
 40
0.0052360356
 41
-1.5707963268
 42
-0.0
  0
ELLIPSE
  5
6BB
100
AcDbEntity
  8
0
100
AcDbEllipse
 62
7
  6
CONTINUOUS
 10
157.1349827844
 20
240.0388489209
 30
0.0
 11
0.0
 21
0.6
 31
0.0
 40
0.0052360356
 41
-1.5707963268
 42
-0.0
  0
ELLIPSE
  5
6BC
100
AcDbEntity
  8
0
100
AcDbEllipse
 62
7
  6
CONTINUOUS
 10
79.6388537068
 20
22.8388489209
 30
0.0
 11
0.0
 21
0.6
 31
0.0
 40
0.0052360356
 41
-4.7123889804
 42
-3.1415926536
  0
ELLIPSE
  5
6BD
100
AcDbEntity
  8
0
100
AcDbEllipse
 62
7
  6
CONTINUOUS
 10
67.1349827844
 20
240.0388489209
 30
0.0
 11
-0.0
 21
0.6
 31
0.0
 40
0.0052360356
 41
-1.5707963268
 42
0.0
  0
ELLIPSE
  5
6BE
100
AcDbEntity
  8
0
100
AcDbEllipse
 62
7
  6
CONTINUOUS
 10
112.1351967619
 20
22.8388489209
 30
0.0
 11
0.0
 21
0.6
 31
0.0
 40
0.0052360356
 41
-3.1415926536
 42
-1.5707963268
  0
ELLIPSE
  5
6BF
100
AcDbEntity
  8
0
100
AcDbEllipse
 62
7
  6
CONTINUOUS
 10
34.6390676843
 20
240.0388489209
 30
0.0
 11
-0.0
 21
0.6
 31
0.0
 40
0.0052360356
 41
-0.0
 42
1.5707963268
  0
ENDSEC
  0
SECTION
  2
OBJECTS
  0
DICTIONARY
  5
C
100
AcDbDictionary
280
0
281
1
  3
ACAD_GROUP
350
D
  3
ACAD_MLINESTYLE
350
17
  3
ACAD_LAYOUT
350
1A
  3
ACAD_PLOTSETTINGS
350
19
  3
ACAD_PLOTSTYLENAME
350
E
  0
DICTIONARY
  5
D
102
{ACAD_REACTORS
330
C
102
}
100
AcDbDictionary
280
0
281
1
  0
ACDBDICTIONARYWDFLT
  5
E
102
{ACAD_REACTORS
330
C
102
}
100
AcDbDictionary
281
1
  3
Normal
350
F
100
AcDbDictionaryWithDefault
340
F
  0
DICTIONARY
  5
17
102
{ACAD_REACTORS
330
C
102
}
100
AcDbDictionary
280
0
281
1
  3
Standard
350
18
  0
DICTIONARY
  5
19
102
{ACAD_REACTORS
330
C
102
}
100
AcDbDictionary
281
1
  0
DICTIONARY
  5
1A
102
{ACAD_REACTORS
330
C
102
}
100
AcDbDictionary
281
1
  3
Model
350
6C0
  3
Layout1
350
6C1
  0
ACDBPLACEHOLDER
  5
F
102
{ACAD_REACTORS
330
E
102
}
  0
MLINESTYLE
  5
18
102
{ACAD_REACTORS
330
17
102
}
100
AcDbMlineStyle
  2
STANDARD
 70
0
  3

 62
256
 51
90.0
 52
90.0
 71
2
 49
0.5
 62
256
  6
BYLAYER
 49
-0.5
 62
256
  6
BYLAYER
  0
LAYOUT
  5
6C0
102
{ACAD_REACTORS
330
1A
102
}
100
AcDbPlotSettings
  1

  2
none_device
  4

  6

 40
0.0
 41
0.0
 42
0.0
 43
0.0
 44
210.0
 45
297.0
 46
0.0
 47
0.0
 48
0.0
 49
0.0
140
0.0
141
0.0
142
1.0
143
1.0
 70
1024
 72
1
 73
0
 74
0
  7

 75
0
147
1.0
148
0.0
149
0.0
100
AcDbLayout
  1
Model
 70
0
 71
0
 10
0.0
 20
0.0
 11
210.0
 21
297.0
 12
0.0
 22
0.0
 32
0.0
 14
0.0
 24
0.0
 34
0.0
 15
0.0
 25
0.0
 35
0.0
146
0.0
 13
0.0
 23
0.0
 33
0.0
 16
1.0
 26
0.0
 36
0.0
 17
0.0
 27
1.0
 37
0.0
 76
0
330
213
345
0
346
0
  0
LAYOUT
  5
6C1
102
{ACAD_REACTORS
330
1A
102
}
100
AcDbPlotSettings
  1

  2
none_device
  4

  6

 40
0.0
 41
0.0
 42
0.0
 43
0.0
 44
210.0
 45
297.0
 46
0.0
 47
0.0
 48
0.0
 49
0.0
140
0.0
141
0.0
142
1.0
143
1.0
 70
0
 72
1
 73
0
 74
0
  7

 75
0
147
1.0
148
0.0
149
0.0
100
AcDbLayout
  1
Layout1
 70
0
 71
1
 10
0.0
 20
0.0
 11
210.0
 21
297.0
 12
0.0
 22
0.0
 32
0.0
 14
0.0
 24
0.0
 34
0.0
 15
0.0
 25
0.0
 35
0.0
146
0.0
 13
0.0
 23
0.0
 33
0.0
 16
1.0
 26
0.0
 36
0.0
 17
0.0
 27
1.0
 37
0.0
 76
0
330
214
345
0
346
0
  0
ENDSEC
  0
EOF
