999
DXF file: C:\Users\sesa63760\Dev\_Creo\CAD\MCADID0005644_3D-CAD\mcadid0005644_3d-simplified_2.dxf
999
Pro/ENGINEER 2019471 by Parametric Technology Corporation
  0
SECTION
  2
HEADER
  9
$ACADVER
  1
AC1024
  9
$DWGCODEPAGE
  3
ANSI_1252
  9
$EXTMAX
 10
90.2127408452
 20
127.5865906239
 30
0.0
  9
$EXTMIN
 10
0.0
 20
0.0
 30
0.0
  9
$LIMMIN
 10
0.0
 20
0.0
  9
$LIMMAX
 10
90.2127408452
 20
127.5865906239
  9
$VIEWCTR
 10
45.1063704226
 20
63.7932953119
  9
$VIEWSIZE
 40
127.5865906239
  9
$CLAYER
  8
0
  9
$LTSCALE
 40
8.316755537
  9
$CELTYPE
  6
BYLAYER
  9
$DIMSCALE
 40
1.0
  9
$DIMASZ
 40
1.0739612005
  9
$DIMEXO
 40
1.0
  9
$DIMDLI
 40
5.7461220074
  9
$DIMEXE
 40
1.0
  9
$DIMCEN
 40
1.3609236333
  9
$DIMLFAC
 40
1.0
  9
$DIMBLK
  1
_FILLED
  9
$DIMALT
 70
0
  9
$DIMALTF
 40
0.0393700787
  9
$DIMTXT
 40
1.5035456808
  9
$DIMTOL
 70
1
  9
$DIMLIM
 70
0
  9
$DIMTFAC
 40
1.0
  9
$DIMTP
 40
0.01
  9
$DIMTM
 40
0.01
  9
$DIMGAP
 40
0.625
  9
$DIMDSEP
 70
46
  9
$AUNITS
 70
0
  9
$PDMODE
 70
3
  9
$PDSIZE
 40
0.3125
  9
$HANDSEED
  5
46D
  9
$TILEMODE
 70
1
  9
$MEASUREMENT
 70
1
  9
$INSUNITS
 70
4
  0
ENDSEC
  0
SECTION
  2
CLASSES
  0
CLASS
  1
ACDBDICTIONARYWDFLT
  2
AcDbDictionaryWithDefault
  3
AutoCAD 2000
 90
0
 91
1
280
0
281
0
  0
CLASS
  1
ACDBPLACEHOLDER
  2
AcDbPlaceHolder
  3
AutoCAD 2000
 90
0
 91
1
280
0
281
0
  0
CLASS
  1
LAYOUT
  2
AcDbLayout
  3
AutoCAD 2000
 90
0
 91
0
280
0
281
0
  0
ENDSEC
  0
SECTION
  2
TABLES
  0
TABLE
  2
VPORT
  5
8
100
AcDbSymbolTable
 70
2
  0
VPORT
  5
1F4
100
AcDbSymbolTableRecord
100
AcDbViewportTableRecord
  2
*ACTIVE
 70
0
 10
0.0
 20
0.0
 11
1.0
 21
1.0
 12
45.1063704226
 22
63.7932953119
 13
0.0
 23
0.0
 14
1.0
 24
1.0
 15
0.0
 25
0.0
 16
0.0
 26
0.0
 36
1.0
 17
0.0
 27
0.0
 37
0.0
 40
127.5865906239
 41
0.7070707071
 42
50.0
 43
0.0
 44
0.0
 50
0.0
 51
0.0
 71
0
 72
100
 73
1
 74
1
 75
0
 76
0
 77
0
 78
0
  0
ENDTAB
  0
TABLE
  2
LTYPE
  5
5
100
AcDbSymbolTable
 70
6
  0
LTYPE
  5
14
100
AcDbSymbolTableRecord
100
AcDbLinetypeTableRecord
  2
BYBLOCK
 70
0
  3

 72
65
 73
0
 40
0.0
  0
LTYPE
  5
15
100
AcDbSymbolTableRecord
100
AcDbLinetypeTableRecord
  2
BYLAYER
 70
0
  3

 72
65
 73
0
 40
0.0
  0
LTYPE
  5
16
100
AcDbSymbolTableRecord
100
AcDbLinetypeTableRecord
  2
CONTINUOUS
 70
64
  3
Solid line
 72
65
 73
0
 40
0.0
  0
LTYPE
  5
1F5
100
AcDbSymbolTableRecord
100
AcDbLinetypeTableRecord
  2
CENTER
 70
64
  3
____ _ ____ _ ____ _ ____ _ ____ _ ____ _ ____
 72
65
 73
4
 40
0.6
 49
0.375
 74
0
 49
-0.075
 74
0
 49
0.075
 74
0
 49
-0.075
 74
0
  0
LTYPE
  5
1F6
100
AcDbSymbolTableRecord
100
AcDbLinetypeTableRecord
  2
HIDDEN
 70
64
  3
- - - - - - - - - - - - - - - - - - - -
 72
65
 73
2
 40
0.2
 49
0.1
 74
0
 49
-0.1
 74
0
  0
LTYPE
  5
1F7
100
AcDbSymbolTableRecord
100
AcDbLinetypeTableRecord
  2
PHANTOM
 70
64
  3
_____ _ _ _____ _ _ _____ _ _ _____
 72
65
 73
6
 40
0.8
 49
0.45
 74
0
 49
-0.05
 74
0
 49
0.1
 74
0
 49
-0.05
 74
0
 49
0.1
 74
0
 49
-0.05
 74
0
  0
LTYPE
  5
1F8
100
AcDbSymbolTableRecord
100
AcDbLinetypeTableRecord
  2
DOT
 70
64
  3
. . . . . . . . . . . . . . . . . . . .
 72
65
 73
2
 40
0.2
 49
0.1
 74
0
 49
-0.1
 74
0
  0
LTYPE
  5
1F9
100
AcDbSymbolTableRecord
100
AcDbLinetypeTableRecord
  2
DASHED
 70
64
  3
- - - - - - - - - - - - - - - - - - - -
 72
65
 73
2
 40
0.2
 49
0.1
 74
0
 49
-0.1
 74
0
  0
ENDTAB
  0
TABLE
  2
LAYER
  5
2
100
AcDbSymbolTable
 70
36
  0
LAYER
  5
10
100
AcDbSymbolTableRecord
100
AcDbLayerTableRecord
  2
0
 70
0
 62
7
  6
CONTINUOUS
370
-3
390
F
  0
LAYER
  5
1FA
100
AcDbSymbolTableRecord
100
AcDbLayerTableRecord
  2
DEFAULT_1
 70
0
 62
7
  6
CENTER
370
-3
390
F
  0
LAYER
  5
1FB
100
AcDbSymbolTableRecord
100
AcDbLayerTableRecord
  2
DEFAULT_2
 70
0
 62
7
  6
HIDDEN
370
-3
390
F
  0
LAYER
  5
1FC
100
AcDbSymbolTableRecord
100
AcDbLayerTableRecord
  2
DEFAULT_3
 70
0
 62
7
  6
PHANTOM
370
-3
390
F
  0
LAYER
  5
1FD
100
AcDbSymbolTableRecord
100
AcDbLayerTableRecord
  2
00_COMPONENTS
 70
0
 62
7
  6
CONTINUOUS
370
-3
390
F
  0
LAYER
  5
1FE
100
AcDbSymbolTableRecord
100
AcDbLayerTableRecord
  2
00_COMPONENTS_1
 70
0
 62
7
  6
CONTINUOUS
370
-3
390
F
  0
LAYER
  5
1FF
100
AcDbSymbolTableRecord
100
AcDbLayerTableRecord
  2
00_COMPONENTS_2
 70
0
 62
7
  6
CONTINUOUS
370
-3
390
F
  0
LAYER
  5
200
100
AcDbSymbolTableRecord
100
AcDbLayerTableRecord
  2
00_COMPONENTS_3
 70
0
 62
7
  6
CONTINUOUS
370
-3
390
F
  0
LAYER
  5
201
100
AcDbSymbolTableRecord
100
AcDbLayerTableRecord
  2
00_COMPONENTS_4
 70
0
 62
7
  6
CONTINUOUS
370
-3
390
F
  0
LAYER
  5
202
100
AcDbSymbolTableRecord
100
AcDbLayerTableRecord
  2
01_1_DEFAULT_DATUMS
 70
0
 62
7
  6
CONTINUOUS
370
-3
390
F
  0
LAYER
  5
203
100
AcDbSymbolTableRecord
100
AcDbLayerTableRecord
  2
01_PLANES
 70
0
 62
7
  6
CONTINUOUS
370
-3
390
F
  0
LAYER
  5
204
100
AcDbSymbolTableRecord
100
AcDbLayerTableRecord
  2
02_COORD_SYS
 70
0
 62
7
  6
CONTINUOUS
370
-3
390
F
  0
LAYER
  5
205
100
AcDbSymbolTableRecord
100
AcDbLayerTableRecord
  2
03_AXES
 70
0
 62
7
  6
CONTINUOUS
370
-3
390
F
  0
LAYER
  5
206
100
AcDbSymbolTableRecord
100
AcDbLayerTableRecord
  2
04_POINTS
 70
0
 62
7
  6
CONTINUOUS
370
-3
390
F
  0
LAYER
  5
207
100
AcDbSymbolTableRecord
100
AcDbLayerTableRecord
  2
05_CURVES
 70
0
 62
7
  6
CONTINUOUS
370
-3
390
F
  0
LAYER
  5
208
100
AcDbSymbolTableRecord
100
AcDbLayerTableRecord
  2
06_SURFS
 70
0
 62
7
  6
CONTINUOUS
370
-3
390
F
  0
LAYER
  5
209
100
AcDbSymbolTableRecord
100
AcDbLayerTableRecord
  2
07_COSMETICS
 70
0
 62
7
  6
CONTINUOUS
370
-3
390
F
  0
LAYER
  5
20A
100
AcDbSymbolTableRecord
100
AcDbLayerTableRecord
  2
10_NOTES
 70
0
 62
7
  6
CONTINUOUS
370
-3
390
F
  0
LAYER
  5
20B
100
AcDbSymbolTableRecord
100
AcDbLayerTableRecord
  2
11_NOTES_PUB
 70
0
 62
7
  6
CONTINUOUS
370
-3
390
F
  0
LAYER
  5
20C
100
AcDbSymbolTableRecord
100
AcDbLayerTableRecord
  2
13_REF_GTOL
 70
0
 62
7
  6
CONTINUOUS
370
-3
390
F
  0
LAYER
  5
20D
100
AcDbSymbolTableRecord
100
AcDbLayerTableRecord
  2
16_MISC
 70
0
 62
7
  6
CONTINUOUS
370
-3
390
F
  0
LAYER
  5
20E
100
AcDbSymbolTableRecord
100
AcDbLayerTableRecord
  2
17_NO_PRINT
 70
0
 62
7
  6
CONTINUOUS
370
-3
390
F
  0
LAYER
  5
20F
100
AcDbSymbolTableRecord
100
AcDbLayerTableRecord
  2
18_DATUM_CAMS_JOINTS
 70
0
 62
7
  6
CONTINUOUS
370
-3
390
F
  0
LAYER
  5
210
100
AcDbSymbolTableRecord
100
AcDbLayerTableRecord
  2
19_DATUM_FUNCTIONAL
 70
0
 62
7
  6
CONTINUOUS
370
-3
390
F
  0
LAYER
  5
211
100
AcDbSymbolTableRecord
100
AcDbLayerTableRecord
  2
20_DATUM_KINEMATIC_SCHEME
 70
0
 62
7
  6
CONTINUOUS
370
-3
390
F
  0
LAYER
  5
212
100
AcDbSymbolTableRecord
100
AcDbLayerTableRecord
  2
AXE
 70
0
 62
7
  6
CONTINUOUS
370
-3
390
F
  0
LAYER
  5
213
100
AcDbSymbolTableRecord
100
AcDbLayerTableRecord
  2
INTFCLR_60057
 70
0
 62
7
  6
CONTINUOUS
370
-3
390
F
  0
LAYER
  5
214
100
AcDbSymbolTableRecord
100
AcDbLayerTableRecord
  2
INTFCLR_90054
 70
0
 62
7
  6
CONTINUOUS
370
-3
390
F
  0
LAYER
  5
215
100
AcDbSymbolTableRecord
100
AcDbLayerTableRecord
  2
INTF_BLANK
 70
0
 62
7
  6
CONTINUOUS
370
-3
390
F
  0
LAYER
  5
216
100
AcDbSymbolTableRecord
100
AcDbLayerTableRecord
  2
SHELL33
 70
0
 62
7
  6
CONTINUOUS
370
-3
390
F
  0
LAYER
  5
217
100
AcDbSymbolTableRecord
100
AcDbLayerTableRecord
  2
SHELL34
 70
0
 62
7
  6
CONTINUOUS
370
-3
390
F
  0
LAYER
  5
218
100
AcDbSymbolTableRecord
100
AcDbLayerTableRecord
  2
SHELL980
 70
0
 62
7
  6
CONTINUOUS
370
-3
390
F
  0
LAYER
  5
219
100
AcDbSymbolTableRecord
100
AcDbLayerTableRecord
  2
SURF
 70
0
 62
7
  6
CONTINUOUS
370
-3
390
F
  0
LAYER
  5
21A
100
AcDbSymbolTableRecord
100
AcDbLayerTableRecord
  2
_BLACK_HOLE
 70
0
 62
7
  6
CONTINUOUS
370
-3
390
F
  0
LAYER
  5
21B
100
AcDbSymbolTableRecord
100
AcDbLayerTableRecord
  2
black
 70
0
 62
7
  6
CONTINUOUS
370
-3
390
F
  0
ENDTAB
  0
TABLE
  2
STYLE
  5
3
100
AcDbSymbolTable
 70
1
  0
STYLE
  5
11
100
AcDbSymbolTableRecord
100
AcDbTextStyleTableRecord
  2
STANDARD
 70
0
 40
0.0
 41
1.0
 50
0.0
 71
0
 42
0.2
  3
ARIAL.TTF
  4

  0
STYLE
  5
21C
100
AcDbSymbolTableRecord
100
AcDbTextStyleTableRecord
  2
TEXTSTYLE_1
 70
0
 40
0.0
 41
0.8
 50
0.0
 71
0
 42
0.2
  3
gdt
  4

  0
ENDTAB
  0
TABLE
  2
VIEW
  5
6
100
AcDbSymbolTable
 70
0
  0
ENDTAB
  0
TABLE
  2
UCS
  5
7
100
AcDbSymbolTable
 70
0
  0
ENDTAB
  0
TABLE
  2
APPID
  5
9
100
AcDbSymbolTable
 70
1
  0
APPID
  5
21D
100
AcDbSymbolTableRecord
100
AcDbRegAppTableRecord
  2
ACAD
 70
0
  0
ENDTAB
  0
TABLE
  2
BLOCK_RECORD
  5
1
100
AcDbSymbolTable
 70
0
  0
BLOCK_RECORD
  5
21E
100
AcDbSymbolTableRecord
100
AcDbBlockTableRecord
  2
*Model_Space
  0
BLOCK_RECORD
  5
21F
100
AcDbSymbolTableRecord
100
AcDbBlockTableRecord
  2
*Paper_Space
  0
BLOCK_RECORD
  5
220
100
AcDbSymbolTableRecord
100
AcDbBlockTableRecord
  2
_FILLED
  0
ENDTAB
  0
TABLE
  2
DIMSTYLE
  5
A
100
AcDbSymbolTable
 70
1
100
AcDbDimStyleTable
 71
0
  0
DIMSTYLE
105
221
100
AcDbSymbolTableRecord
100
AcDbDimStyleTableRecord
  2
STANDARD
 70
0
  3

  4

 40
1.0
 41
1.0739612005
 42
1.0
 43
0.38
 44
1.0
 45
0.0
 46
0.0
 47
0.01
 48
0.01
140
1.5035456808
141
0.09
142
0.0
143
25.4
144
1.0
145
0.0
146
1.0
147
0.625
 71
1
 72
0
 73
0
 74
0
 75
0
 76
0
 77
1
 78
8
 79
2
170
0
171
1
172
0
173
0
174
0
175
0
176
0
177
0
178
0
270
2
179
2
271
2
272
2
273
2
274
2
275
0
280
0
281
0
282
0
283
1
284
8
285
0
286
0
287
3
288
0
340
11
278
46
341
220
342
220
343
220
344
220
  0
ENDTAB
  0
ENDSEC
  0
SECTION
  2
BLOCKS
  0
BLOCK
  5
20
100
AcDbEntity
  8
0
100
AcDbBlockBegin
  2
*Model_Space
 70
0
 10
0.0
 20
0.0
 30
0.0
  3
*Model_Space
  1

  0
ENDBLK
  5
21
100
AcDbEntity
  8
0
100
AcDbBlockEnd
  0
BLOCK
  5
1C
100
AcDbEntity
  8
0
100
AcDbBlockBegin
  2
*Paper_Space
 70
0
 10
0.0
 20
0.0
 30
0.0
  3
*Paper_Space
  1

  0
ENDBLK
  5
1D
100
AcDbEntity
  8
0
100
AcDbBlockEnd
  0
BLOCK
  5
222
100
AcDbEntity
  8
0
100
AcDbBlockBegin
  2
_FILLED
 70
64
 10
0.0
 20
0.0
  3
_FILLED
  1

  0
SOLID
  5
223
100
AcDbEntity
  8
0
  6
BYBLOCK
 62
0
100
AcDbTrace
 10
0.0
 20
0.0
 11
-1.0
 21
0.25
 12
-1.0
 22
-0.25
 13
-1.0
 23
-0.25
  0
ENDBLK
  5
224
100
AcDbEntity
  8
0
  6
BYBLOCK
 62
0
100
AcDbBlockEnd
  0
ENDSEC
  0
SECTION
  2
ENTITIES
  0
LINE
  5
225
100
AcDbEntity
  8
00_COMPONENTS
100
AcDbLine
 62
7
  6
BYLAYER
 10
65.151029373
 20
-13.5890218005
 11
26.351029373
 21
-13.5890218005
  0
LINE
  5
226
100
AcDbEntity
  8
0
100
AcDbLine
 62
7
  6
BYLAYER
 10
58.0522840253
 20
9.7855226119
 11
58.001029373
 21
9.7802121307
  0
LINE
  5
227
100
AcDbEntity
  8
0
100
AcDbLine
 62
7
  6
BYLAYER
 10
38.8278977635
 20
9.3151983424
 11
55.5418236682
 21
9.3151983916
  0
LINE
  5
228
100
AcDbEntity
  8
0
100
AcDbLine
 62
7
  6
BYLAYER
 10
38.6799519042
 20
9.5618475868
 11
55.751029373
 21
9.5618475868
  0
LINE
  5
229
100
AcDbEntity
  8
0
100
AcDbLine
 62
7
  6
BYLAYER
 10
58.0002575917
 20
9.7802121307
 11
37.0889713043
 21
9.7802121307
  0
LINE
  5
22A
100
AcDbEntity
  8
0
100
AcDbLine
 62
7
  6
BYLAYER
 10
58.051721867
 20
9.7855463533
 11
37.0527253354
 21
9.7855226088
  0
LINE
  5
22B
100
AcDbEntity
  8
0
100
AcDbLine
 62
7
  6
BYLAYER
 10
27.4901598078
 20
11.3573200251
 11
64.0118989382
 21
11.3573200251
  0
LINE
  5
22C
100
AcDbEntity
  8
0
100
AcDbLine
 62
7
  6
BYLAYER
 10
58.0521467509
 20
9.7855083889
 11
58.051721867
 21
9.7855463533
  0
LINE
  5
22D
100
AcDbEntity
  8
0
100
AcDbLine
 62
7
  6
BYLAYER
 10
37.0527287921
 20
9.7855226119
 11
37.0889713043
 21
9.7802121307
  0
LINE
  5
22E
100
AcDbEntity
  8
0
100
AcDbLine
 62
7
  6
BYLAYER
 10
33.9988488183
 20
9.863386977
 11
34.139983773
 21
9.8244735764
  0
LINE
  5
22F
100
AcDbEntity
  8
0
100
AcDbLine
 62
7
  6
BYLAYER
 10
33.912868401
 20
9.8874273588
 11
33.9988488183
 21
9.863386977
  0
LINE
  5
230
100
AcDbEntity
  8
0
100
AcDbLine
 62
7
  6
BYLAYER
 10
25.7661808881
 20
13.738722449
 11
26.0500461598
 21
13.7387224497
  0
LINE
  5
231
100
AcDbEntity
  8
0
100
AcDbLine
 62
7
  6
BYLAYER
 10
26.1054621248
 20
13.7387222709
 11
42.2038295502
 21
13.7387224496
  0
LINE
  5
232
100
AcDbEntity
  8
0
100
AcDbLine
 62
7
  6
BYLAYER
 10
43.3466041958
 20
13.7387222691
 11
45.1731033937
 21
13.7387224497
  0
LINE
  5
233
100
AcDbEntity
  8
0
100
AcDbLine
 62
7
  6
BYLAYER
 10
46.3289553523
 20
13.7387222709
 11
48.1554545502
 21
13.7387224497
  0
LINE
  5
234
100
AcDbEntity
  8
0
100
AcDbLine
 62
7
  6
BYLAYER
 10
49.2982291958
 20
13.738722274
 11
65.3965966211
 21
13.7387224497
  0
LINE
  5
235
100
AcDbEntity
  8
0
100
AcDbLine
 62
7
  6
BYLAYER
 10
65.4520125862
 20
13.7387222709
 11
65.7358778578
 21
13.738722449
  0
LINE
  5
236
100
AcDbEntity
  8
0
100
AcDbLine
 62
7
  6
BYLAYER
 10
65.7358778578
 20
14.7109781995
 11
25.7661808882
 21
14.7109781995
  0
LINE
  5
237
100
AcDbEntity
  8
0
100
AcDbLine
 62
7
  6
BYLAYER
 10
58.0521824089
 20
9.7855013263
 11
58.0521467509
 21
9.7855083889
  0
LINE
  5
238
100
AcDbEntity
  8
0
100
AcDbLine
 62
7
  6
BYLAYER
 10
33.4949977206
 20
10.2594191195
 11
33.511418973
 21
10.2472415065
  0
LINE
  5
239
100
AcDbEntity
  8
0
100
AcDbLine
 62
7
  6
BYLAYER
 10
33.7098519533
 20
10.2150549897
 11
33.724592138
 21
10.2036006171
  0
LINE
  5
23A
100
AcDbEntity
  8
0
100
AcDbLine
 62
7
  6
BYLAYER
 10
30.2946072444
 20
16.430493318
 11
27.7202957589
 21
16.2052702466
  0
LINE
  5
23B
100
AcDbEntity
  8
0
100
AcDbLine
 62
7
  6
BYLAYER
 10
27.7202957589
 20
16.2052702466
 11
63.7817629871
 21
16.2052702466
  0
LINE
  5
23C
100
AcDbEntity
  8
0
100
AcDbLine
 62
7
  6
BYLAYER
 10
61.2074515016
 20
16.430493318
 11
30.2946072444
 21
16.430493318
  0
LINE
  5
23D
100
AcDbEntity
  8
0
100
AcDbLine
 62
7
  6
BYLAYER
 10
30.751029373
 20
16.9285906671
 11
60.751029373
 21
16.9285906671
  0
LINE
  5
23E
100
AcDbEntity
  8
0
100
AcDbLine
 62
7
  6
BYLAYER
 10
61.2074515016
 20
16.430493318
 11
63.7817629871
 21
16.2052702466
  0
LINE
  5
23F
100
AcDbEntity
  8
0
100
AcDbLine
 62
7
  6
BYLAYER
 10
28.323429373
 20
101.4654407567
 11
25.6093937725
 21
100.0684407567
  0
LINE
  5
240
100
AcDbEntity
  8
0
100
AcDbLine
 62
7
  6
BYLAYER
 10
26.5387329354
 20
12.2399790937
 11
26.5817616076
 21
12.1589240059
  0
LINE
  5
241
100
AcDbEntity
  8
0
100
AcDbLine
 62
7
  6
BYLAYER
 10
60.751029373
 20
25.5449527957
 11
30.751029373
 21
25.5449527957
  0
LINE
  5
242
100
AcDbEntity
  8
0
100
AcDbLine
 62
7
  6
BYLAYER
 10
60.251029373
 20
26.4109781995
 11
31.251029373
 21
26.4109781995
  0
LINE
  5
243
100
AcDbEntity
  8
00_COMPONENTS
100
AcDbLine
 62
7
  6
BYLAYER
 10
30.005029369
 20
34.8327782115
 11
61.497029377
 21
34.8327782115
  0
LINE
  5
244
100
AcDbEntity
  8
00_COMPONENTS
100
AcDbLine
 62
7
  6
BYLAYER
 10
29.751029369
 20
35.0867782115
 11
61.751029377
 21
35.0867782115
  0
LINE
  5
245
100
AcDbEntity
  8
00_COMPONENTS
100
AcDbLine
 62
7
  6
BYLAYER
 10
30.005029369
 20
34.8327782115
 11
29.751029369
 21
35.0867782115
  0
LINE
  5
246
100
AcDbEntity
  8
0
100
AcDbLine
 62
7
  6
BYLAYER
 10
20.551029373
 20
92.2915389559
 11
20.551029373
 21
116.8037182115
  0
LINE
  5
247
100
AcDbEntity
  8
0
100
AcDbLine
 62
7
  6
BYLAYER
 10
21.821029373
 20
101.5071741627
 11
21.821029373
 21
102.8753409678
  0
LINE
  5
248
100
AcDbEntity
  8
0
100
AcDbLine
 62
7
  6
BYLAYER
 10
21.821029373
 20
110.3617066981
 11
21.821029373
 21
111.7298735031
  0
LINE
  5
249
100
AcDbEntity
  8
00_COMPONENTS
100
AcDbLine
 62
7
  6
BYLAYER
 10
29.357329369
 20
41.2068810125
 11
28.288529373
 21
41.8239529779
  0
LWPOLYLINE
  5
24A
100
AcDbEntity
  8
0
100
AcDbPolyline
 62
7
  6
BYLAYER
 90
8
 70
0
 10
26.1054642253
 20
13.7387222674
 10
26.1134681212
 20
13.5326974893
 10
26.1566397911
 20
13.2187260006
 10
26.2239818965
 20
12.9497299286
 10
26.3044633284
 20
12.7196797879
 10
26.3893849397
 20
12.5249824455
 10
26.4706571438
 20
12.3642705347
 10
26.5387329354
 20
12.2399790937
  0
LINE
  5
24B
100
AcDbEntity
  8
0
100
AcDbLine
 62
7
  6
BYLAYER
 10
22.075029373
 20
116.8037182115
 11
22.075029373
 21
118.6071182115
  0
LINE
  5
24C
100
AcDbEntity
  8
0
100
AcDbLine
 62
7
  6
BYLAYER
 10
23.251029373
 20
90.6657182115
 11
23.251029373
 21
92.1657182115
  0
LINE
  5
24D
100
AcDbEntity
  8
0
100
AcDbLine
 62
7
  6
BYLAYER
 10
24.1107679039
 20
101.6146980543
 11
24.1107679039
 21
102.261276495
  0
LINE
  5
24E
100
AcDbEntity
  8
0
100
AcDbLine
 62
7
  6
BYLAYER
 10
24.1107679039
 20
110.4692305897
 11
24.1107679039
 21
111.1158090304
  0
LINE
  5
24F
100
AcDbEntity
  8
0
100
AcDbLine
 62
7
  6
BYLAYER
 10
25.529429373
 20
116.8037182115
 11
25.529429373
 21
118.6071182115
  0
LINE
  5
250
100
AcDbEntity
  8
0
100
AcDbLine
 62
7
  6
BYLAYER
 10
25.747429373
 20
70.1657182115
 11
25.747429373
 21
66.1657182115
  0
LINE
  5
251
100
AcDbEntity
  8
0
100
AcDbLine
 62
7
  6
BYLAYER
 10
25.747429373
 20
80.1657182115
 11
25.747429373
 21
88.1693182115
  0
LINE
  5
252
100
AcDbEntity
  8
00_COMPONENTS
100
AcDbLine
 62
7
  6
BYLAYER
 10
25.751029373
 20
12.1895291105
 11
25.751029373
 21
14.7109781995
  0
LINE
  5
253
100
AcDbEntity
  8
0
100
AcDbLine
 62
7
  6
BYLAYER
 10
25.7661808881
 20
13.738722449
 11
25.7661808881
 21
14.7109781995
  0
LINE
  5
254
100
AcDbEntity
  8
0
100
AcDbLine
 62
7
  6
BYLAYER
 10
25.875536818
 20
14.7109781995
 11
25.875536818
 21
13.738722449
  0
LINE
  5
255
100
AcDbEntity
  8
0
100
AcDbLine
 62
7
  6
BYLAYER
 10
25.907279373
 20
57.3117782115
 11
25.907279373
 21
58.8992782115
  0
LINE
  5
256
100
AcDbEntity
  8
00_COMPONENTS
100
AcDbLine
 62
7
  6
BYLAYER
 10
25.9773094397
 20
12.1880941761
 11
25.9773094397
 21
14.7109781995
  0
LINE
  5
257
100
AcDbEntity
  8
0
100
AcDbLine
 62
7
  6
BYLAYER
 10
26.0500461598
 20
14.7109781995
 11
26.0500461598
 21
13.7387224497
  0
LINE
  5
258
100
AcDbEntity
  8
00_COMPONENTS
100
AcDbLine
 62
7
  6
BYLAYER
 10
61.751029377
 20
40.5249726096
 11
29.751029369
 21
40.5249726096
  0
LINE
  5
259
100
AcDbEntity
  8
00_COMPONENTS
100
AcDbLine
 62
7
  6
BYLAYER
 10
29.357329369
 20
41.2068810125
 11
62.144729377
 21
41.2068810125
  0
LINE
  5
25A
100
AcDbEntity
  8
0
100
AcDbLine
 62
7
  6
BYLAYER
 10
26.1054621248
 20
14.7109781995
 11
26.1054621248
 21
13.7387222709
  0
LINE
  5
25B
100
AcDbEntity
  8
0
100
AcDbLine
 62
7
  6
BYLAYER
 10
26.1090422537
 20
13.738722449
 11
26.1090422537
 21
14.7109781995
  0
LINE
  5
25C
100
AcDbEntity
  8
0
100
AcDbLine
 62
7
  6
BYLAYER
 10
26.251029373
 20
62.1653782115
 11
26.251029373
 21
60.8992782115
  0
LINE
  5
25D
100
AcDbEntity
  8
00_COMPONENTS
100
AcDbLine
 62
7
  6
BYLAYER
 10
26.701029373
 20
49.3869782115
 11
26.701029373
 21
50.9109782115
  0
LINE
  5
25E
100
AcDbEntity
  8
0
100
AcDbLine
 62
7
  6
BYLAYER
 10
26.890429373
 20
80.1657182115
 11
26.890429373
 21
70.1657182115
  0
LINE
  5
25F
100
AcDbEntity
  8
0
100
AcDbLine
 62
7
  6
BYLAYER
 10
26.890429373
 20
66.1657182115
 11
26.890429373
 21
62.1653782115
  0
LINE
  5
260
100
AcDbEntity
  8
00_COMPONENTS
100
AcDbLine
 62
7
  6
BYLAYER
 10
27.336029373
 20
48.1169782115
 11
27.336029373
 21
49.3869782115
  0
LINE
  5
261
100
AcDbEntity
  8
0
100
AcDbLine
 62
7
  6
BYLAYER
 10
27.751029373
 20
60.8992782115
 11
27.751029373
 21
58.8992782115
  0
LINE
  5
262
100
AcDbEntity
  8
00_COMPONENTS
100
AcDbLine
 62
7
  6
BYLAYER
 10
28.288529373
 20
41.8239529779
 11
28.288529373
 21
48.1169782115
  0
LINE
  5
263
100
AcDbEntity
  8
0
100
AcDbLine
 62
7
  6
BYLAYER
 10
28.323429373
 20
116.8037182115
 11
28.323429373
 21
113.747356834
  0
LINE
  5
264
100
AcDbEntity
  8
0
100
AcDbLine
 62
7
  6
BYLAYER
 10
28.323429373
 20
112.8554798146
 11
28.323429373
 21
110.7330650737
  0
LINE
  5
265
100
AcDbEntity
  8
0
100
AcDbLine
 62
7
  6
BYLAYER
 10
28.323429373
 20
108.2545143843
 11
28.323429373
 21
104.8928242986
  0
LINE
  5
266
100
AcDbEntity
  8
0
100
AcDbLine
 62
7
  6
BYLAYER
 10
28.323429373
 20
104.0009472793
 11
28.323429373
 21
101.4654407567
  0
LINE
  5
267
100
AcDbEntity
  8
00_COMPONENTS
100
AcDbLine
 62
7
  6
BYLAYER
 10
29.751029369
 20
35.0867782115
 11
29.751029369
 21
40.5249726096
  0
LINE
  5
268
100
AcDbEntity
  8
0
100
AcDbLine
 62
7
  6
BYLAYER
 10
30.0951596302
 20
80.1657182115
 11
30.0951596302
 21
70.1657182115
  0
LINE
  5
269
100
AcDbEntity
  8
0
100
AcDbLine
 62
7
  6
BYLAYER
 10
30.106802973
 20
10.833168452
 11
30.106802973
 21
10.7791865847
  0
LINE
  5
26A
100
AcDbEntity
  8
0
100
AcDbLine
 62
7
  6
BYLAYER
 10
30.139992573
 20
10.6563694821
 11
30.139992573
 21
10.6351554013
  0
LINE
  5
26B
100
AcDbEntity
  8
0
100
AcDbLine
 62
7
  6
BYLAYER
 10
30.3797231835
 20
84.1657182115
 11
30.3797231835
 21
80.1657182115
  0
LINE
  5
26C
100
AcDbEntity
  8
0
100
AcDbLine
 62
7
  6
BYLAYER
 10
30.3797231835
 20
70.1657182115
 11
30.3797231835
 21
66.1657182115
  0
LINE
  5
26D
100
AcDbEntity
  8
0
100
AcDbLine
 62
7
  6
BYLAYER
 10
30.5788970245
 20
84.1657182115
 11
30.5788970245
 21
92.1657182115
  0
LINE
  5
26E
100
AcDbEntity
  8
0
100
AcDbLine
 62
7
  6
BYLAYER
 10
30.6224382939
 20
10.5212358488
 11
30.6224382939
 21
10.4973773964
  0
LINE
  5
26F
100
AcDbEntity
  8
0
100
AcDbLine
 62
7
  6
BYLAYER
 10
30.751029373
 20
25.5449527957
 11
30.751029373
 21
16.9285906671
  0
LINE
  5
270
100
AcDbEntity
  8
0
100
AcDbLine
 62
7
  6
BYLAYER
 10
30.765029373
 20
50.9109782115
 11
30.765029373
 21
57.3117782115
  0
LINE
  5
271
100
AcDbEntity
  8
0
100
AcDbLine
 62
7
  6
BYLAYER
 10
31.045925373
 20
10.9780217596
 11
31.045925373
 21
10.8889386653
  0
LINE
  5
272
100
AcDbEntity
  8
0
100
AcDbLine
 62
7
  6
BYLAYER
 10
31.047958173
 20
10.4177798258
 11
31.047958173
 21
10.3891015956
  0
LINE
  5
273
100
AcDbEntity
  8
0
100
AcDbLine
 62
7
  6
BYLAYER
 10
31.134655773
 20
10.5104333271
 11
31.134655773
 21
10.5645913302
  0
LINE
  5
274
100
AcDbEntity
  8
0
100
AcDbLine
 62
7
  6
BYLAYER
 10
31.381205373
 20
10.7282953842
 11
31.381205373
 21
10.6418837391
  0
LINE
  5
275
100
AcDbEntity
  8
0
100
AcDbLine
 62
7
  6
BYLAYER
 10
31.381205373
 20
10.2878268041
 11
31.381205373
 21
10.2688393093
  0
LINE
  5
276
100
AcDbEntity
  8
0
100
AcDbLine
 62
7
  6
BYLAYER
 10
31.424215773
 20
10.4938569183
 11
31.424215773
 21
10.410971418
  0
LINE
  5
277
100
AcDbEntity
  8
0
100
AcDbLine
 62
7
  6
BYLAYER
 10
31.540039773
 20
10.4655631535
 11
31.540039773
 21
10.4097789236
  0
LINE
  5
278
100
AcDbEntity
  8
0
100
AcDbLine
 62
7
  6
BYLAYER
 10
31.591517373
 20
10.9862021952
 11
31.591517373
 21
10.9194033536
  0
LINE
  5
279
100
AcDbEntity
  8
0
100
AcDbLine
 62
7
  6
BYLAYER
 10
31.612514973
 20
10.8989164524
 11
31.612514973
 21
10.8361693924
  0
LINE
  5
27A
100
AcDbEntity
  8
0
100
AcDbLine
 62
7
  6
BYLAYER
 10
31.813682973
 20
10.6491890356
 11
31.813682973
 21
10.4885613081
  0
LINE
  5
27B
100
AcDbEntity
  8
0
100
AcDbLine
 62
7
  6
BYLAYER
 10
31.813682973
 20
10.189934314
 11
31.813682973
 21
10.1739402249
  0
LINE
  5
27C
100
AcDbEntity
  8
0
100
AcDbLine
 62
7
  6
BYLAYER
 10
32.0321226915
 20
10.2262714896
 11
32.0321226915
 21
10.191087127
  0
LINE
  5
27D
100
AcDbEntity
  8
0
100
AcDbLine
 62
7
  6
BYLAYER
 10
32.044992573
 20
10.599674515
 11
32.044992573
 21
10.3666541032
  0
LINE
  5
27E
100
AcDbEntity
  8
0
100
AcDbLine
 62
7
  6
BYLAYER
 10
32.044992573
 20
10.1364213031
 11
32.044992573
 21
10.097472918
  0
LINE
  5
27F
100
AcDbEntity
  8
0
100
AcDbLine
 62
7
  6
BYLAYER
 10
32.140495773
 20
10.079591062
 11
32.140495773
 21
10.1143268298
  0
LINE
  5
280
100
AcDbEntity
  8
0
100
AcDbLine
 62
7
  6
BYLAYER
 10
32.140495773
 20
10.4096829552
 11
32.140495773
 21
10.57923094
  0
LINE
  5
281
100
AcDbEntity
  8
0
100
AcDbLine
 62
7
  6
BYLAYER
 10
32.481533373
 20
10.1875518717
 11
32.481533373
 21
10.24305537
  0
LINE
  5
282
100
AcDbEntity
  8
0
100
AcDbLine
 62
7
  6
BYLAYER
 10
32.644093773
 20
10.2062009029
 11
32.644093773
 21
10.1221610564
  0
LINE
  5
283
100
AcDbEntity
  8
0
100
AcDbLine
 62
7
  6
BYLAYER
 10
32.687442573
 20
10.4490563627
 11
32.687442573
 21
10.3576785157
  0
LINE
  5
284
100
AcDbEntity
  8
0
100
AcDbLine
 62
7
  6
BYLAYER
 10
32.687442573
 20
9.9883097752
 11
32.687442573
 21
9.9665824799
  0
LINE
  5
285
100
AcDbEntity
  8
0
100
AcDbLine
 62
7
  6
BYLAYER
 10
32.861518173
 20
10.1569080839
 11
32.861518173
 21
10.1023993456
  0
LINE
  5
286
100
AcDbEntity
  8
0
100
AcDbLine
 62
7
  6
BYLAYER
 10
33.017981373
 20
10.4213146409
 11
33.017981373
 21
10.5096795158
  0
LINE
  5
287
100
AcDbEntity
  8
0
100
AcDbLine
 62
7
  6
BYLAYER
 10
33.020352573
 20
10.0675743722
 11
33.020352573
 21
10.1208983474
  0
LINE
  5
288
100
AcDbEntity
  8
00_COMPONENTS
100
AcDbLine
 62
7
  6
BYLAYER
 10
33.021029373
 20
34.8327782115
 11
33.021029373
 21
26.4109781995
  0
LINE
  5
289
100
AcDbEntity
  8
00_COMPONENTS
100
AcDbLine
 62
7
  6
BYLAYER
 10
33.021029373
 20
9.9537660049
 11
33.021029373
 21
-13.5890218005
  0
LINE
  5
28A
100
AcDbEntity
  8
0
100
AcDbLine
 62
7
  6
BYLAYER
 10
33.021029373
 20
9.9253149134
 11
33.021029373
 21
9.9537660049
  0
LINE
  5
28B
100
AcDbEntity
  8
00_COMPONENTS
100
AcDbLine
 62
7
  6
BYLAYER
 10
33.251029373
 20
26.4109781995
 11
33.251029373
 21
34.8327782115
  0
LINE
  5
28C
100
AcDbEntity
  8
0
100
AcDbLine
 62
7
  6
BYLAYER
 10
33.251029373
 20
92.1657182115
 11
33.251029373
 21
99.7146147517
  0
LINE
  5
28D
100
AcDbEntity
  8
0
100
AcDbLine
 62
7
  6
BYLAYER
 10
33.251029373
 20
101.8192667618
 11
33.251029373
 21
116.8037182115
  0
LINE
  5
28E
100
AcDbEntity
  8
0
100
AcDbLine
 62
7
  6
BYLAYER
 10
33.494429373
 20
62.1653782115
 11
33.494429373
 21
66.1657182115
  0
LINE
  5
28F
100
AcDbEntity
  8
0
100
AcDbLine
 62
7
  6
BYLAYER
 10
33.511418973
 20
10.2616817654
 11
33.511418973
 21
10.2472415065
  0
LINE
  5
290
100
AcDbEntity
  8
0
100
AcDbLine
 62
7
  6
BYLAYER
 10
33.6823273535
 20
10.2150549897
 11
33.6823273535
 21
10.201106408
  0
LINE
  5
291
100
AcDbEntity
  8
0
100
AcDbLine
 62
7
  6
BYLAYER
 10
33.941525373
 20
9.8980125341
 11
33.941525373
 21
9.9292822091
  0
LINE
  5
292
100
AcDbEntity
  8
0
100
AcDbLine
 62
7
  6
BYLAYER
 10
33.941525373
 20
9.9895994987
 11
33.941525373
 21
10.0125196283
  0
LINE
  5
293
100
AcDbEntity
  8
0
100
AcDbLine
 62
7
  6
BYLAYER
 10
33.941525373
 20
10.1495477299
 11
33.941525373
 21
10.1778100105
  0
LINE
  5
294
100
AcDbEntity
  8
0
100
AcDbLine
 62
7
  6
BYLAYER
 10
34.122712173
 20
10.3492446665
 11
34.122712173
 21
10.3019842181
  0
LINE
  5
295
100
AcDbEntity
  8
0
100
AcDbLine
 62
7
  6
BYLAYER
 10
34.122712173
 20
9.7847100235
 11
34.122712173
 21
9.7645132402
  0
LINE
  5
296
100
AcDbEntity
  8
0
100
AcDbLine
 62
7
  6
BYLAYER
 10
34.131179373
 20
10.0348999235
 11
34.131179373
 21
10.0038930728
  0
LINE
  5
297
100
AcDbEntity
  8
0
100
AcDbLine
 62
7
  6
BYLAYER
 10
34.139983773
 20
9.8295792151
 11
34.139983773
 21
9.8244735764
  0
LINE
  5
298
100
AcDbEntity
  8
0
100
AcDbLine
 62
7
  6
BYLAYER
 10
34.139983773
 20
9.889624497
 11
34.139983773
 21
9.8400051644
  0
LINE
  5
299
100
AcDbEntity
  8
00_COMPONENTS
100
AcDbLine
 62
7
  6
BYLAYER
 10
27.336029373
 20
48.1169782115
 11
64.166029373
 21
48.1169782115
  0
LINE
  5
29A
100
AcDbEntity
  8
00_COMPONENTS
100
AcDbLine
 62
7
  6
BYLAYER
 10
26.701029373
 20
49.3869782115
 11
64.801029373
 21
49.3869782115
  0
LINE
  5
29B
100
AcDbEntity
  8
00_COMPONENTS
100
AcDbLine
 62
7
  6
BYLAYER
 10
64.801029373
 20
50.9109782115
 11
26.701029373
 21
50.9109782115
  0
LINE
  5
29C
100
AcDbEntity
  8
0
100
AcDbLine
 62
7
  6
BYLAYER
 10
34.486102173
 20
9.6245626086
 11
34.486102173
 21
9.598478517
  0
LINE
  5
29D
100
AcDbEntity
  8
0
100
AcDbLine
 62
7
  6
BYLAYER
 10
34.524371373
 20
10.1771078562
 11
34.524371373
 21
10.1411212345
  0
LINE
  5
29E
100
AcDbEntity
  8
0
100
AcDbLine
 62
7
  6
BYLAYER
 10
34.533515373
 20
9.595654194
 11
34.533515373
 21
9.6245626086
  0
LINE
  5
29F
100
AcDbEntity
  8
0
100
AcDbLine
 62
7
  6
BYLAYER
 10
34.870488573
 20
9.560538215
 11
34.870488573
 21
9.544982519
  0
LINE
  5
2A0
100
AcDbEntity
  8
0
100
AcDbLine
 62
7
  6
BYLAYER
 10
34.874213373
 20
10.208023466
 11
34.874213373
 21
10.1624857732
  0
LINE
  5
2A1
100
AcDbEntity
  8
0
100
AcDbLine
 62
7
  6
BYLAYER
 10
34.874213373
 20
9.6425637228
 11
34.874213373
 21
9.6230695087
  0
LINE
  5
2A2
100
AcDbEntity
  8
0
100
AcDbLine
 62
7
  6
BYLAYER
 10
34.883357373
 20
9.7524639183
 11
34.883357373
 21
9.7298376195
  0
LINE
  5
2A3
100
AcDbEntity
  8
0
100
AcDbLine
 62
7
  6
BYLAYER
 10
35.060479773
 20
9.7748879396
 11
35.060479773
 21
9.7977242513
  0
LINE
  5
2A4
100
AcDbEntity
  8
0
100
AcDbLine
 62
7
  6
BYLAYER
 10
35.060479773
 20
9.9342498815
 11
35.060479773
 21
9.9624082345
  0
LINE
  5
2A5
100
AcDbEntity
  8
0
100
AcDbLine
 62
7
  6
BYLAYER
 10
35.751029373
 20
92.1657182115
 11
35.751029373
 21
62.1653782115
  0
LINE
  5
2A6
100
AcDbEntity
  8
0
100
AcDbLine
 62
7
  6
BYLAYER
 10
35.791029373
 20
92.1657182115
 11
35.791029373
 21
116.8037182115
  0
LINE
  5
2A7
100
AcDbEntity
  8
0
100
AcDbLine
 62
7
  6
BYLAYER
 10
35.816429373
 20
116.8037182115
 11
35.816429373
 21
92.1657182115
  0
LINE
  5
2A8
100
AcDbEntity
  8
00_COMPONENTS
100
AcDbLine
 62
7
  6
BYLAYER
 10
37.9728547799
 20
9.7802121307
 11
37.9728547799
 21
9.5618490214
  0
LINE
  5
2A9
100
AcDbEntity
  8
00_COMPONENTS
100
AcDbLine
 62
7
  6
BYLAYER
 10
38.5178250401
 20
48.1169782115
 11
38.5178250401
 21
42.6546294173
  0
LINE
  5
2AA
100
AcDbEntity
  8
0
100
AcDbLine
 62
7
  6
BYLAYER
 10
38.6799519041
 20
9.7802121307
 11
38.6799519041
 21
9.5618475312
  0
LINE
  5
2AB
100
AcDbEntity
  8
0
100
AcDbLine
 62
7
  6
BYLAYER
 10
41.9837568844
 20
14.7109781995
 11
41.9837568844
 21
13.738722449
  0
LINE
  5
2AC
100
AcDbEntity
  8
0
100
AcDbLine
 62
7
  6
BYLAYER
 10
42.2038295502
 20
14.7109781995
 11
42.2038295502
 21
13.7387224496
  0
LINE
  5
2AD
100
AcDbEntity
  8
0
100
AcDbLine
 62
7
  6
BYLAYER
 10
63.1901241954
 20
113.6696088253
 11
63.0808215697
 21
113.4572600656
  0
LINE
  5
2AE
100
AcDbEntity
  8
0
100
AcDbLine
 62
7
  6
BYLAYER
 10
25.907279373
 20
57.3117782115
 11
65.594779373
 21
57.3117782115
  0
LINE
  5
2AF
100
AcDbEntity
  8
0
100
AcDbLine
 62
7
  6
BYLAYER
 10
65.594779373
 20
58.8992782115
 11
25.907279373
 21
58.8992782115
  0
LINE
  5
2B0
100
AcDbEntity
  8
0
100
AcDbLine
 62
7
  6
BYLAYER
 10
60.251029373
 20
26.4109781995
 11
60.751029373
 21
25.5449527957
  0
LINE
  5
2B1
100
AcDbEntity
  8
0
100
AcDbLine
 62
7
  6
BYLAYER
 10
42.412229373
 20
92.1657182115
 11
42.412229373
 21
116.8037182115
  0
LINE
  5
2B2
100
AcDbEntity
  8
0
100
AcDbLine
 62
7
  6
BYLAYER
 10
42.433129373
 20
92.1657182115
 11
42.433129373
 21
116.8037182115
  0
LINE
  5
2B3
100
AcDbEntity
  8
0
100
AcDbLine
 62
7
  6
BYLAYER
 10
42.449029373
 20
66.1657182115
 11
42.449029373
 21
62.1657182115
  0
LINE
  5
2B4
100
AcDbEntity
  8
00_COMPONENTS
100
AcDbLine
 62
7
  6
BYLAYER
 10
42.751029373
 20
12.1882082878
 11
42.751029373
 21
14.7109781995
  0
LINE
  5
2B5
100
AcDbEntity
  8
0
100
AcDbLine
 62
7
  6
BYLAYER
 10
43.3466041958
 20
13.7387222691
 11
43.3466041958
 21
14.7109781995
  0
LINE
  5
2B6
100
AcDbEntity
  8
0
100
AcDbLine
 62
7
  6
BYLAYER
 10
43.5228472173
 20
13.738722449
 11
43.5228472173
 21
14.7109781995
  0
LINE
  5
2B7
100
AcDbEntity
  8
0
100
AcDbLine
 62
7
  6
BYLAYER
 10
44.9726778858
 20
14.7109781995
 11
44.9726778858
 21
13.738722449
  0
LINE
  5
2B8
100
AcDbEntity
  8
0
100
AcDbLine
 62
7
  6
BYLAYER
 10
45.1731033937
 20
14.7109781995
 11
45.1731033937
 21
13.7387224497
  0
LINE
  5
2B9
100
AcDbEntity
  8
00_COMPONENTS
100
AcDbLine
 62
7
  6
BYLAYER
 10
45.751029373
 20
-1.8890218017
 11
45.751029373
 21
8.5109781995
  0
LINE
  5
2BA
100
AcDbEntity
  8
00_COMPONENTS
100
AcDbLine
 62
7
  6
BYLAYER
 10
45.751029373
 20
12.1880941766
 11
45.751029373
 21
14.7109781995
  0
LINE
  5
2BB
100
AcDbEntity
  8
0
100
AcDbLine
 62
7
  6
BYLAYER
 10
63.2424875277
 20
114.0099157682
 11
63.138629373
 21
113.747356834
  0
LINE
  5
2BC
100
AcDbEntity
  8
0
100
AcDbLine
 62
7
  6
BYLAYER
 10
63.1901241954
 20
104.8150762899
 11
63.0808215697
 21
104.6027275302
  0
LINE
  5
2BD
100
AcDbEntity
  8
0
100
AcDbLine
 62
7
  6
BYLAYER
 10
67.8698070089
 20
111.7298735031
 11
68.6061819772
 21
113.1604732736
  0
LINE
  5
2BE
100
AcDbEntity
  8
0
100
AcDbLine
 62
7
  6
BYLAYER
 10
68.251029373
 20
90.6657182115
 11
61.751029373
 21
84.1657182115
  0
LINE
  5
2BF
100
AcDbEntity
  8
0
100
AcDbLine
 62
7
  6
BYLAYER
 10
26.2510401541
 20
60.8992782115
 11
65.2510185919
 21
60.8992782115
  0
LINE
  5
2C0
100
AcDbEntity
  8
0
100
AcDbLine
 62
7
  6
BYLAYER
 10
65.2510185919
 20
62.1653782115
 11
26.2510401541
 21
62.1653782115
  0
LINE
  5
2C1
100
AcDbEntity
  8
0
100
AcDbLine
 62
7
  6
BYLAYER
 10
22.8558767687
 20
104.3059407383
 11
23.5922517371
 21
102.8753409678
  0
LINE
  5
2C2
100
AcDbEntity
  8
0
100
AcDbLine
 62
7
  6
BYLAYER
 10
28.323429373
 20
104.8928242986
 11
28.2195712183
 21
105.1553832329
  0
LINE
  5
2C3
100
AcDbEntity
  8
0
100
AcDbLine
 62
7
  6
BYLAYER
 10
46.3289553523
 20
13.7387222709
 11
46.3289553523
 21
14.7109781995
  0
LINE
  5
2C4
100
AcDbEntity
  8
0
100
AcDbLine
 62
7
  6
BYLAYER
 10
46.5293808602
 20
13.738722449
 11
46.5293808602
 21
14.7109781995
  0
LINE
  5
2C5
100
AcDbEntity
  8
0
100
AcDbLine
 62
7
  6
BYLAYER
 10
47.9792115238
 20
14.7109781995
 11
47.9792115238
 21
13.738722449
  0
LINE
  5
2C6
100
AcDbEntity
  8
0
100
AcDbLine
 62
7
  6
BYLAYER
 10
48.1554545502
 20
14.7109781995
 11
48.1554545502
 21
13.7387224497
  0
LINE
  5
2C7
100
AcDbEntity
  8
00_COMPONENTS
100
AcDbLine
 62
7
  6
BYLAYER
 10
48.751029373
 20
12.187938563
 11
48.751029373
 21
14.7109781995
  0
LINE
  5
2C8
100
AcDbEntity
  8
0
100
AcDbLine
 62
7
  6
BYLAYER
 10
49.053029373
 20
66.1657182115
 11
49.053029373
 21
62.1657182115
  0
LINE
  5
2C9
100
AcDbEntity
  8
0
100
AcDbLine
 62
7
  6
BYLAYER
 10
49.2982291958
 20
13.738722274
 11
49.2982291958
 21
14.7109781995
  0
LINE
  5
2CA
100
AcDbEntity
  8
0
100
AcDbLine
 62
7
  6
BYLAYER
 10
49.5183018616
 20
13.738722449
 11
49.5183018616
 21
14.7109781995
  0
LINE
  5
2CB
100
AcDbEntity
  8
0
100
AcDbLine
 62
7
  6
BYLAYER
 10
63.2424875277
 20
105.1553832329
 11
63.138629373
 21
104.8928242986
  0
LINE
  5
2CC
100
AcDbEntity
  8
0
100
AcDbLine
 62
7
  6
BYLAYER
 10
67.8698070089
 20
102.8753409678
 11
68.6061819773
 21
104.3059407383
  0
LINE
  5
2CD
100
AcDbEntity
  8
0
100
AcDbLine
 62
7
  6
BYLAYER
 10
25.747429373
 20
66.1657182115
 11
65.754629373
 21
66.1657182115
  0
LINE
  5
2CE
100
AcDbEntity
  8
0
100
AcDbLine
 62
7
  6
BYLAYER
 10
29.751029373
 20
84.1657182115
 11
23.251029373
 21
90.6657182115
  0
LINE
  5
2CF
100
AcDbEntity
  8
0
100
AcDbLine
 62
7
  6
BYLAYER
 10
22.8558767688
 20
113.1604732736
 11
23.5922517371
 21
111.7298735031
  0
LINE
  5
2D0
100
AcDbEntity
  8
0
100
AcDbLine
 62
7
  6
BYLAYER
 10
28.3812371763
 20
104.6027275302
 11
28.2719345506
 21
104.8150762899
  0
LINE
  5
2D1
100
AcDbEntity
  8
0
100
AcDbLine
 62
7
  6
BYLAYER
 10
28.323429373
 20
113.747356834
 11
28.2195712183
 21
114.0099157682
  0
LINE
  5
2D2
100
AcDbEntity
  8
00_COMPONENTS
100
AcDbLine
 62
7
  6
BYLAYER
 10
52.9842337059
 20
48.1169782115
 11
52.9842337059
 21
42.6546294173
  0
LINE
  5
2D3
100
AcDbEntity
  8
00_COMPONENTS
100
AcDbLine
 62
7
  6
BYLAYER
 10
54.181029373
 20
-13.5890218005
 11
54.181029373
 21
9.1281572143
  0
LINE
  5
2D4
100
AcDbEntity
  8
0
100
AcDbLine
 62
7
  6
BYLAYER
 10
31.251029373
 20
26.4109781995
 11
30.751029373
 21
25.5449527957
  0
LINE
  5
2D5
100
AcDbEntity
  8
0
100
AcDbLine
 62
7
  6
BYLAYER
 10
65.754629373
 20
70.1657182115
 11
61.1223355625
 21
70.1657182115
  0
LINE
  5
2D6
100
AcDbEntity
  8
0
100
AcDbLine
 62
7
  6
BYLAYER
 10
30.3797231835
 20
70.1657182115
 11
25.747429373
 21
70.1657182115
  0
LINE
  5
2D7
100
AcDbEntity
  8
0
100
AcDbLine
 62
7
  6
BYLAYER
 10
28.3812371763
 20
113.4572600656
 11
28.2719345506
 21
113.6696088253
  0
LINE
  5
2D8
100
AcDbEntity
  8
00_COMPONENTS
100
AcDbLine
 62
7
  6
BYLAYER
 10
54.761029373
 20
-13.5890218005
 11
54.761029373
 21
9.7802121307
  0
LINE
  5
2D9
100
AcDbEntity
  8
0
100
AcDbLine
 62
7
  6
BYLAYER
 10
55.645629373
 20
92.1657182115
 11
55.645629373
 21
116.8037182115
  0
LINE
  5
2DA
100
AcDbEntity
  8
0
100
AcDbLine
 62
7
  6
BYLAYER
 10
55.671029373
 20
92.1657182115
 11
55.671029373
 21
116.8037182115
  0
LINE
  5
2DB
100
AcDbEntity
  8
0
100
AcDbLine
 62
7
  6
BYLAYER
 10
55.751029373
 20
9.7802121307
 11
55.751029373
 21
9.5618475868
  0
LINE
  5
2DC
100
AcDbEntity
  8
0
100
AcDbLine
 62
7
  6
BYLAYER
 10
55.751029373
 20
62.1653782115
 11
55.751029373
 21
92.1657182115
  0
LINE
  5
2DD
100
AcDbEntity
  8
0
100
AcDbLine
 62
7
  6
BYLAYER
 10
58.007629373
 20
62.1657182115
 11
58.007629373
 21
66.1657182115
  0
LINE
  5
2DE
100
AcDbEntity
  8
0
100
AcDbLine
 62
7
  6
BYLAYER
 10
58.211029373
 20
116.8037182115
 11
58.211029373
 21
101.8192667618
  0
LINE
  5
2DF
100
AcDbEntity
  8
0
100
AcDbLine
 62
7
  6
BYLAYER
 10
58.211029373
 20
99.7146147517
 11
58.211029373
 21
92.1657182115
  0
LINE
  5
2E0
100
AcDbEntity
  8
00_COMPONENTS
100
AcDbLine
 62
7
  6
BYLAYER
 10
58.2510293729
 20
34.8327782115
 11
58.2510293729
 21
26.4109781995
  0
LWPOLYLINE
  5
2E1
100
AcDbEntity
  8
0
100
AcDbPolyline
 62
7
  6
BYLAYER
 90
4
 70
0
 10
36.8615484485
 20
9.7684633857
 10
36.8606775011
 20
9.7659369195
 10
36.9847399249
 20
9.7781307417
 10
37.0889943759
 20
9.7802170043
  0
LINE
  5
2E2
100
AcDbEntity
  8
0
100
AcDbLine
 62
7
  6
BYLAYER
 10
60.737029373
 20
57.3117782115
 11
60.737029373
 21
50.9109782115
  0
LINE
  5
2E3
100
AcDbEntity
  8
0
100
AcDbLine
 62
7
  6
BYLAYER
 10
60.751029373
 20
25.5449527957
 11
60.751029373
 21
16.9285906671
  0
LINE
  5
2E4
100
AcDbEntity
  8
0
100
AcDbLine
 62
7
  6
BYLAYER
 10
60.9231617215
 20
92.1657182115
 11
60.9231617215
 21
84.1657182115
  0
LINE
  5
2E5
100
AcDbEntity
  8
0
100
AcDbLine
 62
7
  6
BYLAYER
 10
61.1223355625
 20
66.1657182115
 11
61.1223355625
 21
70.1657182115
  0
LINE
  5
2E6
100
AcDbEntity
  8
0
100
AcDbLine
 62
7
  6
BYLAYER
 10
61.1223355625
 20
80.1657182115
 11
61.1223355625
 21
84.1657182115
  0
LINE
  5
2E7
100
AcDbEntity
  8
0
100
AcDbLine
 62
7
  6
BYLAYER
 10
61.4068991158
 20
70.1657182115
 11
61.4068991158
 21
80.1657182115
  0
LINE
  5
2E8
100
AcDbEntity
  8
00_COMPONENTS
100
AcDbLine
 62
7
  6
BYLAYER
 10
61.751029377
 20
40.5249726096
 11
61.751029377
 21
35.0867782115
  0
LINE
  5
2E9
100
AcDbEntity
  8
0
100
AcDbLine
 62
7
  6
BYLAYER
 10
25.747429373
 20
80.1657182115
 11
30.3797231835
 21
80.1657182115
  0
LINE
  5
2EA
100
AcDbEntity
  8
0
100
AcDbLine
 62
7
  6
BYLAYER
 10
61.1223355625
 20
80.1657182115
 11
65.754629373
 21
80.1657182115
  0
LINE
  5
2EB
100
AcDbEntity
  8
0
100
AcDbLine
 62
7
  6
BYLAYER
 10
63.138629373
 20
101.4654407567
 11
63.138629373
 21
104.0009472793
  0
LINE
  5
2EC
100
AcDbEntity
  8
0
100
AcDbLine
 62
7
  6
BYLAYER
 10
63.138629373
 20
104.8928242986
 11
63.138629373
 21
108.2545143843
  0
LINE
  5
2ED
100
AcDbEntity
  8
0
100
AcDbLine
 62
7
  6
BYLAYER
 10
63.138629373
 20
110.7330650737
 11
63.138629373
 21
112.8554798147
  0
LINE
  5
2EE
100
AcDbEntity
  8
0
100
AcDbLine
 62
7
  6
BYLAYER
 10
63.138629373
 20
113.747356834
 11
63.138629373
 21
116.8037182115
  0
LINE
  5
2EF
100
AcDbEntity
  8
00_COMPONENTS
100
AcDbLine
 62
7
  6
BYLAYER
 10
63.213529373
 20
48.1169782115
 11
63.213529373
 21
41.8239529779
  0
LINE
  5
2F0
100
AcDbEntity
  8
0
100
AcDbLine
 62
7
  6
BYLAYER
 10
63.751029373
 20
60.8992782115
 11
63.751029373
 21
58.8992782115
  0
LINE
  5
2F1
100
AcDbEntity
  8
00_COMPONENTS
100
AcDbLine
 62
7
  6
BYLAYER
 10
64.166029373
 20
49.3869782115
 11
64.166029373
 21
48.1169782115
  0
LINE
  5
2F2
100
AcDbEntity
  8
0
100
AcDbLine
 62
7
  6
BYLAYER
 10
64.611629373
 20
80.1657182115
 11
64.611629373
 21
70.1657182115
  0
LINE
  5
2F3
100
AcDbEntity
  8
0
100
AcDbLine
 62
7
  6
BYLAYER
 10
64.611629373
 20
66.1657182115
 11
64.611629373
 21
62.1657182115
  0
LINE
  5
2F4
100
AcDbEntity
  8
00_COMPONENTS
100
AcDbLine
 62
7
  6
BYLAYER
 10
64.801029373
 20
50.9109782115
 11
64.801029373
 21
49.3869782115
  0
LINE
  5
2F5
100
AcDbEntity
  8
0
100
AcDbLine
 62
7
  6
BYLAYER
 10
65.251029373
 20
62.1653782115
 11
65.251029373
 21
60.8992782115
  0
LINE
  5
2F6
100
AcDbEntity
  8
0
100
AcDbLine
 62
7
  6
BYLAYER
 10
65.3930164923
 20
14.7109781995
 11
65.3930164923
 21
13.738722449
  0
LINE
  5
2F7
100
AcDbEntity
  8
0
100
AcDbLine
 62
7
  6
BYLAYER
 10
65.3965966211
 20
13.7387224497
 11
65.3965966211
 21
14.7109781995
  0
LINE
  5
2F8
100
AcDbEntity
  8
0
100
AcDbLine
 62
7
  6
BYLAYER
 10
65.4520125862
 20
13.7387222709
 11
65.4520125862
 21
14.7109781995
  0
LINE
  5
2F9
100
AcDbEntity
  8
00_COMPONENTS
100
AcDbLine
 62
7
  6
BYLAYER
 10
65.5247493063
 20
12.188094177
 11
65.5247493063
 21
14.7109781995
  0
LINE
  5
2FA
100
AcDbEntity
  8
0
100
AcDbLine
 62
7
  6
BYLAYER
 10
65.594779373
 20
58.8992782115
 11
65.594779373
 21
57.3117782115
  0
LINE
  5
2FB
100
AcDbEntity
  8
0
100
AcDbLine
 62
7
  6
BYLAYER
 10
65.6265219275
 20
13.738722449
 11
65.6265219275
 21
14.7109781995
  0
LINE
  5
2FC
100
AcDbEntity
  8
0
100
AcDbLine
 62
7
  6
BYLAYER
 10
65.7358778578
 20
14.7109781995
 11
65.7358778578
 21
13.738722449
  0
LINE
  5
2FD
100
AcDbEntity
  8
00_COMPONENTS
100
AcDbLine
 62
7
  6
BYLAYER
 10
65.751029373
 20
12.1895291105
 11
65.751029373
 21
14.7109781995
  0
LINE
  5
2FE
100
AcDbEntity
  8
0
100
AcDbLine
 62
7
  6
BYLAYER
 10
65.754629373
 20
70.1657182115
 11
65.754629373
 21
66.1657182115
  0
LINE
  5
2FF
100
AcDbEntity
  8
0
100
AcDbLine
 62
7
  6
BYLAYER
 10
65.754629373
 20
80.1657182115
 11
65.754629373
 21
88.1693182115
  0
LINE
  5
300
100
AcDbEntity
  8
0
100
AcDbLine
 62
7
  6
BYLAYER
 10
65.932629373
 20
116.8037182115
 11
65.932629373
 21
118.6071182115
  0
LINE
  5
301
100
AcDbEntity
  8
0
100
AcDbLine
 62
7
  6
BYLAYER
 10
30.5788970245
 20
84.1657182115
 11
29.751029373
 21
84.1657182115
  0
LINE
  5
302
100
AcDbEntity
  8
0
100
AcDbLine
 62
7
  6
BYLAYER
 10
60.9231617215
 20
84.1657182115
 11
61.751029373
 21
84.1657182115
  0
LINE
  5
303
100
AcDbEntity
  8
0
100
AcDbLine
 62
7
  6
BYLAYER
 10
68.251029373
 20
90.6657182115
 11
68.251029373
 21
92.1657182115
  0
LINE
  5
304
100
AcDbEntity
  8
0
100
AcDbLine
 62
7
  6
BYLAYER
 10
69.387029373
 20
116.8037182115
 11
69.387029373
 21
118.6071182115
  0
LINE
  5
305
100
AcDbEntity
  8
0
100
AcDbLine
 62
7
  6
BYLAYER
 10
69.641029373
 20
111.7298735031
 11
69.641029373
 21
110.3617066981
  0
LINE
  5
306
100
AcDbEntity
  8
0
100
AcDbLine
 62
7
  6
BYLAYER
 10
69.641029373
 20
102.8753409678
 11
69.641029373
 21
101.5071741627
  0
LINE
  5
307
100
AcDbEntity
  8
0
100
AcDbLine
 62
7
  6
BYLAYER
 10
70.911029373
 20
92.2915389559
 11
70.911029373
 21
116.8037182115
  0
LINE
  5
308
100
AcDbEntity
  8
00_COMPONENTS
100
AcDbLine
 62
7
  6
BYLAYER
 10
63.213529373
 20
41.8239529779
 11
62.144729377
 21
41.2068810125
  0
LINE
  5
309
100
AcDbEntity
  8
0
100
AcDbLine
 62
7
  6
BYLAYER
 10
23.251029373
 20
92.1657182115
 11
68.251029373
 21
92.1657182115
  0
LINE
  5
30A
100
AcDbEntity
  8
0
100
AcDbLine
 62
7
  6
BYLAYER
 10
35.791029373
 20
92.1911182115
 11
35.816429373
 21
92.1911182115
  0
LINE
  5
30B
100
AcDbEntity
  8
0
100
AcDbLine
 62
7
  6
BYLAYER
 10
55.645629373
 20
92.1911182115
 11
55.671029373
 21
92.1911182115
  0
LINE
  5
30C
100
AcDbEntity
  8
0
100
AcDbLine
 62
7
  6
BYLAYER
 10
33.251029373
 20
92.2915389559
 11
20.551029373
 21
92.2915389559
  0
LINE
  5
30D
100
AcDbEntity
  8
0
100
AcDbLine
 62
7
  6
BYLAYER
 10
58.211029373
 20
92.2915389559
 11
70.911029373
 21
92.2915389559
  0
LINE
  5
30E
100
AcDbEntity
  8
0
100
AcDbLine
 62
7
  6
BYLAYER
 10
24.4091283126
 20
101.309910842
 11
23.6027679039
 21
101.6391061003
  0
LINE
  5
30F
100
AcDbEntity
  8
0
100
AcDbLine
 62
7
  6
BYLAYER
 10
24.1107679039
 20
101.6146980543
 11
24.7635643796
 21
101.3481950091
  0
LINE
  5
310
100
AcDbEntity
  8
0
100
AcDbLine
 62
7
  6
BYLAYER
 10
24.1107679039
 20
102.261276495
 11
25.8185406727
 21
101.5640811817
  0
LINE
  5
311
100
AcDbEntity
  8
00_COMPONENTS
100
AcDbLine
 62
7
  6
BYLAYER
 10
61.751029377
 20
35.0867782115
 11
61.497029377
 21
34.8327782115
  0
LINE
  5
312
100
AcDbEntity
  8
0
100
AcDbLine
 62
7
  6
BYLAYER
 10
58.211029373
 20
99.7146147517
 11
55.671029373
 21
99.7146147517
  0
LINE
  5
313
100
AcDbEntity
  8
0
100
AcDbLine
 62
7
  6
BYLAYER
 10
35.791029373
 20
99.7146147517
 11
33.251029373
 21
99.7146147517
  0
LINE
  5
314
100
AcDbEntity
  8
0
100
AcDbLine
 62
7
  6
BYLAYER
 10
35.791029373
 20
100.0684407567
 11
25.6093937725
 21
100.0684407567
  0
LINE
  5
315
100
AcDbEntity
  8
0
100
AcDbLine
 62
7
  6
BYLAYER
 10
55.671029373
 20
100.0684407567
 11
65.8526649735
 21
100.0684407567
  0
LINE
  5
316
100
AcDbEntity
  8
0
100
AcDbLine
 62
7
  6
BYLAYER
 10
24.4091283126
 20
110.1644433774
 11
23.6027679039
 21
110.4936386357
  0
LINE
  5
317
100
AcDbEntity
  8
0
100
AcDbLine
 62
7
  6
BYLAYER
 10
24.1107679039
 20
110.4692305897
 11
24.7635643796
 21
110.2027275444
  0
LINE
  5
318
100
AcDbEntity
  8
0
100
AcDbLine
 62
7
  6
BYLAYER
 10
24.1107679039
 20
111.1158090304
 11
25.8185406727
 21
110.418613717
  0
LWPOLYLINE
  5
319
100
AcDbEntity
  8
0
100
AcDbPolyline
 62
7
  6
BYLAYER
 90
3
 70
0
 10
64.9182174297
 20
12.1544560597
 10
64.9215590339
 20
12.1616081587
 10
64.9588289501
 20
12.2318302938
  0
LINE
  5
31A
100
AcDbEntity
  8
0
100
AcDbLine
 62
7
  6
BYLAYER
 10
25.6093937725
 20
100.0684407567
 11
20.551029373
 21
98.7665906512
  0
LINE
  5
31B
100
AcDbEntity
  8
0
100
AcDbLine
 62
7
  6
BYLAYER
 10
35.791029373
 20
101.4654407567
 11
28.323429373
 21
101.4654407567
  0
LINE
  5
31C
100
AcDbEntity
  8
0
100
AcDbLine
 62
7
  6
BYLAYER
 10
55.671029373
 20
101.4654407567
 11
63.138629373
 21
101.4654407567
  0
LINE
  5
31D
100
AcDbEntity
  8
0
100
AcDbLine
 62
7
  6
BYLAYER
 10
33.251029373
 20
101.8192667618
 11
35.791029373
 21
101.8192667618
  0
LINE
  5
31E
100
AcDbEntity
  8
0
100
AcDbLine
 62
7
  6
BYLAYER
 10
55.671029373
 20
101.8192667618
 11
58.211029373
 21
101.8192667618
  0
LINE
  5
31F
100
AcDbEntity
  8
0
100
AcDbLine
 62
7
  6
BYLAYER
 10
21.821029373
 20
102.8753409678
 11
23.5922517371
 21
102.8753409678
  0
LINE
  5
320
100
AcDbEntity
  8
0
100
AcDbLine
 62
7
  6
BYLAYER
 10
67.8698070089
 20
102.8753409678
 11
69.641029373
 21
102.8753409678
  0
LINE
  5
321
100
AcDbEntity
  8
0
100
AcDbLine
 62
7
  6
BYLAYER
 10
70.911029373
 20
98.7665906512
 11
65.8526649735
 21
100.0684407567
  0
LWPOLYLINE
  5
322
100
AcDbEntity
  8
0
100
AcDbPolyline
 62
7
  6
BYLAYER
 90
9
 70
0
 10
64.9588289501
 20
12.2318302938
 10
65.020693709
 20
12.3443464177
 10
65.0956684689
 20
12.4897495438
 10
65.135419558
 20
12.5737995553
 10
65.2149457747
 20
12.7644552554
 10
65.2890485821
 20
12.9867872741
 10
65.3503193417
 20
13.2441408336
 10
65.389281059
 20
13.5417795697
 10
65.3965946348
 20
13.7387224561
  0
LINE
  5
323
100
AcDbEntity
  8
0
100
AcDbLine
 62
7
  6
BYLAYER
 10
22.8558767687
 20
101.7735085121
 11
20.551029373
 21
101.1803195703
  0
LINE
  5
324
100
AcDbEntity
  8
0
100
AcDbLine
 62
7
  6
BYLAYER
 10
33.251029373
 20
108.2545143843
 11
28.323429373
 21
108.2545143843
  0
LINE
  5
325
100
AcDbEntity
  8
0
100
AcDbLine
 62
7
  6
BYLAYER
 10
58.211029373
 20
108.2545143843
 11
63.138629373
 21
108.2545143843
  0
LINE
  5
326
100
AcDbEntity
  8
0
100
AcDbLine
 62
7
  6
BYLAYER
 10
70.911029373
 20
101.1803195703
 11
68.6061819772
 21
101.7735085121
  0
LINE
  5
327
100
AcDbEntity
  8
0
100
AcDbLine
 62
7
  6
BYLAYER
 10
65.8526649735
 20
100.0684407567
 11
63.138629373
 21
101.4654407567
  0
LINE
  5
328
100
AcDbEntity
  8
0
100
AcDbLine
 62
7
  6
BYLAYER
 10
20.551029373
 20
103.7127517964
 11
22.8558767687
 21
104.3059407383
  0
LINE
  5
329
100
AcDbEntity
  8
0
100
AcDbLine
 62
7
  6
BYLAYER
 10
20.551029373
 20
106.2541642787
 11
28.323429373
 21
108.2545143843
  0
LINE
  5
32A
100
AcDbEntity
  8
0
100
AcDbLine
 62
7
  6
BYLAYER
 10
33.251029373
 20
110.7330650737
 11
28.323429373
 21
110.7330650737
  0
LINE
  5
32B
100
AcDbEntity
  8
0
100
AcDbLine
 62
7
  6
BYLAYER
 10
58.211029373
 20
110.7330650737
 11
63.138629373
 21
110.7330650737
  0
LINE
  5
32C
100
AcDbEntity
  8
0
100
AcDbLine
 62
7
  6
BYLAYER
 10
21.821029373
 20
111.7298735031
 11
23.5922517371
 21
111.7298735031
  0
LINE
  5
32D
100
AcDbEntity
  8
0
100
AcDbLine
 62
7
  6
BYLAYER
 10
67.8698070089
 20
111.7298735031
 11
69.641029373
 21
111.7298735031
  0
LINE
  5
32E
100
AcDbEntity
  8
0
100
AcDbLine
 62
7
  6
BYLAYER
 10
68.6061819773
 20
104.3059407383
 11
70.911029373
 21
103.7127517964
  0
LINE
  5
32F
100
AcDbEntity
  8
0
100
AcDbLine
 62
7
  6
BYLAYER
 10
70.911029373
 20
106.2541642787
 11
63.138629373
 21
108.2545143843
  0
LINE
  5
330
100
AcDbEntity
  8
0
100
AcDbLine
 62
7
  6
BYLAYER
 10
28.323429373
 20
110.7330650737
 11
20.551029373
 21
108.7327149681
  0
LINE
  5
331
100
AcDbEntity
  8
0
100
AcDbLine
 62
7
  6
BYLAYER
 10
22.8558767687
 20
110.6280410475
 11
20.551029373
 21
110.0348521057
  0
LINE
  5
332
100
AcDbEntity
  8
0
100
AcDbLine
 62
7
  6
BYLAYER
 10
70.911029373
 20
108.7327149681
 11
63.138629373
 21
110.7330650737
  0
LINE
  5
333
100
AcDbEntity
  8
0
100
AcDbLine
 62
7
  6
BYLAYER
 10
70.911029373
 20
110.0348521057
 11
68.6061819773
 21
110.6280410475
  0
LINE
  5
334
100
AcDbEntity
  8
0
100
AcDbLine
 62
7
  6
BYLAYER
 10
20.551029373
 20
112.5672843318
 11
22.8558767688
 21
113.1604732736
  0
LINE
  5
335
100
AcDbEntity
  8
0
100
AcDbLine
 62
7
  6
BYLAYER
 10
55.671029373
 20
116.7783182115
 11
55.645629373
 21
116.7783182115
  0
LINE
  5
336
100
AcDbEntity
  8
0
100
AcDbLine
 62
7
  6
BYLAYER
 10
35.816429373
 20
116.7783182115
 11
35.791029373
 21
116.7783182115
  0
LINE
  5
337
100
AcDbEntity
  8
0
100
AcDbLine
 62
7
  6
BYLAYER
 10
20.551029373
 20
116.8037182115
 11
70.911029373
 21
116.8037182115
  0
LINE
  5
338
100
AcDbEntity
  8
0
100
AcDbLine
 62
7
  6
BYLAYER
 10
69.387029373
 20
118.6071182115
 11
65.932629373
 21
118.6071182115
  0
LINE
  5
339
100
AcDbEntity
  8
0
100
AcDbLine
 62
7
  6
BYLAYER
 10
25.529429373
 20
118.6071182115
 11
22.075029373
 21
118.6071182115
  0
LINE
  5
33A
100
AcDbEntity
  8
0
100
AcDbLine
 62
7
  6
BYLAYER
 10
68.6061819772
 20
113.1604732736
 11
70.911029373
 21
112.5672843318
  0
ARC
  5
33B
100
AcDbEntity
  8
0
100
AcDbCircle
 62
7
  6
BYLAYER
 10
15.7946863296
 20
-59.0060850416
 40
71.0265547396
100
AcDbArc
 50
76.9688256032
 51
77.1936967357
  0
ARC
  5
33C
100
AcDbEntity
  8
0
100
AcDbCircle
 62
7
  6
BYLAYER
 10
24.478431784
 20
-43.0421765583
 40
53.6179924228
100
AcDbArc
 50
79.2315492616
 51
79.3519264503
  0
ARC
  5
33D
100
AcDbEntity
  8
0
100
AcDbCircle
 62
7
  6
BYLAYER
 10
24.0116212323
 20
-22.9025451631
 40
33.999761699
100
AcDbArc
 50
77.2105154026
 51
77.4951489117
  0
ARC
  5
33E
100
AcDbEntity
  8
0
100
AcDbCircle
 62
7
  6
BYLAYER
 10
29.4638857356
 20
-16.5065971539
 40
26.6181461211
100
AcDbArc
 50
79.3443264891
 51
79.718253382
  0
ARC
  5
33F
100
AcDbEntity
  8
0
100
AcDbCircle
 62
7
  6
BYLAYER
 10
29.0656963899
 20
-2.2155014701
 40
13.1590109314
100
AcDbArc
 50
76.4870618998
 51
77.825735676
  0
ARC
  5
340
100
AcDbEntity
  8
0
100
AcDbCircle
 62
7
  6
BYLAYER
 10
31.9688021462
 20
15.9934306605
 40
5.6585596317
100
AcDbArc
 50
255.299935496
 51
256.2353633112
  0
ARC
  5
341
100
AcDbEntity
  8
0
100
AcDbCircle
 62
7
  6
BYLAYER
 10
28.251029373
 20
13.738722449
 40
2.5
100
AcDbArc
 50
222.3426053552
 51
252.2810681265
  0
ARC
  5
342
100
AcDbEntity
  8
0
100
AcDbCircle
 62
7
  6
BYLAYER
 10
27.851029373
 20
14.7109781995
 40
1.5
100
AcDbArc
 50
94.9999999999
 51
180.0
  0
ARC
  5
343
100
AcDbEntity
  8
0
100
AcDbCircle
 62
7
  6
BYLAYER
 10
31.5207032201
 20
11.9034920224
 40
0.9764450862
100
AcDbArc
 50
243.8672376885
 51
244.3973923033
  0
ARC
  5
344
100
AcDbEntity
  8
0
100
AcDbCircle
 62
7
  6
BYLAYER
 10
30.251029373
 20
16.9285906671
 40
0.5
100
AcDbArc
 50
274.9999999995
 51
360.0
  0
ARC
  5
345
100
AcDbEntity
  8
0
100
AcDbCircle
 62
7
  6
BYLAYER
 10
32.1978822091
 20
-1.5031155346
 40
11.3676099908
100
AcDbArc
 50
79.779447361
 51
80.0880525908
  0
ARC
  5
346
100
AcDbEntity
  8
0
100
AcDbCircle
 62
7
  6
BYLAYER
 10
34.400298362
 20
20.356657095
 40
10.2638991195
100
AcDbArc
 50
255.2739986888
 51
256.7338493347
  0
ARC
  5
347
100
AcDbEntity
  8
0
100
AcDbCircle
 62
7
  6
BYLAYER
 10
34.3220333339
 20
20.0572274451
 40
9.9544102698
100
AcDbArc
 50
255.1228292516
 51
255.2715820317
  0
ARC
  5
348
100
AcDbEntity
  8
0
100
AcDbCircle
 62
7
  6
BYLAYER
 10
36.3516878318
 20
19.2334399596
 40
9.7524662779
100
AcDbArc
 50
259.2006787931
 51
260.2501053093
  0
ARC
  5
349
100
AcDbEntity
  8
0
100
AcDbCircle
 62
7
  6
BYLAYER
 10
34.1784892732
 20
19.4233714186
 40
9.3046232477
100
AcDbArc
 50
257.2643403366
 51
258.2166730826
  0
ARC
  5
34A
100
AcDbEntity
  8
0
100
AcDbCircle
 62
7
  6
BYLAYER
 10
34.1460245974
 20
19.2807040125
 40
9.1583088697
100
AcDbArc
 50
256.7375047739
 51
257.2656820446
  0
ARC
  5
34B
100
AcDbEntity
  8
0
100
AcDbCircle
 62
7
  6
BYLAYER
 10
36.3062893782
 20
18.5017537893
 40
9.0852830159
100
AcDbArc
 50
260.7085068907
 51
261.1514940197
  0
ARC
  5
34C
100
AcDbEntity
  8
0
100
AcDbCircle
 62
7
  6
BYLAYER
 10
33.8884186663
 20
19.0233881569
 40
9.019592707
100
AcDbArc
 50
253.9000235828
 51
254.9530281724
  0
ARC
  5
34D
100
AcDbEntity
  8
0
100
AcDbCircle
 62
7
  6
BYLAYER
 10
33.8990607643
 20
18.4991591498
 40
8.3399781888
100
AcDbArc
 50
253.5372546292
 51
255.1830338649
  0
ARC
  5
34E
100
AcDbEntity
  8
0
100
AcDbCircle
 62
7
  6
BYLAYER
 10
36.0521026179
 20
17.7759957914
 40
8.3201019147
100
AcDbArc
 50
259.483407074
 51
260.1802935288
  0
ARC
  5
34F
100
AcDbEntity
  8
0
100
AcDbCircle
 62
7
  6
BYLAYER
 10
36.0447697772
 20
17.4499101608
 40
7.9427212714
100
AcDbArc
 50
260.2533398112
 51
260.9781060669
  0
ARC
  5
350
100
AcDbEntity
  8
0
100
AcDbCircle
 62
7
  6
BYLAYER
 10
32.5133066781
 20
18.0632113062
 40
7.7987641939
100
AcDbArc
 50
254.4561385995
 51
255.2892387128
  0
ARC
  5
351
100
AcDbEntity
  8
0
100
AcDbCircle
 62
7
  6
BYLAYER
 10
35.8326797856
 20
16.919079836
 40
7.4370743097
100
AcDbArc
 50
258.0115742665
 51
258.7873466421
  0
ARC
  5
352
100
AcDbEntity
  8
0
100
AcDbCircle
 62
7
  6
BYLAYER
 10
32.3607341163
 20
17.548435361
 40
7.2619357242
100
AcDbArc
 50
252.982544952
 51
254.5275003585
  0
ARC
  5
353
100
AcDbEntity
  8
0
100
AcDbCircle
 62
7
  6
BYLAYER
 10
35.7598898495
 20
16.0595152683
 40
6.5789343719
100
AcDbArc
 50
260.1383913068
 51
261.0482562046
  0
ARC
  5
354
100
AcDbEntity
  8
0
100
AcDbCircle
 62
7
  6
BYLAYER
 10
35.7351203458
 20
15.9487540907
 40
6.1814370925
100
AcDbArc
 50
254.9022776119
 51
255.626275962
  0
ARC
  5
355
100
AcDbEntity
  8
0
100
AcDbCircle
 62
7
  6
BYLAYER
 10
35.6523399781
 20
16.0058150667
 40
5.9721810856
100
AcDbArc
 50
258.8465367132
 51
259.113126963
  0
ARC
  5
356
100
AcDbEntity
  8
0
100
AcDbCircle
 62
7
  6
BYLAYER
 10
35.4474196902
 20
15.1235874838
 40
5.6007198111
100
AcDbArc
 50
257.2319966451
 51
258.0515569567
  0
ARC
  5
357
100
AcDbEntity
  8
0
100
AcDbCircle
 62
7
  6
BYLAYER
 10
35.6488338489
 20
14.9729455699
 40
5.434313647
100
AcDbArc
 50
261.00573122
 51
261.6647936761
  0
ARC
  5
358
100
AcDbEntity
  8
0
100
AcDbCircle
 62
7
  6
BYLAYER
 10
35.5033591812
 20
15.282344086
 40
5.2335598145
100
AcDbArc
 50
256.7822220125
 51
258.9146372018
  0
ARC
  5
359
100
AcDbEntity
  8
0
100
AcDbCircle
 62
7
  6
BYLAYER
 10
35.3406147168
 20
14.0592601694
 40
4.4683894807
100
AcDbArc
 50
259.2050928675
 51
260.5538033876
  0
ARC
  5
35A
100
AcDbEntity
  8
0
100
AcDbCircle
 62
7
  6
BYLAYER
 10
35.3016803512
 20
13.8110550283
 40
4.2171606451
100
AcDbArc
 50
260.5221561103
 51
261.7887403864
  0
ARC
  5
35B
100
AcDbEntity
  8
0
100
AcDbCircle
 62
7
  6
BYLAYER
 10
35.3626416928
 20
13.5293711854
 40
4.0177954719
100
AcDbArc
 50
261.0298987057
 51
261.7129654613
  0
ARC
  5
35C
100
AcDbEntity
  8
0
100
AcDbCircle
 62
7
  6
BYLAYER
 10
35.0384000336
 20
13.3157819974
 40
3.7472211815
100
AcDbArc
 50
256.8793411235
 51
257.2224210757
  0
ARC
  5
35D
100
AcDbEntity
  8
00_COMPONENTS
100
AcDbCircle
 62
7
  6
BYLAYER
 10
35.7159470727
 20
12.3592002606
 40
3.5629387158
100
AcDbArc
 50
320.2129998274
 51
321.1313168197
  0
ARC
  5
35E
100
AcDbEntity
  8
0
100
AcDbCircle
 62
7
  6
BYLAYER
 10
35.2061277688
 20
13.1536307436
 40
3.5528290702
100
AcDbArc
 50
261.7996646437
 51
262.1743613817
  0
ARC
  5
35F
100
AcDbEntity
  8
0
100
AcDbCircle
 62
7
  6
BYLAYER
 10
32.6183792377
 20
13.7007442391
 40
3.3114430783
100
AcDbArc
 50
255.4784103758
 51
255.9360511067
  0
ARC
  5
360
100
AcDbEntity
  8
0
100
AcDbCircle
 62
7
  6
BYLAYER
 10
34.8821547836
 20
12.9322663607
 40
3.2833314609
100
AcDbArc
 50
256.0214328228
 51
256.2590102986
  0
ARC
  5
361
100
AcDbEntity
  8
0
100
AcDbCircle
 62
7
  6
BYLAYER
 10
35.2719978291
 20
12.6169884373
 40
2.9410444796
100
AcDbArc
 50
259.399378616
 51
261.3407164959
  0
ARC
  5
362
100
AcDbEntity
  8
0
100
AcDbCircle
 62
7
  6
BYLAYER
 10
35.0395484952
 20
12.8258461438
 40
2.7337072458
100
AcDbArc
 50
259.1374449871
 51
262.098348271
  0
ARC
  5
363
100
AcDbEntity
  8
0
100
AcDbCircle
 62
7
  6
BYLAYER
 10
34.3241699009
 20
7.012836451
 40
2.6092257347
100
AcDbArc
 50
75.0134427493
 51
76.1281057443
  0
ARC
  5
364
100
AcDbEntity
  8
0
100
AcDbCircle
 62
7
  6
BYLAYER
 10
34.5818686915
 20
7.9746084929
 40
1.6135279671
100
AcDbArc
 50
74.2220545645
 51
75.0214894673
  0
ARC
  5
365
100
AcDbEntity
  8
0
100
AcDbCircle
 62
7
  6
BYLAYER
 10
34.8359408143
 20
9.2149028072
 40
0.5423098083
100
AcDbArc
 50
67.9126002847
 51
68.7354392017
  0
ARC
  5
366
100
AcDbEntity
  8
0
100
AcDbCircle
 62
7
  6
BYLAYER
 10
33.0877838816
 20
10.3212595092
 40
0.4425920012
100
AcDbArc
 50
262.3219969468
 51
262.7831880944
  0
ARC
  5
367
100
AcDbEntity
  8
0
100
AcDbCircle
 62
7
  6
BYLAYER
 10
37.6309477783
 20
33.6820167096
 40
24.2326135543
100
AcDbArc
 50
256.9046161018
 51
257.5454021077
  0
ARC
  5
368
100
AcDbEntity
  8
0
100
AcDbCircle
 62
7
  6
BYLAYER
 10
37.1413764109
 20
30.2925150967
 40
20.8232169504
100
AcDbArc
 50
257.6783719677
 51
257.9435517733
  0
ARC
  5
369
100
AcDbEntity
  8
0
100
AcDbCircle
 62
7
  6
BYLAYER
 10
38.1251606162
 20
28.6319336713
 40
19.3782135776
100
AcDbArc
 50
258.8554944373
 51
259.1760894741
  0
ARC
  5
36A
100
AcDbEntity
  8
0
100
AcDbCircle
 62
7
  6
BYLAYER
 10
35.9416885323
 20
26.8087383376
 40
17.071351346
100
AcDbArc
 50
256.7610143259
 51
257.6191801781
  0
ARC
  5
36B
100
AcDbEntity
  8
0
100
AcDbCircle
 62
7
  6
BYLAYER
 10
36.5459939589
 20
26.5049306621
 40
16.4270902667
100
AcDbArc
 50
252.3557417779
 51
252.5228276751
  0
ARC
  5
36C
100
AcDbEntity
  8
0
100
AcDbCircle
 62
7
  6
BYLAYER
 10
35.4841851116
 20
24.9535556837
 40
15.1607128063
100
AcDbArc
 50
254.9472944936
 51
256.8384244431
  0
ARC
  5
36D
100
AcDbEntity
  8
0
100
AcDbCircle
 62
7
  6
BYLAYER
 10
25.4065357523
 20
108.8425810366
 40
2.0796641761
100
AcDbArc
 50
128.5403706278
 51
133.7507702357
  0
ARC
  5
36E
100
AcDbEntity
  8
0
100
AcDbCircle
 62
7
  6
BYLAYER
 10
25.4065357522
 20
99.9880485013
 40
2.079664176
100
AcDbArc
 50
128.5403706277
 51
133.7507702358
  0
ARC
  5
36F
100
AcDbEntity
  8
00_COMPONENTS
100
AcDbCircle
 62
7
  6
BYLAYER
 10
28.963629369
 20
40.5249726096
 40
0.7874
100
AcDbArc
 50
0.0
 51
60.0
  0
ARC
  5
370
100
AcDbEntity
  8
0
100
AcDbCircle
 62
7
  6
BYLAYER
 10
63.251029373
 20
13.738722449
 40
2.5
100
AcDbArc
 50
287.7189318735
 51
317.6573946382
  0
ARC
  5
371
100
AcDbEntity
  8
0
100
AcDbCircle
 62
7
  6
BYLAYER
 10
63.651029373
 20
14.7109781995
 40
1.5
100
AcDbArc
 50
0.0
 51
85.0000000001
  0
ARC
  5
372
100
AcDbEntity
  8
0
100
AcDbCircle
 62
7
  6
BYLAYER
 10
61.251029373
 20
16.9285906671
 40
0.5
100
AcDbArc
 50
180.0
 51
265.0000000005
  0
ARC
  5
373
100
AcDbEntity
  8
0
100
AcDbCircle
 62
7
  6
BYLAYER
 10
55.501029373
 20
9.5618475868
 40
0.25
100
AcDbArc
 50
279.3915183979
 51
360.0
  0
ARC
  5
374
100
AcDbEntity
  8
0
100
AcDbCircle
 62
7
  6
BYLAYER
 10
45.8471800814
 20
53.7211922599
 40
45.2300527843
100
AcDbArc
 50
254.9874051366
 51
255.1348202794
  0
ARC
  5
375
100
AcDbEntity
  8
0
100
AcDbCircle
 62
7
  6
BYLAYER
 10
42.7714004715
 20
41.4037488593
 40
32.7376253166
100
AcDbArc
 50
253.9317633786
 51
254.3005161962
  0
ARC
  5
376
100
AcDbEntity
  8
0
100
AcDbCircle
 62
7
  6
BYLAYER
 10
44.5228270121
 20
63.2840509782
 40
54.6306539115
100
AcDbArc
 50
256.5343689926
 51
256.7651386173
  0
ARC
  5
377
100
AcDbEntity
  8
00_COMPONENTS
100
AcDbCircle
 62
7
  6
BYLAYER
 10
44.9116254613
 20
67.4382645023
 40
58.3029954301
100
AcDbArc
 50
262.1185167653
 51
266.0317675376
  0
ARC
  5
378
100
AcDbEntity
  8
00_COMPONENTS
100
AcDbCircle
 62
7
  6
BYLAYER
 10
44.5737119468
 20
67.4395759597
 40
57.9894924485
100
AcDbArc
 50
265.7282773629
 51
266.0100963173
  0
ARC
  5
379
100
AcDbEntity
  8
0
100
AcDbCircle
 62
7
  6
BYLAYER
 10
45.751029373
 20
68.5109781995
 40
60.0
100
AcDbArc
 50
281.8306240111
 51
287.7189318734
  0
ARC
  5
37A
100
AcDbEntity
  8
0
100
AcDbCircle
 62
7
  6
BYLAYER
 10
45.751029373
 20
68.5109781995
 40
60.0
100
AcDbArc
 50
259.7354899256
 51
279.3915177359
  0
ARC
  5
37B
100
AcDbEntity
  8
0
100
AcDbCircle
 62
7
  6
BYLAYER
 10
45.751029373
 20
68.5109781995
 40
60.0
100
AcDbArc
 50
252.2810681266
 51
255.7764767372
  0
ARC
  5
37C
100
AcDbEntity
  8
0
100
AcDbCircle
 62
7
  6
BYLAYER
 10
45.751029373
 20
68.5109781995
 40
60.0
100
AcDbArc
 50
257.7826749697
 51
258.0846828947
  0
ARC
  5
37D
100
AcDbEntity
  8
0
100
AcDbCircle
 62
7
  6
BYLAYER
 10
45.751029373
 20
68.5109781995
 40
59.9950735323
100
AcDbArc
 50
258.0836903506
 51
259.7356232189
  0
ARC
  5
37E
100
AcDbEntity
  8
0
100
AcDbCircle
 62
7
  6
BYLAYER
 10
45.751029373
 20
68.5109781995
 40
59.9918373097
100
AcDbArc
 50
258.0830378685
 51
259.7350638021
  0
ARC
  5
37F
100
AcDbEntity
  8
0
100
AcDbCircle
 62
7
  6
BYLAYER
 10
45.751029373
 20
68.5109781995
 40
59.9630073174
100
AcDbArc
 50
257.1445538632
 51
257.521669241
  0
ARC
  5
380
100
AcDbEntity
  8
0
100
AcDbCircle
 62
7
  6
BYLAYER
 10
45.751029373
 20
68.5109781995
 40
59.9527550883
100
AcDbArc
 50
255.8037286973
 51
257.7408423404
  0
ARC
  5
381
100
AcDbEntity
  8
0
100
AcDbCircle
 62
7
  6
BYLAYER
 10
45.751029373
 20
68.5109781995
 40
59.9461513051
100
AcDbArc
 50
259.4111882975
 51
259.6195658011
  0
ARC
  5
382
100
AcDbEntity
  8
0
100
AcDbCircle
 62
7
  6
BYLAYER
 10
45.751029373
 20
68.5109781995
 40
59.9249530663
100
AcDbArc
 50
255.7970041014
 51
257.7350662614
  0
ARC
  5
383
100
AcDbEntity
  8
0
100
AcDbCircle
 62
7
  6
BYLAYER
 10
45.751029373
 20
68.5109781995
 40
59.8664673772
100
AcDbArc
 50
258.6775319305
 51
258.9091599486
  0
ARC
  5
384
100
AcDbEntity
  8
0
100
AcDbCircle
 62
7
  6
BYLAYER
 10
45.751029373
 20
68.5109781995
 40
59.8648100993
100
AcDbArc
 50
259.459282862
 51
259.6712055595
  0
ARC
  5
385
100
AcDbEntity
  8
0
100
AcDbCircle
 62
7
  6
BYLAYER
 10
45.751029373
 20
68.5109781995
 40
59.8138912186
100
AcDbArc
 50
257.555512223
 51
257.7112739816
  0
ARC
  5
386
100
AcDbEntity
  8
0
100
AcDbCircle
 62
7
  6
BYLAYER
 10
45.751029373
 20
68.5109781995
 40
59.8138912186
100
AcDbArc
 50
254.8380425631
 51
255.855737027
  0
ARC
  5
387
100
AcDbEntity
  8
0
100
AcDbCircle
 62
7
  6
BYLAYER
 10
45.751029373
 20
68.5109781995
 40
59.8138912186
100
AcDbArc
 50
256.2558463976
 51
257.1824962984
  0
ARC
  5
388
100
AcDbEntity
  8
0
100
AcDbCircle
 62
7
  6
BYLAYER
 10
45.751029373
 20
68.5109781995
 40
59.8088576785
100
AcDbArc
 50
258.8057510912
 51
259.3823084594
  0
ARC
  5
389
100
AcDbEntity
  8
0
100
AcDbCircle
 62
7
  6
BYLAYER
 10
45.751029373
 20
68.5109781995
 40
59.7908364954
100
AcDbArc
 50
258.8023334859
 51
259.3625612208
  0
ARC
  5
38A
100
AcDbEntity
  8
0
100
AcDbCircle
 62
7
  6
BYLAYER
 10
45.751029373
 20
68.5109781995
 40
59.7908364954
100
AcDbArc
 50
258.3821986978
 51
258.6084007215
  0
ARC
  5
38B
100
AcDbEntity
  8
0
100
AcDbCircle
 62
7
  6
BYLAYER
 10
45.751029373
 20
68.5109781995
 40
59.7617901081
100
AcDbArc
 50
254.824506294
 51
257.7003929269
  0
ARC
  5
38C
100
AcDbEntity
  8
0
100
AcDbCircle
 62
7
  6
BYLAYER
 10
45.751029373
 20
68.5109781995
 40
59.7601831477
100
AcDbArc
 50
258.60247923
 51
258.7965154414
  0
ARC
  5
38D
100
AcDbEntity
  8
0
100
AcDbCircle
 62
7
  6
BYLAYER
 10
45.751029373
 20
68.5109781995
 40
59.7550842511
100
AcDbArc
 50
259.4403666822
 51
259.6417971488
  0
ARC
  5
38E
100
AcDbEntity
  8
0
100
AcDbCircle
 62
7
  6
BYLAYER
 10
45.751029373
 20
68.5109781995
 40
59.7010565214
100
AcDbArc
 50
258.5910398583
 51
259.6845210531
  0
ARC
  5
38F
100
AcDbEntity
  8
00_COMPONENTS
100
AcDbCircle
 62
7
  6
BYLAYER
 10
45.751029373
 20
68.5109781995
 40
59.7
100
AcDbArc
 50
252.2810681266
 51
279.3915181506
  0
ARC
  5
390
100
AcDbEntity
  8
00_COMPONENTS
100
AcDbCircle
 62
7
  6
BYLAYER
 10
45.751029373
 20
68.5109781995
 40
59.7
100
AcDbArc
 50
281.8307551413
 51
287.7189318734
  0
ARC
  5
391
100
AcDbEntity
  8
0
100
AcDbCircle
 62
7
  6
BYLAYER
 10
45.751029373
 20
68.5109781995
 40
59.67858946
100
AcDbArc
 50
259.1106354674
 51
259.6805950733
  0
ARC
  5
392
100
AcDbEntity
  8
0
100
AcDbCircle
 62
7
  6
BYLAYER
 10
45.751029373
 20
68.5109781995
 40
59.67858946
100
AcDbArc
 50
258.5866870374
 51
258.6712340454
  0
ARC
  5
393
100
AcDbEntity
  8
0
100
AcDbCircle
 62
7
  6
BYLAYER
 10
45.751029373
 20
68.5109781995
 40
59.67858946
100
AcDbArc
 50
258.7669091531
 51
258.8403280619
  0
ARC
  5
394
100
AcDbEntity
  8
0
100
AcDbCircle
 62
7
  6
BYLAYER
 10
45.751029373
 20
68.5109781995
 40
59.5442772329
100
AcDbArc
 50
258.5605951577
 51
259.6570620194
  0
ARC
  5
395
100
AcDbEntity
  8
0
100
AcDbCircle
 62
7
  6
BYLAYER
 10
45.751029373
 20
68.5109781995
 40
59.5165766463
100
AcDbArc
 50
258.5551990138
 51
259.6521951247
  0
ARC
  5
396
100
AcDbEntity
  8
0
100
AcDbCircle
 62
7
  6
BYLAYER
 10
45.751029373
 20
68.5109781995
 40
59.5134140206
100
AcDbArc
 50
257.0457549074
 51
257.4258648387
  0
ARC
  5
397
100
AcDbEntity
  8
0
100
AcDbCircle
 62
7
  6
BYLAYER
 10
45.751029373
 20
68.5109781995
 40
59.4688113529
100
AcDbArc
 50
255.6837269487
 51
257.6365034608
  0
ARC
  5
398
100
AcDbEntity
  8
0
100
AcDbCircle
 62
7
  6
BYLAYER
 10
45.751029373
 20
68.5109781995
 40
59.3824987717
100
AcDbArc
 50
256.7768136822
 51
257.6182482457
  0
ARC
  5
399
100
AcDbEntity
  8
0
100
AcDbCircle
 62
7
  6
BYLAYER
 10
45.751029373
 20
68.5109781995
 40
59.3824987717
100
AcDbArc
 50
255.6624730645
 51
256.2260276306
  0
ARC
  5
39A
100
AcDbEntity
  8
0
100
AcDbCircle
 62
7
  6
BYLAYER
 10
45.751029373
 20
68.5109781995
 40
59.3127860673
100
AcDbArc
 50
258.5704195811
 51
258.8042959522
  0
ARC
  5
39B
100
AcDbEntity
  8
0
100
AcDbCircle
 62
7
  6
BYLAYER
 10
45.751029373
 20
68.5109781995
 40
59.3088509231
100
AcDbArc
 50
259.3593282349
 51
259.5733058493
  0
ARC
  5
39C
100
AcDbEntity
  8
0
100
AcDbCircle
 62
7
  6
BYLAYER
 10
47.3143262581
 20
63.8194722499
 40
55.1231978821
100
AcDbArc
 50
252.9909315617
 51
253.5848780406
  0
ARC
  5
39D
100
AcDbEntity
  8
00_COMPONENTS
100
AcDbCircle
 62
7
  6
BYLAYER
 10
62.538429377
 20
40.5249726096
 40
0.7874
100
AcDbArc
 50
120.0
 51
180.0
  0
SPLINE
  5
39E
100
AcDbEntity
  8
0
100
AcDbSpline
 62
7
  6
BYLAYER
 70
0
 71
3
 72
10
 73
6
 74
0
 42
0.0000001
 43
0.0000001
 44
0.0000000001
 40
0.0
 40
0.0
 40
0.0
 40
0.0
 40
0.4779224232
 40
0.7360717239
 40
1.0
 40
1.0
 40
1.0
 40
1.0
 10
24.1107679039
 20
111.1158090304
 30
0.0
 10
24.362969882
 20
111.3171168333
 30
0.0
 10
24.821458265
 20
111.543693425
 30
0.0
 10
25.4804388031
 20
111.6945863717
 30
0.0
 10
25.8338252107
 20
111.720893247
 30
0.0
 10
26.012029373
 20
111.720893247
 30
0.0
  0
SPLINE
  5
39F
100
AcDbEntity
  8
0
100
AcDbSpline
 62
7
  6
BYLAYER
 70
0
 71
3
 72
9
 73
5
 74
0
 42
0.0000001
 43
0.0000001
 44
0.0000000001
 40
0.0
 40
0.0
 40
0.0
 40
0.0
 40
0.2573487613
 40
1.0
 40
1.0
 40
1.0
 40
1.0
 10
26.012029373
 20
111.720893247
 30
0.0
 10
26.1360851391
 20
111.720893247
 30
0.0
 10
26.6175219535
 20
111.6960389393
 30
0.0
 10
27.0961482052
 20
111.5721805028
 30
0.0
 10
27.4200371298
 20
111.4196746017
 30
0.0
  0
SPLINE
  5
3A0
100
AcDbEntity
  8
0
100
AcDbSpline
 62
7
  6
BYLAYER
 70
0
 71
3
 72
9
 73
5
 74
0
 42
0.0000001
 43
0.0000001
 44
0.0000000001
 40
0.0
 40
0.0
 40
0.0
 40
0.0
 40
0.2477717144
 40
1.0
 40
1.0
 40
1.0
 40
1.0
 10
23.5245938696
 20
101.4337044159
 30
0.0
 10
23.5296880179
 20
101.4511372366
 30
0.0
 10
23.5516603657
 20
101.5210768474
 30
0.0
 10
23.579225144
 20
101.5892458665
 30
0.0
 10
23.6027679039
 20
101.6391061003
 30
0.0
  0
SPLINE
  5
3A1
100
AcDbEntity
  8
0
100
AcDbSpline
 62
7
  6
BYLAYER
 70
0
 71
3
 72
9
 73
5
 74
0
 42
0.0000001
 43
0.0000001
 44
0.0000000001
 40
0.0
 40
0.0
 40
0.0
 40
0.0
 40
0.2477717144
 40
1.0
 40
1.0
 40
1.0
 40
1.0
 10
23.5245938696
 20
110.2882369513
 30
0.0
 10
23.5296880179
 20
110.305669772
 30
0.0
 10
23.5516603657
 20
110.3756093827
 30
0.0
 10
23.579225144
 20
110.4437784018
 30
0.0
 10
23.6027679039
 20
110.4936386357
 30
0.0
  0
SPLINE
  5
3A2
100
AcDbEntity
  8
0
100
AcDbSpline
 62
7
  6
BYLAYER
 70
0
 71
3
 72
13
 73
9
 74
0
 42
0.0000001
 43
0.0000001
 44
0.0000000001
 40
0.0
 40
0.0
 40
0.0
 40
0.0
 40
0.2659883478
 40
0.4000212187
 40
0.5317123818
 40
0.6590447555
 40
0.7803329525
 40
1.0
 40
1.0
 40
1.0
 40
1.0
 10
25.3628324686
 20
110.2674570733
 30
0.0
 10
25.7147329118
 20
110.3580242197
 30
0.0
 10
26.2296152419
 20
110.5596059547
 30
0.0
 10
26.853034287
 20
110.9343287921
 30
0.0
 10
27.2794125326
 20
111.2628069094
 30
0.0
 10
27.6505756122
 20
111.6287434856
 30
0.0
 10
28.0437980642
 20
112.1340568308
 30
0.0
 10
28.2509309674
 20
112.564280652
 30
0.0
 10
28.323429373
 20
112.8554798146
 30
0.0
  0
SPLINE
  5
3A3
100
AcDbEntity
  8
0
100
AcDbSpline
 62
7
  6
BYLAYER
 70
0
 71
3
 72
13
 73
9
 74
0
 42
0.0000001
 43
0.0000001
 44
0.0000000001
 40
0.0
 40
0.0
 40
0.0
 40
0.0
 40
0.1056420789
 40
0.2162752006
 40
0.3325821657
 40
0.4549973815
 40
0.7173494177
 40
1.0
 40
1.0
 40
1.0
 40
1.0
 10
22.8558767687
 20
110.6280410475
 30
0.0
 10
22.9258368359
 20
110.5676154389
 30
0.0
 10
23.0800793921
 20
110.4562220135
 30
0.0
 10
23.3405764715
 20
110.3242130847
 30
0.0
 10
23.6309881766
 20
110.2257061488
 30
0.0
 10
24.0617818334
 20
110.1388222443
 30
0.0
 10
24.6503914007
 20
110.1251355133
 30
0.0
 10
25.1233029874
 20
110.2058103718
 30
0.0
 10
25.3628324686
 20
110.2674570733
 30
0.0
  0
SPLINE
  5
3A4
100
AcDbEntity
  8
0
100
AcDbSpline
 62
7
  6
BYLAYER
 70
0
 71
3
 72
9
 73
5
 74
0
 42
0.0000001
 43
0.0000001
 44
0.0000000001
 40
0.0
 40
0.0
 40
0.0
 40
0.0
 40
0.2573487613
 40
1.0
 40
1.0
 40
1.0
 40
1.0
 10
26.012029373
 20
102.8663607116
 30
0.0
 10
26.1360851391
 20
102.8663607116
 30
0.0
 10
26.6175219535
 20
102.8415064039
 30
0.0
 10
27.0961482052
 20
102.7176479675
 30
0.0
 10
27.4200371298
 20
102.5651420664
 30
0.0
  0
SPLINE
  5
3A5
100
AcDbEntity
  8
0
100
AcDbSpline
 62
7
  6
BYLAYER
 70
0
 71
3
 72
10
 73
6
 74
0
 42
0.0000001
 43
0.0000001
 44
0.0000000001
 40
0.0
 40
0.0
 40
0.0
 40
0.0
 40
0.4779224232
 40
0.7360717239
 40
1.0
 40
1.0
 40
1.0
 40
1.0
 10
24.1107679039
 20
102.261276495
 30
0.0
 10
24.362969882
 20
102.4625842979
 30
0.0
 10
24.821458265
 20
102.6891608897
 30
0.0
 10
25.4804388031
 20
102.8400538363
 30
0.0
 10
25.8338252107
 20
102.8663607116
 30
0.0
 10
26.012029373
 20
102.8663607116
 30
0.0
  0
SPLINE
  5
3A6
100
AcDbEntity
  8
0
100
AcDbSpline
 62
7
  6
BYLAYER
 70
0
 71
3
 72
13
 73
9
 74
0
 42
0.0000001
 43
0.0000001
 44
0.0000000001
 40
0.0
 40
0.0
 40
0.0
 40
0.0
 40
0.2659883478
 40
0.4000212187
 40
0.5317123818
 40
0.6590447555
 40
0.7803329525
 40
1.0
 40
1.0
 40
1.0
 40
1.0
 10
25.3628324686
 20
101.4129245379
 30
0.0
 10
25.7147329118
 20
101.5034916844
 30
0.0
 10
26.2296152419
 20
101.7050734194
 30
0.0
 10
26.853034287
 20
102.0797962567
 30
0.0
 10
27.2794125326
 20
102.408274374
 30
0.0
 10
27.6505756122
 20
102.7742109502
 30
0.0
 10
28.0437980642
 20
103.2795242954
 30
0.0
 10
28.2509309674
 20
103.7097481166
 30
0.0
 10
28.323429373
 20
104.0009472793
 30
0.0
  0
SPLINE
  5
3A7
100
AcDbEntity
  8
0
100
AcDbSpline
 62
7
  6
BYLAYER
 70
0
 71
3
 72
13
 73
9
 74
0
 42
0.0000001
 43
0.0000001
 44
0.0000000001
 40
0.0
 40
0.0
 40
0.0
 40
0.0
 40
0.1056420789
 40
0.2162752006
 40
0.3325821657
 40
0.4549973815
 40
0.7173494177
 40
1.0
 40
1.0
 40
1.0
 40
1.0
 10
22.8558767688
 20
101.7735085121
 30
0.0
 10
22.9258368359
 20
101.7130829035
 30
0.0
 10
23.0800793921
 20
101.6016894781
 30
0.0
 10
23.3405764715
 20
101.4696805493
 30
0.0
 10
23.6309881766
 20
101.3711736135
 30
0.0
 10
24.0617818334
 20
101.284289709
 30
0.0
 10
24.6503914007
 20
101.2706029779
 30
0.0
 10
25.1233029874
 20
101.3512778364
 30
0.0
 10
25.3628324686
 20
101.4129245379
 30
0.0
  0
SPLINE
  5
3A8
100
AcDbEntity
  8
0
100
AcDbSpline
 62
7
  6
BYLAYER
 70
0
 71
3
 72
14
 73
10
 74
0
 42
0.0000001
 43
0.0000001
 44
0.0000000001
 40
0.0
 40
0.0
 40
0.0
 40
0.0
 40
0.1041780387
 40
0.211354019
 40
0.3241053906
 40
0.4441074141
 40
0.5721406982
 40
0.7081228727
 40
1.0
 40
1.0
 40
1.0
 40
1.0
 10
28.2196617983
 20
105.1554298511
 30
0.0
 10
28.1689844132
 20
105.2539134314
 30
0.0
 10
28.0419836115
 20
105.4422041341
 30
0.0
 10
27.7874042384
 20
105.6783344667
 30
0.0
 10
27.4750620674
 20
105.864852858
 30
0.0
 10
27.1132445157
 20
105.9978432897
 30
0.0
 10
26.7106599201
 20
106.0750033981
 30
0.0
 10
26.1188466
 20
106.102390763
 30
0.0
 10
25.6633500813
 20
106.0342770973
 30
0.0
 10
25.3628324686
 20
105.9569341352
 30
0.0
  0
SPLINE
  5
3A9
100
AcDbEntity
  8
0
100
AcDbSpline
 62
7
  6
BYLAYER
 70
0
 71
3
 72
11
 73
7
 74
0
 42
0.0000001
 43
0.0000001
 44
0.0000000001
 40
0.0
 40
0.0
 40
0.0
 40
0.0
 40
0.2538815877
 40
0.510686144
 40
0.7619495882
 40
1.0
 40
1.0
 40
1.0
 40
1.0
 10
25.3628324686
 20
114.8114666706
 30
0.0
 10
25.1124327686
 20
114.7470223463
 30
0.0
 10
24.6192417248
 20
114.5731860703
 30
0.0
 10
23.9355070699
 20
114.199440177
 30
0.0
 10
23.3338153727
 20
113.7299141167
 30
0.0
 10
22.9982376535
 20
113.3567102572
 30
0.0
 10
22.8558767687
 20
113.1604732736
 30
0.0
  0
SPLINE
  5
3AA
100
AcDbEntity
  8
0
100
AcDbSpline
 62
7
  6
BYLAYER
 70
0
 71
3
 72
14
 73
10
 74
0
 42
0.0000001
 43
0.0000001
 44
0.0000000001
 40
0.0
 40
0.0
 40
0.0
 40
0.0
 40
0.1041780387
 40
0.211354019
 40
0.3241053906
 40
0.4441074141
 40
0.5721406982
 40
0.7081228727
 40
1.0
 40
1.0
 40
1.0
 40
1.0
 10
28.2196617983
 20
114.0099623865
 30
0.0
 10
28.1689844132
 20
114.1084459668
 30
0.0
 10
28.0419836115
 20
114.2967366694
 30
0.0
 10
27.7874042384
 20
114.532867002
 30
0.0
 10
27.4750620674
 20
114.7193853934
 30
0.0
 10
27.1132445157
 20
114.8523758251
 30
0.0
 10
26.7106599201
 20
114.9295359335
 30
0.0
 10
26.1188466
 20
114.9569232983
 30
0.0
 10
25.6633500813
 20
114.8888096326
 30
0.0
 10
25.3628324686
 20
114.8114666706
 30
0.0
  0
SPLINE
  5
3AB
100
AcDbEntity
  8
0
100
AcDbSpline
 62
7
  6
BYLAYER
 70
0
 71
3
 72
11
 73
7
 74
0
 42
0.0000001
 43
0.0000001
 44
0.0000000001
 40
0.0
 40
0.0
 40
0.0
 40
0.0
 40
0.2538815877
 40
0.510686144
 40
0.7619495882
 40
1.0
 40
1.0
 40
1.0
 40
1.0
 10
25.3628324686
 20
105.9569341352
 30
0.0
 10
25.1124327686
 20
105.8924898109
 30
0.0
 10
24.6192417248
 20
105.718653535
 30
0.0
 10
23.9355070699
 20
105.3449076416
 30
0.0
 10
23.3338153727
 20
104.8753815813
 30
0.0
 10
22.9982376535
 20
104.5021777218
 30
0.0
 10
22.8558767687
 20
104.3059407383
 30
0.0
  0
SPLINE
  5
3AC
100
AcDbEntity
  8
0
100
AcDbSpline
 62
7
  6
BYLAYER
 70
0
 71
3
 72
14
 73
10
 74
0
 42
0.0000001
 43
0.0000001
 44
0.0000000001
 40
0.0
 40
0.0
 40
0.0
 40
0.0
 40
0.2805815934
 40
0.4161582185
 40
0.5462378553
 40
0.6696948191
 40
0.78608161
 40
0.8957563072
 40
1.0
 40
1.0
 40
1.0
 40
1.0
 10
65.450029373
 20
111.720893247
 30
0.0
 10
65.7362849422
 20
111.720893247
 30
0.0
 10
66.1636006035
 20
111.6702987715
 30
0.0
 10
66.6954987765
 20
111.5001086405
 30
0.0
 10
67.0549138956
 20
111.3281948443
 30
0.0
 10
67.3684280671
 20
111.1153068644
 30
0.0
 10
67.6270663397
 20
110.8670140207
 30
0.0
 10
67.8228817103
 20
110.5901025958
 30
0.0
 10
67.908854057
 20
110.3871259874
 30
0.0
 10
67.9384233009
 20
110.2849675315
 30
0.0
  0
SPLINE
  5
3AD
100
AcDbEntity
  8
0
100
AcDbSpline
 62
7
  6
BYLAYER
 70
0
 71
3
 72
9
 73
5
 74
0
 42
0.0000001
 43
0.0000001
 44
0.0000000001
 40
0.0
 40
0.0
 40
0.0
 40
0.0
 40
0.24161918
 40
1.0
 40
1.0
 40
1.0
 40
1.0
 10
64.0420436087
 20
111.4196935937
 30
0.0
 10
64.1474367888
 20
111.4693226912
 30
0.0
 10
64.5962103868
 20
111.6474918252
 30
0.0
 10
65.0843856053
 20
111.720893247
 30
0.0
 10
65.450029373
 20
111.720893247
 30
0.0
  0
SPLINE
  5
3AE
100
AcDbEntity
  8
0
100
AcDbSpline
 62
7
  6
BYLAYER
 70
0
 71
3
 72
14
 73
10
 74
0
 42
0.0000001
 43
0.0000001
 44
0.0000000001
 40
0.0
 40
0.0
 40
0.0
 40
0.0
 40
0.2805815934
 40
0.4161582185
 40
0.5462378553
 40
0.6696948191
 40
0.78608161
 40
0.8957563072
 40
1.0
 40
1.0
 40
1.0
 40
1.0
 10
65.450029373
 20
102.8663607116
 30
0.0
 10
65.7362849422
 20
102.8663607116
 30
0.0
 10
66.1636006035
 20
102.8157662361
 30
0.0
 10
66.6954987765
 20
102.6455761051
 30
0.0
 10
67.0549138956
 20
102.4736623089
 30
0.0
 10
67.3684280671
 20
102.260774329
 30
0.0
 10
67.6270663397
 20
102.0124814853
 30
0.0
 10
67.8228817103
 20
101.7355700604
 30
0.0
 10
67.908854057
 20
101.532593452
 30
0.0
 10
67.9384233009
 20
101.4304349961
 30
0.0
  0
SPLINE
  5
3AF
100
AcDbEntity
  8
0
100
AcDbSpline
 62
7
  6
BYLAYER
 70
0
 71
3
 72
9
 73
5
 74
0
 42
0.0000001
 43
0.0000001
 44
0.0000000001
 40
0.0
 40
0.0
 40
0.0
 40
0.0
 40
0.24161918
 40
1.0
 40
1.0
 40
1.0
 40
1.0
 10
64.0420436087
 20
102.5651610583
 30
0.0
 10
64.1474367888
 20
102.6147901558
 30
0.0
 10
64.5962103868
 20
102.7929592898
 30
0.0
 10
65.0843856053
 20
102.8663607116
 30
0.0
 10
65.450029373
 20
102.8663607116
 30
0.0
  0
SPLINE
  5
3B0
100
AcDbEntity
  8
0
100
AcDbSpline
 62
7
  6
BYLAYER
 70
0
 71
3
 72
13
 73
9
 74
0
 42
0.0000001
 43
0.0000001
 44
0.0000000001
 40
0.0
 40
0.0
 40
0.0
 40
0.0
 40
0.2826505823
 40
0.5450026185
 40
0.6674178343
 40
0.7837247994
 40
0.8943579211
 40
1.0
 40
1.0
 40
1.0
 40
1.0
 10
66.0992262774
 20
110.2674570733
 30
0.0
 10
66.3387557586
 20
110.2058103718
 30
0.0
 10
66.8116673453
 20
110.1251355133
 30
0.0
 10
67.4002769126
 20
110.1388222443
 30
0.0
 10
67.8310705694
 20
110.2257061488
 30
0.0
 10
68.1214822745
 20
110.3242130847
 30
0.0
 10
68.3819793539
 20
110.4562220135
 30
0.0
 10
68.5362219101
 20
110.5676154389
 30
0.0
 10
68.6061819772
 20
110.6280410475
 30
0.0
  0
SPLINE
  5
3B1
100
AcDbEntity
  8
0
100
AcDbSpline
 62
7
  6
BYLAYER
 70
0
 71
3
 72
13
 73
9
 74
0
 42
0.0000001
 43
0.0000001
 44
0.0000000001
 40
0.0
 40
0.0
 40
0.0
 40
0.0
 40
0.2196670475
 40
0.3409552445
 40
0.4682876182
 40
0.5999787813
 40
0.7340116522
 40
1.0
 40
1.0
 40
1.0
 40
1.0
 10
63.138629373
 20
112.8554798147
 30
0.0
 10
63.2111277786
 20
112.564280652
 30
0.0
 10
63.4182606818
 20
112.1340568308
 30
0.0
 10
63.8114831338
 20
111.6287434856
 30
0.0
 10
64.1826462134
 20
111.2628069094
 30
0.0
 10
64.609024459
 20
110.9343287921
 30
0.0
 10
65.2324435041
 20
110.5596059547
 30
0.0
 10
65.7473258342
 20
110.3580242197
 30
0.0
 10
66.0992262774
 20
110.2674570733
 30
0.0
  0
SPLINE
  5
3B2
100
AcDbEntity
  8
0
100
AcDbSpline
 62
7
  6
BYLAYER
 70
0
 71
3
 72
13
 73
9
 74
0
 42
0.0000001
 43
0.0000001
 44
0.0000000001
 40
0.0
 40
0.0
 40
0.0
 40
0.0
 40
0.2826505823
 40
0.5450026185
 40
0.6674178343
 40
0.7837247994
 40
0.8943579211
 40
1.0
 40
1.0
 40
1.0
 40
1.0
 10
66.0992262774
 20
101.4129245379
 30
0.0
 10
66.3387557586
 20
101.3512778364
 30
0.0
 10
66.8116673453
 20
101.2706029779
 30
0.0
 10
67.4002769126
 20
101.284289709
 30
0.0
 10
67.8310705694
 20
101.3711736135
 30
0.0
 10
68.1214822745
 20
101.4696805493
 30
0.0
 10
68.3819793539
 20
101.6016894781
 30
0.0
 10
68.5362219101
 20
101.7130829035
 30
0.0
 10
68.6061819772
 20
101.7735085121
 30
0.0
  0
SPLINE
  5
3B3
100
AcDbEntity
  8
0
100
AcDbSpline
 62
7
  6
BYLAYER
 70
0
 71
3
 72
13
 73
9
 74
0
 42
0.0000001
 43
0.0000001
 44
0.0000000001
 40
0.0
 40
0.0
 40
0.0
 40
0.0
 40
0.2196670475
 40
0.3409552445
 40
0.4682876182
 40
0.5999787813
 40
0.7340116522
 40
1.0
 40
1.0
 40
1.0
 40
1.0
 10
63.138629373
 20
104.0009472793
 30
0.0
 10
63.2111277786
 20
103.7097481166
 30
0.0
 10
63.4182606818
 20
103.2795242954
 30
0.0
 10
63.8114831338
 20
102.7742109502
 30
0.0
 10
64.1826462134
 20
102.408274374
 30
0.0
 10
64.609024459
 20
102.0797962567
 30
0.0
 10
65.2324435041
 20
101.7050734194
 30
0.0
 10
65.7473258342
 20
101.5034916844
 30
0.0
 10
66.0992262774
 20
101.4129245379
 30
0.0
  0
SPLINE
  5
3B4
100
AcDbEntity
  8
0
100
AcDbSpline
 62
7
  6
BYLAYER
 70
0
 71
3
 72
14
 73
10
 74
0
 42
0.0000001
 43
0.0000001
 44
0.0000000001
 40
0.0
 40
0.0
 40
0.0
 40
0.0
 40
0.2918771273
 40
0.4278593018
 40
0.5558925859
 40
0.6758946094
 40
0.788645981
 40
0.8958219613
 40
1.0
 40
1.0
 40
1.0
 40
1.0
 10
66.0992262774
 20
105.9569341352
 30
0.0
 10
65.7987086647
 20
106.0342770973
 30
0.0
 10
65.343212146
 20
106.102390763
 30
0.0
 10
64.7513988259
 20
106.0750033981
 30
0.0
 10
64.3488142303
 20
105.9978432897
 30
0.0
 10
63.9869966786
 20
105.864852858
 30
0.0
 10
63.6746545075
 20
105.6783344667
 30
0.0
 10
63.4200751345
 20
105.4422041341
 30
0.0
 10
63.2930743328
 20
105.2539134314
 30
0.0
 10
63.2423969477
 20
105.1554298511
 30
0.0
  0
SPLINE
  5
3B5
100
AcDbEntity
  8
0
100
AcDbSpline
 62
7
  6
BYLAYER
 70
0
 71
3
 72
11
 73
7
 74
0
 42
0.0000001
 43
0.0000001
 44
0.0000000001
 40
0.0
 40
0.0
 40
0.0
 40
0.0
 40
0.2380504118
 40
0.489313856
 40
0.7461184123
 40
1.0
 40
1.0
 40
1.0
 40
1.0
 10
68.6061819772
 20
104.3059407383
 30
0.0
 10
68.4638210925
 20
104.5021777218
 30
0.0
 10
68.1282433733
 20
104.8753815813
 30
0.0
 10
67.5265516761
 20
105.3449076416
 30
0.0
 10
66.8428170212
 20
105.718653535
 30
0.0
 10
66.3496259774
 20
105.8924898109
 30
0.0
 10
66.0992262774
 20
105.9569341352
 30
0.0
  0
SPLINE
  5
3B6
100
AcDbEntity
  8
0
100
AcDbSpline
 62
7
  6
BYLAYER
 70
0
 71
3
 72
14
 73
10
 74
0
 42
0.0000001
 43
0.0000001
 44
0.0000000001
 40
0.0
 40
0.0
 40
0.0
 40
0.0
 40
0.2918771273
 40
0.4278593018
 40
0.5558925859
 40
0.6758946094
 40
0.788645981
 40
0.8958219613
 40
1.0
 40
1.0
 40
1.0
 40
1.0
 10
66.0992262774
 20
114.8114666706
 30
0.0
 10
65.7987086647
 20
114.8888096326
 30
0.0
 10
65.343212146
 20
114.9569232983
 30
0.0
 10
64.7513988259
 20
114.9295359335
 30
0.0
 10
64.3488142303
 20
114.8523758251
 30
0.0
 10
63.9869966786
 20
114.7193853934
 30
0.0
 10
63.6746545076
 20
114.532867002
 30
0.0
 10
63.4200751345
 20
114.2967366694
 30
0.0
 10
63.2930743328
 20
114.1084459668
 30
0.0
 10
63.2423969477
 20
114.0099623865
 30
0.0
  0
SPLINE
  5
3B7
100
AcDbEntity
  8
0
100
AcDbSpline
 62
7
  6
BYLAYER
 70
0
 71
3
 72
11
 73
7
 74
0
 42
0.0000001
 43
0.0000001
 44
0.0000000001
 40
0.0
 40
0.0
 40
0.0
 40
0.0
 40
0.2380504118
 40
0.489313856
 40
0.7461184123
 40
1.0
 40
1.0
 40
1.0
 40
1.0
 10
68.6061819772
 20
113.1604732736
 30
0.0
 10
68.4638210925
 20
113.3567102572
 30
0.0
 10
68.1282433733
 20
113.7299141167
 30
0.0
 10
67.5265516761
 20
114.199440177
 30
0.0
 10
66.8428170212
 20
114.5731860703
 30
0.0
 10
66.3496259774
 20
114.7470223463
 30
0.0
 10
66.0992262774
 20
114.8114666706
 30
0.0
  0
SPLINE
  5
3B8
100
AcDbEntity
  8
00_COMPONENTS
100
AcDbSpline
 62
7
  6
BYLAYER
 70
0
 71
3
 72
13
 73
9
 74
0
 42
0.0000001
 43
0.0000001
 44
0.0000000001
 40
0.0
 40
0.0
 40
0.0
 40
0.0
 40
0.2514377003
 40
0.3759344879
 40
0.5
 40
0.6240655121
 40
0.7485622997
 40
1.0
 40
1.0
 40
1.0
 40
1.0
 10
28.288529373
 20
42.6546294173
 30
0.0
 10
29.1203683929
 20
42.3947132349
 30
0.0
 10
30.3904119869
 20
42.0795183264
 30
0.0
 10
32.1111985132
 20
41.8609230043
 30
0.0
 10
33.4031772065
 20
41.8055187893
 30
0.0
 10
34.6951558999
 20
41.8609230043
 30
0.0
 10
36.4159424261
 20
42.0795183264
 30
0.0
 10
37.6859860201
 20
42.3947132349
 30
0.0
 10
38.5178250401
 20
42.6546294173
 30
0.0
  0
SPLINE
  5
3B9
100
AcDbEntity
  8
00_COMPONENTS
100
AcDbSpline
 62
7
  6
BYLAYER
 70
0
 71
3
 72
13
 73
9
 74
0
 42
0.0000001
 43
0.0000001
 44
0.0000000001
 40
0.0
 40
0.0
 40
0.0
 40
0.0
 40
0.2499631522
 40
0.3749814625
 40
0.5
 40
0.6250185375
 40
0.7500368478
 40
1.0
 40
1.0
 40
1.0
 40
1.0
 10
38.5178250401
 20
42.6546294173
 30
0.0
 10
39.7045756718
 20
42.392425905
 30
0.0
 10
41.5046507367
 20
42.0780146192
 30
0.0
 10
43.9271270566
 20
41.8607637635
 30
0.0
 10
45.751029373
 20
41.8055663309
 30
0.0
 10
47.5749316894
 20
41.8607637635
 30
0.0
 10
49.9974080093
 20
42.0780146192
 30
0.0
 10
51.7974830742
 20
42.392425905
 30
0.0
 10
52.9842337059
 20
42.6546294173
 30
0.0
  0
SPLINE
  5
3BA
100
AcDbEntity
  8
00_COMPONENTS
100
AcDbSpline
 62
7
  6
BYLAYER
 70
0
 71
3
 72
13
 73
9
 74
0
 42
0.0000001
 43
0.0000001
 44
0.0000000001
 40
0.0
 40
0.0
 40
0.0
 40
0.0
 40
0.2514377003
 40
0.3759344879
 40
0.5
 40
0.6240655121
 40
0.7485622997
 40
1.0
 40
1.0
 40
1.0
 40
1.0
 10
52.9842337059
 20
42.6546294173
 30
0.0
 10
53.8160727259
 20
42.3947132349
 30
0.0
 10
55.0861163199
 20
42.0795183264
 30
0.0
 10
56.8069028461
 20
41.8609230043
 30
0.0
 10
58.0988815395
 20
41.8055187893
 30
0.0
 10
59.3908602328
 20
41.8609230043
 30
0.0
 10
61.1116467591
 20
42.0795183264
 30
0.0
 10
62.3816903531
 20
42.3947132349
 30
0.0
 10
63.213529373
 20
42.6546294173
 30
0.0
  0
SPLINE
  5
3BB
100
AcDbEntity
  8
0
100
AcDbSpline
 62
7
  6
BYLAYER
 70
0
 71
3
 72
21
 73
17
 74
0
 42
0.0000001
 43
0.0000001
 44
0.0000000001
 40
0.0
 40
0.0
 40
0.0
 40
0.0
 40
0.0025795168
 40
0.0102419925
 40
0.0226297906
 40
0.0393093484
 40
0.1382564506
 40
0.2003666333
 40
0.2671518458
 40
0.3369118715
 40
0.4085339684
 40
0.4813024411
 40
0.5547643224
 40
0.7027197762
 40
0.8512740502
 40
1.0
 40
1.0
 40
1.0
 40
1.0
 10
26.4032032832
 20
12.0548166494
 30
0.0
 10
26.4041255746
 20
12.0535319182
 30
0.0
 10
26.3952295128
 20
12.0642438447
 30
0.0
 10
26.3906424617
 20
12.0690305771
 30
0.0
 10
26.3735343026
 20
12.0892208803
 30
0.0
 10
26.3253310468
 20
12.1465355169
 30
0.0
 10
26.2568534493
 20
12.2353037332
 30
0.0
 10
26.1785190629
 20
12.350103852
 30
0.0
 10
26.1143872878
 20
12.4539173598
 30
0.0
 10
26.0527066388
 20
12.5656514081
 30
0.0
 10
25.9950947604
 20
12.6837114055
 30
0.0
 10
25.9427793331
 20
12.8066703181
 30
0.0
 10
25.880952308
 20
12.9761813907
 30
0.0
 10
25.8203240454
 20
13.19525367
 30
0.0
 10
25.7760824975
 20
13.4651186638
 30
0.0
 10
25.7661806101
 20
13.6475384215
 30
0.0
 10
25.7661808881
 20
13.738722449
 30
0.0
  0
SPLINE
  5
3BC
100
AcDbEntity
  8
0
100
AcDbSpline
 62
7
  6
BYLAYER
 70
0
 71
3
 72
22
 73
18
 74
0
 42
0.0000001
 43
0.0000001
 44
0.0000000001
 40
0.0
 40
0.0
 40
0.0
 40
0.0
 40
0.0102220475
 40
0.0228453847
 40
0.0396113839
 40
0.0600566931
 40
0.0837218786
 40
0.1387345011
 40
0.2008813443
 40
0.2676559646
 40
0.3374105958
 40
0.4089969217
 40
0.4817242973
 40
0.5551223038
 40
0.7029155209
 40
0.8513824214
 40
1.0
 40
1.0
 40
1.0
 40
1.0
 10
65.0988554626
 20
12.0548166492
 30
0.0
 10
65.0946340799
 20
12.0501843348
 30
0.0
 10
65.1169724353
 20
12.0754351961
 30
0.0
 10
65.1260989317
 20
12.086411517
 30
0.0
 10
65.1483343356
 20
12.1127203887
 30
0.0
 10
65.1709963744
 20
12.1405970662
 30
0.0
 10
65.2090488936
 20
12.1887517782
 30
0.0
 10
65.2604649772
 20
12.257707325
 30
0.0
 10
65.3241343581
 20
12.3509896617
 30
0.0
 10
65.3880875992
 20
12.4546691012
 30
0.0
 10
65.4497703042
 20
12.5664406433
 30
0.0
 10
65.5072979098
 20
12.6844685563
 30
0.0
 10
65.5595530509
 20
12.8073664388
 30
0.0
 10
65.6212779459
 20
12.9767418126
 30
0.0
 10
65.6818132961
 20
13.195644007
 30
0.0
 10
65.7259761744
 20
13.465301711
 30
0.0
 10
65.7358847027
 20
13.6476033898
 30
0.0
 10
65.7358778578
 20
13.738722449
 30
0.0
  0
SPLINE
  5
3BD
100
AcDbEntity
  8
0
100
AcDbSpline
 62
7
  6
BYLAYER
 70
0
 71
3
 72
9
 73
5
 74
0
 42
0.0000001
 43
0.0000001
 44
0.0000000001
 40
0.0
 40
0.0
 40
0.0
 40
0.0
 40
0.6009683335
 40
1.0
 40
1.0
 40
1.0
 40
1.0
 10
33.997405773
 20
9.8096473075
 30
0.0
 10
33.9836194875
 20
9.8102936013
 30
0.0
 10
33.9607241692
 20
9.8109099902
 30
0.0
 10
33.9375895569
 20
9.8105411324
 30
0.0
 10
33.9285838365
 20
9.8088458952
 30
0.0
  0
SPLINE
  5
3BE
100
AcDbEntity
  8
0
100
AcDbSpline
 62
7
  6
BYLAYER
 70
0
 71
3
 72
9
 73
5
 74
0
 42
0.0000001
 43
0.0000001
 44
0.0000000001
 40
0.0
 40
0.0
 40
0.0
 40
0.0
 40
0.6531099356
 40
1.0
 40
1.0
 40
1.0
 40
1.0
 10
33.9285838365
 20
9.8088458952
 30
0.0
 10
33.9263698527
 20
9.8084291348
 30
0.0
 10
33.9231214577
 20
9.8079634696
 30
0.0
 10
33.919850973
 20
9.8052932107
 30
0.0
 10
33.919850973
 20
9.804096632
 30
0.0
  0
SPLINE
  5
3BF
100
AcDbEntity
  8
0
100
AcDbSpline
 62
7
  6
BYLAYER
 70
0
 71
3
 72
9
 73
5
 74
0
 42
0.0000001
 43
0.0000001
 44
0.0000000001
 40
0.0
 40
0.0
 40
0.0
 40
0.0
 40
0.2985767719
 40
1.0
 40
1.0
 40
1.0
 40
1.0
 10
35.081477373
 20
9.5828391975
 30
0.0
 10
35.081477373
 20
9.5867031371
 30
0.0
 10
35.0694719665
 20
9.5963703656
 30
0.0
 10
35.0585518081
 20
9.6009629228
 30
0.0
 10
35.0501594167
 20
9.6044218669
 30
0.0
  0
SPLINE
  5
3C0
100
AcDbEntity
  8
0
100
AcDbSpline
 62
7
  6
BYLAYER
 70
0
 71
3
 72
9
 73
5
 74
0
 42
0.0000001
 43
0.0000001
 44
0.0000000001
 40
0.0
 40
0.0
 40
0.0
 40
0.0
 40
0.2140248463
 40
1.0
 40
1.0
 40
1.0
 40
1.0
 10
35.0501594167
 20
9.6044218669
 30
0.0
 10
35.0478655664
 20
9.6053672827
 30
0.0
 10
35.0370897244
 20
9.6096435292
 30
0.0
 10
35.0261279062
 20
9.6134376957
 30
0.0
 10
35.017469373
 20
9.6162740407
 30
0.0
  0
SPLINE
  5
3C1
100
AcDbEntity
  8
0
100
AcDbSpline
 62
7
  6
BYLAYER
 70
0
 71
3
 72
14
 73
10
 74
0
 42
0.0000001
 43
0.0000001
 44
0.0000000001
 40
0.0
 40
0.0
 40
0.0
 40
0.0
 40
0.0258185416
 40
0.0880138955
 40
0.1828203329
 40
0.3049879927
 40
0.4504146386
 40
0.6160916385
 40
1.0
 40
1.0
 40
1.0
 40
1.0
 10
34.874213373
 20
9.6230695087
 30
0.0
 10
34.874213373
 20
9.6217515282
 30
0.0
 10
34.8680322851
 20
9.62044254
 30
0.0
 10
34.8601557686
 20
9.6202120395
 30
0.0
 10
34.8451665509
 20
9.6205164913
 30
0.0
 10
34.8269979074
 20
9.6217967902
 30
0.0
 10
34.8048689698
 20
9.6237964479
 30
0.0
 10
34.7696399473
 20
9.6276345665
 30
0.0
 10
34.7417938113
 20
9.6312218487
 30
0.0
 10
34.7223784814
 20
9.6338891296
 30
0.0
  0
SPLINE
  5
3C2
100
AcDbEntity
  8
0
100
AcDbSpline
 62
7
  6
BYLAYER
 70
0
 71
3
 72
9
 73
5
 74
0
 42
0.0000001
 43
0.0000001
 44
0.0000000001
 40
0.0
 40
0.0
 40
0.0
 40
0.0
 40
0.2698185331
 40
1.0
 40
1.0
 40
1.0
 40
1.0
 10
34.503712173
 20
9.6699437439
 30
0.0
 10
34.4823326394
 20
9.6740303885
 30
0.0
 10
34.403211559
 20
9.6897722683
 30
0.0
 10
34.3244125649
 20
9.7071525399
 30
0.0
 10
34.2671515794
 20
9.7209706383
 30
0.0
  0
SPLINE
  5
3C3
100
AcDbEntity
  8
0
100
AcDbSpline
 62
7
  6
BYLAYER
 70
0
 71
3
 72
9
 73
5
 74
0
 42
0.0000001
 43
0.0000001
 44
0.0000000001
 40
0.0
 40
0.0
 40
0.0
 40
0.0
 40
0.5733360919
 40
1.0
 40
1.0
 40
1.0
 40
1.0
 10
34.2671515794
 20
9.7209706383
 30
0.0
 10
34.2433373955
 20
9.7267174262
 30
0.0
 10
34.2019176164
 20
9.7371714918
 30
0.0
 10
34.1607101668
 20
9.7486224411
 30
0.0
 10
34.1434531879
 20
9.7545007872
 30
0.0
  0
SPLINE
  5
3C4
100
AcDbEntity
  8
0
100
AcDbSpline
 62
7
  6
BYLAYER
 70
0
 71
3
 72
11
 73
7
 74
0
 42
0.0000001
 43
0.0000001
 44
0.0000000001
 40
0.0
 40
0.0
 40
0.0
 40
0.0
 40
0.1174098913
 40
0.3238736834
 40
0.6205536134
 40
1.0
 40
1.0
 40
1.0
 40
1.0
 10
35.081477373
 20
9.6920099715
 30
0.0
 10
35.081477373
 20
9.6939554925
 30
0.0
 10
35.0775179533
 20
9.6985645279
 30
0.0
 10
35.0691409776
 20
9.703947913
 30
0.0
 10
35.0559609905
 20
9.7106878149
 30
0.0
 10
35.0456859542
 20
9.7150475495
 30
0.0
 10
35.0398604169
 20
9.7174132288
 30
0.0
  0
SPLINE
  5
3C5
100
AcDbEntity
  8
0
100
AcDbSpline
 62
7
  6
BYLAYER
 70
0
 71
3
 72
9
 73
5
 74
0
 42
0.0000001
 43
0.0000001
 44
0.0000000001
 40
0.0
 40
0.0
 40
0.0
 40
0.0
 40
0.2346461404
 40
1.0
 40
1.0
 40
1.0
 40
1.0
 10
35.0326229596
 20
9.7202898489
 30
0.0
 10
35.0306307279
 20
9.7210657312
 30
0.0
 10
35.0221226582
 20
9.7243268684
 30
0.0
 10
35.0135521405
 20
9.7274236287
 30
0.0
 10
35.006970573
 20
9.7297286861
 30
0.0
  0
SPLINE
  5
3C6
100
AcDbEntity
  8
0
100
AcDbSpline
 62
7
  6
BYLAYER
 70
0
 71
3
 72
9
 73
5
 74
0
 42
0.0000001
 43
0.0000001
 44
0.0000000001
 40
0.0
 40
0.0
 40
0.0
 40
0.0
 40
0.2665302633
 40
1.0
 40
1.0
 40
1.0
 40
1.0
 10
34.476958173
 20
9.9069735709
 30
0.0
 10
34.4565148819
 20
9.9109063929
 30
0.0
 10
34.3800064834
 20
9.9266379382
 30
0.0
 10
34.3039812238
 20
9.9447954567
 30
0.0
 10
34.2487349777
 20
9.9599605494
 30
0.0
  0
SPLINE
  5
3C7
100
AcDbEntity
  8
0
100
AcDbSpline
 62
7
  6
BYLAYER
 70
0
 71
3
 72
9
 73
5
 74
0
 42
0.0000001
 43
0.0000001
 44
0.0000000001
 40
0.0
 40
0.0
 40
0.0
 40
0.0
 40
0.2625001484
 40
1.0
 40
1.0
 40
1.0
 40
1.0
 10
34.2487349777
 20
9.9599605494
 30
0.0
 10
34.2444437595
 20
9.9611384887
 30
0.0
 10
34.2281103516
 20
9.9656764612
 30
0.0
 10
34.2118345934
 20
9.970426109
 30
0.0
 10
34.1998888126
 20
9.9741145247
 30
0.0
  0
SPLINE
  5
3C8
100
AcDbEntity
  8
0
100
AcDbSpline
 62
7
  6
BYLAYER
 70
0
 71
3
 72
9
 73
5
 74
0
 42
0.0000001
 43
0.0000001
 44
0.0000000001
 40
0.0
 40
0.0
 40
0.0
 40
0.0
 40
0.2891836062
 40
1.0
 40
1.0
 40
1.0
 40
1.0
 10
34.1998888126
 20
9.9741145247
 30
0.0
 10
34.194829196
 20
9.9756767474
 30
0.0
 10
34.177385073
 20
9.981223737
 30
0.0
 10
34.160015002
 20
9.9871568784
 30
0.0
 10
34.1480912512
 20
9.9923759083
 30
0.0
  0
LINE
  5
3C9
100
AcDbEntity
  8
0
100
AcDbLine
 62
7
  6
BYLAYER
 10
34.1311775239
 20
10.0348905289
 11
34.049560173
 21
10.0568607871
  0
SPLINE
  5
3CA
100
AcDbEntity
  8
0
100
AcDbSpline
 62
7
  6
BYLAYER
 70
0
 71
3
 72
10
 73
6
 74
0
 42
0.0000001
 43
0.0000001
 44
0.0000000001
 40
0.0
 40
0.0
 40
0.0
 40
0.0
 40
0.5823580562
 40
0.8178562364
 40
1.0
 40
1.0
 40
1.0
 40
1.0
 10
34.049560173
 20
10.0568607871
 30
0.0
 10
34.0274196845
 20
10.0585800348
 30
0.0
 10
33.9962714028
 20
10.0606050124
 30
0.0
 10
33.9581476708
 20
10.0610589866
 30
0.0
 10
33.942198127
 20
10.0603333027
 30
0.0
 10
33.9353131898
 20
10.0594164768
 30
0.0
  0
SPLINE
  5
3CB
100
AcDbEntity
  8
0
100
AcDbSpline
 62
7
  6
BYLAYER
 70
0
 71
3
 72
9
 73
5
 74
0
 42
0.0000001
 43
0.0000001
 44
0.0000000001
 40
0.0
 40
0.0
 40
0.0
 40
0.0
 40
0.6652191648
 40
1.0
 40
1.0
 40
1.0
 40
1.0
 10
33.9353131898
 20
10.0594164768
 30
0.0
 10
33.931462339
 20
10.058903682
 30
0.0
 10
33.9261609835
 20
10.0584474741
 30
0.0
 10
33.919850973
 20
10.0545435603
 30
0.0
 10
33.919850973
 20
10.0525884585
 30
0.0
  0
SPLINE
  5
3CC
100
AcDbEntity
  8
0
100
AcDbSpline
 62
7
  6
BYLAYER
 70
0
 71
3
 72
10
 73
6
 74
0
 42
0.0000001
 43
0.0000001
 44
0.0000000001
 40
0.0
 40
0.0
 40
0.0
 40
0.0
 40
0.3619331074
 40
0.6547689896
 40
1.0
 40
1.0
 40
1.0
 40
1.0
 10
33.997405773
 20
10.3744240934
 30
0.0
 10
33.9869941001
 20
10.3728455328
 30
0.0
 10
33.9677404248
 20
10.3692593336
 30
0.0
 10
33.9415527453
 20
10.3624571067
 30
0.0
 10
33.919850973
 20
10.3507343521
 30
0.0
 10
33.919850973
 20
10.3406896501
 30
0.0
  0
SPLINE
  5
3CD
100
AcDbEntity
  8
0
100
AcDbSpline
 62
7
  6
BYLAYER
 70
0
 71
3
 72
10
 73
6
 74
0
 42
0.0000001
 43
0.0000001
 44
0.0000000001
 40
0.0
 40
0.0
 40
0.0
 40
0.0
 40
0.3444966841
 40
0.622062186
 40
1.0
 40
1.0
 40
1.0
 40
1.0
 10
35.081477373
 20
10.1186379369
 30
0.0
 10
35.081477373
 20
10.1292621238
 30
0.0
 10
35.0694309546
 20
10.1471758765
 30
0.0
 10
35.0454425215
 20
10.1657884047
 30
0.0
 10
35.0277993878
 20
10.1760806186
 30
0.0
 10
35.017469373
 20
10.1814789084
 30
0.0
  0
SPLINE
  5
3CE
100
AcDbEntity
  8
0
100
AcDbSpline
 62
7
  6
BYLAYER
 70
0
 71
3
 72
13
 73
9
 74
0
 42
0.0000001
 43
0.0000001
 44
0.0000000001
 40
0.0
 40
0.0
 40
0.0
 40
0.0
 40
0.1036849224
 40
0.1984754432
 40
0.3187726087
 40
0.4613621159
 40
0.6236700907
 40
1.0
 40
1.0
 40
1.0
 40
1.0
 10
34.874213373
 20
10.1624857732
 30
0.0
 10
34.874213373
 20
10.1571560763
 30
0.0
 10
34.8610748002
 20
10.151970611
 30
0.0
 10
34.8463854047
 20
10.1492491043
 30
0.0
 10
34.8275971179
 20
10.1472260526
 30
0.0
 10
34.8059217081
 20
10.1463017131
 30
0.0
 10
34.7708275517
 20
10.1461460663
 30
0.0
 10
34.7431793787
 20
10.1473771719
 30
0.0
 10
34.72387422
 20
10.1486089654
 30
0.0
  0
SPLINE
  5
3CF
100
AcDbEntity
  8
0
100
AcDbSpline
 62
7
  6
BYLAYER
 70
0
 71
3
 72
9
 73
5
 74
0
 42
0.0000001
 43
0.0000001
 44
0.0000000001
 40
0.0
 40
0.0
 40
0.0
 40
0.0
 40
0.2214389126
 40
1.0
 40
1.0
 40
1.0
 40
1.0
 10
34.72387422
 20
10.1486089654
 30
0.0
 10
34.707515574
 20
10.1496527524
 30
0.0
 10
34.6337328091
 20
10.1556826212
 30
0.0
 10
34.5603025074
 20
10.166196709
 30
0.0
 10
34.503712173
 20
10.1771078562
 30
0.0
  0
SPLINE
  5
3D0
100
AcDbEntity
  8
0
100
AcDbSpline
 62
7
  6
BYLAYER
 70
0
 71
3
 72
12
 73
8
 74
0
 42
0.0000001
 43
0.0000001
 44
0.0000000001
 40
0.0
 40
0.0
 40
0.0
 40
0.0
 40
0.3052990002
 40
0.5831301722
 40
0.8214660223
 40
0.9202992173
 40
1.0
 40
1.0
 40
1.0
 40
1.0
 10
34.503712173
 20
10.1771078562
 30
0.0
 10
34.4660443397
 20
10.1843705676
 30
0.0
 10
34.3945031995
 20
10.2004028837
 30
0.0
 10
34.2948582365
 20
10.2273799823
 30
0.0
 10
34.2211712602
 20
10.2508734948
 30
0.0
 10
34.1722986817
 20
10.2697253537
 30
0.0
 10
34.1518397011
 20
10.2790386582
 30
0.0
 10
34.1430607744
 20
10.2838576645
 30
0.0
  0
SPLINE
  5
3D1
100
AcDbEntity
  8
0
100
AcDbSpline
 62
7
  6
BYLAYER
 70
0
 71
3
 72
9
 73
5
 74
0
 42
0.0000001
 43
0.0000001
 44
0.0000000001
 40
0.0
 40
0.0
 40
0.0
 40
0.0
 40
0.6420893382
 40
1.0
 40
1.0
 40
1.0
 40
1.0
 10
34.1430607744
 20
10.2838576645
 30
0.0
 10
34.1378486674
 20
10.2867187404
 30
0.0
 10
34.1303574229
 20
10.2911227051
 30
0.0
 10
34.122712173
 20
10.2986699699
 30
0.0
 10
34.122712173
 20
10.3019842181
 30
0.0
  0
SPLINE
  5
3D2
100
AcDbEntity
  8
0
100
AcDbSpline
 62
7
  6
BYLAYER
 70
0
 71
3
 72
10
 73
6
 74
0
 42
0.0000001
 43
0.0000001
 44
0.0000000001
 40
0.0
 40
0.0
 40
0.0
 40
0.0
 40
0.1893111781
 40
0.4294867514
 40
1.0
 40
1.0
 40
1.0
 40
1.0
 10
33.7098519533
 20
10.2150549897
 30
0.0
 10
33.6996259194
 20
10.2195729188
 30
0.0
 10
33.675634819
 20
10.227960091
 30
0.0
 10
33.6191474276
 20
10.2450672602
 30
0.0
 10
33.5724623852
 20
10.2563902882
 30
0.0
 10
33.539189373
 20
10.2616817654
 30
0.0
  0
SPLINE
  5
3D3
100
AcDbEntity
  8
0
100
AcDbSpline
 62
7
  6
BYLAYER
 70
0
 71
3
 72
12
 73
8
 74
0
 42
0.0000001
 43
0.0000001
 44
0.0000000001
 40
0.0
 40
0.0
 40
0.0
 40
0.0
 40
0.4689540887
 40
0.763800548
 40
0.855796919
 40
0.9213841808
 40
1.0
 40
1.0
 40
1.0
 40
1.0
 10
33.539189373
 20
10.2616817654
 30
0.0
 10
33.5320843239
 20
10.2628312282
 30
0.0
 10
33.5204486372
 20
10.264279106
 30
0.0
 10
33.5072644917
 20
10.2647458768
 30
0.0
 10
33.5003586481
 20
10.2635505957
 30
0.0
 10
33.4969574784
 20
10.2625389647
 30
0.0
 10
33.4950351407
 20
10.260619476
 30
0.0
 10
33.495027615
 20
10.259412917
 30
0.0
  0
SPLINE
  5
3D4
100
AcDbEntity
  8
0
100
AcDbSpline
 62
7
  6
BYLAYER
 70
0
 71
3
 72
13
 73
9
 74
0
 42
0.0000001
 43
0.0000001
 44
0.0000000001
 40
0.0
 40
0.0
 40
0.0
 40
0.0
 40
0.2877370875
 40
0.5621111118
 40
0.6904592289
 40
0.8098751732
 40
0.9157629036
 40
1.0
 40
1.0
 40
1.0
 40
1.0
 10
32.167589373
 20
10.7029223756
 30
0.0
 10
32.1136926255
 20
10.7186017479
 30
0.0
 10
32.0084608808
 20
10.7494388287
 30
0.0
 10
31.8800689915
 20
10.7902387763
 30
0.0
 10
31.7838519474
 20
10.8236672495
 30
0.0
 10
31.7191929365
 20
10.8477866851
 30
0.0
 10
31.6634385575
 20
10.8709276903
 30
0.0
 10
31.6299427734
 20
10.8871041304
 30
0.0
 10
31.6158905327
 20
10.8956229923
 30
0.0
  0
SPLINE
  5
3D5
100
AcDbEntity
  8
0
100
AcDbSpline
 62
7
  6
BYLAYER
 70
0
 71
3
 72
9
 73
5
 74
0
 42
0.0000001
 43
0.0000001
 44
0.0000000001
 40
0.0
 40
0.0
 40
0.0
 40
0.0
 40
0.6402516155
 40
1.0
 40
1.0
 40
1.0
 40
1.0
 10
31.6158905327
 20
10.8956229923
 30
0.0
 10
31.6095562651
 20
10.8994630027
 30
0.0
 10
31.60031666
 20
10.9054198402
 30
0.0
 10
31.591517373
 20
10.9152412756
 30
0.0
 10
31.591517373
 20
10.9194033536
 30
0.0
  0
SPLINE
  5
3D6
100
AcDbEntity
  8
0
100
AcDbSpline
 62
7
  6
BYLAYER
 70
0
 71
3
 72
13
 73
9
 74
0
 42
0.0000001
 43
0.0000001
 44
0.0000000001
 40
0.0
 40
0.0
 40
0.0
 40
0.0
 40
0.3510405244
 40
0.5119903169
 40
0.6581908191
 40
0.7841785785
 40
0.8848311011
 40
1.0
 40
1.0
 40
1.0
 40
1.0
 10
31.189519773
 20
11.1074474304
 30
0.0
 10
31.1678055766
 20
11.1080069257
 30
0.0
 10
31.1361527335
 20
11.1086746681
 30
0.0
 10
31.0953578287
 20
11.1081704632
 30
0.0
 10
31.0687416286
 20
11.1070631526
 30
0.0
 10
31.0452723459
 20
11.104491888
 30
0.0
 10
31.0259966801
 20
11.1010650178
 30
0.0
 10
31.009687773
 20
11.093172122
 30
0.0
 10
31.009687773
 20
11.0860457935
 30
0.0
  0
SPLINE
  5
3D7
100
AcDbEntity
  8
0
100
AcDbSpline
 62
7
  6
BYLAYER
 70
0
 71
3
 72
11
 73
7
 74
0
 42
0.0000001
 43
0.0000001
 44
0.0000000001
 40
0.0
 40
0.0
 40
0.0
 40
0.0
 40
0.1334081273
 40
0.3282332144
 40
0.6113659932
 40
1.0
 40
1.0
 40
1.0
 40
1.0
 10
33.056590173
 20
10.2584544984
 30
0.0
 10
33.056590173
 20
10.2655187969
 30
0.0
 10
33.0500402511
 20
10.2826478328
 30
0.0
 10
33.0275041517
 20
10.3062633119
 30
0.0
 10
32.990205645
 20
10.3332586015
 30
0.0
 10
32.9590574842
 20
10.3505643223
 30
0.0
 10
32.9407635868
 20
10.3599895532
 30
0.0
  0
SPLINE
  5
3D8
100
AcDbEntity
  8
0
100
AcDbSpline
 62
7
  6
BYLAYER
 70
0
 71
3
 72
9
 73
5
 74
0
 42
0.0000001
 43
0.0000001
 44
0.0000000001
 40
0.0
 40
0.0
 40
0.0
 40
0.0
 40
0.2164602859
 40
1.0
 40
1.0
 40
1.0
 40
1.0
 10
32.9407635868
 20
10.3599895532
 30
0.0
 10
32.9305129176
 20
10.3652708184
 30
0.0
 10
32.8826801946
 20
10.3887428534
 30
0.0
 10
32.8335438579
 20
10.4094540431
 30
0.0
 10
32.794800573
 20
10.424985192
 30
0.0
  0
SPLINE
  5
3D9
100
AcDbEntity
  8
0
100
AcDbSpline
 62
7
  6
BYLAYER
 70
0
 71
3
 72
18
 73
14
 74
0
 42
0.0000001
 43
0.0000001
 44
0.0000000001
 40
0.0
 40
0.0
 40
0.0
 40
0.0
 40
0.0121545027
 40
0.0259845386
 40
0.044164396
 40
0.0685575513
 40
0.1005577252
 40
0.1413908934
 40
0.2535437346
 40
0.4071350729
 40
0.590027653
 40
0.7903037099
 40
1.0
 40
1.0
 40
1.0
 40
1.0
 10
32.687442573
 20
10.3576785157
 30
0.0
 10
32.687442573
 20
10.3553961761
 30
0.0
 10
32.6861666707
 20
10.3504112422
 30
0.0
 10
32.6801103811
 20
10.3443599906
 30
0.0
 10
32.6704990478
 20
10.3396837393
 30
0.0
 10
32.6568900686
 20
10.3361459078
 30
0.0
 10
32.6387491509
 20
10.3338311727
 30
0.0
 10
32.6040067949
 20
10.3324949637
 30
0.0
 10
32.5464386092
 20
10.336074713
 30
0.0
 10
32.4628795549
 20
10.3468975056
 30
0.0
 10
32.3634459667
 20
10.3635087579
 30
0.0
 10
32.2541423279
 20
10.3846745543
 30
0.0
 10
32.1788901039
 20
10.4009445007
 30
0.0
 10
32.140495773
 20
10.4096829552
 30
0.0
  0
LINE
  5
3DA
100
AcDbEntity
  8
0
100
AcDbLine
 62
7
  6
BYLAYER
 10
31.8407442403
 20
10.6475727394
 11
31.8199298692
 21
10.6520385816
  0
SPLINE
  5
3DB
100
AcDbEntity
  8
0
100
AcDbSpline
 62
7
  6
BYLAYER
 70
0
 71
3
 72
9
 73
5
 74
0
 42
0.0000001
 43
0.0000001
 44
0.0000000001
 40
0.0
 40
0.0
 40
0.0
 40
0.0
 40
0.25730981
 40
1.0
 40
1.0
 40
1.0
 40
1.0
 10
31.8199298692
 20
10.6520385816
 30
0.0
 10
31.7959797944
 20
10.6571553663
 30
0.0
 10
31.7028413723
 20
10.6767573401
 30
0.0
 10
31.6094445815
 20
10.695158044
 30
0.0
 10
31.5398948752
 20
10.7077965746
 30
0.0
  0
SPLINE
  5
3DC
100
AcDbEntity
  8
0
100
AcDbSpline
 62
7
  6
BYLAYER
 70
0
 71
3
 72
9
 73
5
 74
0
 42
0.0000001
 43
0.0000001
 44
0.0000000001
 40
0.0
 40
0.0
 40
0.0
 40
0.0
 40
0.2619054727
 40
1.0
 40
1.0
 40
1.0
 40
1.0
 10
31.5398948752
 20
10.7077965746
 30
0.0
 10
31.5249547724
 20
10.710511481
 30
0.0
 10
31.4678773162
 20
10.7206884374
 30
0.0
 10
31.4106557625
 20
10.7300830992
 30
0.0
 10
31.3683175482
 20
10.7363074106
 30
0.0
  0
SPLINE
  5
3DD
100
AcDbEntity
  8
0
100
AcDbSpline
 62
7
  6
BYLAYER
 70
0
 71
3
 72
17
 73
13
 74
0
 42
0.0000001
 43
0.0000001
 44
0.0000000001
 40
0.0
 40
0.0
 40
0.0
 40
0.0
 40
0.2261089849
 40
0.4229590426
 40
0.5897108635
 40
0.7260719184
 40
0.832813883
 40
0.9114168957
 40
0.9408318943
 40
0.9642892432
 40
0.9831136736
 40
1.0
 40
1.0
 40
1.0
 40
1.0
 10
31.3683175482
 20
10.7363074106
 30
0.0
 10
31.3408633471
 20
10.7403435633
 30
0.0
 10
31.2894185064
 20
10.7473166381
 30
0.0
 10
31.2174101092
 20
10.754730029
 30
0.0
 10
31.1561627736
 20
10.7586369604
 30
0.0
 10
31.1058237635
 20
10.759306807
 30
0.0
 10
31.0664000501
 20
10.756901846
 30
0.0
 10
31.0402754349
 20
10.7523842186
 30
0.0
 10
31.0250944184
 20
10.7467527694
 30
0.0
 10
31.0174840513
 20
10.7421987241
 30
0.0
 10
31.0125077652
 20
10.7366582099
 30
0.0
 10
31.011382173
 20
10.7322029786
 30
0.0
 10
31.011382173
 20
10.7301305986
 30
0.0
  0
SPLINE
  5
3DE
100
AcDbEntity
  8
0
100
AcDbSpline
 62
7
  6
BYLAYER
 70
0
 71
3
 72
13
 73
9
 74
0
 42
0.0000001
 43
0.0000001
 44
0.0000000001
 40
0.0
 40
0.0
 40
0.0
 40
0.0
 40
0.4094649755
 40
0.5755346674
 40
0.714756765
 40
0.8262721487
 40
0.9097242463
 40
1.0
 40
1.0
 40
1.0
 40
1.0
 10
31.134655773
 20
10.5104333271
 30
0.0
 10
31.1174327826
 20
10.5118752867
 30
0.0
 10
31.0932042868
 20
10.513548143
 30
0.0
 10
31.062984512
 20
10.5140976459
 30
0.0
 10
31.0454961305
 20
10.513736427
 30
0.0
 10
31.0311427337
 20
10.5122840502
 30
0.0
 10
31.0201005454
 20
10.5104148689
 30
0.0
 10
31.011382173
 20
10.5058640985
 30
0.0
 10
31.011382173
 20
10.5020536183
 30
0.0
  0
SPLINE
  5
3DF
100
AcDbEntity
  8
0
100
AcDbSpline
 62
7
  6
BYLAYER
 70
0
 71
3
 72
12
 73
8
 74
0
 42
0.0000001
 43
0.0000001
 44
0.0000000001
 40
0.0
 40
0.0
 40
0.0
 40
0.0
 40
0.0407470647
 40
0.1037782807
 40
0.3058853238
 40
0.6063818966
 40
1.0
 40
1.0
 40
1.0
 40
1.0
 10
33.057605373
 20
10.0176905452
 30
0.0
 10
33.0576053675
 20
10.0190659437
 30
0.0
 10
33.0557970878
 20
10.0223856136
 30
0.0
 10
33.0481112273
 20
10.0291972853
 30
0.0
 10
33.031333878
 20
10.0387449386
 30
0.0
 10
33.0039237547
 20
10.0513776614
 30
0.0
 10
32.9821235334
 20
10.0600581668
 30
0.0
 10
32.9697134272
 20
10.0648034452
 30
0.0
  0
SPLINE
  5
3E0
100
AcDbEntity
  8
0
100
AcDbSpline
 62
7
  6
BYLAYER
 70
0
 71
3
 72
10
 73
6
 74
0
 42
0.0000001
 43
0.0000001
 44
0.0000000001
 40
0.0
 40
0.0
 40
0.0
 40
0.0
 40
0.1914468744
 40
0.4323001201
 40
1.0
 40
1.0
 40
1.0
 40
1.0
 10
30.6949074713
 20
10.4980880361
 30
0.0
 10
30.6650346461
 20
10.5082734579
 30
0.0
 10
30.5970209674
 20
10.5296116221
 30
0.0
 10
30.439070512
 20
10.5767969802
 30
0.0
 10
30.3106222992
 20
10.6126177821
 30
0.0
 10
30.2198003392
 20
10.6352100289
 30
0.0
  0
SPLINE
  5
3E1
100
AcDbEntity
  8
0
100
AcDbSpline
 62
7
  6
BYLAYER
 70
0
 71
3
 72
12
 73
8
 74
0
 42
0.0000001
 43
0.0000001
 44
0.0000000001
 40
0.0
 40
0.0
 40
0.0
 40
0.0
 40
0.026688204
 40
0.075819997
 40
0.2563165395
 40
0.5593412376
 40
1.0
 40
1.0
 40
1.0
 40
1.0
 10
33.056590173
 20
9.8820989071
 30
0.0
 10
33.056590173
 20
9.8826102267
 30
0.0
 10
33.0555853874
 20
9.8838854138
 30
0.0
 10
33.0516192117
 20
9.8865876813
 30
0.0
 10
33.0421943887
 20
9.8909094054
 30
0.0
 10
33.025729565
 20
9.8971887481
 30
0.0
 10
33.0121955751
 20
9.9017493138
 30
0.0
 10
33.0041697111
 20
9.9043690061
 30
0.0
  0
SPLINE
  5
3E2
100
AcDbEntity
  8
0
100
AcDbSpline
 62
7
  6
BYLAYER
 70
0
 71
3
 72
9
 73
5
 74
0
 42
0.0000001
 43
0.0000001
 44
0.0000000001
 40
0.0
 40
0.0
 40
0.0
 40
0.0
 40
0.4004170893
 40
1.0
 40
1.0
 40
1.0
 40
1.0
 10
33.0041697111
 20
9.9043690061
 30
0.0
 10
32.976530821
 20
9.9133905128
 30
0.0
 10
32.906850466
 20
9.9338757507
 30
0.0
 10
32.8368309019
 20
9.9530817051
 30
0.0
 10
32.794800573
 20
9.964429353
 30
0.0
  0
SPLINE
  5
3E3
100
AcDbEntity
  8
0
100
AcDbSpline
 62
7
  6
BYLAYER
 70
0
 71
3
 72
12
 73
8
 74
0
 42
0.0000001
 43
0.0000001
 44
0.0000000001
 40
0.0
 40
0.0
 40
0.0
 40
0.0
 40
0.0177271546
 40
0.0590713868
 40
0.2306280888
 40
0.5355456381
 40
1.0
 40
1.0
 40
1.0
 40
1.0
 10
32.687442573
 20
9.9665824799
 30
0.0
 10
32.687442573
 20
9.9661644304
 30
0.0
 10
32.6858207541
 20
9.9653629424
 30
0.0
 10
32.6807508074
 20
9.965431122
 30
0.0
 10
32.6681650882
 20
9.9663314876
 30
0.0
 10
32.6464919595
 20
9.9698190535
 30
0.0
 10
32.6285394926
 20
9.972983543
 30
0.0
 10
32.617774181
 20
9.9750023425
 30
0.0
  0
SPLINE
  5
3E4
100
AcDbEntity
  8
0
100
AcDbSpline
 62
7
  6
BYLAYER
 70
0
 71
3
 72
9
 73
5
 74
0
 42
0.0000001
 43
0.0000001
 44
0.0000000001
 40
0.0
 40
0.0
 40
0.0
 40
0.0
 40
0.1857566293
 40
1.0
 40
1.0
 40
1.0
 40
1.0
 10
32.617774181
 20
9.9750023425
 30
0.0
 10
32.6055726986
 20
9.9772904646
 30
0.0
 10
32.5399896046
 20
9.9901510311
 30
0.0
 10
32.474671293
 20
10.0043159638
 30
0.0
 10
32.4215209334
 20
10.0159845044
 30
0.0
  0
LINE
  5
3E5
100
AcDbEntity
  8
0
100
AcDbLine
 62
7
  6
BYLAYER
 10
32.4215209334
 20
10.0159845044
 11
32.4047990462
 21
10.0196641405
  0
LINE
  5
3E6
100
AcDbEntity
  8
0
100
AcDbLine
 62
7
  6
BYLAYER
 10
31.3733269395
 20
10.2906632487
 11
31.360346971
 21
10.2935309326
  0
SPLINE
  5
3E7
100
AcDbEntity
  8
0
100
AcDbSpline
 62
7
  6
BYLAYER
 70
0
 71
3
 72
9
 73
5
 74
0
 42
0.0000001
 43
0.0000001
 44
0.0000000001
 40
0.0
 40
0.0
 40
0.0
 40
0.0
 40
0.2925883783
 40
1.0
 40
1.0
 40
1.0
 40
1.0
 10
31.360346971
 20
10.2935309326
 30
0.0
 10
31.3394311627
 20
10.2981449519
 30
0.0
 10
31.2679199156
 20
10.3137953261
 30
0.0
 10
31.1962981771
 20
10.3289549534
 30
0.0
 10
31.1455177673
 20
10.339108068
 30
0.0
  0
SPLINE
  5
3E8
100
AcDbEntity
  8
0
100
AcDbSpline
 62
7
  6
BYLAYER
 70
0
 71
3
 72
14
 73
10
 74
0
 42
0.0000001
 43
0.0000001
 44
0.0000000001
 40
0.0
 40
0.0
 40
0.0
 40
0.0
 40
0.4324011753
 40
0.6031379087
 40
0.7438327442
 40
0.8544792273
 40
0.9343457555
 40
0.9826800486
 40
1.0
 40
1.0
 40
1.0
 40
1.0
 10
31.1455177673
 20
10.339108068
 30
0.0
 10
31.1262652395
 20
10.3429574485
 30
0.0
 10
31.0993584346
 20
10.3482163895
 30
0.0
 10
31.0661880477
 20
10.3542339219
 30
0.0
 10
31.0471606165
 20
10.3574476468
 30
0.0
 10
31.0326307089
 20
10.359651369
 30
0.0
 10
31.0210831075
 20
10.3610815692
 30
0.0
 10
31.0158764235
 20
10.3613080425
 30
0.0
 10
31.011382173
 20
10.3612775885
 30
0.0
 10
31.011382173
 20
10.3604911598
 30
0.0
  0
LINE
  5
3E9
100
AcDbEntity
  8
0
100
AcDbLine
 62
7
  6
BYLAYER
 10
34.533515373
 20
9.6245626086
 11
34.496438991
 21
9.6316180938
  0
SPLINE
  5
3EA
100
AcDbEntity
  8
0
100
AcDbSpline
 62
7
  6
BYLAYER
 70
0
 71
3
 72
9
 73
5
 74
0
 42
0.0000001
 43
0.0000001
 44
0.0000000001
 40
0.0
 40
0.0
 40
0.0
 40
0.0
 40
0.2780364464
 40
1.0
 40
1.0
 40
1.0
 40
1.0
 10
34.1546402205
 20
9.6948153005
 30
0.0
 10
34.1427996367
 20
9.6968805498
 30
0.0
 10
34.1001974552
 20
9.7042156265
 30
0.0
 10
34.0575365897
 20
9.7112272176
 30
0.0
 10
34.0266716273
 20
9.7158554941
 30
0.0
  0
SPLINE
  5
3EB
100
AcDbEntity
  8
0
100
AcDbSpline
 62
7
  6
BYLAYER
 70
0
 71
3
 72
9
 73
5
 74
0
 42
0.0000001
 43
0.0000001
 44
0.0000000001
 40
0.0
 40
0.0
 40
0.0
 40
0.0
 40
0.2891596968
 40
1.0
 40
1.0
 40
1.0
 40
1.0
 10
34.0266716273
 20
9.7158554941
 30
0.0
 10
34.0209064493
 20
9.7167199966
 30
0.0
 10
34.0009597333
 20
9.7196469478
 30
0.0
 10
33.9809759736
 20
9.7223374374
 30
0.0
 10
33.9667394969
 20
9.7239804447
 30
0.0
  0
SPLINE
  5
3EC
100
AcDbEntity
  8
0
100
AcDbSpline
 62
7
  6
BYLAYER
 70
0
 71
3
 72
12
 73
8
 74
0
 42
0.0000001
 43
0.0000001
 44
0.0000000001
 40
0.0
 40
0.0
 40
0.0
 40
0.0
 40
0.4214038369
 40
0.7322640304
 40
0.9254790861
 40
0.9762594203
 40
1.0
 40
1.0
 40
1.0
 40
1.0
 10
33.9667394969
 20
9.7239804447
 30
0.0
 10
33.9601243166
 20
9.7247438913
 30
0.0
 10
33.9485710588
 20
9.7259345689
 30
0.0
 10
33.9341263156
 20
9.7271340848
 30
0.0
 10
33.9251046093
 20
9.7271195752
 30
0.0
 10
33.9211319329
 20
9.7267796031
 30
0.0
 10
33.919850973
 20
9.7260170158
 30
0.0
 10
33.919850973
 20
9.7256418635
 30
0.0
  0
SPLINE
  5
3ED
100
AcDbEntity
  8
0
100
AcDbSpline
 62
7
  6
BYLAYER
 70
0
 71
3
 72
12
 73
8
 74
0
 42
0.0000001
 43
0.0000001
 44
0.0000000001
 40
0.0
 40
0.0
 40
0.0
 40
0.0
 40
0.0289217461
 40
0.0834786273
 40
0.277305391
 40
0.5830928798
 40
1.0
 40
1.0
 40
1.0
 40
1.0
 10
35.081477373
 20
9.5044301926
 30
0.0
 10
35.081477373
 20
9.5050628766
 30
0.0
 10
35.0800457719
 20
9.5065840568
 30
0.0
 10
35.0749909593
 20
9.5095559626
 30
0.0
 10
35.0635108166
 20
9.5141457631
 30
0.0
 10
35.0445926763
 20
9.520406452
 30
0.0
 10
35.0293787597
 20
9.524861176
 30
0.0
 10
35.0206028315
 20
9.5273431306
 30
0.0
  0
SPLINE
  5
3EE
100
AcDbEntity
  8
0
100
AcDbSpline
 62
7
  6
BYLAYER
 70
0
 71
3
 72
9
 73
5
 74
0
 42
0.0000001
 43
0.0000001
 44
0.0000000001
 40
0.0
 40
0.0
 40
0.0
 40
0.0
 40
0.1966895093
 40
1.0
 40
1.0
 40
1.0
 40
1.0
 10
34.8503996263
 20
9.5450010936
 30
0.0
 10
34.8459997548
 20
9.5454096963
 30
0.0
 10
34.8236613247
 20
9.5478167155
 30
0.0
 10
34.8014070066
 20
9.5509313521
 30
0.0
 10
34.7835476808
 20
9.5535278057
 30
0.0
  0
SPLINE
  5
3EF
100
AcDbEntity
  8
0
100
AcDbSpline
 62
7
  6
BYLAYER
 70
0
 71
3
 72
11
 73
7
 74
0
 42
0.0000001
 43
0.0000001
 44
0.0000000001
 40
0.0
 40
0.0
 40
0.0
 40
0.0
 40
0.078461043
 40
0.2595902984
 40
0.5588259593
 40
1.0
 40
1.0
 40
1.0
 40
1.0
 10
30.740827463
 20
10.4772557808
 30
0.0
 10
30.7408265186
 20
10.4785857842
 30
0.0
 10
30.7362430521
 20
10.481421684
 30
0.0
 10
30.7286051444
 20
10.4855081293
 30
0.0
 10
30.7136484982
 20
10.4914967973
 30
0.0
 10
30.7019855372
 20
10.4956740212
 30
0.0
 10
30.6949074713
 20
10.4980880361
 30
0.0
  0
SPLINE
  5
3F0
100
AcDbEntity
  8
0
100
AcDbSpline
 62
7
  6
BYLAYER
 70
0
 71
3
 72
12
 73
8
 74
0
 42
0.0000001
 43
0.0000001
 44
0.0000000001
 40
0.0
 40
0.0
 40
0.0
 40
0.0
 40
0.0161839231
 40
0.053266681
 40
0.2129657989
 40
0.5200590213
 40
1.0
 40
1.0
 40
1.0
 40
1.0
 10
30.0941688527
 20
10.6563861881
 30
0.0
 10
30.0941680699
 20
10.657079736
 30
0.0
 10
30.0967753054
 20
10.6584571522
 30
0.0
 10
30.1053702115
 20
10.6582097846
 30
0.0
 10
30.1274809082
 20
10.6559898627
 30
0.0
 10
30.1668506331
 20
10.647836446
 30
0.0
 10
30.199841585
 20
10.6401767955
 30
0.0
 10
30.2198003392
 20
10.6352100289
 30
0.0
  0
SPLINE
  5
3F1
100
AcDbEntity
  8
0
100
AcDbSpline
 62
7
  6
BYLAYER
 70
0
 71
3
 72
10
 73
6
 74
0
 42
0.0000001
 43
0.0000001
 44
0.0000000001
 40
0.0
 40
0.0
 40
0.0
 40
0.0
 40
0.5883788023
 40
0.8243022722
 40
1.0
 40
1.0
 40
1.0
 40
1.0
 10
34.714024173
 20
9.7476508173
 30
0.0
 10
34.7445428381
 20
9.7419187616
 30
0.0
 10
34.7875626092
 20
9.7351479137
 30
0.0
 10
34.8400003835
 20
9.7293097521
 30
0.0
 10
34.8616975626
 20
9.7276737849
 30
0.0
 10
34.8709701824
 20
9.7276602694
 30
0.0
  0
SPLINE
  5
3F2
100
AcDbEntity
  8
0
100
AcDbSpline
 62
7
  6
BYLAYER
 70
0
 71
3
 72
17
 73
13
 74
0
 42
0.0000001
 43
0.0000001
 44
0.0000000001
 40
0.0
 40
0.0
 40
0.0
 40
0.0
 40
0.1794407378
 40
0.3490866699
 40
0.5070204344
 40
0.651257843
 40
0.7788698842
 40
0.8850160864
 40
0.927726739
 40
0.9618597698
 40
0.9860495806
 40
1.0
 40
1.0
 40
1.0
 40
1.0
 10
31.7880521252
 20
10.4950910846
 30
0.0
 10
31.7628371595
 20
10.501621147
 30
0.0
 10
31.7139254948
 20
10.5148777776
 30
0.0
 10
31.6432853834
 20
10.5355464584
 30
0.0
 10
31.5779408313
 20
10.5560616033
 30
0.0
 10
31.5188229902
 20
10.5760275789
 30
0.0
 10
31.4673456813
 20
10.5949779241
 30
0.0
 10
31.4301790707
 20
10.6102999098
 30
0.0
 10
31.4063061791
 20
10.6218048401
 30
0.0
 10
31.3934157102
 20
10.6291353567
 30
0.0
 10
31.3851145284
 20
10.6350336051
 30
0.0
 10
31.381205373
 20
10.6398587591
 30
0.0
 10
31.381205373
 20
10.6418837391
 30
0.0
  0
SPLINE
  5
3F3
100
AcDbEntity
  8
0
100
AcDbSpline
 62
7
  6
BYLAYER
 70
0
 71
3
 72
18
 73
14
 74
0
 42
0.0000001
 43
0.0000001
 44
0.0000000001
 40
0.0
 40
0.0
 40
0.0
 40
0.0
 40
0.1752726645
 40
0.3479693932
 40
0.512331221
 40
0.6613157351
 40
0.7912053271
 40
0.8476228296
 40
0.89723726
 40
0.9387893171
 40
0.9706509536
 40
0.9912569382
 40
1.0
 40
1.0
 40
1.0
 40
1.0
 10
32.044992573
 20
10.2262714896
 30
0.0
 10
32.0797177658
 20
10.2181056293
 30
0.0
 10
32.1486934208
 20
10.2020419328
 30
0.0
 10
32.2504994791
 20
10.1794883978
 30
0.0
 10
32.347402459
 20
10.1595639168
 30
0.0
 10
32.4360734894
 20
10.1430024912
 30
0.0
 10
32.5034304135
 20
10.1318470468
 30
0.0
 10
32.550912554
 20
10.1250110946
 30
0.0
 10
32.5808427607
 20
10.121361888
 30
0.0
 10
32.6054330766
 20
10.1188406674
 30
0.0
 10
32.6253988049
 20
10.1181852204
 30
0.0
 10
32.6362261579
 20
10.1180656148
 30
0.0
 10
32.644093773
 20
10.1203816231
 30
0.0
 10
32.644093773
 20
10.1221610564
 30
0.0
  0
SPLINE
  5
3F4
100
AcDbEntity
  8
0
100
AcDbSpline
 62
7
  6
BYLAYER
 70
0
 71
3
 72
18
 73
14
 74
0
 42
0.0000001
 43
0.0000001
 44
0.0000000001
 40
0.0
 40
0.0
 40
0.0
 40
0.0
 40
0.1755907825
 40
0.3498453524
 40
0.5192862991
 40
0.6750258458
 40
0.8070648523
 40
0.8611334375
 40
0.9064820174
 40
0.9432128094
 40
0.9713600882
 40
0.9903424217
 40
1.0
 40
1.0
 40
1.0
 40
1.0
 10
32.044992573
 20
10.2262714896
 30
0.0
 10
32.0079372781
 20
10.2349852889
 30
0.0
 10
31.934165206
 20
10.2525896328
 30
0.0
 10
31.8248921422
 20
10.2796595665
 30
0.0
 10
31.7200721555
 20
10.3068019312
 30
0.0
 10
31.624554238
 20
10.3332792251
 30
0.0
 10
31.5536190086
 20
10.3548316446
 30
0.0
 10
31.506099296
 20
10.3708894852
 30
0.0
 10
31.4783582995
 20
10.3811239849
 30
0.0
 10
31.456365097
 20
10.3901390807
 30
0.0
 10
31.4396352741
 20
10.3981019711
 30
0.0
 10
31.4296301863
 20
10.4040531714
 30
0.0
 10
31.424215773
 20
10.408877766
 30
0.0
 10
31.424215773
 20
10.410971418
 30
0.0
  0
SPLINE
  5
3F5
100
AcDbEntity
  8
0
100
AcDbSpline
 62
7
  6
BYLAYER
 70
0
 71
3
 72
22
 73
18
 74
0
 42
0.0000001
 43
0.0000001
 44
0.0000000001
 40
0.0
 40
0.0
 40
0.0
 40
0.0
 40
0.1826296914
 40
0.355721089
 40
0.5165583072
 40
0.6628739325
 40
0.7296717451
 40
0.7915100276
 40
0.8476798626
 40
0.8972041005
 40
0.9388626651
 40
0.9562648819
 40
0.9710984901
 40
0.9831163079
 40
0.9920729773
 40
0.9977461136
 40
1.0
 40
1.0
 40
1.0
 40
1.0
 10
31.813682973
 20
10.1568466873
 30
0.0
 10
31.7872281891
 20
10.1631962165
 30
0.0
 10
31.7357261132
 20
10.1756714943
 30
0.0
 10
31.6610082938
 20
10.1940761746
 30
0.0
 10
31.5916108064
 20
10.2114595975
 30
0.0
 10
31.5376326395
 20
10.2252306247
 30
0.0
 10
31.4979876299
 20
10.2355234987
 30
0.0
 10
31.4713640426
 20
10.2425297804
 30
0.0
 10
31.4472533395
 20
10.2489783469
 30
0.0
 10
31.4260820981
 20
10.2547656492
 30
0.0
 10
31.41050247
 20
10.2591460041
 30
0.0
 10
31.3999507219
 20
10.2622386631
 30
0.0
 10
31.3936101694
 20
10.2641438595
 30
0.0
 10
31.3886104495
 20
10.2657733102
 30
0.0
 10
31.3846542342
 20
10.2670326192
 30
0.0
 10
31.3826949847
 20
10.2680164644
 30
0.0
 10
31.381205373
 20
10.2685035508
 30
0.0
 10
31.381205373
 20
10.2688393093
 30
0.0
  0
SPLINE
  5
3F6
100
AcDbEntity
  8
0
100
AcDbSpline
 62
7
  6
BYLAYER
 70
0
 71
3
 72
25
 73
21
 74
0
 42
0.0000001
 43
0.0000001
 44
0.0000000001
 40
0.0
 40
0.0
 40
0.0
 40
0.0
 40
0.0662764099
 40
0.1317207046
 40
0.1954860316
 40
0.2567483328
 40
0.314944221
 40
0.3706292168
 40
0.3986074556
 40
0.4275496303
 40
0.4580914528
 40
0.4902634845
 40
0.5559263592
 40
0.6190642979
 40
0.6799809424
 40
0.7411364632
 40
0.8037902671
 40
0.8681041059
 40
0.9337079618
 40
1.0
 40
1.0
 40
1.0
 40
1.0
 10
47.9792116177
 20
13.738722449
 30
0.0
 10
47.9791848682
 20
13.6476722777
 30
0.0
 10
47.9802036717
 20
13.4667132025
 30
0.0
 10
47.9860798405
 20
13.1981964202
 30
0.0
 10
48.0009101022
 20
12.9368596648
 30
0.0
 10
48.0328671428
 20
12.6867907623
 30
0.0
 10
48.0940852936
 20
12.453097257
 30
0.0
 10
48.1887967327
 20
12.2785675952
 30
0.0
 10
48.2994993446
 20
12.168892817
 30
0.0
 10
48.4022312344
 20
12.1045705634
 30
0.0
 10
48.5225854337
 20
12.0638075148
 30
0.0
 10
48.699180779
 20
12.0454334877
 30
0.0
 10
48.9220910308
 20
12.0926290184
 30
0.0
 10
49.1428364137
 20
12.2416033338
 30
0.0
 10
49.2972847996
 20
12.4483300459
 30
0.0
 10
49.3966266334
 20
12.683539232
 30
0.0
 10
49.4586623626
 20
12.9351123245
 30
0.0
 10
49.4953117367
 20
13.1974130668
 30
0.0
 10
49.5143687928
 20
13.4664240553
 30
0.0
 10
49.5183291979
 20
13.6476508078
 30
0.0
 10
49.5183018616
 20
13.738722449
 30
0.0
  0
SPLINE
  5
3F7
100
AcDbEntity
  8
0
100
AcDbSpline
 62
7
  6
BYLAYER
 70
0
 71
3
 72
11
 73
7
 74
0
 42
0.0000001
 43
0.0000001
 44
0.0000000001
 40
0.0
 40
0.0
 40
0.0
 40
0.0
 40
0.1418827795
 40
0.3661864138
 40
0.6579042895
 40
1.0
 40
1.0
 40
1.0
 40
1.0
 10
26.5648624538
 20
12.1908299421
 30
0.0
 10
26.557725084
 20
12.1937027072
 30
0.0
 10
26.5418391938
 20
12.2063395573
 30
0.0
 10
26.5166277493
 20
12.2313294428
 30
0.0
 10
26.4863949029
 20
12.2668757586
 30
0.0
 10
26.4655838031
 20
12.2942144112
 30
0.0
 10
26.4546929688
 20
12.309231649
 30
0.0
  0
SPLINE
  5
3F8
100
AcDbEntity
  8
0
100
AcDbSpline
 62
7
  6
BYLAYER
 70
0
 71
3
 72
14
 73
10
 74
0
 42
0.0000001
 43
0.0000001
 44
0.0000000001
 40
0.0
 40
0.0
 40
0.0
 40
0.0
 40
0.1113898801
 40
0.2334875269
 40
0.4869570514
 40
0.6150514412
 40
0.7433330727
 40
0.8716533417
 40
1.0
 40
1.0
 40
1.0
 40
1.0
 10
26.4546929688
 20
12.309231649
 30
0.0
 10
26.4218329294
 20
12.3545419541
 30
0.0
 10
26.3590675807
 20
12.4539995014
 30
0.0
 10
26.2484135186
 20
12.6724998299
 30
0.0
 10
26.1633787734
 20
12.9122390628
 30
0.0
 10
26.1044715647
 20
13.1616825105
 30
0.0
 10
26.0727405166
 20
13.3525322699
 30
0.0
 10
26.0543782914
 20
13.5452426684
 30
0.0
 10
26.0506279758
 20
13.6742331146
 30
0.0
 10
26.0500461598
 20
13.73872245
 30
0.0
  0
SPLINE
  5
3F9
100
AcDbEntity
  8
0
100
AcDbSpline
 62
7
  6
BYLAYER
 70
0
 71
3
 72
9
 73
5
 74
0
 42
0.0000001
 43
0.0000001
 44
0.0000000001
 40
0.0
 40
0.0
 40
0.0
 40
0.0
 40
0.5523411352
 40
1.0
 40
1.0
 40
1.0
 40
1.0
 10
37.0527253354
 20
9.7855226088
 30
0.0
 10
37.0104768847
 20
9.7855213527
 30
0.0
 10
36.933982038
 20
9.7840918142
 30
0.0
 10
36.8576114555
 20
9.7784624291
 30
0.0
 10
36.8236390479
 20
9.774179439
 30
0.0
  0
SPLINE
  5
3FA
100
AcDbEntity
  8
0
100
AcDbSpline
 62
7
  6
BYLAYER
 70
0
 71
3
 72
28
 73
24
 74
0
 42
0.0000001
 43
0.0000001
 44
0.0000000001
 40
0.0
 40
0.0
 40
0.0
 40
0.0
 40
0.0199480508
 40
0.0361879123
 40
0.0487655075
 40
0.0579743107
 40
0.06471293
 40
0.0710791806
 40
0.0794466671
 40
0.090947829
 40
0.1059591465
 40
0.1245517056
 40
0.1466777341
 40
0.1722308165
 40
0.232914348
 40
0.3049688494
 40
0.3863827483
 40
0.474837978
 40
0.5677609781
 40
0.6623837264
 40
0.7558089804
 40
0.8450741025
 40
1.0
 40
1.0
 40
1.0
 40
1.0
 10
36.8236390479
 20
9.774179439
 30
0.0
 10
36.808033404
 20
9.7722119948
 30
0.0
 10
36.7797994087
 20
9.7679328175
 30
0.0
 10
36.7422744925
 20
9.759314961
 30
0.0
 10
36.7139696663
 20
9.7490458325
 30
0.0
 10
36.6945158721
 20
9.7374247563
 30
0.0
 10
36.6837027062
 20
9.7220463775
 30
0.0
 10
36.6864881766
 20
9.7040177592
 30
0.0
 10
36.6999121861
 20
9.6877057297
 30
0.0
 10
36.7216294943
 20
9.6707366321
 30
0.0
 10
36.7525314678
 20
9.6529329518
 30
0.0
 10
36.7923315327
 20
9.6342570157
 30
0.0
 10
36.840896112
 20
9.6148934549
 30
0.0
 10
36.921586875
 20
9.5867369012
 30
0.0
 10
37.0414698646
 20
9.5517371904
 30
0.0
 10
37.2054754156
 20
9.5114127257
 30
0.0
 10
37.3921570722
 20
9.4720346861
 30
0.0
 10
37.5960238124
 20
9.4348243268
 30
0.0
 10
37.8110212864
 20
9.4009506439
 30
0.0
 10
38.0306180119
 20
9.3714917309
 30
0.0
 10
38.2479762191
 20
9.347366212
 30
0.0
 10
38.5132045501
 20
9.3246088513
 30
0.0
 10
38.7057376267
 20
9.3151915639
 30
0.0
 10
38.8278977635
 20
9.3151983424
 30
0.0
  0
SPLINE
  5
3FB
100
AcDbEntity
  8
0
100
AcDbSpline
 62
7
  6
BYLAYER
 70
0
 71
3
 72
10
 73
6
 74
0
 42
0.0000001
 43
0.0000001
 44
0.0000000001
 40
0.0
 40
0.0
 40
0.0
 40
0.0
 40
0.3131515425
 40
0.5941148378
 40
1.0
 40
1.0
 40
1.0
 40
1.0
 10
33.7245533867
 20
10.2036084739
 30
0.0
 10
33.7245471917
 20
10.2022374497
 30
0.0
 10
33.7220182566
 20
10.200146953
 30
0.0
 10
33.7178904769
 20
10.1992325125
 30
0.0
 10
33.7148545332
 20
10.1988482068
 30
0.0
 10
33.7130807051
 20
10.1987413455
 30
0.0
  0
SPLINE
  5
3FC
100
AcDbEntity
  8
0
100
AcDbSpline
 62
7
  6
BYLAYER
 70
0
 71
3
 72
9
 73
5
 74
0
 42
0.0000001
 43
0.0000001
 44
0.0000000001
 40
0.0
 40
0.0
 40
0.0
 40
0.0
 40
0.1786257584
 40
1.0
 40
1.0
 40
1.0
 40
1.0
 10
33.7130807051
 20
10.1987413455
 30
0.0
 10
33.7112456975
 20
10.1986307986
 30
0.0
 10
33.7009439852
 20
10.1985296279
 30
0.0
 10
33.6906816634
 20
10.1998171353
 30
0.0
 10
33.6823273535
 20
10.201106408
 30
0.0
  0
SPLINE
  5
3FD
100
AcDbEntity
  8
0
100
AcDbSpline
 62
7
  6
BYLAYER
 70
0
 71
3
 72
27
 73
23
 74
0
 42
0.0000001
 43
0.0000001
 44
0.0000000001
 40
0.0
 40
0.0
 40
0.0
 40
0.0
 40
0.0649221183
 40
0.1294380857
 40
0.1931048029
 40
0.2554224119
 40
0.3158404381
 40
0.3452491408
 40
0.3741598262
 40
0.402812329
 40
0.4317247221
 40
0.4616622112
 40
0.4930724582
 40
0.5253972495
 40
0.5575759596
 40
0.5891028881
 40
0.6200951152
 40
0.6814958531
 40
0.7435172407
 40
0.8065500596
 40
0.870494687
 40
1.0
 40
1.0
 40
1.0
 40
1.0
 10
43.3466041958
 20
13.7387224511
 30
0.0
 10
43.3465197609
 20
13.660571111
 30
0.0
 10
43.3459331135
 20
13.5047549531
 30
0.0
 10
43.3419273397
 20
13.2723291381
 30
0.0
 10
43.3322808134
 20
13.0431541403
 30
0.0
 10
43.311956075
 20
12.819603116
 30
0.0
 10
43.2787624187
 20
12.6388644175
 30
0.0
 10
43.2346597377
 20
12.5026412126
 30
0.0
 10
43.1902639733
 20
12.4074381742
 30
0.0
 10
43.1307687803
 20
12.3212193409
 30
0.0
 10
43.0521334112
 20
12.2494244495
 30
0.0
 10
42.9532161217
 20
12.200617786
 30
0.0
 10
42.8398790584
 20
12.1836943106
 30
0.0
 10
42.7241411331
 20
12.2014819546
 30
0.0
 10
42.6177612225
 20
12.2499169305
 30
0.0
 10
42.5273981763
 20
12.3208853794
 30
0.0
 10
42.4299439172
 20
12.4348137487
 30
0.0
 10
42.3439763237
 20
12.6020692041
 30
0.0
 10
42.2803166907
 20
12.8179269396
 30
0.0
 10
42.2412372617
 20
13.0423955488
 30
0.0
 10
42.2103906176
 20
13.3497501256
 30
0.0
 10
42.2044104784
 20
13.5828287475
 30
0.0
 10
42.2038295502
 20
13.7387224499
 30
0.0
  0
SPLINE
  5
3FE
100
AcDbEntity
  8
0
100
AcDbSpline
 62
7
  6
BYLAYER
 70
0
 71
3
 72
11
 73
7
 74
0
 42
0.0000001
 43
0.0000001
 44
0.0000000001
 40
0.0
 40
0.0
 40
0.0
 40
0.0
 40
0.2590862162
 40
0.5166382497
 40
0.7682991486
 40
1.0
 40
1.0
 40
1.0
 40
1.0
 10
65.3930164924
 20
13.738722449
 30
0.0
 10
65.393011236
 20
13.6111680297
 30
0.0
 10
65.3745998306
 20
13.3564375645
 30
0.0
 10
65.2939910107
 20
12.9856994991
 30
0.0
 10
65.1696511457
 20
12.6417046568
 30
0.0
 10
65.0631550044
 20
12.4284347054
 30
0.0
 10
65.0082846558
 20
12.3284264429
 30
0.0
  0
SPLINE
  5
3FF
100
AcDbEntity
  8
0
100
AcDbSpline
 62
7
  6
BYLAYER
 70
0
 71
3
 72
22
 73
18
 74
0
 42
0.0000001
 43
0.0000001
 44
0.0000000001
 40
0.0
 40
0.0
 40
0.0
 40
0.0
 40
0.213941651
 40
0.4002222428
 40
0.4800010982
 40
0.5489215183
 40
0.6055544759
 40
0.6488886293
 40
0.6784005738
 40
0.696205199
 40
0.7137812281
 40
0.7267549315
 40
0.7432481719
 40
0.787195743
 40
0.84545984
 40
0.9168737935
 40
1.0
 40
1.0
 40
1.0
 40
1.0
 10
65.0082846558
 20
12.3284264429
 30
0.0
 10
64.9931926001
 20
12.3009192318
 30
0.0
 10
64.9644517325
 20
12.2497415501
 30
0.0
 10
64.9295087031
 20
12.1886293197
 30
0.0
 10
64.9056408393
 20
12.1456944109
 30
0.0
 10
64.891591289
 20
12.1190431867
 30
0.0
 10
64.8808051281
 20
12.0967737759
 30
0.0
 10
64.8740733937
 20
12.0788709364
 30
0.0
 10
64.8706255996
 20
12.0662540945
 30
0.0
 10
64.8729203934
 20
12.0555029395
 30
0.0
 10
64.8811964365
 20
12.054440033
 30
0.0
 10
64.8877391214
 20
12.0561506056
 30
0.0
 10
64.8978425879
 20
12.0601173095
 30
0.0
 10
64.9128937771
 20
12.068922307
 30
0.0
 10
64.9337262711
 20
12.0836018666
 30
0.0
 10
64.9580625481
 20
12.1031627411
 30
0.0
 10
64.975068291
 20
12.1181557483
 30
0.0
 10
64.984062808
 20
12.126384613
 30
0.0
  0
SPLINE
  5
400
100
AcDbEntity
  8
0
100
AcDbSpline
 62
7
  6
BYLAYER
 70
0
 71
3
 72
9
 73
5
 74
0
 42
0.0000001
 43
0.0000001
 44
0.0000000001
 40
0.0
 40
0.0
 40
0.0
 40
0.0
 40
0.2357993479
 40
1.0
 40
1.0
 40
1.0
 40
1.0
 10
64.984062808
 20
12.126384613
 30
0.0
 10
64.9879769273
 20
12.1299655456
 30
0.0
 10
65.004453609
 20
12.1452857865
 30
0.0
 10
65.0204653716
 20
12.1611032376
 30
0.0
 10
65.0324735591
 20
12.1734078996
 30
0.0
  0
SPLINE
  5
401
100
AcDbEntity
  8
0
100
AcDbSpline
 62
7
  6
BYLAYER
 70
0
 71
3
 72
12
 73
8
 74
0
 42
0.0000001
 43
0.0000001
 44
0.0000000001
 40
0.0
 40
0.0
 40
0.0
 40
0.0
 40
0.1072046819
 40
0.227558857
 40
0.481885001
 40
0.740679968
 40
1.0
 40
1.0
 40
1.0
 40
1.0
 10
65.0324735591
 20
12.1734078996
 30
0.0
 10
65.0752073471
 20
12.2171967583
 30
0.0
 10
65.1600917575
 20
12.3159080383
 30
0.0
 10
65.3179559711
 20
12.5415362262
 30
0.0
 10
65.4800324771
 20
12.867563043
 30
0.0
 10
65.5996899896
 20
13.2942840085
 30
0.0
 10
65.6265292268
 20
13.5907198307
 30
0.0
 10
65.6265219165
 20
13.738722449
 30
0.0
  0
SPLINE
  5
402
100
AcDbEntity
  8
0
100
AcDbSpline
 62
7
  6
BYLAYER
 70
0
 71
3
 72
12
 73
8
 74
0
 42
0.0000001
 43
0.0000001
 44
0.0000000001
 40
0.0
 40
0.0
 40
0.0
 40
0.0
 40
0.0335440358
 40
0.0908955849
 40
0.2862102686
 40
0.5880673853
 40
1.0
 40
1.0
 40
1.0
 40
1.0
 10
33.919850973
 20
9.804096632
 30
0.0
 10
33.919850973
 20
9.8030514891
 30
0.0
 10
33.9217021866
 20
9.800506326
 30
0.0
 10
33.9289243368
 20
9.7955345298
 30
0.0
 10
33.944906121
 20
9.7883499079
 30
0.0
 10
33.9714545183
 20
9.7787799692
 30
0.0
 10
33.9927580574
 20
9.7722415578
 30
0.0
 10
34.0050760572
 20
9.7686364203
 30
0.0
  0
SPLINE
  5
403
100
AcDbEntity
  8
0
100
AcDbSpline
 62
7
  6
BYLAYER
 70
0
 71
3
 72
9
 73
5
 74
0
 42
0.0000001
 43
0.0000001
 44
0.0000000001
 40
0.0
 40
0.0
 40
0.0
 40
0.0
 40
0.2195900768
 40
1.0
 40
1.0
 40
1.0
 40
1.0
 10
34.0050760572
 20
9.7686364203
 30
0.0
 10
34.011182086
 20
9.7668493547
 30
0.0
 10
34.0390464329
 20
9.7589089385
 30
0.0
 10
34.0670957694
 20
9.7516294057
 30
0.0
 10
34.089036792
 20
9.746166969
 30
0.0
  0
SPLINE
  5
404
100
AcDbEntity
  8
0
100
AcDbSpline
 62
7
  6
BYLAYER
 70
0
 71
3
 72
9
 73
5
 74
0
 42
0.0000001
 43
0.0000001
 44
0.0000000001
 40
0.0
 40
0.0
 40
0.0
 40
0.0
 40
0.2328245402
 40
1.0
 40
1.0
 40
1.0
 40
1.0
 10
34.1022547628
 20
9.7429056975
 30
0.0
 10
34.1118625053
 20
9.7405560185
 30
0.0
 10
34.1531723197
 20
9.73064305
 30
0.0
 10
34.1946178556
 20
9.7213029783
 30
0.0
 10
34.2264535941
 20
9.7143260984
 30
0.0
  0
SPLINE
  5
405
100
AcDbEntity
  8
0
100
AcDbSpline
 62
7
  6
BYLAYER
 70
0
 71
3
 72
9
 73
5
 74
0
 42
0.0000001
 43
0.0000001
 44
0.0000000001
 40
0.0
 40
0.0
 40
0.0
 40
0.0
 40
0.2417155469
 40
1.0
 40
1.0
 40
1.0
 40
1.0
 10
34.2264535941
 20
9.7143260984
 30
0.0
 10
34.2485256889
 20
9.7094889448
 30
0.0
 10
34.3399287623
 20
9.6898826885
 30
0.0
 10
34.4315991217
 20
9.6715360248
 30
0.0
 10
34.5012062404
 20
9.6581343163
 30
0.0
  0
LINE
  5
406
100
AcDbEntity
  8
0
100
AcDbLine
 62
7
  6
BYLAYER
 10
34.5012062404
 20
9.6581343163
 11
34.524371373
 21
9.6536950225
  0
SPLINE
  5
407
100
AcDbEntity
  8
0
100
AcDbSpline
 62
7
  6
BYLAYER
 70
0
 71
3
 72
9
 73
5
 74
0
 42
0.0000001
 43
0.0000001
 44
0.0000000001
 40
0.0
 40
0.0
 40
0.0
 40
0.0
 40
0.281905002
 40
1.0
 40
1.0
 40
1.0
 40
1.0
 10
34.8610528971
 20
9.59603512
 30
0.0
 10
34.8722232315
 20
9.5944049519
 30
0.0
 10
34.911870118
 20
9.588786013
 30
0.0
 10
34.9516083092
 20
9.58374622
 30
0.0
 10
34.9802196205
 20
9.5808698139
 30
0.0
  0
SPLINE
  5
408
100
AcDbEntity
  8
0
100
AcDbSpline
 62
7
  6
BYLAYER
 70
0
 71
3
 72
12
 73
8
 74
0
 42
0.0000001
 43
0.0000001
 44
0.0000000001
 40
0.0
 40
0.0
 40
0.0
 40
0.0
 40
0.4332587945
 40
0.7383303942
 40
0.8459613409
 40
0.9243084614
 40
1.0
 40
1.0
 40
1.0
 40
1.0
 10
34.9802196205
 20
9.5808698139
 30
0.0
 10
34.9950033644
 20
9.5793835467
 30
0.0
 10
35.0203682565
 20
9.5772529349
 30
0.0
 10
35.0490219707
 20
9.5761148462
 30
0.0
 10
35.0663473332
 20
9.5770129192
 30
0.0
 10
35.0743312893
 20
9.5780158952
 30
0.0
 10
35.081477373
 20
9.5802434164
 30
0.0
 10
35.081477373
 20
9.5828391975
 30
0.0
  0
SPLINE
  5
409
100
AcDbEntity
  8
0
100
AcDbSpline
 62
7
  6
BYLAYER
 70
0
 71
3
 72
9
 73
5
 74
0
 42
0.0000001
 43
0.0000001
 44
0.0000000001
 40
0.0
 40
0.0
 40
0.0
 40
0.0
 40
0.5855575174
 40
1.0
 40
1.0
 40
1.0
 40
1.0
 10
34.799706573
 20
9.6563775539
 30
0.0
 10
34.8127138229
 20
9.6519855688
 30
0.0
 10
34.8347903669
 20
9.6441825216
 30
0.0
 10
34.856679254
 20
9.6355241895
 30
0.0
 10
34.8652149962
 20
9.6308811173
 30
0.0
  0
SPLINE
  5
40A
100
AcDbEntity
  8
0
100
AcDbSpline
 62
7
  6
BYLAYER
 70
0
 71
3
 72
9
 73
5
 74
0
 42
0.0000001
 43
0.0000001
 44
0.0000000001
 40
0.0
 40
0.0
 40
0.0
 40
0.0
 40
0.6521978321
 40
1.0
 40
1.0
 40
1.0
 40
1.0
 10
34.8652149962
 20
9.6308811173
 30
0.0
 10
34.8675332258
 20
9.6296201013
 30
0.0
 10
34.8708007399
 20
9.6277253988
 30
0.0
 10
34.874213373
 20
9.6244768299
 30
0.0
 10
34.874213373
 20
9.6230695087
 30
0.0
  0
SPLINE
  5
40B
100
AcDbEntity
  8
0
100
AcDbSpline
 62
7
  6
BYLAYER
 70
0
 71
3
 72
11
 73
7
 74
0
 42
0.0000001
 43
0.0000001
 44
0.0000000001
 40
0.0
 40
0.0
 40
0.0
 40
0.0
 40
0.087631921
 40
0.2912675252
 40
0.6012315632
 40
1.0
 40
1.0
 40
1.0
 40
1.0
 10
34.122712173
 20
9.7645132402
 30
0.0
 10
34.122712173
 20
9.7660561294
 30
0.0
 10
34.129418688
 20
9.7680880996
 30
0.0
 10
34.1385976742
 20
9.7684556423
 30
0.0
 10
34.1553847729
 20
9.7685698565
 30
0.0
 10
34.1676328298
 20
9.7678991298
 30
0.0
 10
34.1746415635
 20
9.7674858766
 30
0.0
  0
SPLINE
  5
40C
100
AcDbEntity
  8
0
100
AcDbSpline
 62
7
  6
BYLAYER
 70
0
 71
3
 72
9
 73
5
 74
0
 42
0.0000001
 43
0.0000001
 44
0.0000000001
 40
0.0
 40
0.0
 40
0.0
 40
0.0
 40
0.2248352428
 40
1.0
 40
1.0
 40
1.0
 40
1.0
 10
34.1746415635
 20
9.7674858766
 30
0.0
 10
34.17915808
 20
9.7672195711
 30
0.0
 10
34.1992374319
 20
9.7658863109
 30
0.0
 10
34.2192843311
 20
9.764103956
 30
0.0
 10
34.234811373
 20
9.7626110801
 30
0.0
  0
SPLINE
  5
40D
100
AcDbEntity
  8
0
100
AcDbSpline
 62
7
  6
BYLAYER
 70
0
 71
3
 72
9
 73
5
 74
0
 42
0.0000001
 43
0.0000001
 44
0.0000000001
 40
0.0
 40
0.0
 40
0.0
 40
0.0
 40
0.2687852021
 40
1.0
 40
1.0
 40
1.0
 40
1.0
 10
34.8291991077
 20
9.7094685451
 30
0.0
 10
34.8390122439
 20
9.7079695458
 30
0.0
 10
34.8755482425
 20
9.7025710014
 30
0.0
 10
34.9121832318
 20
9.6978302103
 30
0.0
 10
34.9390217134
 20
9.6948292058
 30
0.0
  0
SPLINE
  5
40E
100
AcDbEntity
  8
0
100
AcDbSpline
 62
7
  6
BYLAYER
 70
0
 71
3
 72
9
 73
5
 74
0
 42
0.0000001
 43
0.0000001
 44
0.0000000001
 40
0.0
 40
0.0
 40
0.0
 40
0.0
 40
0.2649198537
 40
1.0
 40
1.0
 40
1.0
 40
1.0
 10
34.9390217134
 20
9.6948292058
 30
0.0
 10
34.9435382179
 20
9.6943241829
 30
0.0
 10
34.960592462
 20
9.6924697224
 30
0.0
 10
34.9776702911
 20
9.6908262937
 30
0.0
 10
34.9902371314
 20
9.6897818703
 30
0.0
  0
SPLINE
  5
40F
100
AcDbEntity
  8
0
100
AcDbSpline
 62
7
  6
BYLAYER
 70
0
 71
3
 72
12
 73
8
 74
0
 42
0.0000001
 43
0.0000001
 44
0.0000000001
 40
0.0
 40
0.0
 40
0.0
 40
0.0
 40
0.387625029
 40
0.6965922186
 40
0.9070838685
 40
0.9678354312
 40
1.0
 40
1.0
 40
1.0
 40
1.0
 10
34.9902371314
 20
9.6897818703
 30
0.0
 10
35.0021723359
 20
9.6887899418
 30
0.0
 10
35.0236925246
 20
9.6873101848
 30
0.0
 10
35.0515545851
 20
9.6862827824
 30
0.0
 10
35.0698044096
 20
9.6872899893
 30
0.0
 10
35.078716767
 20
9.6888498931
 30
0.0
 10
35.081477373
 20
9.6910161909
 30
0.0
 10
35.081477373
 20
9.6920099715
 30
0.0
  0
SPLINE
  5
410
100
AcDbEntity
  8
0
100
AcDbSpline
 62
7
  6
BYLAYER
 70
0
 71
3
 72
12
 73
8
 74
0
 42
0.0000001
 43
0.0000001
 44
0.0000000001
 40
0.0
 40
0.0
 40
0.0
 40
0.0
 40
0.3719722858
 40
0.6765033064
 40
0.8923326628
 40
0.9598770518
 40
1.0
 40
1.0
 40
1.0
 40
1.0
 10
34.800384573
 20
9.7678639449
 30
0.0
 10
34.8112496244
 20
9.7642223176
 30
0.0
 10
34.8309748074
 20
9.7573790477
 30
0.0
 10
34.8564853308
 20
9.7474389283
 30
0.0
 10
34.8731128055
 20
9.7396032373
 30
0.0
 10
34.8811220835
 20
9.7340221056
 30
0.0
 10
34.883357373
 20
9.7310736593
 30
0.0
 10
34.883357373
 20
9.7298376195
 30
0.0
  0
SPLINE
  5
411
100
AcDbEntity
  8
0
100
AcDbSpline
 62
7
  6
BYLAYER
 70
0
 71
3
 72
25
 73
21
 74
0
 42
0.0000001
 43
0.0000001
 44
0.0000000001
 40
0.0
 40
0.0
 40
0.0
 40
0.0
 40
0.1292594123
 40
0.1929425196
 40
0.2554812281
 40
0.3165657266
 40
0.3763024833
 40
0.4061709423
 40
0.4365280086
 40
0.4678241952
 40
0.4999982518
 40
0.5321716391
 40
0.5634681181
 40
0.5938252953
 40
0.6236942117
 40
0.6834322738
 40
0.7445171675
 40
0.8070562807
 40
0.8707397147
 40
1.0
 40
1.0
 40
1.0
 40
1.0
 10
46.3289553523
 20
13.7387224512
 30
0.0
 10
46.3285818034
 20
13.5828801496
 30
0.0
 10
46.3249233953
 20
13.3501376083
 30
0.0
 10
46.3028165845
 20
13.0428184167
 30
0.0
 10
46.2727797097
 20
12.818725371
 30
0.0
 10
46.2206893381
 20
12.603400997
 30
0.0
 10
46.1456499851
 20
12.4355269047
 30
0.0
 10
46.0560694014
 20
12.3209221505
 30
0.0
 10
45.9705435165
 20
12.2495945379
 30
0.0
 10
45.8667746018
 20
12.2010300798
 30
0.0
 10
45.751036093
 20
12.1836954944
 30
0.0
 10
45.6353005452
 20
12.2010337962
 30
0.0
 10
45.5315225148
 20
12.2495803689
 30
0.0
 10
45.446003083
 20
12.320917859
 30
0.0
 10
45.3564050688
 20
12.4355107372
 30
0.0
 10
45.2813762002
 20
12.6033955683
 30
0.0
 10
45.2292787104
 20
12.8187190075
 30
0.0
 10
45.1992438804
 20
13.042814306
 30
0.0
 10
45.177130852
 20
13.3501348556
 30
0.0
 10
45.1734840644
 20
13.582879113
 30
0.0
 10
45.1731033937
 20
13.73872245
 30
0.0
  0
SPLINE
  5
412
100
AcDbEntity
  8
0
100
AcDbSpline
 62
7
  6
BYLAYER
 70
0
 71
3
 72
12
 73
8
 74
0
 42
0.0000001
 43
0.0000001
 44
0.0000000001
 40
0.0
 40
0.0
 40
0.0
 40
0.0
 40
0.2593696583
 40
0.5182127233
 40
0.7725649329
 40
0.8928969626
 40
1.0
 40
1.0
 40
1.0
 40
1.0
 10
25.8755368285
 20
13.738722449
 30
0.0
 10
25.8755297325
 20
13.5905951177
 30
0.0
 10
25.9024143562
 20
13.293909162
 30
0.0
 10
26.0222690691
 20
12.8668656015
 30
0.0
 10
26.1845980813
 20
12.5406609698
 30
0.0
 10
26.3426538189
 20
12.315015425
 30
0.0
 10
26.427612584
 20
12.2163484939
 30
0.0
 10
26.4703682699
 20
12.1726064755
 30
0.0
  0
SPLINE
  5
413
100
AcDbEntity
  8
0
100
AcDbSpline
 62
7
  6
BYLAYER
 70
0
 71
3
 72
9
 73
5
 74
0
 42
0.0000001
 43
0.0000001
 44
0.0000000001
 40
0.0
 40
0.0
 40
0.0
 40
0.0
 40
0.2634053659
 40
1.0
 40
1.0
 40
1.0
 40
1.0
 10
26.4703682699
 20
12.1726064755
 30
0.0
 10
26.4744453913
 20
12.1684352988
 30
0.0
 10
26.4900246217
 20
12.1526989032
 30
0.0
 10
26.5060022802
 20
12.1373537857
 30
0.0
 10
26.5180374585
 20
12.1263445013
 30
0.0
  0
SPLINE
  5
414
100
AcDbEntity
  8
0
100
AcDbSpline
 62
7
  6
BYLAYER
 70
0
 71
3
 72
11
 73
7
 74
0
 42
0.0000001
 43
0.0000001
 44
0.0000000001
 40
0.0
 40
0.0
 40
0.0
 40
0.0
 40
0.391761097
 40
0.6952431773
 40
0.896927296
 40
1.0
 40
1.0
 40
1.0
 40
1.0
 10
26.5180374585
 20
12.1263445013
 30
0.0
 10
26.5307984936
 20
12.1146712332
 30
0.0
 10
26.5537618645
 20
12.0945670838
 30
0.0
 10
26.5862151425
 20
12.0706530289
 30
0.0
 10
26.6080941051
 20
12.0574600831
 30
0.0
 10
26.6234488601
 20
12.053622155
 30
0.0
 10
26.6272111625
 20
12.0561814607
 30
0.0
  0
SPLINE
  5
415
100
AcDbEntity
  8
0
100
AcDbSpline
 62
7
  6
BYLAYER
 70
0
 71
3
 72
9
 73
5
 74
0
 42
0.0000001
 43
0.0000001
 44
0.0000000001
 40
0.0
 40
0.0
 40
0.0
 40
0.0
 40
0.3195888802
 40
1.0
 40
1.0
 40
1.0
 40
1.0
 10
34.131179373
 20
10.0038930728
 30
0.0
 10
34.131179373
 20
10.00556974
 30
0.0
 10
34.1375768937
 20
10.008333006
 30
0.0
 10
34.1420806798
 20
10.008540558
 30
0.0
 10
34.1456378976
 20
10.0088383148
 30
0.0
  0
SPLINE
  5
416
100
AcDbEntity
  8
0
100
AcDbSpline
 62
7
  6
BYLAYER
 70
0
 71
3
 72
9
 73
5
 74
0
 42
0.0000001
 43
0.0000001
 44
0.0000000001
 40
0.0
 40
0.0
 40
0.0
 40
0.0
 40
0.4317212116
 40
1.0
 40
1.0
 40
1.0
 40
1.0
 10
34.1456378976
 20
10.0088383148
 30
0.0
 10
34.1597067969
 20
10.0100159513
 30
0.0
 10
34.1925144596
 20
10.0086193956
 30
0.0
 10
34.2250940518
 20
10.0064089034
 30
0.0
 10
34.243615773
 20
10.0048912933
 30
0.0
  0
SPLINE
  5
417
100
AcDbEntity
  8
0
100
AcDbSpline
 62
7
  6
BYLAYER
 70
0
 71
3
 72
13
 73
9
 74
0
 42
0.0000001
 43
0.0000001
 44
0.0000000001
 40
0.0
 40
0.0
 40
0.0
 40
0.0
 40
0.0391350402
 40
0.1079701119
 40
0.2064996371
 40
0.3303925797
 40
0.6371126583
 40
1.0
 40
1.0
 40
1.0
 40
1.0
 10
33.919850973
 20
10.0525884585
 30
0.0
 10
33.919850973
 20
10.0513038411
 30
0.0
 10
33.9224337465
 20
10.0482437644
 30
0.0
 10
33.9279562224
 20
10.0446771504
 30
0.0
 10
33.9365602905
 20
10.0402630753
 30
0.0
 10
33.9524880997
 20
10.03344047
 30
0.0
 10
33.9770062317
 20
10.0245161228
 30
0.0
 10
33.9978946737
 20
10.0177038332
 30
0.0
 10
34.009256433
 20
10.0141257072
 30
0.0
  0
SPLINE
  5
418
100
AcDbEntity
  8
0
100
AcDbSpline
 62
7
  6
BYLAYER
 70
0
 71
3
 72
9
 73
5
 74
0
 42
0.0000001
 43
0.0000001
 44
0.0000000001
 40
0.0
 40
0.0
 40
0.0
 40
0.0
 40
0.2331787166
 40
1.0
 40
1.0
 40
1.0
 40
1.0
 10
34.009256433
 20
10.0141257072
 30
0.0
 10
34.0181933464
 20
10.0113112309
 30
0.0
 10
34.0566188093
 20
9.9995557496
 30
0.0
 10
34.09531971
 20
9.9887196126
 30
0.0
 10
34.1250653539
 20
9.9806817511
 30
0.0
  0
SPLINE
  5
419
100
AcDbEntity
  8
0
100
AcDbSpline
 62
7
  6
BYLAYER
 70
0
 71
3
 72
11
 73
7
 74
0
 42
0.0000001
 43
0.0000001
 44
0.0000000001
 40
0.0
 40
0.0
 40
0.0
 40
0.0
 40
0.1252123586
 40
0.3276134883
 40
0.6177499847
 40
1.0
 40
1.0
 40
1.0
 40
1.0
 10
33.919850973
 20
10.3406896501
 30
0.0
 10
33.919850973
 20
10.3351514588
 30
0.0
 10
33.9287296756
 20
10.3218730636
 30
0.0
 10
33.9503867772
 20
10.305859431
 30
0.0
 10
33.9845060158
 20
10.2869668634
 30
0.0
 10
34.0118043527
 20
10.2752434698
 30
0.0
 10
34.0275098054
 20
10.2689834646
 30
0.0
  0
SPLINE
  5
41A
100
AcDbEntity
  8
0
100
AcDbSpline
 62
7
  6
BYLAYER
 70
0
 71
3
 72
9
 73
5
 74
0
 42
0.0000001
 43
0.0000001
 44
0.0000000001
 40
0.0
 40
0.0
 40
0.0
 40
0.0
 40
0.2198085066
 40
1.0
 40
1.0
 40
1.0
 40
1.0
 10
34.0275098054
 20
10.2689834646
 30
0.0
 10
34.035844875
 20
10.2656612057
 30
0.0
 10
34.0740070505
 20
10.2511533557
 30
0.0
 10
34.1129795801
 20
10.2388628407
 30
0.0
 10
34.1435450779
 20
10.2299156121
 30
0.0
  0
SPLINE
  5
41B
100
AcDbEntity
  8
0
100
AcDbSpline
 62
7
  6
BYLAYER
 70
0
 71
3
 72
9
 73
5
 74
0
 42
0.0000001
 43
0.0000001
 44
0.0000000001
 40
0.0
 40
0.0
 40
0.0
 40
0.0
 40
0.2368813125
 40
1.0
 40
1.0
 40
1.0
 40
1.0
 10
34.1435450779
 20
10.2299156121
 30
0.0
 10
34.1563215063
 20
10.2261756558
 30
0.0
 10
34.2104068129
 20
10.210897645
 30
0.0
 10
34.2649457247
 20
10.1972633969
 30
0.0
 10
34.3066903143
 20
10.1874317261
 30
0.0
  0
SPLINE
  5
41C
100
AcDbEntity
  8
0
100
AcDbSpline
 62
7
  6
BYLAYER
 70
0
 71
3
 72
9
 73
5
 74
0
 42
0.0000001
 43
0.0000001
 44
0.0000000001
 40
0.0
 40
0.0
 40
0.0
 40
0.0
 40
0.2649537711
 40
1.0
 40
1.0
 40
1.0
 40
1.0
 10
34.6637372843
 20
10.1180940799
 30
0.0
 10
34.6774890536
 20
10.1161750769
 30
0.0
 10
34.7294430597
 20
10.1093092157
 30
0.0
 10
34.7815862195
 20
10.1038508051
 30
0.0
 10
34.8199818881
 20
10.1007531721
 30
0.0
  0
SPLINE
  5
41D
100
AcDbEntity
  8
0
100
AcDbSpline
 62
7
  6
BYLAYER
 70
0
 71
3
 72
9
 73
5
 74
0
 42
0.0000001
 43
0.0000001
 44
0.0000000001
 40
0.0
 40
0.0
 40
0.0
 40
0.0
 40
0.2759014552
 40
1.0
 40
1.0
 40
1.0
 40
1.0
 10
34.8199818881
 20
10.1007531721
 30
0.0
 10
34.8332095947
 20
10.0996860053
 30
0.0
 10
34.8811815234
 20
10.0962355736
 30
0.0
 10
34.9292972722
 20
10.0943383457
 30
0.0
 10
34.964125068
 20
10.0945864526
 30
0.0
  0
SPLINE
  5
41E
100
AcDbEntity
  8
0
100
AcDbSpline
 62
7
  6
BYLAYER
 70
0
 71
3
 72
12
 73
8
 74
0
 42
0.0000001
 43
0.0000001
 44
0.0000000001
 40
0.0
 40
0.0
 40
0.0
 40
0.0
 40
0.3769631988
 40
0.6772799078
 40
0.7940719422
 40
0.8861780875
 40
1.0
 40
1.0
 40
1.0
 40
1.0
 10
34.964125068
 20
10.0945864526
 30
0.0
 10
34.9796734649
 20
10.0946972166
 30
0.0
 10
35.0076474072
 20
10.0955723963
 30
0.0
 10
35.0401796708
 20
10.0986570854
 30
0.0
 10
35.0609328215
 20
10.103394137
 30
0.0
 10
35.0730470236
 20
10.1073410102
 30
0.0
 10
35.081477373
 20
10.113943067
 30
0.0
 10
35.081477373
 20
10.1186379369
 30
0.0
  0
SPLINE
  5
41F
100
AcDbEntity
  8
0
100
AcDbSpline
 62
7
  6
BYLAYER
 70
0
 71
3
 72
27
 73
23
 74
0
 42
0.0000001
 43
0.0000001
 44
0.0000000001
 40
0.0
 40
0.0
 40
0.0
 40
0.0
 40
0.1295044823
 40
0.1934487585
 40
0.2564811777
 40
0.3185020931
 40
0.379901493
 40
0.4108930783
 40
0.4424199266
 40
0.4745983926
 40
0.5069240866
 40
0.5383339124
 40
0.5682716743
 40
0.5971841841
 40
0.6258369374
 40
0.6547480341
 40
0.6841576841
 40
0.7445759524
 40
0.8068939854
 40
0.8705610106
 40
0.9350775314
 40
1.0
 40
1.0
 40
1.0
 40
1.0
 10
49.2982291958
 20
13.7387224511
 30
0.0
 10
49.2976583523
 20
13.582829723
 30
0.0
 10
49.291661895
 20
13.3497529945
 30
0.0
 10
49.2608239129
 20
13.0423994234
 30
0.0
 10
49.221741577
 20
12.8179335095
 30
0.0
 10
49.1580904786
 20
12.602073939
 30
0.0
 10
49.0721103912
 20
12.4348318504
 30
0.0
 10
48.974676055
 20
12.3208885104
 30
0.0
 10
48.884305334
 20
12.2499322096
 30
0.0
 10
48.7779345672
 20
12.2014776535
 30
0.0
 10
48.6621929488
 20
12.1836957264
 30
0.0
 10
48.5488578322
 20
12.2006201674
 30
0.0
 10
48.4499321606
 20
12.2494120677
 30
0.0
 10
48.3713017889
 20
12.3212140914
 30
0.0
 10
48.3117956784
 20
12.4074254953
 30
0.0
 10
48.2673996723
 20
12.5026315774
 30
0.0
 10
48.2233010383
 20
12.6388577379
 30
0.0
 10
48.1901023051
 20
12.8195972928
 30
0.0
 10
48.1697789074
 20
13.0431497742
 30
0.0
 10
48.1601298559
 20
13.2723261337
 30
0.0
 10
48.1561268817
 20
13.5047534874
 30
0.0
 10
48.155540708
 20
13.6605706959
 30
0.0
 10
48.1554545502
 20
13.73872245
 30
0.0
  0
SPLINE
  5
420
100
AcDbEntity
  8
0
100
AcDbSpline
 62
7
  6
BYLAYER
 70
0
 71
3
 72
11
 73
7
 74
0
 42
0.0000001
 43
0.0000001
 44
0.0000000001
 40
0.0
 40
0.0
 40
0.0
 40
0.0
 40
0.3423447128
 40
0.6329835418
 40
0.8549999486
 40
1.0
 40
1.0
 40
1.0
 40
1.0
 10
34.799706573
 20
10.2219712878
 30
0.0
 10
34.8094861131
 20
10.2166956676
 30
0.0
 10
34.8273899698
 20
10.2066946233
 30
0.0
 10
34.8508014303
 20
10.1914169963
 30
0.0
 10
34.8670503416
 20
10.1781331907
 30
0.0
 10
34.874213373
 20
10.1671921644
 30
0.0
 10
34.874213373
 20
10.1624857732
 30
0.0
  0
SPLINE
  5
421
100
AcDbEntity
  8
0
100
AcDbSpline
 62
7
  6
BYLAYER
 70
0
 71
3
 72
12
 73
8
 74
0
 42
0.0000001
 43
0.0000001
 44
0.0000000001
 40
0.0
 40
0.0
 40
0.0
 40
0.0
 40
0.1176583703
 40
0.2121962701
 40
0.3311753179
 40
0.6321272617
 40
1.0
 40
1.0
 40
1.0
 40
1.0
 10
34.122712173
 20
10.3019842181
 30
0.0
 10
34.122712173
 20
10.3066327972
 30
0.0
 10
34.1310470328
 20
10.3131336649
 30
0.0
 10
34.1429293969
 20
10.3170719227
 30
0.0
 10
34.1629877373
 20
10.3217672413
 30
0.0
 10
34.1938491753
 20
10.3250963142
 30
0.0
 10
34.2202842691
 20
10.3264730507
 30
0.0
 10
34.234811373
 20
10.3269312962
 30
0.0
  0
SPLINE
  5
422
100
AcDbEntity
  8
0
100
AcDbSpline
 62
7
  6
BYLAYER
 70
0
 71
3
 72
11
 73
7
 74
0
 42
0.0000001
 43
0.0000001
 44
0.0000000001
 40
0.0
 40
0.0
 40
0.0
 40
0.0
 40
0.2619989362
 40
0.5312602483
 40
0.7817581479
 40
1.0
 40
1.0
 40
1.0
 40
1.0
 10
38.6799456392
 20
9.5618475863
 30
0.0
 10
38.6799460192
 20
9.535057386
 30
0.0
 10
38.6865646488
 20
9.4806692882
 30
0.0
 10
38.7141663246
 20
9.4044199616
 30
0.0
 10
38.762809695
 20
9.344941848
 30
0.0
 10
38.8061634084
 20
9.3202881544
 30
0.0
 10
38.8278936761
 20
9.3152092754
 30
0.0
  0
SPLINE
  5
423
100
AcDbEntity
  8
0
100
AcDbSpline
 62
7
  6
BYLAYER
 70
0
 71
3
 72
9
 73
5
 74
0
 42
0.0000001
 43
0.0000001
 44
0.0000000001
 40
0.0
 40
0.0
 40
0.0
 40
0.0
 40
0.4420472564
 40
1.0
 40
1.0
 40
1.0
 40
1.0
 10
33.511418973
 20
10.2472415065
 30
0.0
 10
33.52325924
 20
10.2421824354
 30
0.0
 10
33.550883231
 20
10.2327814918
 30
0.0
 10
33.5788236637
 20
10.2245675356
 30
0.0
 10
33.5945169135
 20
10.2203432559
 30
0.0
  0
SPLINE
  5
424
100
AcDbEntity
  8
0
100
AcDbSpline
 62
7
  6
BYLAYER
 70
0
 71
3
 72
9
 73
5
 74
0
 42
0.0000001
 43
0.0000001
 44
0.0000000001
 40
0.0
 40
0.0
 40
0.0
 40
0.0
 40
0.2398553466
 40
1.0
 40
1.0
 40
1.0
 40
1.0
 10
33.5945169135
 20
10.2203432559
 30
0.0
 10
33.6014585162
 20
10.2184747283
 30
0.0
 10
33.6304722654
 20
10.2109751001
 30
0.0
 10
33.6598154442
 20
10.2046056367
 30
0.0
 10
33.6823273535
 20
10.201106408
 30
0.0
  0
SPLINE
  5
425
100
AcDbEntity
  8
0
100
AcDbSpline
 62
7
  6
BYLAYER
 70
0
 71
3
 72
13
 73
9
 74
0
 42
0.0000001
 43
0.0000001
 44
0.0000000001
 40
0.0
 40
0.0
 40
0.0
 40
0.0
 40
0.1199763488
 40
0.2216122483
 40
0.3480553437
 40
0.4941961109
 40
0.6544219981
 40
1.0
 40
1.0
 40
1.0
 40
1.0
 10
31.591517373
 20
10.9194033536
 30
0.0
 10
31.591517373
 20
10.9254464639
 30
0.0
 10
31.6044379339
 20
10.9327075541
 30
0.0
 10
31.6204488625
 20
10.9362434584
 30
0.0
 10
31.6394752214
 20
10.93907366
 30
0.0
 10
31.6610959509
 20
10.9407721786
 30
0.0
 10
31.6939441889
 20
10.9423811368
 30
0.0
 10
31.7194021947
 20
10.9428325659
 30
0.0
 10
31.736806173
 20
10.943127702
 30
0.0
  0
SPLINE
  5
426
100
AcDbEntity
  8
0
100
AcDbSpline
 62
7
  6
BYLAYER
 70
0
 71
3
 72
11
 73
7
 74
0
 42
0.0000001
 43
0.0000001
 44
0.0000000001
 40
0.0
 40
0.0
 40
0.0
 40
0.0
 40
0.1307967553
 40
0.3459721954
 40
0.6405841693
 40
1.0
 40
1.0
 40
1.0
 40
1.0
 10
31.009687773
 20
11.0860457935
 30
0.0
 10
31.009687773
 20
11.0815852333
 30
0.0
 10
31.0173427907
 20
11.0709956888
 30
0.0
 10
31.0342470057
 20
11.0579395872
 30
0.0
 10
31.059819637
 20
11.0424045567
 30
0.0
 10
31.0796217396
 20
11.0322628466
 30
0.0
 10
31.0906254439
 20
11.0268631883
 30
0.0
  0
SPLINE
  5
427
100
AcDbEntity
  8
0
100
AcDbSpline
 62
7
  6
BYLAYER
 70
0
 71
3
 72
9
 73
5
 74
0
 42
0.0000001
 43
0.0000001
 44
0.0000000001
 40
0.0
 40
0.0
 40
0.0
 40
0.0
 40
0.4657157285
 40
1.0
 40
1.0
 40
1.0
 40
1.0
 10
31.0987551361
 20
11.0229212865
 30
0.0
 10
31.1296092944
 20
11.0081334055
 30
0.0
 10
31.1972620386
 20
10.9793407724
 30
0.0
 10
31.2659249407
 20
10.9531997815
 30
0.0
 10
31.3027970297
 20
10.9397385297
 30
0.0
  0
SPLINE
  5
428
100
AcDbEntity
  8
0
100
AcDbSpline
 62
7
  6
BYLAYER
 70
0
 71
3
 72
9
 73
5
 74
0
 42
0.0000001
 43
0.0000001
 44
0.0000000001
 40
0.0
 40
0.0
 40
0.0
 40
0.0
 40
0.2393239409
 40
1.0
 40
1.0
 40
1.0
 40
1.0
 10
31.3027970297
 20
10.9397385297
 30
0.0
 10
31.3236813247
 20
10.9321140973
 30
0.0
 10
31.4111882277
 20
10.90091982
 30
0.0
 10
31.4995044254
 20
10.8720483988
 30
0.0
 10
31.5668427889
 20
10.850623004
 30
0.0
  0
SPLINE
  5
429
100
AcDbEntity
  8
0
100
AcDbSpline
 62
7
  6
BYLAYER
 70
0
 71
3
 72
10
 73
6
 74
0
 42
0.0000001
 43
0.0000001
 44
0.0000000001
 40
0.0
 40
0.0
 40
0.0
 40
0.0
 40
0.2140982804
 40
0.4584567984
 40
1.0
 40
1.0
 40
1.0
 40
1.0
 10
38.6799358343
 20
9.5618539573
 30
0.0
 10
38.6291955537
 20
9.561852575
 30
0.0
 10
38.5205401111
 20
9.5655708683
 30
0.0
 10
38.2842426489
 20
9.5842523436
 30
0.0
 10
38.0994842498
 20
9.6092994099
 30
0.0
 10
37.9728554429
 20
9.6302067525
 30
0.0
  0
SPLINE
  5
42A
100
AcDbEntity
  8
0
100
AcDbSpline
 62
7
  6
BYLAYER
 70
0
 71
3
 72
9
 73
5
 74
0
 42
0.0000001
 43
0.0000001
 44
0.0000000001
 40
0.0
 40
0.0
 40
0.0
 40
0.0
 40
0.5314733853
 40
1.0
 40
1.0
 40
1.0
 40
1.0
 10
37.9728552534
 20
9.6302056048
 30
0.0
 10
37.854906705
 20
9.6496797734
 30
0.0
 10
37.6340028036
 20
9.6926285687
 30
0.0
 10
37.415852582
 20
9.7484976845
 30
0.0
 10
37.3152056645
 20
9.7797474087
 30
0.0
  0
SPLINE
  5
42B
100
AcDbEntity
  8
0
100
AcDbSpline
 62
7
  6
BYLAYER
 70
0
 71
3
 72
14
 73
10
 74
0
 42
0.0000001
 43
0.0000001
 44
0.0000000001
 40
0.0
 40
0.0
 40
0.0
 40
0.0
 40
0.1282119791
 40
0.2563983109
 40
0.3845465207
 40
0.5125127033
 40
0.7658147515
 40
0.8880155175
 40
1.0
 40
1.0
 40
1.0
 40
1.0
 10
65.4520125862
 20
13.7387224511
 30
0.0
 10
65.4514449155
 20
13.6746018136
 30
0.0
 10
65.447737964
 20
13.5463484053
 30
0.0
 10
65.4295727066
 20
13.3547323611
 30
0.0
 10
65.3982133432
 20
13.164940766
 30
0.0
 10
65.3399782574
 20
12.9167913378
 30
0.0
 10
65.2558982643
 20
12.678100762
 30
0.0
 10
65.1463506234
 20
12.4600307998
 30
0.0
 10
65.084118976
 20
12.3604847793
 30
0.0
 10
65.051496508
 20
12.3149591339
 30
0.0
  0
SPLINE
  5
42C
100
AcDbEntity
  8
0
100
AcDbSpline
 62
7
  6
BYLAYER
 70
0
 71
3
 72
11
 73
7
 74
0
 42
0.0000001
 43
0.0000001
 44
0.0000000001
 40
0.0
 40
0.0
 40
0.0
 40
0.0
 40
0.3425280388
 40
0.6349645369
 40
0.8594861441
 40
1.0
 40
1.0
 40
1.0
 40
1.0
 10
65.051496508
 20
12.3149591339
 30
0.0
 10
65.0401943664
 20
12.2991866519
 30
0.0
 10
65.0185672201
 20
12.2704619562
 30
0.0
 10
64.987103662
 20
12.2331099561
 30
0.0
 10
64.9609077223
 20
12.2069303253
 30
0.0
 10
64.9444012478
 20
12.1936651921
 30
0.0
 10
64.9369926079
 20
12.1907543393
 30
0.0
  0
SPLINE
  5
42D
100
AcDbEntity
  8
0
100
AcDbSpline
 62
7
  6
BYLAYER
 70
0
 71
3
 72
9
 73
5
 74
0
 42
0.0000001
 43
0.0000001
 44
0.0000000001
 40
0.0
 40
0.0
 40
0.0
 40
0.0
 40
0.2666494158
 40
1.0
 40
1.0
 40
1.0
 40
1.0
 10
32.2783810632
 20
10.3148258392
 30
0.0
 10
32.3129869549
 20
10.307608631
 30
0.0
 10
32.4429261762
 20
10.2813372153
 30
0.0
 10
32.5734704264
 20
10.2578443664
 30
0.0
 10
32.6696541005
 20
10.2436707772
 30
0.0
  0
SPLINE
  5
42E
100
AcDbEntity
  8
0
100
AcDbSpline
 62
7
  6
BYLAYER
 70
0
 71
3
 72
15
 73
11
 74
0
 42
0.0000001
 43
0.0000001
 44
0.0000000001
 40
0.0
 40
0.0
 40
0.0
 40
0.0
 40
0.2425686957
 40
0.4499340035
 40
0.6177569813
 40
0.748530143
 40
0.8463835791
 40
0.9159925904
 40
0.9635559176
 40
1.0
 40
1.0
 40
1.0
 40
1.0
 10
32.6696541005
 20
10.2436707772
 30
0.0
 10
32.7018929744
 20
10.2389200691
 30
0.0
 10
32.7618025075
 20
10.2308185178
 30
0.0
 10
32.8443774194
 20
10.2223644121
 30
0.0
 10
32.912299927
 20
10.2187113777
 30
0.0
 10
32.9655741046
 20
10.2193947892
 30
0.0
 10
33.0055764373
 20
10.2237022276
 30
0.0
 10
33.0334633613
 20
10.2312904505
 30
0.0
 10
33.0519435966
 20
10.2421082826
 30
0.0
 10
33.056590173
 20
10.2535585482
 30
0.0
 10
33.056590173
 20
10.2584544984
 30
0.0
  0
SPLINE
  5
42F
100
AcDbEntity
  8
0
100
AcDbSpline
 62
7
  6
BYLAYER
 70
0
 71
3
 72
13
 73
9
 74
0
 42
0.0000001
 43
0.0000001
 44
0.0000000001
 40
0.0
 40
0.0
 40
0.0
 40
0.0
 40
0.3658423016
 40
0.6705385158
 40
0.7902052922
 40
0.8856771676
 40
0.9553207852
 40
1.0
 40
1.0
 40
1.0
 40
1.0
 10
32.409736173
 20
10.5122166254
 30
0.0
 10
32.4460602502
 20
10.4971213028
 30
0.0
 10
32.5125317399
 20
10.469264491
 30
0.0
 10
32.589696982
 20
10.4333923358
 30
0.0
 10
32.6383536667
 20
10.4059488343
 30
0.0
 10
32.663829067
 20
10.388617208
 30
0.0
 10
32.6806377261
 20
10.3739672758
 30
0.0
 10
32.687442573
 20
10.3624824814
 30
0.0
 10
32.687442573
 20
10.3576785157
 30
0.0
  0
SPLINE
  5
430
100
AcDbEntity
  8
0
100
AcDbSpline
 62
7
  6
BYLAYER
 70
0
 71
3
 72
12
 73
8
 74
0
 42
0.0000001
 43
0.0000001
 44
0.0000000001
 40
0.0
 40
0.0
 40
0.0
 40
0.0
 40
0.0403537856
 40
0.1015443606
 40
0.2971496174
 40
0.5963185122
 40
1.0
 40
1.0
 40
1.0
 40
1.0
 10
31.011382173
 20
10.7301305986
 30
0.0
 10
31.011382173
 20
10.7252517909
 30
0.0
 10
31.0173764276
 20
10.7135107166
 30
0.0
 10
31.0437305773
 20
10.6892382372
 30
0.0
 10
31.1027346609
 20
10.6554542947
 30
0.0
 10
31.201930426
 20
10.6116854188
 30
0.0
 10
31.2819056262
 20
10.5825380294
 30
0.0
 10
31.3280774815
 20
10.5667225024
 30
0.0
  0
SPLINE
  5
431
100
AcDbEntity
  8
0
100
AcDbSpline
 62
7
  6
BYLAYER
 70
0
 71
3
 72
9
 73
5
 74
0
 42
0.0000001
 43
0.0000001
 44
0.0000000001
 40
0.0
 40
0.0
 40
0.0
 40
0.0
 40
0.2329015102
 40
1.0
 40
1.0
 40
1.0
 40
1.0
 10
31.3280774815
 20
10.5667225024
 30
0.0
 10
31.3440623286
 20
10.5612471153
 30
0.0
 10
31.4128664138
 20
10.5382358057
 30
0.0
 10
31.482215596
 20
10.5168793194
 30
0.0
 10
31.5355789595
 20
10.5010850099
 30
0.0
  0
SPLINE
  5
432
100
AcDbEntity
  8
0
100
AcDbSpline
 62
7
  6
BYLAYER
 70
0
 71
3
 72
12
 73
8
 74
0
 42
0.0000001
 43
0.0000001
 44
0.0000000001
 40
0.0
 40
0.0
 40
0.0
 40
0.0
 40
0.0366070457
 40
0.0965897102
 40
0.295068416
 40
0.5961681472
 40
1.0
 40
1.0
 40
1.0
 40
1.0
 10
31.011382173
 20
10.5020536183
 30
0.0
 10
31.011382173
 20
10.5000031852
 30
0.0
 10
31.0145468958
 20
10.4950057273
 30
0.0
 10
31.0273000756
 20
10.4847973225
 30
0.0
 10
31.0553853421
 20
10.4700205378
 30
0.0
 10
31.1017656437
 20
10.4501703297
 30
0.0
 10
31.1388816901
 20
10.4364965268
 30
0.0
 10
31.160212549
 20
10.4289710579
 30
0.0
  0
SPLINE
  5
433
100
AcDbEntity
  8
0
100
AcDbSpline
 62
7
  6
BYLAYER
 70
0
 71
3
 72
9
 73
5
 74
0
 42
0.0000001
 43
0.0000001
 44
0.0000000001
 40
0.0
 40
0.0
 40
0.0
 40
0.0
 40
0.2121313669
 40
1.0
 40
1.0
 40
1.0
 40
1.0
 10
31.160212549
 20
10.4289710579
 30
0.0
 10
31.1760786857
 20
10.4233735281
 30
0.0
 10
31.2511701015
 20
10.3978302561
 30
0.0
 10
31.3271273721
 20
10.3749036418
 30
0.0
 10
31.3871570087
 20
10.3575504755
 30
0.0
  0
SPLINE
  5
434
100
AcDbEntity
  8
0
100
AcDbSpline
 62
7
  6
BYLAYER
 70
0
 71
3
 72
9
 73
5
 74
0
 42
0.0000001
 43
0.0000001
 44
0.0000000001
 40
0.0
 40
0.0
 40
0.0
 40
0.0
 40
0.2616348538
 40
1.0
 40
1.0
 40
1.0
 40
1.0
 10
32.2814479676
 20
10.1343964979
 30
0.0
 10
32.3125792942
 20
10.1275684229
 30
0.0
 10
32.431645517
 20
10.1018352389
 30
0.0
 10
32.5510305452
 20
10.0775372264
 30
0.0
 10
32.6394347415
 20
10.0609614014
 30
0.0
  0
SPLINE
  5
435
100
AcDbEntity
  8
0
100
AcDbSpline
 62
7
  6
BYLAYER
 70
0
 71
3
 72
9
 73
5
 74
0
 42
0.0000001
 43
0.0000001
 44
0.0000000001
 40
0.0
 40
0.0
 40
0.0
 40
0.0
 40
0.2761489992
 40
1.0
 40
1.0
 40
1.0
 40
1.0
 10
32.6394347415
 20
10.0609614014
 30
0.0
 10
32.6589787153
 20
10.0572968979
 30
0.0
 10
32.7298005993
 20
10.0442964393
 30
0.0
 10
32.8008318533
 20
10.0323700998
 30
0.0
 10
32.8524181608
 20
10.024916112
 30
0.0
  0
SPLINE
  5
436
100
AcDbEntity
  8
0
100
AcDbSpline
 62
7
  6
BYLAYER
 70
0
 71
3
 72
11
 73
7
 74
0
 42
0.0000001
 43
0.0000001
 44
0.0000000001
 40
0.0
 40
0.0
 40
0.0
 40
0.0
 40
0.3517025254
 40
0.6375667341
 40
0.8553105366
 40
1.0
 40
1.0
 40
1.0
 40
1.0
 10
32.8524181608
 20
10.024916112
 30
0.0
 10
32.8748349421
 20
10.0216769887
 30
0.0
 10
32.9155296047
 20
10.0162454694
 30
0.0
 10
32.9703637086
 20
10.0105916658
 30
0.0
 10
33.0120041376
 20
10.0083399395
 30
0.0
 10
33.0354953906
 20
10.0087677164
 30
0.0
 10
33.0446777875
 20
10.0103514929
 30
0.0
  0
SPLINE
  5
437
100
AcDbEntity
  8
0
100
AcDbSpline
 62
7
  6
BYLAYER
 70
0
 71
3
 72
9
 73
5
 74
0
 42
0.0000001
 43
0.0000001
 44
0.0000000001
 40
0.0
 40
0.0
 40
0.0
 40
0.0
 40
0.638803451
 40
1.0
 40
1.0
 40
1.0
 40
1.0
 10
33.0446777875
 20
10.0103514929
 30
0.0
 10
33.0478297727
 20
10.0108951462
 30
0.0
 10
33.0526278199
 20
10.0116920511
 30
0.0
 10
33.0572483754
 20
10.015264078
 30
0.0
 10
33.0575516252
 20
10.0170470048
 30
0.0
  0
SPLINE
  5
438
100
AcDbEntity
  8
0
100
AcDbSpline
 62
7
  6
BYLAYER
 70
0
 71
3
 72
17
 73
13
 74
0
 42
0.0000001
 43
0.0000001
 44
0.0000000001
 40
0.0
 40
0.0
 40
0.0
 40
0.0
 40
0.0114349064
 40
0.0204540094
 40
0.0321326656
 40
0.0632047584
 40
0.1035837086
 40
0.2071553792
 40
0.3345857903
 40
0.4805825408
 40
0.6418620581
 40
1.0
 40
1.0
 40
1.0
 40
1.0
 10
31.381205373
 20
10.6418837391
 30
0.0
 10
31.381205373
 20
10.6435617973
 30
0.0
 10
31.3839240969
 20
10.6460975198
 30
0.0
 10
31.3882841017
 20
10.6474976358
 30
0.0
 10
31.3957906774
 20
10.6490941346
 30
0.0
 10
31.4079683169
 20
10.6498444349
 30
0.0
 10
31.4336722
 20
10.6497000252
 30
0.0
 10
31.473406246
 20
10.6465741845
 30
0.0
 10
31.5283509329
 20
10.6400831044
 30
0.0
 10
31.5914669358
 20
10.6307492814
 30
0.0
 10
31.6877228768
 20
10.6142999389
 30
0.0
 10
31.7624515695
 20
10.5990957425
 30
0.0
 10
31.813682973
 20
10.5873693839
 30
0.0
  0
SPLINE
  5
439
100
AcDbEntity
  8
0
100
AcDbSpline
 62
7
  6
BYLAYER
 70
0
 71
3
 72
9
 73
5
 74
0
 42
0.0000001
 43
0.0000001
 44
0.0000000001
 40
0.0
 40
0.0
 40
0.0
 40
0.0
 40
0.2163524273
 40
1.0
 40
1.0
 40
1.0
 40
1.0
 10
30.139992573
 20
10.6351554013
 30
0.0
 10
30.1468261987
 20
10.6327929873
 30
0.0
 10
30.1785029255
 20
10.6221377547
 30
0.0
 10
30.2103971823
 20
10.6121424553
 30
0.0
 10
30.2354340215
 20
10.6044588367
 30
0.0
  0
SPLINE
  5
43A
100
AcDbEntity
  8
0
100
AcDbSpline
 62
7
  6
BYLAYER
 70
0
 71
3
 72
12
 73
8
 74
0
 42
0.0000001
 43
0.0000001
 44
0.0000000001
 40
0.0
 40
0.0
 40
0.0
 40
0.0
 40
0.4403833687
 40
0.741172714
 40
0.9182093271
 40
0.9695198498
 40
1.0
 40
1.0
 40
1.0
 40
1.0
 10
30.6224382939
 20
10.4973773964
 30
0.0
 10
30.6394606315
 20
10.4932321922
 30
0.0
 10
30.668182749
 20
10.4864802727
 30
0.0
 10
30.7039608652
 20
10.4792898054
 30
0.0
 10
30.7248311122
 20
10.475985063
 30
0.0
 10
30.735080876
 20
10.4754803745
 30
0.0
 10
30.7383866487
 20
10.4756764743
 30
0.0
 10
30.7395386634
 20
10.476054948
 30
0.0
  0
LINE
  5
43B
100
AcDbEntity
  8
0
100
AcDbLine
 62
7
  6
BYLAYER
 10
32.044992573
 20
10.097472918
 11
32.1411340734
 21
10.0750053095
  0
LINE
  5
43C
100
AcDbEntity
  8
0
100
AcDbLine
 62
7
  6
BYLAYER
 10
32.7919213892
 20
9.9286106288
 11
32.8116621161
 21
9.9244142819
  0
SPLINE
  5
43D
100
AcDbEntity
  8
0
100
AcDbSpline
 62
7
  6
BYLAYER
 70
0
 71
3
 72
9
 73
5
 74
0
 42
0.0000001
 43
0.0000001
 44
0.0000000001
 40
0.0
 40
0.0
 40
0.0
 40
0.0
 40
0.3221071341
 40
1.0
 40
1.0
 40
1.0
 40
1.0
 10
32.8116621161
 20
9.9244142819
 30
0.0
 10
32.8312598856
 20
9.9202628434
 30
0.0
 10
32.8921356141
 20
9.9075464142
 30
0.0
 10
32.9531057312
 20
9.8951938866
 30
0.0
 10
32.9946471216
 20
9.8879990185
 30
0.0
  0
SPLINE
  5
43E
100
AcDbEntity
  8
0
100
AcDbSpline
 62
7
  6
BYLAYER
 70
0
 71
3
 72
9
 73
5
 74
0
 42
0.0000001
 43
0.0000001
 44
0.0000000001
 40
0.0
 40
0.0
 40
0.0
 40
0.0
 40
0.2906144461
 40
1.0
 40
1.0
 40
1.0
 40
1.0
 10
32.9946471216
 20
9.8879990185
 30
0.0
 10
32.9979330319
 20
9.8874299068
 30
0.0
 10
33.0092457711
 20
9.8855079189
 30
0.0
 10
33.0205836205
 20
9.883722023
 30
0.0
 10
33.0286510594
 20
9.8826355371
 30
0.0
  0
SPLINE
  5
43F
100
AcDbEntity
  8
0
100
AcDbSpline
 62
7
  6
BYLAYER
 70
0
 71
3
 72
12
 73
8
 74
0
 42
0.0000001
 43
0.0000001
 44
0.0000000001
 40
0.0
 40
0.0
 40
0.0
 40
0.0
 40
0.0815991295
 40
0.1653141202
 40
0.2779845332
 40
0.5865417443
 40
1.0
 40
1.0
 40
1.0
 40
1.0
 10
31.424215773
 20
10.410971418
 30
0.0
 10
31.424215773
 20
10.414172284
 30
0.0
 10
31.4333354342
 20
10.4164778736
 30
0.0
 10
31.4429806372
 20
10.417284498
 30
0.0
 10
31.4634296831
 20
10.417539084
 30
0.0
 10
31.4956668061
 20
10.4151351762
 30
0.0
 10
31.5239593937
 20
10.4118919109
 30
0.0
 10
31.540039773
 20
10.4097789236
 30
0.0
  0
SPLINE
  5
440
100
AcDbEntity
  8
0
100
AcDbSpline
 62
7
  6
BYLAYER
 70
0
 71
3
 72
14
 73
10
 74
0
 42
0.0000001
 43
0.0000001
 44
0.0000000001
 40
0.0
 40
0.0
 40
0.0
 40
0.0
 40
0.3762229969
 40
0.5395975539
 40
0.6838406322
 40
0.8055794706
 40
0.9012599156
 40
0.9669271274
 40
1.0
 40
1.0
 40
1.0
 40
1.0
 10
32.481533373
 20
10.1875518717
 30
0.0
 10
32.5026251836
 20
10.1808662353
 30
0.0
 10
32.532805691
 20
10.1710175507
 30
0.0
 10
32.5707330888
 20
10.157694687
 30
0.0
 10
32.5944378627
 20
10.1488545052
 30
0.0
 10
32.6140305841
 20
10.140917984
 30
0.0
 10
32.6294771122
 20
10.1338008215
 30
0.0
 10
32.638759643
 20
10.1284371119
 30
0.0
 10
32.644093773
 20
10.1241061053
 30
0.0
 10
32.644093773
 20
10.1221610564
 30
0.0
  0
SPLINE
  5
441
100
AcDbEntity
  8
0
100
AcDbSpline
 62
7
  6
BYLAYER
 70
0
 71
3
 72
9
 73
5
 74
0
 42
0.0000001
 43
0.0000001
 44
0.0000000001
 40
0.0
 40
0.0
 40
0.0
 40
0.0
 40
0.2857413672
 40
1.0
 40
1.0
 40
1.0
 40
1.0
 10
32.409736173
 20
10.0509735613
 30
0.0
 10
32.4289445777
 20
10.0456131825
 30
0.0
 10
32.4961741381
 20
10.0268817693
 30
0.0
 10
32.5633981779
 20
10.0080971302
 30
0.0
 10
32.6111391907
 20
9.9937535225
 30
0.0
  0
SPLINE
  5
442
100
AcDbEntity
  8
0
100
AcDbSpline
 62
7
  6
BYLAYER
 70
0
 71
3
 72
14
 73
10
 74
0
 42
0.0000001
 43
0.0000001
 44
0.0000000001
 40
0.0
 40
0.0
 40
0.0
 40
0.0
 40
0.4094261509
 40
0.5778285103
 40
0.7201001234
 40
0.8348158977
 40
0.9204404471
 40
0.9755048776
 40
1.0
 40
1.0
 40
1.0
 40
1.0
 10
32.6111391907
 20
9.9937535225
 30
0.0
 10
32.6217674478
 20
9.9905603026
 30
0.0
 10
32.6367535606
 20
9.9859825768
 30
0.0
 10
32.6553141228
 20
9.9799901282
 30
0.0
 10
32.6662678189
 20
9.9762846055
 30
0.0
 10
32.6749101405
 20
9.9731318929
 30
0.0
 10
32.6815427581
 20
9.9704984156
 30
0.0
 10
32.6851621148
 20
9.968611987
 30
0.0
 10
32.687442573
 20
9.9672464259
 30
0.0
 10
32.687442573
 20
9.9665824799
 30
0.0
  0
SPLINE
  5
443
100
AcDbEntity
  8
0
100
AcDbSpline
 62
7
  6
BYLAYER
 70
0
 71
3
 72
11
 73
7
 74
0
 42
0.0000001
 43
0.0000001
 44
0.0000000001
 40
0.0
 40
0.0
 40
0.0
 40
0.0
 40
0.4397831666
 40
0.7386050656
 40
0.9199580532
 40
1.0
 40
1.0
 40
1.0
 40
1.0
 10
30.139992573
 20
10.6351554013
 30
0.0
 10
30.1329284631
 20
10.6375925692
 30
0.0
 10
30.1212653396
 20
10.6418061163
 30
0.0
 10
30.1063753116
 20
10.6478941706
 30
0.0
 10
30.0986561958
 20
10.6520428405
 30
0.0
 10
30.094170388
 20
10.6550261312
 30
0.0
 10
30.0941688527
 20
10.6563861881
 30
0.0
  0
SPLINE
  5
444
100
AcDbEntity
  8
0
100
AcDbSpline
 62
7
  6
BYLAYER
 70
0
 71
3
 72
14
 73
10
 74
0
 42
0.0000001
 43
0.0000001
 44
0.0000000001
 40
0.0
 40
0.0
 40
0.0
 40
0.0
 40
0.0205754522
 40
0.0711265105
 40
0.1520342675
 40
0.2627682301
 40
0.4027970179
 40
0.5721827457
 40
1.0
 40
1.0
 40
1.0
 40
1.0
 10
31.011382173
 20
10.3604911598
 30
0.0
 10
31.011382173
 20
10.3595765672
 30
0.0
 10
31.0151442139
 20
10.3579983515
 30
0.0
 10
31.0205159051
 20
10.3553678857
 30
0.0
 10
31.031133453
 20
10.3517891728
 30
0.0
 10
31.0449675517
 20
10.347262197
 30
0.0
 10
31.0629174545
 20
10.3418491657
 30
0.0
 10
31.0943563803
 20
10.3327237638
 30
0.0
 10
31.1199684542
 20
10.3256803234
 30
0.0
 10
31.1383239634
 20
10.3207091494
 30
0.0
  0
SPLINE
  5
445
100
AcDbEntity
  8
0
100
AcDbSpline
 62
7
  6
BYLAYER
 70
0
 71
3
 72
9
 73
5
 74
0
 42
0.0000001
 43
0.0000001
 44
0.0000000001
 40
0.0
 40
0.0
 40
0.0
 40
0.0
 40
0.203964713
 40
1.0
 40
1.0
 40
1.0
 40
1.0
 10
31.1383239634
 20
10.3207091494
 30
0.0
 10
31.1536836115
 20
10.3165493365
 30
0.0
 10
31.229067857
 20
10.2964457499
 30
0.0
 10
31.3046763561
 20
10.2771935707
 30
0.0
 10
31.364906372
 20
10.2620471415
 30
0.0
  0
LINE
  5
446
100
AcDbEntity
  8
0
100
AcDbLine
 62
7
  6
BYLAYER
 10
32.0155104019
 20
10.1043990612
 11
32.044992573
 21
10.097472918
  0
SPLINE
  5
447
100
AcDbEntity
  8
0
100
AcDbSpline
 62
7
  6
BYLAYER
 70
0
 71
3
 72
9
 73
5
 74
0
 42
0.0000001
 43
0.0000001
 44
0.0000000001
 40
0.0
 40
0.0
 40
0.0
 40
0.0
 40
0.2014084324
 40
1.0
 40
1.0
 40
1.0
 40
1.0
 10
33.9470615508
 20
9.7145144184
 30
0.0
 10
33.9508063006
 20
9.713390187
 30
0.0
 10
33.9694593301
 20
9.7080092033
 30
0.0
 10
33.9882727393
 20
9.703202654
 30
0.0
 10
34.0033217498
 20
9.6994793914
 30
0.0
  0
SPLINE
  5
448
100
AcDbEntity
  8
0
100
AcDbSpline
 62
7
  6
BYLAYER
 70
0
 71
3
 72
9
 73
5
 74
0
 42
0.0000001
 43
0.0000001
 44
0.0000000001
 40
0.0
 40
0.0
 40
0.0
 40
0.0
 40
0.2192658904
 40
1.0
 40
1.0
 40
1.0
 40
1.0
 10
34.0033217498
 20
9.6994793914
 30
0.0
 10
34.0096410798
 20
9.6979159314
 30
0.0
 10
34.0384906909
 20
9.6909036134
 30
0.0
 10
34.0674333739
 20
9.6842788466
 30
0.0
 10
34.0900564786
 20
9.6792306486
 30
0.0
  0
SPLINE
  5
449
100
AcDbEntity
  8
0
100
AcDbSpline
 62
7
  6
BYLAYER
 70
0
 71
3
 72
21
 73
17
 74
0
 42
0.0000001
 43
0.0000001
 44
0.0000000001
 40
0.0
 40
0.0
 40
0.0
 40
0.0
 40
0.1833796813
 40
0.357182966
 40
0.5186385127
 40
0.6653948745
 40
0.7323149738
 40
0.794185349
 40
0.8502802992
 40
0.89959602
 40
0.9408921656
 40
0.9725910517
 40
0.9842763567
 40
0.9928609232
 40
0.9981316237
 40
1.0
 40
1.0
 40
1.0
 40
1.0
 10
31.813682973
 20
10.1739402249
 30
0.0
 10
31.787333573
 20
10.1801675521
 30
0.0
 10
31.7359822081
 20
10.1921762277
 30
0.0
 10
31.6613559966
 20
10.2093421701
 30
0.0
 10
31.5919489971
 20
10.2250740625
 30
0.0
 10
31.537891739
 20
10.2371390473
 30
0.0
 10
31.4981571353
 20
10.2458707639
 30
0.0
 10
31.4714782421
 20
10.2516588516
 30
0.0
 10
31.4473294241
 20
10.2568107369
 30
0.0
 10
31.4261058678
 20
10.2612347312
 30
0.0
 10
31.4084518471
 20
10.2647732986
 30
0.0
 10
31.3960481599
 20
10.267123779
 30
0.0
 10
31.3886452061
 20
10.2683339247
 30
0.0
 10
31.384619788
 20
10.2689359744
 30
0.0
 10
31.382835863
 20
10.2690013083
 30
0.0
 10
31.381205373
 20
10.2691151676
 30
0.0
 10
31.381205373
 20
10.2688393093
 30
0.0
  0
SPLINE
  5
44A
100
AcDbEntity
  8
0
100
AcDbSpline
 62
7
  6
BYLAYER
 70
0
 71
3
 72
11
 73
7
 74
0
 42
0.0000001
 43
0.0000001
 44
0.0000000001
 40
0.0
 40
0.0
 40
0.0
 40
0.0
 40
0.3406985307
 40
0.6319375195
 40
0.8588083017
 40
1.0
 40
1.0
 40
1.0
 40
1.0
 10
34.9087692973
 20
9.5245991675
 30
0.0
 10
34.9276553655
 20
9.5216658689
 30
0.0
 10
34.962705064
 20
9.5163752953
 30
0.0
 10
35.0104234295
 20
9.5096221564
 30
0.0
 10
35.0471237777
 20
9.5052940626
 30
0.0
 10
35.0677248911
 20
9.5032322298
 30
0.0
 10
35.0756452614
 20
9.5032886317
 30
0.0
  0
SPLINE
  5
44B
100
AcDbEntity
  8
0
100
AcDbSpline
 62
7
  6
BYLAYER
 70
0
 71
3
 72
9
 73
5
 74
0
 42
0.0000001
 43
0.0000001
 44
0.0000000001
 40
0.0
 40
0.0
 40
0.0
 40
0.0
 40
0.5906950723
 40
1.0
 40
1.0
 40
1.0
 40
1.0
 10
34.735360173
 20
9.5856348541
 30
0.0
 10
34.7589934686
 20
9.5796595204
 30
0.0
 10
34.7989095778
 20
9.5692389484
 30
0.0
 10
34.8387145649
 20
9.5581915027
 30
0.0
 10
34.8546800021
 20
9.5526759357
 30
0.0
  0
SPLINE
  5
44C
100
AcDbEntity
  8
0
100
AcDbSpline
 62
7
  6
BYLAYER
 70
0
 71
3
 72
11
 73
7
 74
0
 42
0.0000001
 43
0.0000001
 44
0.0000000001
 40
0.0
 40
0.0
 40
0.0
 40
0.0
 40
0.3996281882
 40
0.7026716555
 40
0.9024212866
 40
1.0
 40
1.0
 40
1.0
 40
1.0
 10
34.8546800021
 20
9.5526759357
 30
0.0
 10
34.8569228108
 20
9.5519011144
 30
0.0
 10
34.860817185
 20
9.550506449
 30
0.0
 10
34.8658781324
 20
9.5484031826
 30
0.0
 10
34.8688363729
 20
9.546860652
 30
0.0
 10
34.870488573
 20
9.545561913
 30
0.0
 10
34.870488573
 20
9.544982519
 30
0.0
  0
SPLINE
  5
44D
100
AcDbEntity
  8
0
100
AcDbSpline
 62
7
  6
BYLAYER
 70
0
 71
3
 72
9
 73
5
 74
0
 42
0.0000001
 43
0.0000001
 44
0.0000000001
 40
0.0
 40
0.0
 40
0.0
 40
0.0
 40
0.5819066116
 40
1.0
 40
1.0
 40
1.0
 40
1.0
 10
34.2909477257
 20
9.661169627
 30
0.0
 10
34.259450755
 20
9.6667346219
 30
0.0
 10
34.2052565683
 20
9.6758670972
 30
0.0
 10
34.1509473336
 20
9.6844845881
 30
0.0
 10
34.1281240163
 20
9.6871697673
 30
0.0
  0
LINE
  5
44E
100
AcDbEntity
  8
0
100
AcDbLine
 62
7
  6
BYLAYER
 10
34.1281240163
 20
9.6871697673
 11
34.1151092548
 21
9.6884174312
  0
SPLINE
  5
44F
100
AcDbEntity
  8
0
100
AcDbSpline
 62
7
  6
BYLAYER
 70
0
 71
3
 72
9
 73
5
 74
0
 42
0.0000001
 43
0.0000001
 44
0.0000000001
 40
0.0
 40
0.0
 40
0.0
 40
0.0
 40
0.7305525494
 40
1.0
 40
1.0
 40
1.0
 40
1.0
 10
34.1151092548
 20
9.6884174312
 30
0.0
 10
34.1137270129
 20
9.6884952004
 30
0.0
 10
34.1124144179
 20
9.6884308138
 30
0.0
 10
34.109503773
 20
9.6884923893
 30
0.0
 10
34.109503773
 20
9.687981775
 30
0.0
  0
SPLINE
  5
450
100
AcDbEntity
  8
0
100
AcDbSpline
 62
7
  6
BYLAYER
 70
0
 71
3
 72
25
 73
21
 74
0
 42
0.0000001
 43
0.0000001
 44
0.0000000001
 40
0.0
 40
0.0
 40
0.0
 40
0.0
 40
0.0662920949
 40
0.1318958569
 40
0.1962097409
 40
0.2588635818
 40
0.3200194375
 40
0.3809363626
 40
0.444073613
 40
0.5097372918
 40
0.5419081631
 40
0.5724498136
 40
0.601392828
 40
0.6293708921
 40
0.6850556969
 40
0.7432514331
 40
0.8045137607
 40
0.8682791041
 40
0.933723579
 40
1.0
 40
1.0
 40
1.0
 40
1.0
 10
41.9837568844
 20
13.738722449
 30
0.0
 10
41.9837303628
 20
13.6476507783
 30
0.0
 10
41.9876896676
 20
13.4664241593
 30
0.0
 10
42.0067495754
 20
13.1974134326
 30
0.0
 10
42.0433978245
 20
12.9351129932
 30
0.0
 10
42.1054296257
 20
12.6835379727
 30
0.0
 10
42.2047784124
 20
12.4483312128
 30
0.0
 10
42.3592239378
 20
12.2416024005
 30
0.0
 10
42.5799688613
 20
12.0926300413
 30
0.0
 10
42.8028796875
 20
12.0454251996
 30
0.0
 10
42.9794709703
 20
12.0638219244
 30
0.0
 10
43.0998278959
 20
12.1045700662
 30
0.0
 10
43.2025643475
 20
12.1688894775
 30
0.0
 10
43.3132588189
 20
12.2785727007
 30
0.0
 10
43.407979058
 20
12.4530951658
 30
0.0
 10
43.4691888596
 20
12.6867917059
 30
0.0
 10
43.5011499986
 20
12.9368589877
 30
0.0
 10
43.5159819021
 20
13.1981961424
 30
0.0
 10
43.5218548052
 20
13.4667130643
 30
0.0
 10
43.5228747542
 20
13.6476723113
 30
0.0
 10
43.5228471185
 20
13.738722449
 30
0.0
  0
SPLINE
  5
451
100
AcDbEntity
  8
0
100
AcDbSpline
 62
7
  6
BYLAYER
 70
0
 71
3
 72
25
 73
21
 74
0
 42
0.0000001
 43
0.0000001
 44
0.0000000001
 40
0.0
 40
0.0
 40
0.0
 40
0.0
 40
0.0661614998
 40
0.1315484037
 40
0.195425579
 40
0.2571975199
 40
0.3167030872
 40
0.3749758885
 40
0.4046949671
 40
0.435424631
 40
0.5000004003
 40
0.5645751913
 40
0.5953056574
 40
0.6250247541
 40
0.6832972477
 40
0.7428024934
 40
0.8045743668
 40
0.8684515027
 40
0.9338385255
 40
1.0
 40
1.0
 40
1.0
 40
1.0
 10
44.9726778858
 20
13.738722449
 30
0.0
 10
44.9726508375
 20
13.6476643393
 30
0.0
 10
44.9751660667
 20
13.4666019992
 30
0.0
 10
44.9877640707
 20
13.1978645509
 30
0.0
 10
45.0137606337
 20
12.9360456864
 30
0.0
 10
45.0612459223
 20
12.6851360789
 30
0.0
 10
45.1424313309
 20
12.450378663
 30
0.0
 10
45.25543735
 20
12.2775097726
 30
0.0
 10
45.3788734652
 20
12.1689318037
 30
0.0
 10
45.5288598603
 20
12.0824399797
 30
0.0
 10
45.7510308091
 20
12.0361432187
 30
0.0
 10
45.9731998733
 20
12.0824439126
 30
0.0
 10
46.1231892083
 20
12.16893094
 30
0.0
 10
46.2466223987
 20
12.277513286
 30
0.0
 10
46.3596331883
 20
12.450377618
 30
0.0
 10
46.4408102836
 20
12.6851376342
 30
0.0
 10
46.4882992616
 20
12.9360452879
 30
0.0
 10
46.5142974568
 20
13.197864311
 30
0.0
 10
46.5268923847
 20
13.4666019132
 30
0.0
 10
46.5294087087
 20
13.6476643743
 30
0.0
 10
46.5293808602
 20
13.738722449
 30
0.0
  0
SPLINE
  5
452
100
AcDbEntity
  8
0
100
AcDbSpline
 62
7
  6
BYLAYER
 70
0
 71
3
 72
13
 73
9
 74
0
 42
0.0000001
 43
0.0000001
 44
0.0000000001
 40
0.0
 40
0.0
 40
0.0
 40
0.0
 40
0.0954590639
 40
0.1821211903
 40
0.2966500312
 40
0.4378205338
 40
0.6037197535
 40
1.0
 40
1.0
 40
1.0
 40
1.0
 10
26.6272111625
 20
12.0561814607
 30
0.0
 10
26.6311638236
 20
12.0588702579
 30
0.0
 10
26.6305268402
 20
12.0707072989
 30
0.0
 10
26.626228156
 20
12.0839450056
 30
0.0
 10
26.6196150653
 20
12.1001444965
 30
0.0
 10
26.610428725
 20
12.1190274735
 30
0.0
 10
26.5940456349
 20
12.1502727797
 30
0.0
 10
26.580237618
 20
12.1747855107
 30
0.0
 10
26.570470224
 20
12.192060789
 30
0.0
  0
SPLINE
  5
453
100
AcDbEntity
  8
0
100
AcDbSpline
 62
7
  6
BYLAYER
 70
0
 71
3
 72
9
 73
5
 74
0
 42
0.0000001
 43
0.0000001
 44
0.0000000001
 40
0.0
 40
0.0
 40
0.0
 40
0.0
 40
0.2276173056
 40
1.0
 40
1.0
 40
1.0
 40
1.0
 10
26.570470224
 20
12.192060789
 30
0.0
 10
26.564582107
 20
12.2024749138
 30
0.0
 10
26.5386015018
 20
12.2481637241
 30
0.0
 10
26.5127035054
 20
12.2939034812
 30
0.0
 10
26.493185062
 20
12.3294993588
 30
0.0
  0
SPLINE
  5
454
100
AcDbEntity
  8
0
100
AcDbSpline
 62
7
  6
BYLAYER
 70
0
 71
3
 72
11
 73
7
 74
0
 42
0.0000001
 43
0.0000001
 44
0.0000000001
 40
0.0
 40
0.0
 40
0.0
 40
0.0
 40
0.2317828496
 40
0.4834324738
 40
0.7409514307
 40
1.0
 40
1.0
 40
1.0
 40
1.0
 10
26.493185062
 20
12.3294993588
 30
0.0
 10
26.4383655875
 20
12.4294738943
 30
0.0
 10
26.3320182429
 20
12.6426375078
 30
0.0
 10
26.2078807836
 20
12.9864015683
 30
0.0
 10
26.1274232488
 20
13.356807968
 30
0.0
 10
26.1090476512
 20
13.611292076
 30
0.0
 10
26.1090422536
 20
13.738722449
 30
0.0
  0
LINE
  5
455
100
AcDbEntity
  8
00_COMPONENTS
100
AcDbLine
 62
7
  6
BYLAYER
 10
57.9907779393
 20
10.079149929
 11
38.4538113771
 21
10.079149929
  0
SPLINE
  5
456
100
AcDbEntity
  8
00_COMPONENTS
100
AcDbSpline
 62
7
  6
BYLAYER
 70
0
 71
3
 72
19
 73
15
 74
0
 42
0.0000001
 43
0.0000001
 44
0.0000000001
 40
0.0
 40
0.0
 40
0.0
 40
0.0
 40
0.0212851629
 40
0.0613405129
 40
0.126946001
 40
0.2162178239
 40
0.3257706486
 40
0.4503447762
 40
0.5788941685
 40
0.7024620178
 40
0.8112659729
 40
0.8990059234
 40
0.9625983406
 40
1.0
 40
1.0
 40
1.0
 40
1.0
 10
38.4900021717
 20
10.1233223237
 30
0.0
 10
38.5015051831
 20
10.1379073083
 30
0.0
 10
38.4915217952
 20
10.2043357241
 30
0.0
 10
38.3865200598
 20
10.2565361307
 30
0.0
 10
38.2361042695
 20
10.3291259091
 30
0.0
 10
38.0133728266
 20
10.3970613842
 30
0.0
 10
37.7403337872
 20
10.4660745372
 30
0.0
 10
37.4292797346
 20
10.5266188258
 30
0.0
 10
37.1041558658
 20
10.5751385557
 30
0.0
 10
36.7905198068
 20
10.6071485146
 30
0.0
 10
36.5118307582
 20
10.6211427705
 30
0.0
 10
36.2833106678
 20
10.6164770511
 30
0.0
 10
36.122378423
 20
10.5966885846
 30
0.0
 10
36.0334994911
 20
10.5653081657
 30
0.0
 10
36.0119224652
 20
10.5408174071
 30
0.0
  0
SPLINE
  5
457
100
AcDbEntity
  8
00_COMPONENTS
100
AcDbSpline
 62
7
  6
BYLAYER
 70
0
 71
3
 72
10
 73
6
 74
0
 42
0.0000001
 43
0.0000001
 44
0.0000000001
 40
0.0
 40
0.0
 40
0.0
 40
0.0
 40
0.3726286498
 40
0.6966506675
 40
1.0
 40
1.0
 40
1.0
 40
1.0
 10
36.0119224652
 20
10.5408174071
 30
0.0
 10
35.9565643285
 20
10.4732111746
 30
0.0
 10
35.8509180564
 20
10.3483951439
 30
0.0
 10
35.6827528004
 20
10.1844006167
 30
0.0
 10
35.5669560566
 20
10.0931528313
 30
0.0
 10
35.5088678581
 20
10.0520949094
 30
0.0
  0
SPLINE
  5
458
100
AcDbEntity
  8
00_COMPONENTS
100
AcDbSpline
 62
7
  6
BYLAYER
 70
0
 71
3
 72
14
 73
10
 74
0
 42
0.0000001
 43
0.0000001
 44
0.0000000001
 40
0.0
 40
0.0
 40
0.0
 40
0.0
 40
0.0237022419
 40
0.0902335887
 40
0.2065167369
 40
0.3678875172
 40
0.5609371566
 40
0.7809542614
 40
1.0
 40
1.0
 40
1.0
 40
1.0
 10
35.5088678581
 20
10.0520949094
 30
0.0
 10
35.4992440788
 20
10.0453674947
 30
0.0
 10
35.5161644888
 20
9.9839946826
 30
0.0
 10
35.6252038624
 20
9.9686139568
 30
0.0
 10
35.7786996044
 20
9.9007592657
 30
0.0
 10
36.0087539364
 20
9.8503113698
 30
0.0
 10
36.2857421465
 20
9.7886423288
 30
0.0
 10
36.594425473
 20
9.7338874786
 30
0.0
 10
36.8093705306
 20
9.7008859977
 30
0.0
 10
36.9168604268
 20
9.6860078441
 30
0.0
  0
SPLINE
  5
459
100
AcDbEntity
  8
00_COMPONENTS
100
AcDbSpline
 62
7
  6
BYLAYER
 70
0
 71
3
 72
19
 73
15
 74
0
 42
0.0000001
 43
0.0000001
 44
0.0000000001
 40
0.0
 40
0.0
 40
0.0
 40
0.0
 40
0.1303083459
 40
0.2429814671
 40
0.3308546093
 40
0.3906180452
 40
0.4221611085
 40
0.4362571767
 40
0.4700137688
 40
0.5313546347
 40
0.6213878371
 40
0.7356089179
 40
0.8657216632
 40
1.0
 40
1.0
 40
1.0
 40
1.0
 10
40.8768619337
 20
9.2750458965
 30
0.0
 10
40.9873744623
 20
9.2674890304
 30
0.0
 10
41.194488704
 20
9.2557281793
 30
0.0
 10
41.4726893906
 20
9.2525604861
 30
0.0
 10
41.7017692105
 20
9.2543650933
 30
0.0
 10
41.8370279591
 20
9.2800855446
 30
0.0
 10
41.9511695486
 20
9.2863493548
 30
0.0
 10
41.95197248
 20
9.3682145912
 30
0.0
 10
41.8402210056
 20
9.390488242
 30
0.0
 10
41.7040296108
 20
9.4414544086
 30
0.0
 10
41.4752533793
 20
9.481782673
 30
0.0
 10
41.1970282699
 20
9.5264259212
 30
0.0
 10
40.8763798824
 20
9.563352545
 30
0.0
 10
40.6526316475
 20
9.5826856303
 30
0.0
 10
40.5387631694
 20
9.5906310878
 30
0.0
  0
SPLINE
  5
45A
100
AcDbEntity
  8
00_COMPONENTS
100
AcDbSpline
 62
7
  6
BYLAYER
 70
0
 71
3
 72
27
 73
23
 74
0
 42
0.0000001
 43
0.0000001
 44
0.0000000001
 40
0.0
 40
0.0
 40
0.0
 40
0.0
 40
0.0936487677
 40
0.1941244469
 40
0.3008240857
 40
0.4093624893
 40
0.5133029371
 40
0.6074677684
 40
0.6894270274
 40
0.7583669991
 40
0.8143827713
 40
0.8589983969
 40
0.8941813829
 40
0.9217698818
 40
0.9433458721
 40
0.9601020184
 40
0.9729707017
 40
0.9828045626
 40
0.9903579881
 40
0.9954678856
 40
0.998708469
 40
1.0
 40
1.0
 40
1.0
 40
1.0
 10
40.2542733345
 20
9.6111773609
 30
0.0
 10
40.7299653852
 20
9.6110792901
 30
0.0
 10
41.7160270489
 20
9.6112267848
 30
0.0
 10
43.2440730896
 20
9.6111630498
 30
0.0
 10
44.8477515449
 20
9.6111805504
 30
0.0
 10
46.4690294056
 20
9.6111769148
 30
0.0
 10
48.026636292
 20
9.611175695
 30
0.0
 10
49.4492335201
 20
9.6111881538
 30
0.0
 10
50.6940446547
 20
9.6111375473
 30
0.0
 10
51.745076361
 20
9.6112415123
 30
0.0
 10
52.6064198271
 20
9.6111213392
 30
0.0
 10
53.2962935488
 20
9.6112230203
 30
0.0
 10
53.841769978
 20
9.6112676583
 30
0.0
 10
54.2702158192
 20
9.6112896387
 30
0.0
 10
54.6050618767
 20
9.6113579886
 30
0.0
 10
54.8651382084
 20
9.6113810079
 30
0.0
 10
55.0655698351
 20
9.6112632986
 30
0.0
 10
55.2192558349
 20
9.6106610387
 30
0.0
 10
55.3335313525
 20
9.6116944934
 30
0.0
 10
55.4143126939
 20
9.6109181018
 30
0.0
 10
55.4632915336
 20
9.6107562124
 30
0.0
 10
55.486310645
 20
9.6110529886
 30
0.0
 10
55.4928701229
 20
9.6111773611
 30
0.0
  0
LINE
  5
45B
100
AcDbEntity
  8
00_COMPONENTS
100
AcDbLine
 62
7
  6
BYLAYER
 10
63.9205945904
 20
11.6430883159
 11
27.5814641556
 21
11.6430883159
  0
LINE
  5
45C
100
AcDbEntity
  8
00_COMPONENTS
100
AcDbLine
 62
7
  6
BYLAYER
 10
55.4928701229
 20
9.6111773611
 11
38.8624282427
 21
9.6111772906
  0
SPLINE
  5
45D
100
AcDbEntity
  8
00_COMPONENTS
100
AcDbSpline
 62
7
  6
BYLAYER
 70
0
 71
3
 72
19
 73
15
 74
0
 42
0.0000001
 43
0.0000001
 44
0.0000000001
 40
0.0
 40
0.0
 40
0.0
 40
0.0
 40
0.1064194214
 40
0.2231166192
 40
0.3452503475
 40
0.4695272454
 40
0.5873037115
 40
0.6892748278
 40
0.770756627
 40
0.8251765267
 40
0.8513390515
 40
0.8729852349
 40
0.9218514396
 40
1.0
 40
1.0
 40
1.0
 40
1.0
 10
38.8624282427
 20
9.6111772906
 30
0.0
 10
38.7710349302
 20
9.6116549546
 30
0.0
 10
38.5794224377
 20
9.6182325633
 30
0.0
 10
38.2838576071
 20
9.6425070749
 30
0.0
 10
37.9739708085
 20
9.6784860354
 30
0.0
 10
37.6648219374
 20
9.7244267411
 30
0.0
 10
37.3733345356
 20
9.7787459298
 30
0.0
 10
37.1236211617
 20
9.8341030929
 30
0.0
 10
36.9203883265
 20
9.8966338671
 30
0.0
 10
36.8049353228
 20
9.9366393959
 30
0.0
 10
36.707819642
 20
10.0071667013
 30
0.0
 10
36.7977181787
 20
10.0686562897
 30
0.0
 10
36.9173457948
 20
10.0699784965
 30
0.0
 10
37.029282996
 20
10.0790062612
 30
0.0
 10
37.0963979729
 20
10.0791498898
 30
0.0
  0
SPLINE
  5
45E
100
AcDbEntity
  8
00_COMPONENTS
100
AcDbSpline
 62
7
  6
BYLAYER
 70
0
 71
3
 72
25
 73
21
 74
0
 42
0.0000001
 43
0.0000001
 44
0.0000000001
 40
0.0
 40
0.0
 40
0.0
 40
0.0
 40
0.0701711653
 40
0.1492514505
 40
0.2342547882
 40
0.3230613121
 40
0.4141229163
 40
0.5065906705
 40
0.5985212404
 40
0.685418544
 40
0.763015382
 40
0.828490828
 40
0.8812820325
 40
0.9219790426
 40
0.9516808187
 40
0.972137628
 40
0.9857921165
 40
0.9942133015
 40
0.9986517467
 40
1.0
 40
1.0
 40
1.0
 40
1.0
 10
37.0963979729
 20
10.0791498898
 30
0.0
 10
37.5851263931
 20
10.0790276624
 30
0.0
 10
38.6246335641
 20
10.0792158785
 30
0.0
 10
40.2561723153
 20
10.0791332512
 30
0.0
 10
42.0175027063
 20
10.0791590443
 30
0.0
 10
43.8622806357
 20
10.0791520789
 30
0.0
 10
45.7590467659
 20
10.0791540556
 30
0.0
 10
47.6775712648
 20
10.0791523515
 30
0.0
 10
49.5670922255
 20
10.0791453041
 30
0.0
 10
51.3530401657
 20
10.079138208
 30
0.0
 10
52.9547333415
 20
10.0791199069
 30
0.0
 10
54.3188842187
 20
10.0791327667
 30
0.0
 10
55.4260349929
 20
10.0790497439
 30
0.0
 10
56.2840292148
 20
10.0793333043
 30
0.0
 10
56.9168205438
 20
10.0789864925
 30
0.0
 10
57.3612662242
 20
10.0788792192
 30
0.0
 10
57.6574964388
 20
10.0793328447
 30
0.0
 10
57.8421619445
 20
10.0794249482
 30
0.0
 10
57.9411173039
 20
10.079375761
 30
0.0
 10
57.9814201698
 20
10.0792064412
 30
0.0
 10
57.990810374
 20
10.0791567231
 30
0.0
  0
ELLIPSE
  5
45F
100
AcDbEntity
  8
0
100
AcDbEllipse
 62
7
  6
BYLAYER
 10
24.970629373
 20
113.3014183243
 30
0.0
 11
3.4193096007
 21
-0.0
 31
0.0
 40
0.6644630244
 41
-0.1975579181
 42
0.1975579181
  0
ELLIPSE
  5
460
100
AcDbEntity
  8
0
100
AcDbEllipse
 62
7
  6
BYLAYER
 10
25.4328715705
 20
103.5488601768
 30
0.0
 11
3.4193096007
 21
0.0
 31
0.0
 40
0.6644630244
 41
0.5315947947
 42
0.5911452022
  0
ELLIPSE
  5
461
100
AcDbEntity
  8
0
100
AcDbEllipse
 62
7
  6
BYLAYER
 10
26.4313147172
 20
110.4636573901
 30
0.0
 11
3.4193096007
 21
-0.0
 31
0.0
 40
0.6644630244
 41
7.3215210918
 42
8.8336327586
  0
ELLIPSE
  5
462
100
AcDbEntity
  8
0
100
AcDbEllipse
 62
7
  6
BYLAYER
 10
25.4328715705
 20
112.4033927122
 30
0.0
 11
3.4193096007
 21
-0.0
 31
0.0
 40
0.6644630244
 41
0.5315947947
 42
0.5911452022
  0
ELLIPSE
  5
463
100
AcDbEntity
  8
0
100
AcDbEllipse
 62
7
  6
BYLAYER
 10
24.970629373
 20
104.4468857889
 30
0.0
 11
3.4193096007
 21
-0.0
 31
0.0
 40
0.6644630244
 41
-0.1975579181
 42
0.1975579181
  0
ELLIPSE
  5
464
100
AcDbEntity
  8
0
100
AcDbEllipse
 62
7
  6
BYLAYER
 10
26.4313147172
 20
101.6091248547
 30
0.0
 11
3.4193096007
 21
-0.0
 31
0.0
 40
0.6644630244
 41
7.3215210918
 42
8.8336327586
  0
ELLIPSE
  5
465
100
AcDbEntity
  8
0
100
AcDbEllipse
 62
7
  6
BYLAYER
 10
66.491429373
 20
113.3014183243
 30
0.0
 11
3.4193096007
 21
0.0
 31
0.0
 40
0.6644630244
 41
2.9440347355
 42
3.3391505717
  0
ELLIPSE
  5
466
100
AcDbEntity
  8
0
100
AcDbEllipse
 62
7
  6
BYLAYER
 10
66.0291871755
 20
112.4033927122
 30
0.0
 11
3.4193096007
 21
0.0
 31
0.0
 40
0.6644630244
 41
2.5504474514
 42
2.6099721559
  0
ELLIPSE
  5
467
100
AcDbEntity
  8
0
100
AcDbEllipse
 62
7
  6
BYLAYER
 10
65.0307440288
 20
110.4636573901
 30
0.0
 11
3.4193096007
 21
-0.0
 31
0.0
 40
0.6644630244
 41
0.5911452022
 42
2.1032571002
  0
ELLIPSE
  5
468
100
AcDbEntity
  8
0
100
AcDbEllipse
 62
7
  6
BYLAYER
 10
66.491429373
 20
104.4468857889
 30
0.0
 11
3.4193096007
 21
-0.0
 31
0.0
 40
0.6644630244
 41
2.9440347355
 42
3.3391505717
  0
ELLIPSE
  5
469
100
AcDbEntity
  8
0
100
AcDbEllipse
 62
7
  6
BYLAYER
 10
66.0291871755
 20
103.5488601768
 30
0.0
 11
3.4193096007
 21
-0.0
 31
0.0
 40
0.6644630244
 41
2.5504474514
 42
2.6099721559
  0
ELLIPSE
  5
46A
100
AcDbEntity
  8
0
100
AcDbEllipse
 62
7
  6
BYLAYER
 10
65.0307440288
 20
101.6091248547
 30
0.0
 11
3.4193096007
 21
-0.0
 31
0.0
 40
0.6644630244
 41
0.5911452022
 42
2.1032571002
  0
ENDSEC
  0
SECTION
  2
OBJECTS
  0
DICTIONARY
  5
C
100
AcDbDictionary
280
0
281
1
  3
ACAD_GROUP
350
D
  3
ACAD_MLINESTYLE
350
17
  3
ACAD_LAYOUT
350
1A
  3
ACAD_PLOTSETTINGS
350
19
  3
ACAD_PLOTSTYLENAME
350
E
  0
DICTIONARY
  5
D
102
{ACAD_REACTORS
330
C
102
}
100
AcDbDictionary
280
0
281
1
  0
ACDBDICTIONARYWDFLT
  5
E
102
{ACAD_REACTORS
330
C
102
}
100
AcDbDictionary
281
1
  3
Normal
350
F
100
AcDbDictionaryWithDefault
340
F
  0
DICTIONARY
  5
17
102
{ACAD_REACTORS
330
C
102
}
100
AcDbDictionary
280
0
281
1
  3
Standard
350
18
  0
DICTIONARY
  5
19
102
{ACAD_REACTORS
330
C
102
}
100
AcDbDictionary
281
1
  0
DICTIONARY
  5
1A
102
{ACAD_REACTORS
330
C
102
}
100
AcDbDictionary
281
1
  3
Model
350
46B
  3
Layout1
350
46C
  0
ACDBPLACEHOLDER
  5
F
102
{ACAD_REACTORS
330
E
102
}
  0
MLINESTYLE
  5
18
102
{ACAD_REACTORS
330
17
102
}
100
AcDbMlineStyle
  2
STANDARD
 70
0
  3

 62
256
 51
90.0
 52
90.0
 71
2
 49
0.5
 62
256
  6
BYLAYER
 49
-0.5
 62
256
  6
BYLAYER
  0
LAYOUT
  5
46B
102
{ACAD_REACTORS
330
1A
102
}
100
AcDbPlotSettings
  1

  2
none_device
  4

  6

 40
0.0
 41
0.0
 42
0.0
 43
0.0
 44
210.0
 45
297.0
 46
0.0
 47
0.0
 48
0.0
 49
0.0
140
0.0
141
0.0
142
1.0
143
1.0
 70
1024
 72
1
 73
0
 74
0
  7

 75
0
147
1.0
148
0.0
149
0.0
100
AcDbLayout
  1
Model
 70
0
 71
0
 10
0.0
 20
0.0
 11
210.0
 21
297.0
 12
0.0
 22
0.0
 32
0.0
 14
0.0
 24
0.0
 34
0.0
 15
0.0
 25
0.0
 35
0.0
146
0.0
 13
0.0
 23
0.0
 33
0.0
 16
1.0
 26
0.0
 36
0.0
 17
0.0
 27
1.0
 37
0.0
 76
0
330
21E
345
0
346
0
  0
LAYOUT
  5
46C
102
{ACAD_REACTORS
330
1A
102
}
100
AcDbPlotSettings
  1

  2
none_device
  4

  6

 40
0.0
 41
0.0
 42
0.0
 43
0.0
 44
210.0
 45
297.0
 46
0.0
 47
0.0
 48
0.0
 49
0.0
140
0.0
141
0.0
142
1.0
143
1.0
 70
0
 72
1
 73
0
 74
0
  7

 75
0
147
1.0
148
0.0
149
0.0
100
AcDbLayout
  1
Layout1
 70
0
 71
1
 10
0.0
 20
0.0
 11
210.0
 21
297.0
 12
0.0
 22
0.0
 32
0.0
 14
0.0
 24
0.0
 34
0.0
 15
0.0
 25
0.0
 35
0.0
146
0.0
 13
0.0
 23
0.0
 33
0.0
 16
1.0
 26
0.0
 36
0.0
 17
0.0
 27
1.0
 37
0.0
 76
0
330
21F
345
0
346
0
  0
ENDSEC
  0
EOF
