999
DXF file: C:\Users\sesa63760\Dev\_Creo\CAD\MCADPP0003332_3D-CAD\drw0001_3.dxf
999
Pro/ENGINEER 2019471 by Parametric Technology Corporation
  0
SECTION
  2
HEADER
  9
$ACADVER
  1
AC1024
  9
$DWGCODEPAGE
  3
ANSI_1252
  9
$EXTMAX
 10
216.0165798509
 20
305.5091629319
 30
0.0
  9
$EXTMIN
 10
0.0
 20
0.0
 30
0.0
  9
$LIMMIN
 10
0.0
 20
0.0
  9
$LIMMAX
 10
216.0165798509
 20
305.5091629319
  9
$VIEWCTR
 10
108.0082899254
 20
152.754581466
  9
$VIEWSIZE
 40
305.5091629319
  9
$CLAYER
  8
0
  9
$LTSCALE
 40
19.9146713615
  9
$CELTYPE
  6
BYLAYER
  9
$DIMSCALE
 40
1.0
  9
$DIMASZ
 40
2.5716259506
  9
$DIMEXO
 40
1.0
  9
$DIMDLI
 40
13.7592274861
  9
$DIMEXE
 40
1.0
  9
$DIMCEN
 40
3.2587644046
  9
$DIMLFAC
 40
1.0
  9
$DIMBLK
  1
_FILLED
  9
$DIMALT
 70
0
  9
$DIMALTF
 40
0.0393700787
  9
$DIMTXT
 40
3.6002763308
  9
$DIMTOL
 70
1
  9
$DIMLIM
 70
0
  9
$DIMTFAC
 40
1.0
  9
$DIMTP
 40
0.01
  9
$DIMTM
 40
0.01
  9
$DIMGAP
 40
0.625
  9
$DIMDSEP
 70
46
  9
$AUNITS
 70
0
  9
$PDMODE
 70
3
  9
$PDSIZE
 40
0.3125
  9
$HANDSEED
  5
386
  9
$TILEMODE
 70
1
  9
$MEASUREMENT
 70
1
  9
$INSUNITS
 70
4
  0
ENDSEC
  0
SECTION
  2
CLASSES
  0
CLASS
  1
ACDBDICTIONARYWDFLT
  2
AcDbDictionaryWithDefault
  3
AutoCAD 2000
 90
0
 91
1
280
0
281
0
  0
CLASS
  1
ACDBPLACEHOLDER
  2
AcDbPlaceHolder
  3
AutoCAD 2000
 90
0
 91
1
280
0
281
0
  0
CLASS
  1
LAYOUT
  2
AcDbLayout
  3
AutoCAD 2000
 90
0
 91
0
280
0
281
0
  0
ENDSEC
  0
SECTION
  2
TABLES
  0
TABLE
  2
VPORT
  5
8
100
AcDbSymbolTable
 70
2
  0
VPORT
  5
1F4
100
AcDbSymbolTableRecord
100
AcDbViewportTableRecord
  2
*ACTIVE
 70
0
 10
0.0
 20
0.0
 11
1.0
 21
1.0
 12
108.0082899254
 22
152.754581466
 13
0.0
 23
0.0
 14
1.0
 24
1.0
 15
0.0
 25
0.0
 16
0.0
 26
0.0
 36
1.0
 17
0.0
 27
0.0
 37
0.0
 40
305.5091629319
 41
0.7070707071
 42
50.0
 43
0.0
 44
0.0
 50
0.0
 51
0.0
 71
0
 72
100
 73
1
 74
1
 75
0
 76
0
 77
0
 78
0
  0
ENDTAB
  0
TABLE
  2
LTYPE
  5
5
100
AcDbSymbolTable
 70
6
  0
LTYPE
  5
14
100
AcDbSymbolTableRecord
100
AcDbLinetypeTableRecord
  2
BYBLOCK
 70
0
  3

 72
65
 73
0
 40
0.0
  0
LTYPE
  5
15
100
AcDbSymbolTableRecord
100
AcDbLinetypeTableRecord
  2
BYLAYER
 70
0
  3

 72
65
 73
0
 40
0.0
  0
LTYPE
  5
16
100
AcDbSymbolTableRecord
100
AcDbLinetypeTableRecord
  2
CONTINUOUS
 70
64
  3
Solid line
 72
65
 73
0
 40
0.0
  0
LTYPE
  5
1F5
100
AcDbSymbolTableRecord
100
AcDbLinetypeTableRecord
  2
CENTER
 70
64
  3
____ _ ____ _ ____ _ ____ _ ____ _ ____ _ ____
 72
65
 73
4
 40
0.6
 49
0.375
 74
0
 49
-0.075
 74
0
 49
0.075
 74
0
 49
-0.075
 74
0
  0
LTYPE
  5
1F6
100
AcDbSymbolTableRecord
100
AcDbLinetypeTableRecord
  2
HIDDEN
 70
64
  3
- - - - - - - - - - - - - - - - - - - -
 72
65
 73
2
 40
0.2
 49
0.1
 74
0
 49
-0.1
 74
0
  0
LTYPE
  5
1F7
100
AcDbSymbolTableRecord
100
AcDbLinetypeTableRecord
  2
PHANTOM
 70
64
  3
_____ _ _ _____ _ _ _____ _ _ _____
 72
65
 73
6
 40
0.8
 49
0.45
 74
0
 49
-0.05
 74
0
 49
0.1
 74
0
 49
-0.05
 74
0
 49
0.1
 74
0
 49
-0.05
 74
0
  0
LTYPE
  5
1F8
100
AcDbSymbolTableRecord
100
AcDbLinetypeTableRecord
  2
DOT
 70
64
  3
. . . . . . . . . . . . . . . . . . . .
 72
65
 73
2
 40
0.2
 49
0.1
 74
0
 49
-0.1
 74
0
  0
LTYPE
  5
1F9
100
AcDbSymbolTableRecord
100
AcDbLinetypeTableRecord
  2
DASHED
 70
64
  3
- - - - - - - - - - - - - - - - - - - -
 72
65
 73
2
 40
0.2
 49
0.1
 74
0
 49
-0.1
 74
0
  0
ENDTAB
  0
TABLE
  2
LAYER
  5
2
100
AcDbSymbolTable
 70
36
  0
LAYER
  5
10
100
AcDbSymbolTableRecord
100
AcDbLayerTableRecord
  2
0
 70
0
 62
7
  6
CONTINUOUS
370
-3
390
F
  0
LAYER
  5
1FA
100
AcDbSymbolTableRecord
100
AcDbLayerTableRecord
  2
DEFAULT_1
 70
0
 62
7
  6
CENTER
370
-3
390
F
  0
LAYER
  5
1FB
100
AcDbSymbolTableRecord
100
AcDbLayerTableRecord
  2
DEFAULT_2
 70
0
 62
8
  6
HIDDEN
370
-3
390
F
  0
LAYER
  5
1FC
100
AcDbSymbolTableRecord
100
AcDbLayerTableRecord
  2
DEFAULT_3
 70
0
 62
7
  6
PHANTOM
370
-3
390
F
  0
LAYER
  5
1FD
100
AcDbSymbolTableRecord
100
AcDbLayerTableRecord
  2
00_COMPONENTS
 70
0
 62
7
  6
CONTINUOUS
370
-3
390
F
  0
LAYER
  5
1FE
100
AcDbSymbolTableRecord
100
AcDbLayerTableRecord
  2
01_1_DEFAULT_DATUMS
 70
0
 62
7
  6
CONTINUOUS
370
-3
390
F
  0
LAYER
  5
1FF
100
AcDbSymbolTableRecord
100
AcDbLayerTableRecord
  2
01_PLANES
 70
0
 62
7
  6
CONTINUOUS
370
-3
390
F
  0
LAYER
  5
200
100
AcDbSymbolTableRecord
100
AcDbLayerTableRecord
  2
02_COORD_SYS
 70
0
 62
7
  6
CONTINUOUS
370
-3
390
F
  0
LAYER
  5
201
100
AcDbSymbolTableRecord
100
AcDbLayerTableRecord
  2
03_AXES
 70
0
 62
7
  6
CONTINUOUS
370
-3
390
F
  0
LAYER
  5
202
100
AcDbSymbolTableRecord
100
AcDbLayerTableRecord
  2
04_POINTS
 70
0
 62
7
  6
CONTINUOUS
370
-3
390
F
  0
LAYER
  5
203
100
AcDbSymbolTableRecord
100
AcDbLayerTableRecord
  2
05_CURVES
 70
0
 62
7
  6
CONTINUOUS
370
-3
390
F
  0
LAYER
  5
204
100
AcDbSymbolTableRecord
100
AcDbLayerTableRecord
  2
06_SURFS
 70
0
 62
7
  6
CONTINUOUS
370
-3
390
F
  0
LAYER
  5
205
100
AcDbSymbolTableRecord
100
AcDbLayerTableRecord
  2
07_COSMETICS
 70
0
 62
7
  6
CONTINUOUS
370
-3
390
F
  0
LAYER
  5
206
100
AcDbSymbolTableRecord
100
AcDbLayerTableRecord
  2
10_NOTES
 70
0
 62
7
  6
CONTINUOUS
370
-3
390
F
  0
LAYER
  5
207
100
AcDbSymbolTableRecord
100
AcDbLayerTableRecord
  2
11_NOTES_PUB
 70
0
 62
7
  6
CONTINUOUS
370
-3
390
F
  0
LAYER
  5
208
100
AcDbSymbolTableRecord
100
AcDbLayerTableRecord
  2
13_REF_GTOL
 70
0
 62
7
  6
CONTINUOUS
370
-3
390
F
  0
LAYER
  5
209
100
AcDbSymbolTableRecord
100
AcDbLayerTableRecord
  2
16_MISC
 70
0
 62
7
  6
CONTINUOUS
370
-3
390
F
  0
LAYER
  5
20A
100
AcDbSymbolTableRecord
100
AcDbLayerTableRecord
  2
17_NO_PRINT
 70
0
 62
7
  6
CONTINUOUS
370
-3
390
F
  0
LAYER
  5
20B
100
AcDbSymbolTableRecord
100
AcDbLayerTableRecord
  2
18_DATUM_CAMS_JOINTS
 70
0
 62
7
  6
CONTINUOUS
370
-3
390
F
  0
LAYER
  5
20C
100
AcDbSymbolTableRecord
100
AcDbLayerTableRecord
  2
19_DATUM_FUNCTIONAL
 70
0
 62
7
  6
CONTINUOUS
370
-3
390
F
  0
LAYER
  5
20D
100
AcDbSymbolTableRecord
100
AcDbLayerTableRecord
  2
20_DATUM_KINEMATIC_SCHEME
 70
0
 62
7
  6
CONTINUOUS
370
-3
390
F
  0
ENDTAB
  0
TABLE
  2
STYLE
  5
3
100
AcDbSymbolTable
 70
1
  0
STYLE
  5
11
100
AcDbSymbolTableRecord
100
AcDbTextStyleTableRecord
  2
STANDARD
 70
0
 40
0.0
 41
0.8
 50
0.0
 71
0
 42
0.2
  3
txt
  4

  0
STYLE
  5
20E
100
AcDbSymbolTableRecord
100
AcDbTextStyleTableRecord
  2
TEXTSTYLE_1
 70
0
 40
0.0
 41
0.8
 50
0.0
 71
0
 42
0.2
  3
gdt
  4

  0
ENDTAB
  0
TABLE
  2
VIEW
  5
6
100
AcDbSymbolTable
 70
0
  0
ENDTAB
  0
TABLE
  2
UCS
  5
7
100
AcDbSymbolTable
 70
0
  0
ENDTAB
  0
TABLE
  2
APPID
  5
9
100
AcDbSymbolTable
 70
1
  0
APPID
  5
20F
100
AcDbSymbolTableRecord
100
AcDbRegAppTableRecord
  2
ACAD
 70
0
  0
ENDTAB
  0
TABLE
  2
BLOCK_RECORD
  5
1
100
AcDbSymbolTable
 70
0
  0
BLOCK_RECORD
  5
210
100
AcDbSymbolTableRecord
100
AcDbBlockTableRecord
  2
*Model_Space
  0
BLOCK_RECORD
  5
211
100
AcDbSymbolTableRecord
100
AcDbBlockTableRecord
  2
*Paper_Space
  0
BLOCK_RECORD
  5
212
100
AcDbSymbolTableRecord
100
AcDbBlockTableRecord
  2
_FILLED
  0
ENDTAB
  0
TABLE
  2
DIMSTYLE
  5
A
100
AcDbSymbolTable
 70
1
100
AcDbDimStyleTable
 71
0
  0
DIMSTYLE
105
213
100
AcDbSymbolTableRecord
100
AcDbDimStyleTableRecord
  2
STANDARD
 70
0
  3

  4

 40
1.0
 41
2.5716259506
 42
1.0
 43
0.38
 44
1.0
 45
0.0
 46
0.0
 47
0.01
 48
0.01
140
3.6002763308
141
0.09
142
0.0
143
25.4
144
1.0
145
0.0
146
1.0
147
0.625
 71
1
 72
0
 73
0
 74
0
 75
0
 76
0
 77
1
 78
8
 79
2
170
0
171
1
172
0
173
0
174
0
175
0
176
0
177
0
178
0
270
2
179
2
271
2
272
2
273
2
274
2
275
0
280
0
281
0
282
0
283
1
284
8
285
0
286
0
287
3
288
0
340
11
278
46
341
212
342
212
343
212
344
212
  0
ENDTAB
  0
ENDSEC
  0
SECTION
  2
BLOCKS
  0
BLOCK
  5
20
100
AcDbEntity
  8
0
100
AcDbBlockBegin
  2
*Model_Space
 70
0
 10
0.0
 20
0.0
 30
0.0
  3
*Model_Space
  1

  0
ENDBLK
  5
21
100
AcDbEntity
  8
0
100
AcDbBlockEnd
  0
BLOCK
  5
1C
100
AcDbEntity
  8
0
100
AcDbBlockBegin
  2
*Paper_Space
 70
0
 10
0.0
 20
0.0
 30
0.0
  3
*Paper_Space
  1

  0
ENDBLK
  5
1D
100
AcDbEntity
  8
0
100
AcDbBlockEnd
  0
BLOCK
  5
214
100
AcDbEntity
  8
0
100
AcDbBlockBegin
  2
_FILLED
 70
64
 10
0.0
 20
0.0
  3
_FILLED
  1

  0
SOLID
  5
215
100
AcDbEntity
  8
0
  6
BYBLOCK
 62
0
100
AcDbTrace
 10
0.0
 20
0.0
 11
-1.0
 21
0.25
 12
-1.0
 22
-0.25
 13
-1.0
 23
-0.25
  0
ENDBLK
  5
216
100
AcDbEntity
  8
0
  6
BYBLOCK
 62
0
100
AcDbBlockEnd
  0
ENDSEC
  0
SECTION
  2
ENTITIES
  0
LINE
  5
217
100
AcDbEntity
  8
0
100
AcDbLine
 62
7
  6
CONTINUOUS
 10
25.5551528794
 20
172.603059398
 11
25.5551528794
 21
171.3357262887
  0
LINE
  5
218
100
AcDbEntity
  8
0
100
AcDbLine
 62
7
  6
CONTINUOUS
 10
25.5551528794
 20
145.6031140314
 11
25.5551528794
 21
144.3357809221
  0
LINE
  5
219
100
AcDbEntity
  8
0
100
AcDbLine
 62
7
  6
CONTINUOUS
 10
25.5551528794
 20
118.6031686648
 11
25.5551528794
 21
117.3358355555
  0
LINE
  5
21A
100
AcDbEntity
  8
0
100
AcDbLine
 62
7
  6
CONTINUOUS
 10
25.5551528794
 20
113.7882764242
 11
25.5551528794
 21
114.8647829299
  0
LINE
  5
21B
100
AcDbEntity
  8
0
100
AcDbLine
 62
7
  6
CONTINUOUS
 10
25.5551528794
 20
135.1444969443
 11
25.5551528794
 21
136.353214754
  0
LINE
  5
21C
100
AcDbEntity
  8
0
100
AcDbLine
 62
7
  6
CONTINUOUS
 10
25.5551528794
 20
137.8791104424
 11
25.5551528794
 21
142.8419070321
  0
LINE
  5
21D
100
AcDbEntity
  8
0
100
AcDbLine
 62
7
  6
CONTINUOUS
 10
25.5551528794
 20
162.1444423108
 11
25.5551528794
 21
163.3531601206
  0
LINE
  5
21E
100
AcDbEntity
  8
0
100
AcDbLine
 62
7
  6
CONTINUOUS
 10
25.5551528794
 20
164.879055809
 11
25.5551528794
 21
169.8418523987
  0
LINE
  5
21F
100
AcDbEntity
  8
0
100
AcDbLine
 62
7
  6
CONTINUOUS
 10
25.5551528794
 20
189.1443876774
 11
25.5551528794
 21
190.3531054872
  0
LINE
  5
220
100
AcDbEntity
  8
0
100
AcDbLine
 62
7
  6
CONTINUOUS
 10
25.5551528794
 20
192.7099307819
 11
25.5551528794
 21
194.0347984443
  0
LINE
  5
221
100
AcDbEntity
  8
0
100
AcDbLine
 62
7
  6
CONTINUOUS
 10
29.2551528794
 20
194.3854531251
 11
29.2551528794
 21
113.3855978521
  0
LINE
  5
222
100
AcDbEntity
  8
0
100
AcDbLine
 62
7
  6
CONTINUOUS
 10
32.5308503027
 20
190.2290625723
 11
32.5763181088
 21
190.2992628574
  0
LINE
  5
223
100
AcDbEntity
  8
0
100
AcDbLine
 62
7
  6
CONTINUOUS
 10
32.5763181088
 20
190.2992628574
 11
33.6645374802
 21
191.3874822287
  0
LINE
  5
224
100
AcDbEntity
  8
0
100
AcDbLine
 62
7
  6
CONTINUOUS
 10
33.6645374802
 20
115.6874822287
 11
32.5763181089
 21
116.7757016001
  0
LINE
  5
225
100
AcDbEntity
  8
0
100
AcDbLine
 62
7
  6
CONTINUOUS
 10
31.1457180278
 20
119.1383702314
 11
31.2551528794
 21
119.0062506165
  0
LINE
  5
226
100
AcDbEntity
  8
0
100
AcDbLine
 62
7
  6
CONTINUOUS
 10
32.5763181089
 20
116.7757016001
 11
32.5308503026
 21
116.8459018852
  0
LINE
  5
227
100
AcDbEntity
  8
0
100
AcDbLine
 62
7
  6
CONTINUOUS
 10
34.6417634353
 20
113.2605692352
 11
34.6414381463
 21
113.3723268755
  0
LINE
  5
228
100
AcDbEntity
  8
0
100
AcDbLine
 62
7
  6
CONTINUOUS
 10
31.0551528794
 20
114.6057806107
 11
31.0551528794
 21
193.2116993093
  0
LINE
  5
229
100
AcDbEntity
  8
0
100
AcDbLine
 62
7
  6
CONTINUOUS
 10
31.2551528794
 20
192.5874822287
 11
31.2551528794
 21
114.6065826684
  0
LINE
  5
22A
100
AcDbEntity
  8
0
100
AcDbLine
 62
7
  6
CONTINUOUS
 10
31.5551528794
 20
113.4000192808
 11
31.5551528794
 21
122.0621415991
  0
LINE
  5
22B
100
AcDbEntity
  8
0
100
AcDbLine
 62
7
  6
CONTINUOUS
 10
31.5551528794
 20
122.3128228584
 11
31.5551528794
 21
184.7621415991
  0
LINE
  5
22C
100
AcDbEntity
  8
0
100
AcDbLine
 62
7
  6
CONTINUOUS
 10
31.5551528794
 20
185.0128228584
 11
31.5551528794
 21
194.0874822287
  0
LINE
  5
22D
100
AcDbEntity
  8
0
100
AcDbLine
 62
7
  6
CONTINUOUS
 10
33.2524708835
 20
194.0874822287
 11
33.2524708835
 21
194.4030471882
  0
LINE
  5
22E
100
AcDbEntity
  8
0
100
AcDbLine
 62
7
  6
CONTINUOUS
 10
33.6475374802
 20
185.8374822287
 11
33.6475374802
 21
183.9374822287
  0
LINE
  5
22F
100
AcDbEntity
  8
0
100
AcDbLine
 62
7
  6
CONTINUOUS
 10
33.6475374802
 20
123.1374822287
 11
33.6475374802
 21
121.2374822287
  0
LINE
  5
230
100
AcDbEntity
  8
0
100
AcDbLine
 62
7
  6
CONTINUOUS
 10
34.6239065789
 20
194.0874822287
 11
34.6239065789
 21
194.2318955122
  0
LINE
  5
231
100
AcDbEntity
  8
0
100
AcDbLine
 62
7
  6
CONTINUOUS
 10
34.8118776589
 20
113.2409433106
 11
34.8118776589
 21
113.2544530055
  0
LINE
  5
232
100
AcDbEntity
  8
0
100
AcDbLine
 62
7
  6
CONTINUOUS
 10
31.1330642681
 20
166.736754816
 11
31.1331442704
 21
168.1018478406
  0
LINE
  5
233
100
AcDbEntity
  8
0
100
AcDbLine
 62
7
  6
CONTINUOUS
 10
31.1330642681
 20
139.7368094494
 11
31.1331442704
 21
141.101902474
  0
LINE
  5
234
100
AcDbEntity
  8
0
100
AcDbLine
 62
7
  6
CONTINUOUS
 10
31.2551528794
 20
188.7712070851
 11
31.1457180278
 21
188.6643121821
  0
LINE
  5
235
100
AcDbEntity
  8
0
100
AcDbLine
 62
7
  6
CONTINUOUS
 10
48.0475374802
 20
190.8874822287
 11
48.0475374802
 21
188.8874822287
  0
LINE
  5
236
100
AcDbEntity
  8
0
100
AcDbLine
 62
7
  6
CONTINUOUS
 10
48.0475374802
 20
180.8874822287
 11
48.0475374802
 21
178.8874822287
  0
LINE
  5
237
100
AcDbEntity
  8
0
100
AcDbLine
 62
7
  6
CONTINUOUS
 10
48.0475374802
 20
128.1874822287
 11
48.0475374802
 21
126.1874822287
  0
LINE
  5
238
100
AcDbEntity
  8
0
100
AcDbLine
 62
7
  6
CONTINUOUS
 10
48.0475374802
 20
118.1874822287
 11
48.0475374802
 21
116.1874822287
  0
LINE
  5
239
100
AcDbEntity
  8
0
100
AcDbLine
 62
7
  6
CONTINUOUS
 10
48.4051528794
 20
191.6874822287
 11
48.4051528794
 21
191.1874822287
  0
LINE
  5
23A
100
AcDbEntity
  8
0
100
AcDbLine
 62
7
  6
CONTINUOUS
 10
48.4051528794
 20
178.7874822287
 11
48.4051528794
 21
178.2874822287
  0
LINE
  5
23B
100
AcDbEntity
  8
0
100
AcDbLine
 62
7
  6
CONTINUOUS
 10
48.4051528794
 20
128.8874822287
 11
48.4051528794
 21
128.3874822287
  0
LINE
  5
23C
100
AcDbEntity
  8
0
100
AcDbLine
 62
7
  6
CONTINUOUS
 10
48.4051528794
 20
115.9874822287
 11
48.4051528794
 21
115.4874822287
  0
LINE
  5
23D
100
AcDbEntity
  8
0
100
AcDbLine
 62
7
  6
CONTINUOUS
 10
52.4284840983
 20
188.8060129792
 11
52.9551528794
 21
190.4874822287
  0
LINE
  5
23E
100
AcDbEntity
  8
0
100
AcDbLine
 62
7
  6
CONTINUOUS
 10
31.1457180278
 20
146.138315598
 11
31.2551528794
 21
146.0061959831
  0
LINE
  5
23F
100
AcDbEntity
  8
0
100
AcDbLine
 62
7
  6
CONTINUOUS
 10
52.9551528794
 20
116.5874822287
 11
52.2666370015
 21
118.3103778191
  0
LINE
  5
240
100
AcDbEntity
  8
0
100
AcDbLine
 62
7
  6
CONTINUOUS
 10
50.5475374802
 20
188.8874822287
 11
50.5475374802
 21
180.8874822287
  0
LINE
  5
241
100
AcDbEntity
  8
0
100
AcDbLine
 62
7
  6
CONTINUOUS
 10
50.5475374802
 20
126.1874822287
 11
50.5475374802
 21
118.1874822287
  0
LINE
  5
242
100
AcDbEntity
  8
0
100
AcDbLine
 62
7
  6
CONTINUOUS
 10
31.2551528794
 20
161.7712617185
 11
31.1457180278
 21
161.6643668155
  0
LINE
  5
243
100
AcDbEntity
  8
0
100
AcDbLine
 62
7
  6
CONTINUOUS
 10
39.3165198173
 20
187.5269559129
 11
38.925149037
 21
187.3374822287
  0
LINE
  5
244
100
AcDbEntity
  8
0
100
AcDbLine
 62
7
  6
CONTINUOUS
 10
38.9246353864
 20
119.7374822287
 11
39.3158961657
 21
119.5487957844
  0
LINE
  5
245
100
AcDbEntity
  8
0
100
AcDbLine
 62
7
  6
CONTINUOUS
 10
61.2491508711
 20
190.4874822287
 11
61.2491508711
 21
179.2874822287
  0
LINE
  5
246
100
AcDbEntity
  8
0
100
AcDbLine
 62
7
  6
CONTINUOUS
 10
61.2491508711
 20
127.7874822287
 11
61.2491508711
 21
116.5874822287
  0
LINE
  5
247
100
AcDbEntity
  8
0
100
AcDbLine
 62
7
  6
CONTINUOUS
 10
32.5308503027
 20
127.5290625723
 11
32.5763181088
 21
127.5992628574
  0
LINE
  5
248
100
AcDbEntity
  8
0
100
AcDbLine
 62
7
  6
CONTINUOUS
 10
32.5763181089
 20
179.4757016001
 11
32.5308503026
 21
179.5459018852
  0
LINE
  5
249
100
AcDbEntity
  8
0
100
AcDbLine
 62
7
  6
CONTINUOUS
 10
61.4051528794
 20
191.1874822287
 11
61.4051528794
 21
178.7874822287
  0
LINE
  5
24A
100
AcDbEntity
  8
0
100
AcDbLine
 62
7
  6
CONTINUOUS
 10
61.4051528794
 20
128.3874822287
 11
61.4051528794
 21
115.9874822287
  0
LINE
  5
24B
100
AcDbEntity
  8
0
100
AcDbLine
 62
7
  6
CONTINUOUS
 10
63.7051528794
 20
158.6874822287
 11
63.7051528794
 21
148.4874822287
  0
LINE
  5
24C
100
AcDbEntity
  8
0
100
AcDbLine
 62
7
  6
CONTINUOUS
 10
52.4284840983
 20
126.1060129792
 11
52.9551528794
 21
127.7874822287
  0
LINE
  5
24D
100
AcDbEntity
  8
0
100
AcDbLine
 62
7
  6
CONTINUOUS
 10
29.2551528794
 20
113.3855978521
 11
30.7249892161
 21
113.2162005592
  0
LINE
  5
24E
100
AcDbEntity
  8
0
100
AcDbLine
 62
7
  6
CONTINUOUS
 10
34.7596701987
 20
113.2469643403
 11
34.8118776589
 21
113.2409433106
  0
LINE
  5
24F
100
AcDbEntity
  8
0
100
AcDbLine
 62
7
  6
CONTINUOUS
 10
33.4316303402
 20
113.4000192808
 11
34.6417634361
 21
113.2605691351
  0
LINE
  5
250
100
AcDbEntity
  8
0
100
AcDbLine
 62
7
  6
CONTINUOUS
 10
47.5572177453
 20
113.3704702364
 11
47.533720181
 21
113.3731783284
  0
LINE
  5
251
100
AcDbEntity
  8
0
100
AcDbLine
 62
7
  6
CONTINUOUS
 10
31.1457180278
 20
173.1382609646
 11
31.2551528794
 21
173.0061413497
  0
LINE
  5
252
100
AcDbEntity
  8
0
100
AcDbLine
 62
7
  6
CONTINUOUS
 10
52.9551528794
 20
179.2874822287
 11
52.2666370015
 21
181.0103778191
  0
LINE
  5
253
100
AcDbEntity
  8
0
100
AcDbLine
 62
7
  6
CONTINUOUS
 10
71.4051528794
 20
113.4000192808
 11
71.4051528794
 21
194.0874822287
  0
LINE
  5
254
100
AcDbEntity
  8
0
100
AcDbLine
 62
7
  6
CONTINUOUS
 10
32.5763181088
 20
127.5992628574
 11
33.6645374802
 21
128.6874822287
  0
LINE
  5
255
100
AcDbEntity
  8
0
100
AcDbLine
 62
7
  6
CONTINUOUS
 10
31.2551528794
 20
134.771316352
 11
31.1457180278
 21
134.6644214489
  0
LINE
  5
256
100
AcDbEntity
  8
0
100
AcDbLine
 62
7
  6
CONTINUOUS
 10
185.8451528794
 20
113.7939287125
 11
183.6478348753
 21
113.7747245949
  0
LINE
  5
257
100
AcDbEntity
  8
0
100
AcDbLine
 62
7
  6
CONTINUOUS
 10
183.1402183848
 20
113.7925281597
 11
184.4747215274
 21
113.804181559
  0
LINE
  5
258
100
AcDbEntity
  8
0
100
AcDbLine
 62
7
  6
CONTINUOUS
 10
30.7611131276
 20
113.2120370688
 11
34.7596701987
 21
113.2469643403
  0
LINE
  5
259
100
AcDbEntity
  8
0
100
AcDbLine
 62
7
  6
CONTINUOUS
 10
30.7251264585
 20
113.216200564
 11
34.1501531784
 21
113.2461938942
  0
LINE
  5
25A
100
AcDbEntity
  8
0
100
AcDbLine
 62
7
  6
CONTINUOUS
 10
34.6417634361
 20
113.2605691351
 11
47.533720181
 21
113.3731783284
  0
LINE
  5
25B
100
AcDbEntity
  8
0
100
AcDbLine
 62
7
  6
CONTINUOUS
 10
31.5551023917
 20
113.4057744264
 11
29.2551528794
 21
113.3855978521
  0
LINE
  5
25C
100
AcDbEntity
  8
0
100
AcDbLine
 62
7
  6
CONTINUOUS
 10
183.6478348753
 20
112.6026505818
 11
187.6451528794
 21
112.6201134288
  0
LINE
  5
25D
100
AcDbEntity
  8
0
100
AcDbLine
 62
7
  6
CONTINUOUS
 10
182.1405265612
 20
112.6139275008
 11
182.1759657007
 21
112.6140821934
  0
LINE
  5
25E
100
AcDbEntity
  8
0
100
AcDbLine
 62
7
  6
CONTINUOUS
 10
191.3451528794
 20
112.970185187
 11
187.6397373049
 21
112.970185187
  0
LINE
  5
25F
100
AcDbEntity
  8
0
100
AcDbLine
 62
7
  6
CONTINUOUS
 10
34.6239065789
 20
113.3743660722
 11
46.0615046916
 21
113.3741652761
  0
LINE
  5
260
100
AcDbEntity
  8
0
100
AcDbLine
 62
7
  6
CONTINUOUS
 10
31.5551528794
 20
113.4000192808
 11
182.6451528794
 21
113.4000192808
  0
LINE
  5
261
100
AcDbEntity
  8
0
100
AcDbLine
 62
7
  6
CONTINUOUS
 10
25.5551528794
 20
113.7882764242
 11
29.2551528794
 21
113.7882764242
  0
LINE
  5
262
100
AcDbEntity
  8
0
100
AcDbLine
 62
7
  6
CONTINUOUS
 10
25.5551528794
 20
113.8557945614
 11
29.2605684539
 21
113.8557945614
  0
LINE
  5
263
100
AcDbEntity
  8
0
100
AcDbLine
 62
7
  6
CONTINUOUS
 10
191.3451528794
 20
114.2275372457
 11
187.6397373049
 21
114.2275372457
  0
LINE
  5
264
100
AcDbEntity
  8
0
100
AcDbLine
 62
7
  6
CONTINUOUS
 10
25.5551528794
 20
114.8647829299
 11
29.2605684539
 21
114.8647829299
  0
LINE
  5
265
100
AcDbEntity
  8
0
100
AcDbLine
 62
7
  6
CONTINUOUS
 10
147.0975180742
 20
114.9181680989
 11
174.5451528794
 21
114.9181680989
  0
LINE
  5
266
100
AcDbEntity
  8
0
100
AcDbLine
 62
7
  6
CONTINUOUS
 10
31.5551528794
 20
115.4874822287
 11
48.4051528794
 21
115.4874822287
  0
LINE
  5
267
100
AcDbEntity
  8
0
100
AcDbLine
 62
7
  6
CONTINUOUS
 10
47.5475374802
 20
115.6874822287
 11
33.6645374802
 21
115.6874822287
  0
LINE
  5
268
100
AcDbEntity
  8
0
100
AcDbLine
 62
7
  6
CONTINUOUS
 10
61.4051528794
 20
115.9874822287
 11
48.4051528794
 21
115.9874822287
  0
LINE
  5
269
100
AcDbEntity
  8
0
100
AcDbLine
 62
7
  6
CONTINUOUS
 10
163.8317676527
 20
113.0917155812
 11
183.1191825818
 21
113.0843195573
  0
LINE
  5
26A
100
AcDbEntity
  8
0
100
AcDbLine
 62
7
  6
CONTINUOUS
 10
185.6197575065
 20
114.5833608764
 11
183.1197577773
 21
114.5843195356
  0
LINE
  5
26B
100
AcDbEntity
  8
0
100
AcDbLine
 62
7
  6
CONTINUOUS
 10
31.5551528794
 20
114.6051582916
 11
31.0551612549
 21
114.6075322132
  0
LINE
  5
26C
100
AcDbEntity
  8
0
100
AcDbLine
 62
7
  6
CONTINUOUS
 10
183.6478348753
 20
112.6026505818
 11
182.1759701573
 21
112.6136622879
  0
LINE
  5
26D
100
AcDbEntity
  8
0
100
AcDbLine
 62
7
  6
CONTINUOUS
 10
185.8451528794
 20
113.7939287125
 11
184.4747215274
 21
113.804181559
  0
LINE
  5
26E
100
AcDbEntity
  8
0
100
AcDbLine
 62
7
  6
CONTINUOUS
 10
182.2763991799
 20
112.6260048151
 11
170.8388010972
 21
112.7246833167
  0
LINE
  5
26F
100
AcDbEntity
  8
0
100
AcDbLine
 62
7
  6
CONTINUOUS
 10
170.8445001906
 20
112.7248142595
 11
169.3748430297
 21
112.7375773852
  0
LINE
  5
270
100
AcDbEntity
  8
0
100
AcDbLine
 62
7
  6
CONTINUOUS
 10
169.3513449904
 20
112.7379850679
 11
169.374842406
 21
112.7375051133
  0
LINE
  5
271
100
AcDbEntity
  8
0
100
AcDbLine
 62
7
  6
CONTINUOUS
 10
182.1405239371
 20
112.6139275008
 11
182.0884280999
 21
112.6150721678
  0
LINE
  5
272
100
AcDbEntity
  8
0
100
AcDbLine
 62
7
  6
CONTINUOUS
 10
33.6645374802
 20
178.3874822287
 11
32.5763181089
 21
179.4757016001
  0
LINE
  5
273
100
AcDbEntity
  8
0
100
AcDbLine
 62
7
  6
CONTINUOUS
 10
61.2491508711
 20
116.5874822287
 11
52.9551528794
 21
116.5874822287
  0
LINE
  5
274
100
AcDbEntity
  8
0
100
AcDbLine
 62
7
  6
CONTINUOUS
 10
187.6451528794
 20
116.5895680908
 11
191.3451528783
 21
116.5895914686
  0
LINE
  5
275
100
AcDbEntity
  8
0
100
AcDbLine
 62
7
  6
CONTINUOUS
 10
191.3451528794
 20
116.7140025442
 11
187.6451528794
 21
116.7139941103
  0
LINE
  5
276
100
AcDbEntity
  8
0
100
AcDbLine
 62
7
  6
CONTINUOUS
 10
29.2551528794
 20
117.3359366765
 11
25.5551528795
 21
117.3358422413
  0
LINE
  5
277
100
AcDbEntity
  8
0
100
AcDbLine
 62
7
  6
CONTINUOUS
 10
29.2551528794
 20
117.5373193509
 11
25.5551528794
 21
117.5371894281
  0
LINE
  5
278
100
AcDbEntity
  8
0
100
AcDbLine
 62
7
  6
CONTINUOUS
 10
191.3451528603
 20
117.5484225056
 11
187.6451528794
 21
117.5484140716
  0
LINE
  5
279
100
AcDbEntity
  8
0
100
AcDbLine
 62
7
  6
CONTINUOUS
 10
50.5475374802
 20
118.1874822287
 11
48.0475374802
 21
118.1874822287
  0
LINE
  5
27A
100
AcDbEntity
  8
0
100
AcDbLine
 62
7
  6
CONTINUOUS
 10
52.2666370015
 20
118.3103778191
 11
50.5475374802
 21
118.3103778191
  0
LINE
  5
27B
100
AcDbEntity
  8
0
100
AcDbLine
 62
7
  6
CONTINUOUS
 10
29.2551528794
 20
118.3567225025
 11
25.5551528913
 21
118.3565925798
  0
LINE
  5
27C
100
AcDbEntity
  8
0
100
AcDbLine
 62
7
  6
CONTINUOUS
 10
35.1475374802
 20
119.7374822287
 11
38.9246353864
 21
119.7374822287
  0
LINE
  5
27D
100
AcDbEntity
  8
0
100
AcDbLine
 62
7
  6
CONTINUOUS
 10
82.0051528797
 20
113.4000192808
 11
82.0051528797
 21
194.0874822287
  0
LINE
  5
27E
100
AcDbEntity
  8
0
100
AcDbLine
 62
7
  6
CONTINUOUS
 10
38.925149037
 20
124.6374822287
 11
35.1475374802
 21
124.6374822287
  0
LINE
  5
27F
100
AcDbEntity
  8
0
100
AcDbLine
 62
7
  6
CONTINUOUS
 10
50.5475374802
 20
126.1060129792
 11
52.4284840983
 21
126.1060129792
  0
LINE
  5
280
100
AcDbEntity
  8
0
100
AcDbLine
 62
7
  6
CONTINUOUS
 10
48.0475374802
 20
126.1874822287
 11
50.5475374802
 21
126.1874822287
  0
LINE
  5
281
100
AcDbEntity
  8
0
100
AcDbLine
 62
7
  6
CONTINUOUS
 10
94.0632270775
 20
126.3874822287
 11
90.0347163856
 21
126.3874822287
  0
LINE
  5
282
100
AcDbEntity
  8
0
100
AcDbLine
 62
7
  6
CONTINUOUS
 10
52.9551528794
 20
127.7874822287
 11
61.2491508711
 21
127.7874822287
  0
LINE
  5
283
100
AcDbEntity
  8
0
100
AcDbLine
 62
7
  6
CONTINUOUS
 10
48.4051528794
 20
128.3874822287
 11
61.4051528794
 21
128.3874822287
  0
LINE
  5
284
100
AcDbEntity
  8
0
100
AcDbLine
 62
7
  6
CONTINUOUS
 10
33.6645374802
 20
128.6874822287
 11
47.5475374802
 21
128.6874822287
  0
LINE
  5
285
100
AcDbEntity
  8
0
100
AcDbLine
 62
7
  6
CONTINUOUS
 10
48.4051528794
 20
128.8874822287
 11
31.5551528794
 21
128.8874822287
  0
LINE
  5
286
100
AcDbEntity
  8
0
100
AcDbLine
 62
7
  6
CONTINUOUS
 10
88.3051528794
 20
113.4000192808
 11
88.3051528794
 21
194.0874822287
  0
LINE
  5
287
100
AcDbEntity
  8
0
100
AcDbLine
 62
7
  6
CONTINUOUS
 10
89.8230163181
 20
113.4000192808
 11
89.8230163181
 21
194.0874822287
  0
LINE
  5
288
100
AcDbEntity
  8
0
100
AcDbLine
 62
7
  6
CONTINUOUS
 10
90.0347163856
 20
180.7874822287
 11
90.0347163856
 21
126.3874822287
  0
LINE
  5
289
100
AcDbEntity
  8
0
100
AcDbLine
 62
7
  6
CONTINUOUS
 10
91.4051528794
 20
180.7874822287
 11
91.4051528794
 21
126.3874822287
  0
LINE
  5
28A
100
AcDbEntity
  8
0
100
AcDbLine
 62
7
  6
CONTINUOUS
 10
92.394166757
 20
194.0874822287
 11
92.3941667569
 21
180.7874822287
  0
LINE
  5
28B
100
AcDbEntity
  8
0
100
AcDbLine
 62
7
  6
CONTINUOUS
 10
92.3941667569
 20
126.3874822287
 11
92.394166757
 21
113.4000192808
  0
LINE
  5
28C
100
AcDbEntity
  8
0
100
AcDbLine
 62
7
  6
CONTINUOUS
 10
147.0975180742
 20
133.5874822287
 11
148.8496561522
 21
133.5874822287
  0
LINE
  5
28D
100
AcDbEntity
  8
0
100
AcDbLine
 62
7
  6
CONTINUOUS
 10
187.6451528794
 20
134.6406189453
 11
191.3451528675
 21
134.6406273792
  0
LINE
  5
28E
100
AcDbEntity
  8
0
100
AcDbLine
 62
7
  6
CONTINUOUS
 10
94.0632270775
 20
113.4000192808
 11
94.0632270775
 21
126.3874822287
  0
LINE
  5
28F
100
AcDbEntity
  8
0
100
AcDbLine
 62
7
  6
CONTINUOUS
 10
94.0632270775
 20
180.7874822287
 11
94.0632270775
 21
194.0874822287
  0
LINE
  5
290
100
AcDbEntity
  8
0
100
AcDbLine
 62
7
  6
CONTINUOUS
 10
25.5551528985
 20
135.4487630192
 11
29.2551528794
 21
135.4488929419
  0
LINE
  5
291
100
AcDbEntity
  8
0
100
AcDbLine
 62
7
  6
CONTINUOUS
 10
187.6451528794
 20
135.4558698456
 11
191.3451528794
 21
135.4558782795
  0
LINE
  5
292
100
AcDbEntity
  8
0
100
AcDbLine
 62
7
  6
CONTINUOUS
 10
187.6451528794
 20
135.5829789559
 11
174.2406496066
 21
135.5829789559
  0
LINE
  5
293
100
AcDbEntity
  8
0
100
AcDbLine
 62
7
  6
CONTINUOUS
 10
187.6451529976
 20
135.607015247
 11
191.3451528793
 21
135.6069970461
  0
LINE
  5
294
100
AcDbEntity
  8
0
100
AcDbLine
 62
7
  6
CONTINUOUS
 10
174.2406496066
 20
136.2306137611
 11
148.902021347
 21
136.2306137611
  0
LINE
  5
295
100
AcDbEntity
  8
0
100
AcDbLine
 62
7
  6
CONTINUOUS
 10
25.5551528794
 20
136.2794491307
 11
29.2551528794
 21
136.2795790535
  0
LINE
  5
296
100
AcDbEntity
  8
0
100
AcDbLine
 62
7
  6
CONTINUOUS
 10
29.2551528794
 20
136.3533466134
 11
25.5551528805
 21
136.3532073277
  0
LINE
  5
297
100
AcDbEntity
  8
0
100
AcDbLine
 62
7
  6
CONTINUOUS
 10
191.3451528794
 20
137.1338608834
 11
187.6451528794
 21
137.1338608834
  0
LINE
  5
298
100
AcDbEntity
  8
0
100
AcDbLine
 62
7
  6
CONTINUOUS
 10
191.3451528794
 20
137.1631799798
 11
187.6397373049
 21
137.1631799798
  0
LINE
  5
299
100
AcDbEntity
  8
0
100
AcDbLine
 62
7
  6
CONTINUOUS
 10
176.9229674249
 20
137.6652967742
 11
187.6451528794
 21
137.6652967742
  0
LINE
  5
29A
100
AcDbEntity
  8
0
100
AcDbLine
 62
7
  6
CONTINUOUS
 10
25.5551528794
 20
137.8791104424
 11
29.2551528794
 21
137.8791104424
  0
LINE
  5
29B
100
AcDbEntity
  8
0
100
AcDbLine
 62
7
  6
CONTINUOUS
 10
25.5551528794
 20
137.9803305636
 11
29.2605684539
 21
137.9803305636
  0
LINE
  5
29C
100
AcDbEntity
  8
0
100
AcDbLine
 62
7
  6
CONTINUOUS
 10
147.0975180742
 20
140.6181680989
 11
176.9229674249
 21
140.6181680989
  0
LINE
  5
29D
100
AcDbEntity
  8
0
100
AcDbLine
 62
7
  6
CONTINUOUS
 10
196.4451528794
 20
141.1874822287
 11
150.6451528794
 21
141.1874822287
  0
LINE
  5
29E
100
AcDbEntity
  8
0
100
AcDbLine
 62
7
  6
CONTINUOUS
 10
185.5355994483
 20
138.8972179225
 11
185.7672106672
 21
138.8951917968
  0
LINE
  5
29F
100
AcDbEntity
  8
0
100
AcDbLine
 62
7
  6
CONTINUOUS
 10
185.76718802
 20
140.2602846811
 11
185.6307269569
 21
140.2614784881
  0
LINE
  5
2A0
100
AcDbEntity
  8
0
100
AcDbLine
 62
7
  6
CONTINUOUS
 10
31.2551528794
 20
141.1010371113
 11
31.1330950916
 21
141.1021419502
  0
LINE
  5
2A1
100
AcDbEntity
  8
0
100
AcDbLine
 62
7
  6
CONTINUOUS
 10
25.5551528794
 20
142.8419070321
 11
29.2605684539
 21
142.8419070321
  0
LINE
  5
2A2
100
AcDbEntity
  8
0
100
AcDbLine
 62
7
  6
CONTINUOUS
 10
131.7279915845
 20
143.2262933516
 11
126.9951528794
 21
143.2262933516
  0
LINE
  5
2A3
100
AcDbEntity
  8
0
100
AcDbLine
 62
7
  6
CONTINUOUS
 10
150.6451528794
 20
143.5874822287
 11
196.4451528794
 21
143.5874822287
  0
LINE
  5
2A4
100
AcDbEntity
  8
0
100
AcDbLine
 62
7
  6
CONTINUOUS
 10
29.2551528794
 20
144.3358820431
 11
25.5551528795
 21
144.3357876079
  0
LINE
  5
2A5
100
AcDbEntity
  8
0
100
AcDbLine
 62
7
  6
CONTINUOUS
 10
29.2551528794
 20
144.5372647175
 11
25.5551528794
 21
144.5371347947
  0
LINE
  5
2A6
100
AcDbEntity
  8
0
100
AcDbLine
 62
7
  6
CONTINUOUS
 10
29.2551528794
 20
145.3566678691
 11
25.5551528913
 21
145.3565379464
  0
LINE
  5
2A7
100
AcDbEntity
  8
0
100
AcDbLine
 62
7
  6
CONTINUOUS
 10
192.9451528794
 20
146.5874822287
 11
190.9451528794
 21
146.5874822287
  0
LINE
  5
2A8
100
AcDbEntity
  8
0
100
AcDbLine
 62
7
  6
CONTINUOUS
 10
147.2451528794
 20
147.0874822287
 11
150.6451528794
 21
147.0874822287
  0
LINE
  5
2A9
100
AcDbEntity
  8
0
100
AcDbLine
 62
7
  6
CONTINUOUS
 10
39.3165198173
 20
124.8269559129
 11
38.925149037
 21
124.6374822287
  0
LINE
  5
2AA
100
AcDbEntity
  8
0
100
AcDbLine
 62
7
  6
CONTINUOUS
 10
63.7051528794
 20
148.4874822287
 11
31.5551528794
 21
148.4874822287
  0
LINE
  5
2AB
100
AcDbEntity
  8
0
100
AcDbLine
 62
7
  6
CONTINUOUS
 10
189.9451528794
 20
151.0874822287
 11
188.2451528794
 21
151.0874822287
  0
LINE
  5
2AC
100
AcDbEntity
  8
0
100
AcDbLine
 62
7
  6
CONTINUOUS
 10
38.9246353864
 20
182.4374822287
 11
39.3158961657
 21
182.2487957844
  0
LINE
  5
2AD
100
AcDbEntity
  8
0
100
AcDbLine
 62
7
  6
CONTINUOUS
 10
188.2451528794
 20
156.0874822287
 11
189.9451528794
 21
156.0874822287
  0
LINE
  5
2AE
100
AcDbEntity
  8
0
100
AcDbLine
 62
7
  6
CONTINUOUS
 10
63.7051528794
 20
158.6874822287
 11
31.5551528794
 21
158.6874822287
  0
LINE
  5
2AF
100
AcDbEntity
  8
0
100
AcDbLine
 62
7
  6
CONTINUOUS
 10
147.2451528794
 20
160.0874822287
 11
150.6451528794
 21
160.0874822287
  0
LINE
  5
2B0
100
AcDbEntity
  8
0
100
AcDbLine
 62
7
  6
CONTINUOUS
 10
190.9451528794
 20
160.5874822287
 11
192.9451528794
 21
160.5874822287
  0
LINE
  5
2B1
100
AcDbEntity
  8
0
100
AcDbLine
 62
7
  6
CONTINUOUS
 10
25.5551528985
 20
162.4487083858
 11
29.2551528794
 21
162.4488383085
  0
LINE
  5
2B2
100
AcDbEntity
  8
0
100
AcDbLine
 62
7
  6
CONTINUOUS
 10
25.5551528794
 20
163.2793944973
 11
29.2551528794
 21
163.2795244201
  0
LINE
  5
2B3
100
AcDbEntity
  8
0
100
AcDbLine
 62
7
  6
CONTINUOUS
 10
29.2551528794
 20
163.35329198
 11
25.5551528805
 21
163.3531526943
  0
LINE
  5
2B4
100
AcDbEntity
  8
0
100
AcDbLine
 62
7
  6
CONTINUOUS
 10
196.4451528794
 20
163.5874822287
 11
150.6451528794
 21
163.5874822287
  0
LINE
  5
2B5
100
AcDbEntity
  8
0
100
AcDbLine
 62
7
  6
CONTINUOUS
 10
126.9951528794
 20
163.6607935014
 11
131.7279915845
 21
163.6607935014
  0
LINE
  5
2B6
100
AcDbEntity
  8
0
100
AcDbLine
 62
7
  6
CONTINUOUS
 10
25.5551528794
 20
164.879055809
 11
29.2551528794
 21
164.879055809
  0
LINE
  5
2B7
100
AcDbEntity
  8
0
100
AcDbLine
 62
7
  6
CONTINUOUS
 10
25.5551528794
 20
164.9802759302
 11
29.2605684539
 21
164.9802759302
  0
LINE
  5
2B8
100
AcDbEntity
  8
0
100
AcDbLine
 62
7
  6
CONTINUOUS
 10
150.6451528794
 20
165.9874822287
 11
196.4451528794
 21
165.9874822287
  0
LINE
  5
2B9
100
AcDbEntity
  8
0
100
AcDbLine
 62
7
  6
CONTINUOUS
 10
147.0975180742
 20
166.5567963585
 11
176.9229674249
 21
166.5567963585
  0
LINE
  5
2BA
100
AcDbEntity
  8
0
100
AcDbLine
 62
7
  6
CONTINUOUS
 10
126.9951528794
 20
113.4000192808
 11
126.9951528794
 21
143.2262933516
  0
LINE
  5
2BB
100
AcDbEntity
  8
0
100
AcDbLine
 62
7
  6
CONTINUOUS
 10
126.9951528794
 20
163.6607935014
 11
126.9951528794
 21
194.0874822287
  0
LINE
  5
2BC
100
AcDbEntity
  8
0
100
AcDbLine
 62
7
  6
CONTINUOUS
 10
128.6272296829
 20
113.4000192808
 11
128.6272296829
 21
143.2262933516
  0
LINE
  5
2BD
100
AcDbEntity
  8
0
100
AcDbLine
 62
7
  6
CONTINUOUS
 10
128.6272296829
 20
163.6607935014
 11
128.6272296829
 21
194.0874822287
  0
LINE
  5
2BE
100
AcDbEntity
  8
0
100
AcDbLine
 62
7
  6
CONTINUOUS
 10
130.3150796913
 20
113.4000192808
 11
130.3150796913
 21
143.2262933516
  0
LINE
  5
2BF
100
AcDbEntity
  8
0
100
AcDbLine
 62
7
  6
CONTINUOUS
 10
130.3150796913
 20
163.6607935014
 11
130.3150796913
 21
194.0874822287
  0
LINE
  5
2C0
100
AcDbEntity
  8
0
100
AcDbLine
 62
7
  6
CONTINUOUS
 10
130.4163719695
 20
113.4000192808
 11
130.4163719695
 21
143.2262933516
  0
LINE
  5
2C1
100
AcDbEntity
  8
0
100
AcDbLine
 62
7
  6
CONTINUOUS
 10
130.4163719695
 20
163.6607935014
 11
130.4163719695
 21
194.0874822287
  0
LINE
  5
2C2
100
AcDbEntity
  8
0
100
AcDbLine
 62
7
  6
CONTINUOUS
 10
191.3451528794
 20
169.0247660139
 11
187.6397373049
 21
169.0247660139
  0
LINE
  5
2C3
100
AcDbEntity
  8
0
100
AcDbLine
 62
7
  6
CONTINUOUS
 10
191.3451528794
 20
169.0628510213
 11
187.6451528794
 21
169.0628510213
  0
LINE
  5
2C4
100
AcDbEntity
  8
0
100
AcDbLine
 62
7
  6
CONTINUOUS
 10
187.6451528794
 20
169.5096676832
 11
176.9229674249
 21
169.5096676832
  0
LINE
  5
2C5
100
AcDbEntity
  8
0
100
AcDbLine
 62
7
  6
CONTINUOUS
 10
25.5551528794
 20
169.8418523987
 11
29.2605684539
 21
169.8418523987
  0
LINE
  5
2C6
100
AcDbEntity
  8
0
100
AcDbLine
 62
7
  6
CONTINUOUS
 10
187.6451528794
 20
170.5895676303
 11
191.3451528783
 21
170.5895910082
  0
LINE
  5
2C7
100
AcDbEntity
  8
0
100
AcDbLine
 62
7
  6
CONTINUOUS
 10
191.3451528794
 20
170.7140020838
 11
187.6451528794
 21
170.7139936498
  0
LINE
  5
2C8
100
AcDbEntity
  8
0
100
AcDbLine
 62
7
  6
CONTINUOUS
 10
148.902021347
 20
170.9443506963
 11
174.2406496066
 21
170.9443506963
  0
LINE
  5
2C9
100
AcDbEntity
  8
0
100
AcDbLine
 62
7
  6
CONTINUOUS
 10
29.2551528794
 20
171.3358274097
 11
25.5551528795
 21
171.3357329745
  0
LINE
  5
2CA
100
AcDbEntity
  8
0
100
AcDbLine
 62
7
  6
CONTINUOUS
 10
29.2551528794
 20
171.5372100841
 11
25.5551528794
 21
171.5370801613
  0
LINE
  5
2CB
100
AcDbEntity
  8
0
100
AcDbLine
 62
7
  6
CONTINUOUS
 10
191.3451528603
 20
171.5484220451
 11
187.6451529787
 21
171.5484136112
  0
LINE
  5
2CC
100
AcDbEntity
  8
0
100
AcDbLine
 62
7
  6
CONTINUOUS
 10
174.2406496066
 20
171.5919855015
 11
187.6451528794
 21
171.5919855015
  0
LINE
  5
2CD
100
AcDbEntity
  8
0
100
AcDbLine
 62
7
  6
CONTINUOUS
 10
29.2551528794
 20
172.3566132357
 11
25.5551528913
 21
172.356483313
  0
LINE
  5
2CE
100
AcDbEntity
  8
0
100
AcDbLine
 62
7
  6
CONTINUOUS
 10
185.76718802
 20
167.2602844509
 11
185.6411004405
 21
167.2613875072
  0
LINE
  5
2CF
100
AcDbEntity
  8
0
100
AcDbLine
 62
7
  6
CONTINUOUS
 10
31.2551528794
 20
168.1009824779
 11
31.1330950916
 21
168.1020873168
  0
LINE
  5
2D0
100
AcDbEntity
  8
0
100
AcDbLine
 62
7
  6
CONTINUOUS
 10
131.7279915845
 20
143.2262933516
 11
131.7279915845
 21
163.6607935014
  0
LINE
  5
2D1
100
AcDbEntity
  8
0
100
AcDbLine
 62
7
  6
CONTINUOUS
 10
132.4049767302
 20
113.4000192808
 11
132.4049767302
 21
194.0874822287
  0
LINE
  5
2D2
100
AcDbEntity
  8
0
100
AcDbLine
 62
7
  6
CONTINUOUS
 10
134.2045060245
 20
194.0874822287
 11
134.2045060245
 21
113.4000192808
  0
LINE
  5
2D3
100
AcDbEntity
  8
0
100
AcDbLine
 62
7
  6
CONTINUOUS
 10
148.8496561522
 20
173.5874822287
 11
147.0975180742
 21
173.5874822287
  0
LINE
  5
2D4
100
AcDbEntity
  8
0
100
AcDbLine
 62
7
  6
CONTINUOUS
 10
48.4051528794
 20
178.2874822287
 11
31.5551528794
 21
178.2874822287
  0
LINE
  5
2D5
100
AcDbEntity
  8
0
100
AcDbLine
 62
7
  6
CONTINUOUS
 10
47.5475374802
 20
178.3874822287
 11
33.6645374802
 21
178.3874822287
  0
LINE
  5
2D6
100
AcDbEntity
  8
0
100
AcDbLine
 62
7
  6
CONTINUOUS
 10
61.4051528794
 20
178.7874822287
 11
48.4051528794
 21
178.7874822287
  0
LINE
  5
2D7
100
AcDbEntity
  8
0
100
AcDbLine
 62
7
  6
CONTINUOUS
 10
61.2491508711
 20
179.2874822287
 11
52.9551528794
 21
179.2874822287
  0
LINE
  5
2D8
100
AcDbEntity
  8
0
100
AcDbLine
 62
7
  6
CONTINUOUS
 10
90.0347163856
 20
180.7874822287
 11
94.0632270775
 21
180.7874822287
  0
LINE
  5
2D9
100
AcDbEntity
  8
0
100
AcDbLine
 62
7
  6
CONTINUOUS
 10
50.5475374802
 20
180.8874822287
 11
48.0475374802
 21
180.8874822287
  0
LINE
  5
2DA
100
AcDbEntity
  8
0
100
AcDbLine
 62
7
  6
CONTINUOUS
 10
52.2666370015
 20
181.0103778191
 11
50.5475374802
 21
181.0103778191
  0
LINE
  5
2DB
100
AcDbEntity
  8
0
100
AcDbLine
 62
7
  6
CONTINUOUS
 10
35.1475374802
 20
182.4374822287
 11
38.9246353864
 21
182.4374822287
  0
LINE
  5
2DC
100
AcDbEntity
  8
0
100
AcDbLine
 62
7
  6
CONTINUOUS
 10
31.0551528794
 20
193.2116993093
 11
31.5551528794
 21
193.1540743583
  0
LINE
  5
2DD
100
AcDbEntity
  8
0
100
AcDbLine
 62
7
  6
CONTINUOUS
 10
33.2524708835
 20
194.4030471882
 11
34.6253958631
 21
194.2448177295
  0
LINE
  5
2DE
100
AcDbEntity
  8
0
100
AcDbLine
 62
7
  6
CONTINUOUS
 10
47.5489607684
 20
194.1154760556
 11
47.5254633528
 21
194.1184883051
  0
LINE
  5
2DF
100
AcDbEntity
  8
0
100
AcDbLine
 62
7
  6
CONTINUOUS
 10
148.8496561522
 20
173.5874822287
 11
148.902021347
 21
170.9443506963
  0
LINE
  5
2E0
100
AcDbEntity
  8
0
100
AcDbLine
 62
7
  6
CONTINUOUS
 10
147.0975180742
 20
113.4000192808
 11
147.0975180742
 21
114.9181680989
  0
LINE
  5
2E1
100
AcDbEntity
  8
0
100
AcDbLine
 62
7
  6
CONTINUOUS
 10
147.0975180742
 20
133.5874822287
 11
147.0975180742
 21
140.6181680989
  0
LINE
  5
2E2
100
AcDbEntity
  8
0
100
AcDbLine
 62
7
  6
CONTINUOUS
 10
147.0975180742
 20
166.5567963585
 11
147.0975180742
 21
173.5874822287
  0
LINE
  5
2E3
100
AcDbEntity
  8
0
100
AcDbLine
 62
7
  6
CONTINUOUS
 10
147.0975180742
 20
192.2567963585
 11
147.0975180742
 21
194.0874822287
  0
LINE
  5
2E4
100
AcDbEntity
  8
0
100
AcDbLine
 62
7
  6
CONTINUOUS
 10
147.1496585704
 20
113.4000192808
 11
147.1496585704
 21
114.9181680989
  0
LINE
  5
2E5
100
AcDbEntity
  8
0
100
AcDbLine
 62
7
  6
CONTINUOUS
 10
147.1496585704
 20
133.5874822287
 11
147.1496585704
 21
140.6181680989
  0
LINE
  5
2E6
100
AcDbEntity
  8
0
100
AcDbLine
 62
7
  6
CONTINUOUS
 10
147.1496585704
 20
166.5567963585
 11
147.1496585704
 21
173.5874822287
  0
LINE
  5
2E7
100
AcDbEntity
  8
0
100
AcDbLine
 62
7
  6
CONTINUOUS
 10
147.1496585704
 20
192.2567963585
 11
147.1496585704
 21
194.0874822287
  0
LINE
  5
2E8
100
AcDbEntity
  8
0
100
AcDbLine
 62
7
  6
CONTINUOUS
 10
147.2451528794
 20
147.0874822287
 11
147.2451528794
 21
160.0874822287
  0
LINE
  5
2E9
100
AcDbEntity
  8
0
100
AcDbLine
 62
7
  6
CONTINUOUS
 10
148.5010338165
 20
113.4000192808
 11
148.5010338165
 21
114.9181680989
  0
LINE
  5
2EA
100
AcDbEntity
  8
0
100
AcDbLine
 62
7
  6
CONTINUOUS
 10
148.5010338165
 20
133.5874822287
 11
148.5010338165
 21
140.6181680989
  0
LINE
  5
2EB
100
AcDbEntity
  8
0
100
AcDbLine
 62
7
  6
CONTINUOUS
 10
148.5010338165
 20
166.5567963585
 11
148.5010338165
 21
173.5874822287
  0
LINE
  5
2EC
100
AcDbEntity
  8
0
100
AcDbLine
 62
7
  6
CONTINUOUS
 10
148.5010338165
 20
192.2567963585
 11
148.5010338165
 21
194.0874822287
  0
LINE
  5
2ED
100
AcDbEntity
  8
0
100
AcDbLine
 62
7
  6
CONTINUOUS
 10
149.6451528794
 20
160.0874822287
 11
149.6451528794
 21
147.0874822287
  0
LINE
  5
2EE
100
AcDbEntity
  8
0
100
AcDbLine
 62
7
  6
CONTINUOUS
 10
148.902021347
 20
136.2306137611
 11
148.8496561522
 21
133.5874822287
  0
LINE
  5
2EF
100
AcDbEntity
  8
0
100
AcDbLine
 62
7
  6
CONTINUOUS
 10
38.925149037
 20
187.3374822287
 11
35.1475374802
 21
187.3374822287
  0
LINE
  5
2F0
100
AcDbEntity
  8
0
100
AcDbLine
 62
7
  6
CONTINUOUS
 10
187.6451528794
 20
188.6406184848
 11
191.3451528675
 21
188.6406269188
  0
LINE
  5
2F1
100
AcDbEntity
  8
0
100
AcDbLine
 62
7
  6
CONTINUOUS
 10
50.5475374802
 20
188.8060129792
 11
52.4284840983
 21
188.8060129792
  0
LINE
  5
2F2
100
AcDbEntity
  8
0
100
AcDbLine
 62
7
  6
CONTINUOUS
 10
48.0475374802
 20
188.8874822287
 11
50.5475374802
 21
188.8874822287
  0
LINE
  5
2F3
100
AcDbEntity
  8
0
100
AcDbLine
 62
7
  6
CONTINUOUS
 10
25.5551528985
 20
189.4486537524
 11
29.2551528794
 21
189.4487836751
  0
LINE
  5
2F4
100
AcDbEntity
  8
0
100
AcDbLine
 62
7
  6
CONTINUOUS
 10
187.6451528794
 20
189.4558693851
 11
191.3451528794
 21
189.4558778191
  0
LINE
  5
2F5
100
AcDbEntity
  8
0
100
AcDbLine
 62
7
  6
CONTINUOUS
 10
187.6451528794
 20
189.6070147865
 11
191.3451528793
 21
189.6069965857
  0
LINE
  5
2F6
100
AcDbEntity
  8
0
100
AcDbLine
 62
7
  6
CONTINUOUS
 10
25.5551528794
 20
190.2793398639
 11
29.2551528794
 21
190.2794697867
  0
LINE
  5
2F7
100
AcDbEntity
  8
0
100
AcDbLine
 62
7
  6
CONTINUOUS
 10
29.2551528794
 20
190.3532373466
 11
25.5551528805
 21
190.3530980609
  0
LINE
  5
2F8
100
AcDbEntity
  8
0
100
AcDbLine
 62
7
  6
CONTINUOUS
 10
52.9551528794
 20
190.4874822287
 11
61.2491508711
 21
190.4874822287
  0
LINE
  5
2F9
100
AcDbEntity
  8
0
100
AcDbLine
 62
7
  6
CONTINUOUS
 10
48.4051528794
 20
191.1874822287
 11
61.4051528794
 21
191.1874822287
  0
LINE
  5
2FA
100
AcDbEntity
  8
0
100
AcDbLine
 62
7
  6
CONTINUOUS
 10
33.6645374802
 20
191.3874822287
 11
47.5475374802
 21
191.3874822287
  0
LINE
  5
2FB
100
AcDbEntity
  8
0
100
AcDbLine
 62
7
  6
CONTINUOUS
 10
48.4051528794
 20
191.6874822287
 11
31.5551528794
 21
191.6874822287
  0
LINE
  5
2FC
100
AcDbEntity
  8
0
100
AcDbLine
 62
7
  6
CONTINUOUS
 10
191.3451528794
 20
192.1403602239
 11
187.6397373049
 21
192.1403602239
  0
LINE
  5
2FD
100
AcDbEntity
  8
0
100
AcDbLine
 62
7
  6
CONTINUOUS
 10
150.6451528794
 20
141.1874822287
 11
150.6451528794
 21
147.0874822287
  0
LINE
  5
2FE
100
AcDbEntity
  8
0
100
AcDbLine
 62
7
  6
CONTINUOUS
 10
150.6451528794
 20
160.0874822287
 11
150.6451528794
 21
165.9874822287
  0
LINE
  5
2FF
100
AcDbEntity
  8
0
100
AcDbLine
 62
7
  6
CONTINUOUS
 10
183.6478348753
 20
193.5851961557
 11
187.6451528794
 21
193.6201319115
  0
LINE
  5
300
100
AcDbEntity
  8
0
100
AcDbLine
 62
7
  6
CONTINUOUS
 10
186.1751793003
 20
193.6311272525
 11
183.1708234996
 21
193.6048158026
  0
LINE
  5
301
100
AcDbEntity
  8
0
100
AcDbLine
 62
7
  6
CONTINUOUS
 10
186.1391926312
 20
193.6313985847
 11
183.1708237506
 21
193.6054702536
  0
LINE
  5
302
100
AcDbEntity
  8
0
100
AcDbLine
 62
7
  6
CONTINUOUS
 10
31.0551528794
 20
193.2116993093
 11
31.5551528794
 21
193.2160856174
  0
LINE
  5
303
100
AcDbEntity
  8
0
100
AcDbLine
 62
7
  6
CONTINUOUS
 10
33.2524708835
 20
194.4030471882
 11
29.2551528794
 21
194.3854531251
  0
LINE
  5
304
100
AcDbEntity
  8
0
100
AcDbLine
 62
7
  6
CONTINUOUS
 10
147.0975180742
 20
192.2567963585
 11
174.5451528794
 21
192.2567963585
  0
LINE
  5
305
100
AcDbEntity
  8
0
100
AcDbLine
 62
7
  6
CONTINUOUS
 10
31.5551528794
 20
192.5874822287
 11
31.2551528794
 21
192.5874822287
  0
LINE
  5
306
100
AcDbEntity
  8
0
100
AcDbLine
 62
7
  6
CONTINUOUS
 10
25.5551528794
 20
192.7099307819
 11
29.2551528794
 21
192.7099307819
  0
LINE
  5
307
100
AcDbEntity
  8
0
100
AcDbLine
 62
7
  6
CONTINUOUS
 10
25.5551528794
 20
192.7774489191
 11
29.2605684539
 21
192.7774489191
  0
LINE
  5
308
100
AcDbEntity
  8
0
100
AcDbLine
 62
7
  6
CONTINUOUS
 10
191.3451528794
 20
193.1493506255
 11
187.6397373049
 21
193.1493506255
  0
LINE
  5
309
100
AcDbEntity
  8
0
100
AcDbLine
 62
7
  6
CONTINUOUS
 10
25.5551528794
 20
194.0347984443
 11
29.2605684539
 21
194.0347984443
  0
LINE
  5
30A
100
AcDbEntity
  8
0
100
AcDbLine
 62
7
  6
CONTINUOUS
 10
182.6451528794
 20
194.0874822287
 11
31.5551528794
 21
194.0874822287
  0
LINE
  5
30B
100
AcDbEntity
  8
0
100
AcDbLine
 62
7
  6
CONTINUOUS
 10
185.6496676726
 20
192.5833551417
 11
183.1496679434
 21
192.5843138009
  0
LINE
  5
30C
100
AcDbEntity
  8
0
100
AcDbLine
 62
7
  6
CONTINUOUS
 10
182.6451528794
 20
193.7719702993
 11
183.170887523
 21
193.7717766615
  0
LINE
  5
30D
100
AcDbEntity
  8
0
100
AcDbLine
 62
7
  6
CONTINUOUS
 10
183.6478432508
 20
192.408758977
 11
185.8451445039
 21
192.3982541913
  0
LINE
  5
30E
100
AcDbEntity
  8
0
100
AcDbLine
 62
7
  6
CONTINUOUS
 10
187.6451528794
 20
193.6201319115
 11
186.1753165428
 21
193.6311272529
  0
LINE
  5
30F
100
AcDbEntity
  8
0
100
AcDbLine
 62
7
  6
CONTINUOUS
 10
46.0558055683
 20
194.131179126
 11
47.5254627291
 21
194.1184160333
  0
LINE
  5
310
100
AcDbEntity
  8
0
100
AcDbLine
 62
7
  6
CONTINUOUS
 10
34.6239065789
 20
194.2318955122
 11
46.0615046616
 21
194.133029448
  0
LINE
  5
311
100
AcDbEntity
  8
0
100
AcDbLine
 62
7
  6
CONTINUOUS
 10
185.754587731
 20
133.8576474192
 11
185.650746072
 21
133.971823804
  0
LINE
  5
312
100
AcDbEntity
  8
0
100
AcDbLine
 62
7
  6
CONTINUOUS
 10
163.831885876
 20
113.4000192808
 11
163.8317676527
 21
113.0917155812
  0
LINE
  5
313
100
AcDbEntity
  8
0
100
AcDbLine
 62
7
  6
CONTINUOUS
 10
164.1187097186
 20
113.0916053672
 11
164.1188279841
 21
113.4000192808
  0
LINE
  5
314
100
AcDbEntity
  8
0
100
AcDbLine
 62
7
  6
CONTINUOUS
 10
168.1187092961
 20
113.0900715125
 11
168.1188281499
 21
113.4000192808
  0
LINE
  5
315
100
AcDbEntity
  8
0
100
AcDbLine
 62
7
  6
CONTINUOUS
 10
168.5193030759
 20
113.4000192808
 11
168.5191841634
 21
113.089918127
  0
LINE
  5
316
100
AcDbEntity
  8
0
100
AcDbLine
 62
7
  6
CONTINUOUS
 10
169.348272714
 20
113.0896002016
 11
169.3513445104
 21
112.7379339399
  0
LINE
  5
317
100
AcDbEntity
  8
0
100
AcDbLine
 62
7
  6
CONTINUOUS
 10
169.3717687341
 20
113.0895911917
 11
169.3748435247
 21
112.7375773895
  0
LINE
  5
318
100
AcDbEntity
  8
0
100
AcDbLine
 62
7
  6
CONTINUOUS
 10
174.2406496066
 20
136.2306137611
 11
174.2406496066
 21
135.5829789559
  0
LINE
  5
319
100
AcDbEntity
  8
0
100
AcDbLine
 62
7
  6
CONTINUOUS
 10
174.2406496066
 20
170.9443506963
 11
174.2406496066
 21
171.5919855015
  0
LINE
  5
31A
100
AcDbEntity
  8
0
100
AcDbLine
 62
7
  6
CONTINUOUS
 10
174.5451528794
 20
166.5567963585
 11
174.5451528794
 21
165.9874822287
  0
LINE
  5
31B
100
AcDbEntity
  8
0
100
AcDbLine
 62
7
  6
CONTINUOUS
 10
174.5451528794
 20
141.1874822287
 11
174.5451528794
 21
140.6181680989
  0
LINE
  5
31C
100
AcDbEntity
  8
0
100
AcDbLine
 62
7
  6
CONTINUOUS
 10
174.5451528794
 20
113.4000192808
 11
174.5451528794
 21
135.5829789559
  0
LINE
  5
31D
100
AcDbEntity
  8
0
100
AcDbLine
 62
7
  6
CONTINUOUS
 10
174.5451528794
 20
171.5919855015
 11
174.5451528794
 21
194.0874822287
  0
LINE
  5
31E
100
AcDbEntity
  8
0
100
AcDbLine
 62
7
  6
CONTINUOUS
 10
176.9229674249
 20
169.5096676832
 11
176.9229674249
 21
166.5567963585
  0
LINE
  5
31F
100
AcDbEntity
  8
0
100
AcDbLine
 62
7
  6
CONTINUOUS
 10
176.9229674249
 20
140.6181680989
 11
176.9229674249
 21
137.6652967742
  0
LINE
  5
320
100
AcDbEntity
  8
0
100
AcDbLine
 62
7
  6
CONTINUOUS
 10
182.2763991799
 20
113.0846427341
 11
182.2763991799
 21
112.6260048151
  0
LINE
  5
321
100
AcDbEntity
  8
0
100
AcDbLine
 62
7
  6
CONTINUOUS
 10
182.6451528794
 20
113.4000192808
 11
182.6451528794
 21
135.5829789559
  0
LINE
  5
322
100
AcDbEntity
  8
0
100
AcDbLine
 62
7
  6
CONTINUOUS
 10
182.6451528794
 20
137.6652967742
 11
182.6451528794
 21
141.1874822287
  0
LINE
  5
323
100
AcDbEntity
  8
0
100
AcDbLine
 62
7
  6
CONTINUOUS
 10
182.6451528794
 20
165.9874822287
 11
182.6451528794
 21
169.5096676832
  0
LINE
  5
324
100
AcDbEntity
  8
0
100
AcDbLine
 62
7
  6
CONTINUOUS
 10
182.6451528794
 20
171.5919855015
 11
182.6451528794
 21
194.0874822287
  0
LINE
  5
325
100
AcDbEntity
  8
0
100
AcDbLine
 62
7
  6
CONTINUOUS
 10
183.6478348753
 20
193.5851961557
 11
183.6478348753
 21
192.4070073713
  0
LINE
  5
326
100
AcDbEntity
  8
0
100
AcDbLine
 62
7
  6
CONTINUOUS
 10
183.6478348753
 20
113.7747245948
 11
183.6478348753
 21
112.6026505818
  0
LINE
  5
327
100
AcDbEntity
  8
0
100
AcDbLine
 62
7
  6
CONTINUOUS
 10
184.4747215274
 20
114.5837999562
 11
184.4747215274
 21
113.804181559
  0
LINE
  5
328
100
AcDbEntity
  8
0
100
AcDbLine
 62
7
  6
CONTINUOUS
 10
185.8451528794
 20
192.400005797
 11
185.8451528794
 21
171.5919855015
  0
LINE
  5
329
100
AcDbEntity
  8
0
100
AcDbLine
 62
7
  6
CONTINUOUS
 10
185.8451528794
 20
169.5096676832
 11
185.8451528794
 21
165.9874822287
  0
LINE
  5
32A
100
AcDbEntity
  8
0
100
AcDbLine
 62
7
  6
CONTINUOUS
 10
185.8451528794
 20
154.2233691187
 11
185.8451528794
 21
152.9562354152
  0
LINE
  5
32B
100
AcDbEntity
  8
0
100
AcDbLine
 62
7
  6
CONTINUOUS
 10
185.8451528794
 20
141.1874822287
 11
185.8451528794
 21
137.6652967742
  0
LINE
  5
32C
100
AcDbEntity
  8
0
100
AcDbLine
 62
7
  6
CONTINUOUS
 10
185.8451528794
 20
135.5829789559
 11
185.8451528794
 21
113.7939287125
  0
LINE
  5
32D
100
AcDbEntity
  8
0
100
AcDbLine
 62
7
  6
CONTINUOUS
 10
185.7672414907
 20
167.2605237846
 11
185.7671661375
 21
165.9747587952
  0
LINE
  5
32E
100
AcDbEntity
  8
0
100
AcDbLine
 62
7
  6
CONTINUOUS
 10
185.7672414907
 20
140.2605240148
 11
185.7671614884
 21
138.8954318656
  0
LINE
  5
32F
100
AcDbEntity
  8
0
100
AcDbLine
 62
7
  6
CONTINUOUS
 10
183.1501232923
 20
193.7717766615
 11
183.1496679434
 21
192.5843138009
  0
LINE
  5
330
100
AcDbEntity
  8
0
100
AcDbLine
 62
7
  6
CONTINUOUS
 10
183.1191825818
 20
113.0843195573
 11
183.1197577773
 21
114.5843195356
  0
LINE
  5
331
100
AcDbEntity
  8
0
100
AcDbLine
 62
7
  6
CONTINUOUS
 10
185.6496676726
 20
192.5833551417
 11
185.6416182444
 21
171.5919855015
  0
LINE
  5
332
100
AcDbEntity
  8
0
100
AcDbLine
 62
7
  6
CONTINUOUS
 10
185.6408197511
 20
169.5096676832
 11
185.6394691209
 21
165.9874822287
  0
LINE
  5
333
100
AcDbEntity
  8
0
100
AcDbLine
 62
7
  6
CONTINUOUS
 10
185.6299592212
 20
141.1874822287
 11
185.628608591
 21
137.6652967742
  0
LINE
  5
334
100
AcDbEntity
  8
0
100
AcDbLine
 62
7
  6
CONTINUOUS
 10
185.6278100977
 20
135.5829789559
 11
185.6197575065
 21
114.5833608764
  0
LINE
  5
335
100
AcDbEntity
  8
0
100
AcDbLine
 62
7
  6
CONTINUOUS
 10
187.6451528794
 20
112.6201134288
 11
187.6451528794
 21
141.1874822287
  0
LINE
  5
336
100
AcDbEntity
  8
0
100
AcDbLine
 62
7
  6
CONTINUOUS
 10
187.6451528794
 20
151.2252758402
 11
187.6451528794
 21
155.9504883748
  0
LINE
  5
337
100
AcDbEntity
  8
0
100
AcDbLine
 62
7
  6
CONTINUOUS
 10
187.6451528794
 20
165.9874822287
 11
187.6451528794
 21
193.6201319115
  0
LINE
  5
338
100
AcDbEntity
  8
0
100
AcDbLine
 62
7
  6
CONTINUOUS
 10
190.4451528794
 20
147.0874822287
 11
190.4451528794
 21
150.5874822287
  0
LINE
  5
339
100
AcDbEntity
  8
0
100
AcDbLine
 62
7
  6
CONTINUOUS
 10
190.4451528794
 20
156.5874822287
 11
190.4451528794
 21
160.0874822287
  0
LINE
  5
33A
100
AcDbEntity
  8
0
100
AcDbLine
 62
7
  6
CONTINUOUS
 10
191.3451528794
 20
193.1493506255
 11
191.3451528794
 21
192.1403602239
  0
LINE
  5
33B
100
AcDbEntity
  8
0
100
AcDbLine
 62
7
  6
CONTINUOUS
 10
191.3451528794
 20
114.2275372457
 11
191.3451528794
 21
112.970185187
  0
LINE
  5
33C
100
AcDbEntity
  8
0
100
AcDbLine
 62
7
  6
CONTINUOUS
 10
191.3451528794
 20
116.5895840425
 11
191.3451528794
 21
117.7944922461
  0
LINE
  5
33D
100
AcDbEntity
  8
0
100
AcDbLine
 62
7
  6
CONTINUOUS
 10
191.3451528794
 20
134.3944921046
 11
191.3451528794
 21
135.6070037289
  0
LINE
  5
33E
100
AcDbEntity
  8
0
100
AcDbLine
 62
7
  6
CONTINUOUS
 10
191.3451528794
 20
137.1338608834
 11
191.3451528794
 21
141.1874822287
  0
LINE
  5
33F
100
AcDbEntity
  8
0
100
AcDbLine
 62
7
  6
CONTINUOUS
 10
191.3451528794
 20
165.9874822287
 11
191.3451528794
 21
169.0628510213
  0
LINE
  5
340
100
AcDbEntity
  8
0
100
AcDbLine
 62
7
  6
CONTINUOUS
 10
191.3451528794
 20
170.589583582
 11
191.3451528794
 21
171.7944917857
  0
LINE
  5
341
100
AcDbEntity
  8
0
100
AcDbLine
 62
7
  6
CONTINUOUS
 10
191.3451528794
 20
188.3944916441
 11
191.3451528794
 21
189.6070032684
  0
LINE
  5
342
100
AcDbEntity
  8
0
100
AcDbLine
 62
7
  6
CONTINUOUS
 10
193.4451528794
 20
160.0874822287
 11
193.4451528794
 21
147.0874822287
  0
LINE
  5
343
100
AcDbEntity
  8
0
100
AcDbLine
 62
7
  6
CONTINUOUS
 10
185.2628864285
 20
117.7982848897
 11
185.754587731
 21
118.3315649177
  0
LINE
  5
344
100
AcDbEntity
  8
0
100
AcDbLine
 62
7
  6
CONTINUOUS
 10
185.754587731
 20
187.8576469587
 11
185.6601219615
 21
187.9615143291
  0
LINE
  5
345
100
AcDbEntity
  8
0
100
AcDbLine
 62
7
  6
CONTINUOUS
 10
196.4451528794
 20
141.1874822287
 11
196.4451528794
 21
165.9874822287
  0
ARC
  5
346
100
AcDbEntity
  8
0
100
AcDbCircle
 62
7
  6
CONTINUOUS
 10
12.9884026448
 20
126.815293849
 40
15.0764085082
100
AcDbArc
 50
22.7020981037
 51
31.5396380369
  0
ARC
  5
347
100
AcDbEntity
  8
0
100
AcDbCircle
 62
7
  6
CONTINUOUS
 10
13.0209784714
 20
126.8312119663
 40
15.0402449702
100
AcDbArc
 50
10.4621340209
 51
19.250078221
  0
ARC
  5
348
100
AcDbEntity
  8
0
100
AcDbCircle
 62
7
  6
CONTINUOUS
 10
13.0215424299
 20
126.8372727384
 40
15.036667347
100
AcDbArc
 50
31.5343145195
 51
33.5362495943
  0
ARC
  5
349
100
AcDbEntity
  8
0
100
AcDbCircle
 62
7
  6
CONTINUOUS
 10
46.5475374802
 20
122.1874822287
 40
15.0
100
AcDbArc
 50
159.1387956778
 51
200.8612043222
  0
ARC
  5
34A
100
AcDbEntity
  8
0
100
AcDbCircle
 62
7
  6
CONTINUOUS
 10
13.1366497385
 20
126.9381258388
 40
14.9174259824
100
AcDbArc
 50
31.3751489341
 51
33.6453492789
  0
ARC
  5
34B
100
AcDbEntity
  8
0
100
AcDbCircle
 62
7
  6
CONTINUOUS
 10
42.6475374802
 20
122.1874822287
 40
4.25
100
AcDbArc
 50
218.3795042223
 51
141.606955981
  0
ARC
  5
34C
100
AcDbEntity
  8
0
100
AcDbCircle
 62
7
  6
CONTINUOUS
 10
46.0435239109
 20
116.3623376234
 40
2.9882264449
100
AcDbArc
 50
270.3447627142
 51
274.6148730279
  0
ARC
  5
34D
100
AcDbEntity
  8
0
100
AcDbCircle
 62
7
  6
CONTINUOUS
 10
35.1475374802
 20
121.2374822287
 40
1.5
100
AcDbArc
 50
180.0
 51
269.9999999997
  0
ARC
  5
34E
100
AcDbEntity
  8
0
100
AcDbCircle
 62
7
  6
CONTINUOUS
 10
35.1475374802
 20
123.1374822287
 40
1.5
100
AcDbArc
 50
90.0
 51
180.0
  0
ARC
  5
34F
100
AcDbEntity
  8
0
100
AcDbCircle
 62
7
  6
CONTINUOUS
 10
47.5475374802
 20
128.1874822287
 40
0.5
100
AcDbArc
 50
0.0
 51
90.0000000001
  0
ARC
  5
350
100
AcDbEntity
  8
0
100
AcDbCircle
 62
7
  6
CONTINUOUS
 10
47.5475374802
 20
116.1874822287
 40
0.5
100
AcDbArc
 50
270.0000000002
 51
360.0
  0
ARC
  5
351
100
AcDbEntity
  8
0
100
AcDbCircle
 62
7
  6
CONTINUOUS
 10
12.9884026448
 20
180.8151845821
 40
15.0764085082
100
AcDbArc
 50
22.7020981036
 51
31.5396380369
  0
ARC
  5
352
100
AcDbEntity
  8
0
100
AcDbCircle
 62
7
  6
CONTINUOUS
 10
12.9884026448
 20
153.8152392155
 40
15.0764085082
100
AcDbArc
 50
22.7020981036
 51
31.5396380369
  0
ARC
  5
353
100
AcDbEntity
  8
0
100
AcDbCircle
 62
7
  6
CONTINUOUS
 10
13.0209784714
 20
180.8311026995
 40
15.0402449702
100
AcDbArc
 50
10.4621340208
 51
19.250078221
  0
ARC
  5
354
100
AcDbEntity
  8
0
100
AcDbCircle
 62
7
  6
CONTINUOUS
 10
13.0209784714
 20
153.8311573329
 40
15.0402449702
100
AcDbArc
 50
10.4621340222
 51
19.2500782215
  0
ARC
  5
355
100
AcDbEntity
  8
0
100
AcDbCircle
 62
7
  6
CONTINUOUS
 10
13.0215424298
 20
180.8371634715
 40
15.0366673472
100
AcDbArc
 50
31.5343145195
 51
33.5362495943
  0
ARC
  5
356
100
AcDbEntity
  8
0
100
AcDbCircle
 62
7
  6
CONTINUOUS
 10
13.0215424299
 20
153.8372181049
 40
15.0366673471
100
AcDbArc
 50
31.5343145195
 51
33.5362495943
  0
ARC
  5
357
100
AcDbEntity
  8
0
100
AcDbCircle
 62
7
  6
CONTINUOUS
 10
46.5475374802
 20
184.8874822287
 40
15.0
100
AcDbArc
 50
159.1387956778
 51
200.8612043222
  0
ARC
  5
358
100
AcDbEntity
  8
0
100
AcDbCircle
 62
7
  6
CONTINUOUS
 10
13.1366497385
 20
180.938016572
 40
14.9174259824
100
AcDbArc
 50
31.3751489341
 51
33.6453492789
  0
ARC
  5
359
100
AcDbEntity
  8
0
100
AcDbCircle
 62
7
  6
CONTINUOUS
 10
13.1366497385
 20
153.9380712054
 40
14.9174259825
100
AcDbArc
 50
31.3751489341
 51
33.6453492789
  0
ARC
  5
35A
100
AcDbEntity
  8
0
100
AcDbCircle
 62
7
  6
CONTINUOUS
 10
42.6475374802
 20
184.8874822287
 40
4.25
100
AcDbArc
 50
218.3795042223
 51
141.606955981
  0
ARC
  5
35B
100
AcDbEntity
  8
0
100
AcDbCircle
 62
7
  6
CONTINUOUS
 10
46.0430865261
 20
191.1446139785
 40
2.9884722261
100
AcDbArc
 50
86.4050585606
 51
89.6468804017
  0
ARC
  5
35C
100
AcDbEntity
  8
0
100
AcDbCircle
 62
7
  6
CONTINUOUS
 10
35.1475374802
 20
185.8374822287
 40
1.5
100
AcDbArc
 50
90.0
 51
180.0
  0
ARC
  5
35D
100
AcDbEntity
  8
0
100
AcDbCircle
 62
7
  6
CONTINUOUS
 10
35.1475374802
 20
183.9374822287
 40
1.5
100
AcDbArc
 50
180.0
 51
269.9999999997
  0
ARC
  5
35E
100
AcDbEntity
  8
0
100
AcDbCircle
 62
7
  6
CONTINUOUS
 10
47.5475374802
 20
190.8874822287
 40
0.5
100
AcDbArc
 50
0.0
 51
90.0000000001
  0
ARC
  5
35F
100
AcDbEntity
  8
0
100
AcDbCircle
 62
7
  6
CONTINUOUS
 10
47.5475374802
 20
178.8874822287
 40
0.5
100
AcDbArc
 50
270.0000000002
 51
360.0
  0
ARC
  5
360
100
AcDbEntity
  8
0
100
AcDbCircle
 62
7
  6
CONTINUOUS
 10
291.2461010103
 20
130.3279159024
 40
260.1365305143
100
AcDbArc
 50
179.0448285971
 51
179.1820244214
  0
ARC
  5
361
100
AcDbEntity
  8
0
100
AcDbCircle
 62
7
  6
CONTINUOUS
 10
203.8395516244
 20
126.0942170565
 40
15.0
100
AcDbArc
 50
146.4045001929
 51
213.596488783
  0
ARC
  5
362
100
AcDbEntity
  8
0
100
AcDbCircle
 62
7
  6
CONTINUOUS
 10
203.8395516244
 20
153.0942168263
 40
15.0
100
AcDbArc
 50
149.3000497926
 51
152.7887404924
  0
ARC
  5
363
100
AcDbEntity
  8
0
100
AcDbCircle
 62
7
  6
CONTINUOUS
 10
203.8395516244
 20
153.0942162238
 40
15.0
100
AcDbArc
 50
170.6423123334
 51
186.0790387517
  0
ARC
  5
364
100
AcDbEntity
  8
0
100
AcDbCircle
 62
7
  6
CONTINUOUS
 10
170.8568585868
 20
115.7247081227
 40
3.0000791505
100
AcDbArc
 50
242.8450886341
 51
269.6551343694
  0
ARC
  5
365
100
AcDbEntity
  8
0
100
AcDbCircle
 62
7
  6
CONTINUOUS
 10
189.9451528794
 20
150.5874822287
 40
0.5
100
AcDbArc
 50
0.0
 51
90.0
  0
ARC
  5
366
100
AcDbEntity
  8
0
100
AcDbCircle
 62
7
  6
CONTINUOUS
 10
190.9451528794
 20
147.0874822287
 40
0.5
100
AcDbArc
 50
180.0
 51
270.0
  0
ARC
  5
367
100
AcDbEntity
  8
0
100
AcDbCircle
 62
7
  6
CONTINUOUS
 10
192.9451528794
 20
147.0874822287
 40
0.5
100
AcDbArc
 50
270.0
 51
360.0
  0
ARC
  5
368
100
AcDbEntity
  8
0
100
AcDbCircle
 62
7
  6
CONTINUOUS
 10
291.244354063
 20
157.3278895586
 40
260.1347833381
100
AcDbArc
 50
179.044828413
 51
179.1820140539
  0
ARC
  5
369
100
AcDbEntity
  8
0
100
AcDbCircle
 62
7
  6
CONTINUOUS
 10
291.2426071894
 20
184.3278632139
 40
260.1330362357
100
AcDbArc
 50
179.0448282289
 51
179.1820036864
  0
ARC
  5
36A
100
AcDbEntity
  8
0
100
AcDbCircle
 62
7
  6
CONTINUOUS
 10
203.8395516244
 20
180.0942159936
 40
15.0
100
AcDbArc
 50
146.4045001929
 51
213.596488783
  0
ARC
  5
36B
100
AcDbEntity
  8
0
100
AcDbCircle
 62
7
  6
CONTINUOUS
 10
188.2451528794
 20
153.5874822287
 40
2.5
100
AcDbArc
 50
90.0
 51
270.0
  0
ARC
  5
36C
100
AcDbEntity
  8
0
100
AcDbCircle
 62
7
  6
CONTINUOUS
 10
192.9451528794
 20
160.0874822287
 40
0.5
100
AcDbArc
 50
0.0
 51
90.0
  0
ARC
  5
36D
100
AcDbEntity
  8
0
100
AcDbCircle
 62
7
  6
CONTINUOUS
 10
190.9451528794
 20
160.0874822287
 40
0.5
100
AcDbArc
 50
90.0
 51
180.0
  0
ARC
  5
36E
100
AcDbEntity
  8
0
100
AcDbCircle
 62
7
  6
CONTINUOUS
 10
189.9451528794
 20
156.5874822287
 40
0.5
100
AcDbArc
 50
270.0
 51
360.0
  0
SPLINE
  5
36F
100
AcDbEntity
  8
0
100
AcDbSpline
 62
7
  6
CONTINUOUS
 70
0
 71
3
 72
11
 73
7
 74
0
 42
0.0000001
 43
0.0000001
 44
0.0000000001
 40
0.0
 40
0.0
 40
0.0
 40
0.0
 40
0.2307736805
 40
0.4999734988
 40
0.7691876006
 40
1.0
 40
1.0
 40
1.0
 40
1.0
 10
185.754587731
 20
118.3315649177
 30
0.0
 10
185.7744881057
 20
119.5257742043
 30
0.0
 10
185.8004154595
 20
122.1133179646
 30
0.0
 10
185.8129877962
 20
126.0942685991
 30
0.0
 10
185.8004143649
 20
130.0754196349
 30
0.0
 10
185.7744864843
 20
132.6632376872
 30
0.0
 10
185.754587731
 20
133.8576474192
 30
0.0
  0
LINE
  5
370
100
AcDbEntity
  8
0
100
AcDbLine
 62
7
  6
CONTINUOUS
 10
185.8085846634
 20
153.0330553779
 11
185.8084906325
 21
153.4490924747
  0
SPLINE
  5
371
100
AcDbEntity
  8
0
100
AcDbSpline
 62
7
  6
CONTINUOUS
 70
0
 71
3
 72
11
 73
7
 74
0
 42
0.0000001
 43
0.0000001
 44
0.0000000001
 40
0.0
 40
0.0
 40
0.0
 40
0.0
 40
0.2396570906
 40
0.5086454516
 40
0.7732286954
 40
1.0
 40
1.0
 40
1.0
 40
1.0
 10
185.7665374357
 20
173.1200858526
 30
0.0
 10
185.7827443562
 20
174.2973275776
 30
0.0
 10
185.8039619299
 20
176.7960711076
 30
0.0
 10
185.8122957598
 20
180.5946896837
 30
0.0
 10
185.7982559163
 20
184.329984832
 30
0.0
 10
185.7731451207
 20
186.7437517086
 30
0.0
 10
185.754587731
 20
187.8576469587
 30
0.0
  0
SPLINE
  5
372
100
AcDbEntity
  8
0
100
AcDbSpline
 62
7
  6
CONTINUOUS
 70
0
 71
3
 72
11
 73
7
 74
0
 42
0.0000001
 43
0.0000001
 44
0.0000000001
 40
0.0
 40
0.0
 40
0.0
 40
0.0
 40
0.2701133604
 40
0.5306933798
 40
0.7751009491
 40
1.0
 40
1.0
 40
1.0
 40
1.0
 10
28.0607541344
 20
126.9097887903
 30
0.0
 10
28.060754134
 20
126.1180427441
 30
0.0
 10
27.9370162165
 20
124.559666074
 30
0.0
 10
27.4063596969
 20
122.3418456527
 30
0.0
 10
26.6050942252
 20
120.3504393043
 30
0.0
 10
25.9194419554
 20
119.1525853048
 30
0.0
 10
25.5551528794
 20
118.6031686648
 30
0.0
  0
SPLINE
  5
373
100
AcDbEntity
  8
0
100
AcDbSpline
 62
7
  6
CONTINUOUS
 70
0
 71
3
 72
11
 73
7
 74
0
 42
0.0000001
 43
0.0000001
 44
0.0000000001
 40
0.0
 40
0.0
 40
0.0
 40
0.0
 40
0.2701133604
 40
0.5306933798
 40
0.7751009491
 40
1.0
 40
1.0
 40
1.0
 40
1.0
 10
28.0607541344
 20
153.9097341569
 30
0.0
 10
28.060754134
 20
153.1179881107
 30
0.0
 10
27.9370162165
 20
151.5596114406
 30
0.0
 10
27.4063596969
 20
149.3417910193
 30
0.0
 10
26.6050942252
 20
147.3503846709
 30
0.0
 10
25.9194419554
 20
146.1525306713
 30
0.0
 10
25.5551528794
 20
145.6031140314
 30
0.0
  0
SPLINE
  5
374
100
AcDbEntity
  8
0
100
AcDbSpline
 62
7
  6
CONTINUOUS
 70
0
 71
3
 72
11
 73
7
 74
0
 42
0.0000001
 43
0.0000001
 44
0.0000000001
 40
0.0
 40
0.0
 40
0.0
 40
0.0
 40
0.2701133604
 40
0.5306933798
 40
0.7751009491
 40
1.0
 40
1.0
 40
1.0
 40
1.0
 10
28.0607541344
 20
180.9096795235
 30
0.0
 10
28.060754134
 20
180.1179334773
 30
0.0
 10
27.9370162165
 20
178.5595568072
 30
0.0
 10
27.4063596969
 20
176.3417363859
 30
0.0
 10
26.6050942252
 20
174.3503300375
 30
0.0
 10
25.9194419554
 20
173.1524760379
 30
0.0
 10
25.5551528794
 20
172.603059398
 30
0.0
  0
LINE
  5
375
100
AcDbEntity
  8
0
100
AcDbLine
 62
7
  6
CONTINUOUS
 10
34.7236283143
 20
113.2511247674
 11
34.1501533337
 21
113.2461116939
  0
SPLINE
  5
376
100
AcDbEntity
  8
0
100
AcDbSpline
 62
7
  6
CONTINUOUS
 70
0
 71
3
 72
11
 73
7
 74
0
 42
0.0000001
 43
0.0000001
 44
0.0000000001
 40
0.0
 40
0.0
 40
0.0
 40
0.0
 40
0.2372819866
 40
0.5058048555
 40
0.7713710495
 40
1.0
 40
1.0
 40
1.0
 40
1.0
 10
31.1360813101
 20
188.0415858997
 30
0.0
 10
31.1192598218
 20
186.8683211413
 30
0.0
 10
31.0971670015
 20
184.3671236922
 30
0.0
 10
31.0878618911
 20
180.5526013571
 30
0.0
 10
31.1012427934
 20
176.7808835364
 30
0.0
 10
31.1261083217
 20
174.3371206423
 30
0.0
 10
31.1445899271
 20
173.2066765787
 30
0.0
  0
LINE
  5
377
100
AcDbEntity
  8
0
100
AcDbLine
 62
7
  6
CONTINUOUS
 10
31.1445899271
 20
173.2066765787
 11
31.1457180278
 21
173.1382609646
  0
SPLINE
  5
378
100
AcDbEntity
  8
0
100
AcDbSpline
 62
7
  6
CONTINUOUS
 70
0
 71
3
 72
11
 73
7
 74
0
 42
0.0000001
 43
0.0000001
 44
0.0000000001
 40
0.0
 40
0.0
 40
0.0
 40
0.0
 40
0.2372827935
 40
0.5058059361
 40
0.771371853
 40
1.0
 40
1.0
 40
1.0
 40
1.0
 10
31.1360805873
 20
161.0415901206
 30
0.0
 10
31.1192592485
 20
159.8683216683
 30
0.0
 10
31.0971666769
 20
157.3671195105
 30
0.0
 10
31.0878619247
 20
153.5525941719
 30
0.0
 10
31.1012431777
 20
149.7808813027
 30
0.0
 10
31.1261089399
 20
147.3371243761
 30
0.0
 10
31.1445906895
 20
146.2066845766
 30
0.0
  0
LINE
  5
379
100
AcDbEntity
  8
0
100
AcDbLine
 62
7
  6
CONTINUOUS
 10
31.1445906895
 20
146.2066845766
 11
31.1457180278
 21
146.138315598
  0
SPLINE
  5
37A
100
AcDbEntity
  8
0
100
AcDbSpline
 62
7
  6
CONTINUOUS
 70
0
 71
3
 72
11
 73
7
 74
0
 42
0.0000001
 43
0.0000001
 44
0.0000000001
 40
0.0
 40
0.0
 40
0.0
 40
0.0
 40
0.2372836003
 40
0.5058070166
 40
0.7713726565
 40
1.0
 40
1.0
 40
1.0
 40
1.0
 10
31.1360798645
 20
134.0415943412
 30
0.0
 10
31.1192586751
 20
132.8683221951
 30
0.0
 10
31.0971663523
 20
130.3671153288
 30
0.0
 10
31.0878619582
 20
126.5525869867
 30
0.0
 10
31.101243562
 20
122.7808790691
 30
0.0
 10
31.1261095582
 20
120.3371281101
 30
0.0
 10
31.144591452
 20
119.2066925748
 30
0.0
  0
LINE
  5
37B
100
AcDbEntity
  8
0
100
AcDbLine
 62
7
  6
CONTINUOUS
 10
31.144591452
 20
119.2066925748
 11
31.1457180278
 21
119.1383702314
  0
SPLINE
  5
37C
100
AcDbEntity
  8
0
100
AcDbSpline
 62
7
  6
CONTINUOUS
 70
0
 71
3
 72
11
 73
7
 74
0
 42
0.0000001
 43
0.0000001
 44
0.0000000001
 40
0.0
 40
0.0
 40
0.0
 40
0.0
 40
0.2277682416
 40
0.4729020151
 40
0.7322886688
 40
1.0
 40
1.0
 40
1.0
 40
1.0
 10
25.8728004068
 20
188.704615834
 30
0.0
 10
26.1966215971
 20
188.1736243459
 30
0.0
 10
26.8007738184
 20
187.0279548796
 30
0.0
 10
27.4987371402
 20
185.1478638076
 30
0.0
 10
27.9551293918
 20
183.0822207795
 30
0.0
 10
28.0607541347
 20
181.6406900375
 30
0.0
 10
28.0607541344
 20
180.9096795235
 30
0.0
  0
LINE
  5
37D
100
AcDbEntity
  8
0
100
AcDbLine
 62
7
  6
CONTINUOUS
 10
31.1331177388
 20
139.737049376
 11
31.2551514523
 21
139.7359440328
  0
SPLINE
  5
37E
100
AcDbEntity
  8
0
100
AcDbSpline
 62
7
  6
CONTINUOUS
 70
0
 71
3
 72
11
 73
7
 74
0
 42
0.0000001
 43
0.0000001
 44
0.0000000001
 40
0.0
 40
0.0
 40
0.0
 40
0.0
 40
0.2277682416
 40
0.4729020151
 40
0.7322886688
 40
1.0
 40
1.0
 40
1.0
 40
1.0
 10
25.8728004068
 20
161.7046704674
 30
0.0
 10
26.1966215971
 20
161.1736789793
 30
0.0
 10
26.8007738185
 20
160.028009513
 30
0.0
 10
27.4987371402
 20
158.147918441
 30
0.0
 10
27.9551293918
 20
156.0822754129
 30
0.0
 10
28.0607541347
 20
154.6407446709
 30
0.0
 10
28.0607541344
 20
153.9097341569
 30
0.0
  0
LINE
  5
37F
100
AcDbEntity
  8
0
100
AcDbLine
 62
7
  6
CONTINUOUS
 10
31.1331177388
 20
166.7369947426
 11
31.2551514523
 21
166.7358893994
  0
SPLINE
  5
380
100
AcDbEntity
  8
0
100
AcDbSpline
 62
7
  6
CONTINUOUS
 70
0
 71
3
 72
11
 73
7
 74
0
 42
0.0000001
 43
0.0000001
 44
0.0000000001
 40
0.0
 40
0.0
 40
0.0
 40
0.0
 40
0.2277682416
 40
0.4729020151
 40
0.7322886688
 40
1.0
 40
1.0
 40
1.0
 40
1.0
 10
25.8728004068
 20
134.7047251008
 30
0.0
 10
26.1966215971
 20
134.1737336127
 30
0.0
 10
26.8007738184
 20
133.0280641465
 30
0.0
 10
27.4987371402
 20
131.1479730744
 30
0.0
 10
27.9551293918
 20
129.0823300463
 30
0.0
 10
28.0607541347
 20
127.6407993043
 30
0.0
 10
28.0607541344
 20
126.9097887903
 30
0.0
  0
ELLIPSE
  5
381
100
AcDbEntity
  8
0
100
AcDbEllipse
 62
7
  6
CONTINUOUS
 10
13.0607541344
 20
181.7201822799
 30
0.0
 11
14.999999815
 21
0.0026336288
 31
0.0
 40
0.8944297133
 41
0.5438118538
 42
0.5862036969
  0
ELLIPSE
  5
382
100
AcDbEntity
  8
0
100
AcDbEllipse
 62
7
  6
CONTINUOUS
 10
13.0607541344
 20
154.7202369133
 30
0.0
 11
14.999999815
 21
0.0026336288
 31
0.0
 40
0.8944297133
 41
0.5438118538
 42
0.5862036969
  0
ELLIPSE
  5
383
100
AcDbEntity
  8
0
100
AcDbEllipse
 62
7
  6
CONTINUOUS
 10
13.0607541344
 20
127.7202915468
 30
0.0
 11
14.999999815
 21
0.0026336288
 31
0.0
 40
0.8944297133
 41
0.5438118538
 42
0.5862036969
  0
ENDSEC
  0
SECTION
  2
OBJECTS
  0
DICTIONARY
  5
C
100
AcDbDictionary
280
0
281
1
  3
ACAD_GROUP
350
D
  3
ACAD_MLINESTYLE
350
17
  3
ACAD_LAYOUT
350
1A
  3
ACAD_PLOTSETTINGS
350
19
  3
ACAD_PLOTSTYLENAME
350
E
  0
DICTIONARY
  5
D
102
{ACAD_REACTORS
330
C
102
}
100
AcDbDictionary
280
0
281
1
  0
ACDBDICTIONARYWDFLT
  5
E
102
{ACAD_REACTORS
330
C
102
}
100
AcDbDictionary
281
1
  3
Normal
350
F
100
AcDbDictionaryWithDefault
340
F
  0
DICTIONARY
  5
17
102
{ACAD_REACTORS
330
C
102
}
100
AcDbDictionary
280
0
281
1
  3
Standard
350
18
  0
DICTIONARY
  5
19
102
{ACAD_REACTORS
330
C
102
}
100
AcDbDictionary
281
1
  0
DICTIONARY
  5
1A
102
{ACAD_REACTORS
330
C
102
}
100
AcDbDictionary
281
1
  3
Model
350
384
  3
Layout1
350
385
  0
ACDBPLACEHOLDER
  5
F
102
{ACAD_REACTORS
330
E
102
}
  0
MLINESTYLE
  5
18
102
{ACAD_REACTORS
330
17
102
}
100
AcDbMlineStyle
  2
STANDARD
 70
0
  3

 62
256
 51
90.0
 52
90.0
 71
2
 49
0.5
 62
256
  6
BYLAYER
 49
-0.5
 62
256
  6
BYLAYER
  0
LAYOUT
  5
384
102
{ACAD_REACTORS
330
1A
102
}
100
AcDbPlotSettings
  1

  2
none_device
  4

  6

 40
0.0
 41
0.0
 42
0.0
 43
0.0
 44
210.0
 45
297.0
 46
0.0
 47
0.0
 48
0.0
 49
0.0
140
0.0
141
0.0
142
1.0
143
1.0
 70
1024
 72
1
 73
0
 74
0
  7

 75
0
147
1.0
148
0.0
149
0.0
100
AcDbLayout
  1
Model
 70
0
 71
0
 10
0.0
 20
0.0
 11
210.0
 21
297.0
 12
0.0
 22
0.0
 32
0.0
 14
0.0
 24
0.0
 34
0.0
 15
0.0
 25
0.0
 35
0.0
146
0.0
 13
0.0
 23
0.0
 33
0.0
 16
1.0
 26
0.0
 36
0.0
 17
0.0
 27
1.0
 37
0.0
 76
0
330
210
345
0
346
0
  0
LAYOUT
  5
385
102
{ACAD_REACTORS
330
1A
102
}
100
AcDbPlotSettings
  1

  2
none_device
  4

  6

 40
0.0
 41
0.0
 42
0.0
 43
0.0
 44
210.0
 45
297.0
 46
0.0
 47
0.0
 48
0.0
 49
0.0
140
0.0
141
0.0
142
1.0
143
1.0
 70
0
 72
1
 73
0
 74
0
  7

 75
0
147
1.0
148
0.0
149
0.0
100
AcDbLayout
  1
Layout1
 70
0
 71
1
 10
0.0
 20
0.0
 11
210.0
 21
297.0
 12
0.0
 22
0.0
 32
0.0
 14
0.0
 24
0.0
 34
0.0
 15
0.0
 25
0.0
 35
0.0
146
0.0
 13
0.0
 23
0.0
 33
0.0
 16
1.0
 26
0.0
 36
0.0
 17
0.0
 27
1.0
 37
0.0
 76
0
330
211
345
0
346
0
  0
ENDSEC
  0
EOF
