999
DXF file: C:\Users\sesa63760\Dev\_Creo\CAD\MCADPP0003332_3D-CAD\drw0001_4.dxf
999
Pro/ENGINEER 2019471 by Parametric Technology Corporation
  0
SECTION
  2
HEADER
  9
$ACADVER
  1
AC1024
  9
$DWGCODEPAGE
  3
ANSI_1252
  9
$EXTMAX
 10
212.7577090341
 20
300.9001884911
 30
0.0
  9
$EXTMIN
 10
0.0
 20
0.0
 30
0.0
  9
$LIMMIN
 10
0.0
 20
0.0
  9
$LIMMAX
 10
212.7577090341
 20
300.9001884911
  9
$VIEWCTR
 10
106.3788545171
 20
150.4500942456
  9
$VIEWSIZE
 40
300.9001884911
  9
$CLAYER
  8
0
  9
$LTSCALE
 40
19.6142345091
  9
$CELTYPE
  6
BYLAYER
  9
$DIMSCALE
 40
1.0
  9
$DIMASZ
 40
2.5328298695
  9
$DIMEXO
 40
1.0
  9
$DIMDLI
 40
13.5516529335
  9
$DIMEXE
 40
1.0
  9
$DIMCEN
 40
3.2096020106
  9
$DIMLFAC
 40
1.0
  9
$DIMBLK
  1
_FILLED
  9
$DIMALT
 70
0
  9
$DIMALTF
 40
0.0393700787
  9
$DIMTXT
 40
3.5459618172
  9
$DIMTOL
 70
1
  9
$DIMLIM
 70
0
  9
$DIMTFAC
 40
1.0
  9
$DIMTP
 40
0.01
  9
$DIMTM
 40
0.01
  9
$DIMGAP
 40
0.625
  9
$DIMDSEP
 70
46
  9
$AUNITS
 70
0
  9
$PDMODE
 70
3
  9
$PDSIZE
 40
0.3125
  9
$HANDSEED
  5
318
  9
$TILEMODE
 70
1
  9
$MEASUREMENT
 70
1
  9
$INSUNITS
 70
4
  0
ENDSEC
  0
SECTION
  2
CLASSES
  0
CLASS
  1
ACDBDICTIONARYWDFLT
  2
AcDbDictionaryWithDefault
  3
AutoCAD 2000
 90
0
 91
1
280
0
281
0
  0
CLASS
  1
ACDBPLACEHOLDER
  2
AcDbPlaceHolder
  3
AutoCAD 2000
 90
0
 91
1
280
0
281
0
  0
CLASS
  1
LAYOUT
  2
AcDbLayout
  3
AutoCAD 2000
 90
0
 91
0
280
0
281
0
  0
ENDSEC
  0
SECTION
  2
TABLES
  0
TABLE
  2
VPORT
  5
8
100
AcDbSymbolTable
 70
2
  0
VPORT
  5
1F4
100
AcDbSymbolTableRecord
100
AcDbViewportTableRecord
  2
*ACTIVE
 70
0
 10
0.0
 20
0.0
 11
1.0
 21
1.0
 12
106.3788545171
 22
150.4500942456
 13
0.0
 23
0.0
 14
1.0
 24
1.0
 15
0.0
 25
0.0
 16
0.0
 26
0.0
 36
1.0
 17
0.0
 27
0.0
 37
0.0
 40
300.9001884911
 41
0.7070707071
 42
50.0
 43
0.0
 44
0.0
 50
0.0
 51
0.0
 71
0
 72
100
 73
1
 74
1
 75
0
 76
0
 77
0
 78
0
  0
ENDTAB
  0
TABLE
  2
LTYPE
  5
5
100
AcDbSymbolTable
 70
6
  0
LTYPE
  5
14
100
AcDbSymbolTableRecord
100
AcDbLinetypeTableRecord
  2
BYBLOCK
 70
0
  3

 72
65
 73
0
 40
0.0
  0
LTYPE
  5
15
100
AcDbSymbolTableRecord
100
AcDbLinetypeTableRecord
  2
BYLAYER
 70
0
  3

 72
65
 73
0
 40
0.0
  0
LTYPE
  5
16
100
AcDbSymbolTableRecord
100
AcDbLinetypeTableRecord
  2
CONTINUOUS
 70
64
  3
Solid line
 72
65
 73
0
 40
0.0
  0
LTYPE
  5
1F5
100
AcDbSymbolTableRecord
100
AcDbLinetypeTableRecord
  2
CENTER
 70
64
  3
____ _ ____ _ ____ _ ____ _ ____ _ ____ _ ____
 72
65
 73
4
 40
0.6
 49
0.375
 74
0
 49
-0.075
 74
0
 49
0.075
 74
0
 49
-0.075
 74
0
  0
LTYPE
  5
1F6
100
AcDbSymbolTableRecord
100
AcDbLinetypeTableRecord
  2
HIDDEN
 70
64
  3
- - - - - - - - - - - - - - - - - - - -
 72
65
 73
2
 40
0.2
 49
0.1
 74
0
 49
-0.1
 74
0
  0
LTYPE
  5
1F7
100
AcDbSymbolTableRecord
100
AcDbLinetypeTableRecord
  2
PHANTOM
 70
64
  3
_____ _ _ _____ _ _ _____ _ _ _____
 72
65
 73
6
 40
0.8
 49
0.45
 74
0
 49
-0.05
 74
0
 49
0.1
 74
0
 49
-0.05
 74
0
 49
0.1
 74
0
 49
-0.05
 74
0
  0
LTYPE
  5
1F8
100
AcDbSymbolTableRecord
100
AcDbLinetypeTableRecord
  2
DOT
 70
64
  3
. . . . . . . . . . . . . . . . . . . .
 72
65
 73
2
 40
0.2
 49
0.1
 74
0
 49
-0.1
 74
0
  0
LTYPE
  5
1F9
100
AcDbSymbolTableRecord
100
AcDbLinetypeTableRecord
  2
DASHED
 70
64
  3
- - - - - - - - - - - - - - - - - - - -
 72
65
 73
2
 40
0.2
 49
0.1
 74
0
 49
-0.1
 74
0
  0
ENDTAB
  0
TABLE
  2
LAYER
  5
2
100
AcDbSymbolTable
 70
36
  0
LAYER
  5
10
100
AcDbSymbolTableRecord
100
AcDbLayerTableRecord
  2
0
 70
0
 62
7
  6
CONTINUOUS
370
-3
390
F
  0
LAYER
  5
1FA
100
AcDbSymbolTableRecord
100
AcDbLayerTableRecord
  2
DEFAULT_1
 70
0
 62
7
  6
CENTER
370
-3
390
F
  0
LAYER
  5
1FB
100
AcDbSymbolTableRecord
100
AcDbLayerTableRecord
  2
DEFAULT_2
 70
0
 62
8
  6
HIDDEN
370
-3
390
F
  0
LAYER
  5
1FC
100
AcDbSymbolTableRecord
100
AcDbLayerTableRecord
  2
DEFAULT_3
 70
0
 62
7
  6
PHANTOM
370
-3
390
F
  0
LAYER
  5
1FD
100
AcDbSymbolTableRecord
100
AcDbLayerTableRecord
  2
00_COMPONENTS
 70
0
 62
7
  6
CONTINUOUS
370
-3
390
F
  0
LAYER
  5
1FE
100
AcDbSymbolTableRecord
100
AcDbLayerTableRecord
  2
01_1_DEFAULT_DATUMS
 70
0
 62
7
  6
CONTINUOUS
370
-3
390
F
  0
LAYER
  5
1FF
100
AcDbSymbolTableRecord
100
AcDbLayerTableRecord
  2
01_PLANES
 70
0
 62
7
  6
CONTINUOUS
370
-3
390
F
  0
LAYER
  5
200
100
AcDbSymbolTableRecord
100
AcDbLayerTableRecord
  2
02_COORD_SYS
 70
0
 62
7
  6
CONTINUOUS
370
-3
390
F
  0
LAYER
  5
201
100
AcDbSymbolTableRecord
100
AcDbLayerTableRecord
  2
03_AXES
 70
0
 62
7
  6
CONTINUOUS
370
-3
390
F
  0
LAYER
  5
202
100
AcDbSymbolTableRecord
100
AcDbLayerTableRecord
  2
04_POINTS
 70
0
 62
7
  6
CONTINUOUS
370
-3
390
F
  0
LAYER
  5
203
100
AcDbSymbolTableRecord
100
AcDbLayerTableRecord
  2
05_CURVES
 70
0
 62
7
  6
CONTINUOUS
370
-3
390
F
  0
LAYER
  5
204
100
AcDbSymbolTableRecord
100
AcDbLayerTableRecord
  2
06_SURFS
 70
0
 62
7
  6
CONTINUOUS
370
-3
390
F
  0
LAYER
  5
205
100
AcDbSymbolTableRecord
100
AcDbLayerTableRecord
  2
07_COSMETICS
 70
0
 62
7
  6
CONTINUOUS
370
-3
390
F
  0
LAYER
  5
206
100
AcDbSymbolTableRecord
100
AcDbLayerTableRecord
  2
10_NOTES
 70
0
 62
7
  6
CONTINUOUS
370
-3
390
F
  0
LAYER
  5
207
100
AcDbSymbolTableRecord
100
AcDbLayerTableRecord
  2
11_NOTES_PUB
 70
0
 62
7
  6
CONTINUOUS
370
-3
390
F
  0
LAYER
  5
208
100
AcDbSymbolTableRecord
100
AcDbLayerTableRecord
  2
13_REF_GTOL
 70
0
 62
7
  6
CONTINUOUS
370
-3
390
F
  0
LAYER
  5
209
100
AcDbSymbolTableRecord
100
AcDbLayerTableRecord
  2
16_MISC
 70
0
 62
7
  6
CONTINUOUS
370
-3
390
F
  0
LAYER
  5
20A
100
AcDbSymbolTableRecord
100
AcDbLayerTableRecord
  2
17_NO_PRINT
 70
0
 62
7
  6
CONTINUOUS
370
-3
390
F
  0
LAYER
  5
20B
100
AcDbSymbolTableRecord
100
AcDbLayerTableRecord
  2
18_DATUM_CAMS_JOINTS
 70
0
 62
7
  6
CONTINUOUS
370
-3
390
F
  0
LAYER
  5
20C
100
AcDbSymbolTableRecord
100
AcDbLayerTableRecord
  2
19_DATUM_FUNCTIONAL
 70
0
 62
7
  6
CONTINUOUS
370
-3
390
F
  0
LAYER
  5
20D
100
AcDbSymbolTableRecord
100
AcDbLayerTableRecord
  2
20_DATUM_KINEMATIC_SCHEME
 70
0
 62
7
  6
CONTINUOUS
370
-3
390
F
  0
ENDTAB
  0
TABLE
  2
STYLE
  5
3
100
AcDbSymbolTable
 70
1
  0
STYLE
  5
11
100
AcDbSymbolTableRecord
100
AcDbTextStyleTableRecord
  2
STANDARD
 70
0
 40
0.0
 41
0.8
 50
0.0
 71
0
 42
0.2
  3
txt
  4

  0
STYLE
  5
20E
100
AcDbSymbolTableRecord
100
AcDbTextStyleTableRecord
  2
TEXTSTYLE_1
 70
0
 40
0.0
 41
0.8
 50
0.0
 71
0
 42
0.2
  3
gdt
  4

  0
ENDTAB
  0
TABLE
  2
VIEW
  5
6
100
AcDbSymbolTable
 70
0
  0
ENDTAB
  0
TABLE
  2
UCS
  5
7
100
AcDbSymbolTable
 70
0
  0
ENDTAB
  0
TABLE
  2
APPID
  5
9
100
AcDbSymbolTable
 70
1
  0
APPID
  5
20F
100
AcDbSymbolTableRecord
100
AcDbRegAppTableRecord
  2
ACAD
 70
0
  0
ENDTAB
  0
TABLE
  2
BLOCK_RECORD
  5
1
100
AcDbSymbolTable
 70
0
  0
BLOCK_RECORD
  5
210
100
AcDbSymbolTableRecord
100
AcDbBlockTableRecord
  2
*Model_Space
  0
BLOCK_RECORD
  5
211
100
AcDbSymbolTableRecord
100
AcDbBlockTableRecord
  2
*Paper_Space
  0
BLOCK_RECORD
  5
212
100
AcDbSymbolTableRecord
100
AcDbBlockTableRecord
  2
_FILLED
  0
ENDTAB
  0
TABLE
  2
DIMSTYLE
  5
A
100
AcDbSymbolTable
 70
1
100
AcDbDimStyleTable
 71
0
  0
DIMSTYLE
105
213
100
AcDbSymbolTableRecord
100
AcDbDimStyleTableRecord
  2
STANDARD
 70
0
  3

  4

 40
1.0
 41
2.5328298695
 42
1.0
 43
0.38
 44
1.0
 45
0.0
 46
0.0
 47
0.01
 48
0.01
140
3.5459618172
141
0.09
142
0.0
143
25.4
144
1.0
145
0.0
146
1.0
147
0.625
 71
1
 72
0
 73
0
 74
0
 75
0
 76
0
 77
1
 78
8
 79
2
170
0
171
1
172
0
173
0
174
0
175
0
176
0
177
0
178
0
270
2
179
2
271
2
272
2
273
2
274
2
275
0
280
0
281
0
282
0
283
1
284
8
285
0
286
0
287
3
288
0
340
11
278
46
341
212
342
212
343
212
344
212
  0
ENDTAB
  0
ENDSEC
  0
SECTION
  2
BLOCKS
  0
BLOCK
  5
20
100
AcDbEntity
  8
0
100
AcDbBlockBegin
  2
*Model_Space
 70
0
 10
0.0
 20
0.0
 30
0.0
  3
*Model_Space
  1

  0
ENDBLK
  5
21
100
AcDbEntity
  8
0
100
AcDbBlockEnd
  0
BLOCK
  5
1C
100
AcDbEntity
  8
0
100
AcDbBlockBegin
  2
*Paper_Space
 70
0
 10
0.0
 20
0.0
 30
0.0
  3
*Paper_Space
  1

  0
ENDBLK
  5
1D
100
AcDbEntity
  8
0
100
AcDbBlockEnd
  0
BLOCK
  5
214
100
AcDbEntity
  8
0
100
AcDbBlockBegin
  2
_FILLED
 70
64
 10
0.0
 20
0.0
  3
_FILLED
  1

  0
SOLID
  5
215
100
AcDbEntity
  8
0
  6
BYBLOCK
 62
0
100
AcDbTrace
 10
0.0
 20
0.0
 11
-1.0
 21
0.25
 12
-1.0
 22
-0.25
 13
-1.0
 23
-0.25
  0
ENDBLK
  5
216
100
AcDbEntity
  8
0
  6
BYBLOCK
 62
0
100
AcDbBlockEnd
  0
ENDSEC
  0
SECTION
  2
ENTITIES
  0
LINE
  5
217
100
AcDbEntity
  8
0
100
AcDbLine
 62
7
  6
CONTINUOUS
 10
26.2020385672
 20
144.892714291
 11
26.2020184662
 21
144.8930665586
  0
LINE
  5
218
100
AcDbEntity
  8
0
100
AcDbLine
 62
7
  6
CONTINUOUS
 10
23.6964373122
 20
106.7676605291
 11
23.6964373122
 21
106.9243973297
  0
LINE
  5
219
100
AcDbEntity
  8
0
100
AcDbLine
 62
7
  6
CONTINUOUS
 10
23.6964373122
 20
106.9269267379
 11
23.6964373122
 21
141.6978071449
  0
LINE
  5
21A
100
AcDbEntity
  8
0
100
AcDbLine
 62
7
  6
CONTINUOUS
 10
27.3964373122
 20
106.6173734656
 11
27.3964373122
 21
106.4544261707
  0
LINE
  5
21B
100
AcDbEntity
  8
0
100
AcDbLine
 62
7
  6
CONTINUOUS
 10
28.9025249241
 20
192.9010491136
 11
28.9546262494
 21
195.8857737163
  0
LINE
  5
21C
100
AcDbEntity
  8
0
100
AcDbLine
 62
7
  6
CONTINUOUS
 10
27.3964373122
 20
106.6173734656
 11
28.8670869316
 21
190.8705145089
  0
LINE
  5
21D
100
AcDbEntity
  8
0
100
AcDbLine
 62
7
  6
CONTINUOUS
 10
28.8673443251
 20
190.8705100205
 11
28.9021406057
 21
192.8659590023
  0
LINE
  5
21E
100
AcDbEntity
  8
0
100
AcDbLine
 62
7
  6
CONTINUOUS
 10
28.4217847995
 20
194.2074880982
 11
28.4348746027
 21
192.7075482487
  0
LINE
  5
21F
100
AcDbEntity
  8
0
100
AcDbLine
 62
7
  6
CONTINUOUS
 10
28.419170554
 20
194.6668607058
 11
28.4348783179
 21
192.8669328864
  0
LINE
  5
220
100
AcDbEntity
  8
0
100
AcDbLine
 62
7
  6
CONTINUOUS
 10
28.5333892023
 20
194.668331374
 11
28.5490969662
 21
192.8684035546
  0
LINE
  5
221
100
AcDbEntity
  8
0
100
AcDbLine
 62
7
  6
CONTINUOUS
 10
28.7322127827
 20
192.710746573
 11
28.7308325117
 21
192.8689121585
  0
LINE
  5
222
100
AcDbEntity
  8
0
100
AcDbLine
 62
7
  6
CONTINUOUS
 10
29.9751373929
 20
185.0926484725
 11
29.9636939598
 21
186.4039333724
  0
LINE
  5
223
100
AcDbEntity
  8
0
100
AcDbLine
 62
7
  6
CONTINUOUS
 10
30.3807295486
 20
194.6857602746
 11
30.3964373125
 21
192.8858324552
  0
LINE
  5
224
100
AcDbEntity
  8
0
100
AcDbLine
 62
7
  6
CONTINUOUS
 10
28.9546261876
 20
195.8858263848
 11
28.9546261876
 21
194.3989196952
  0
LINE
  5
225
100
AcDbEntity
  8
0
100
AcDbLine
 62
7
  6
CONTINUOUS
 10
29.1964373122
 20
106.4254616302
 11
29.1964373122
 21
106.5835930463
  0
LINE
  5
226
100
AcDbEntity
  8
0
100
AcDbLine
 62
7
  6
CONTINUOUS
 10
29.3964373122
 20
106.5801055558
 11
29.3964373122
 21
106.4896368273
  0
LINE
  5
227
100
AcDbEntity
  8
0
100
AcDbLine
 62
7
  6
CONTINUOUS
 10
29.6964373122
 20
93.1896368273
 11
29.6964373122
 21
106.4896368273
  0
LINE
  5
228
100
AcDbEntity
  8
0
100
AcDbLine
 62
7
  6
CONTINUOUS
 10
29.9751373929
 20
185.0926484725
 11
29.9751373929
 21
185.092601735
  0
LINE
  5
229
100
AcDbEntity
  8
0
100
AcDbLine
 62
7
  6
CONTINUOUS
 10
30.3964375354
 20
195.8858263848
 11
30.3964375354
 21
194.3989196952
  0
LINE
  5
22A
100
AcDbEntity
  8
0
100
AcDbLine
 62
7
  6
CONTINUOUS
 10
31.8964373122
 20
106.4896368273
 11
31.8964373122
 21
135.3462092584
  0
LINE
  5
22B
100
AcDbEntity
  8
0
100
AcDbLine
 62
7
  6
CONTINUOUS
 10
31.7611701339
 20
186.4195884703
 11
31.7610812061
 21
185.1082031294
  0
LINE
  5
22C
100
AcDbEntity
  8
0
100
AcDbLine
 62
7
  6
CONTINUOUS
 10
31.9068187436
 20
194.3988931792
 11
31.9154738712
 21
195.8857996882
  0
LINE
  5
22D
100
AcDbEntity
  8
0
100
AcDbLine
 62
7
  6
CONTINUOUS
 10
31.3937553163
 20
106.5476352731
 11
32.8656200343
 21
190.87053787
  0
LINE
  5
22E
100
AcDbEntity
  8
0
100
AcDbLine
 62
7
  6
CONTINUOUS
 10
32.9010662545
 20
192.9012463545
 11
32.9531620917
 21
195.8858073103
  0
LINE
  5
22F
100
AcDbEntity
  8
0
100
AcDbLine
 62
7
  6
CONTINUOUS
 10
39.9464373122
 20
192.9669452665
 11
39.9464373122
 21
190.6639163616
  0
LINE
  5
230
100
AcDbEntity
  8
0
100
AcDbLine
 62
7
  6
CONTINUOUS
 10
41.6408371591
 20
189.8878878551
 11
41.6408371591
 21
192.9817556417
  0
LINE
  5
231
100
AcDbEntity
  8
0
100
AcDbLine
 62
7
  6
CONTINUOUS
 10
43.5226169194
 20
193.0001522169
 11
43.5069091545
 21
194.8000800364
  0
LINE
  5
232
100
AcDbEntity
  8
0
100
AcDbLine
 62
7
  6
CONTINUOUS
 10
44.9921031888
 20
193.0121729041
 11
44.9763954249
 21
194.8121007235
  0
LINE
  5
233
100
AcDbEntity
  8
0
100
AcDbLine
 62
7
  6
CONTINUOUS
 10
45.1268272461
 20
194.8128903762
 11
45.14253501
 21
193.0129625568
  0
LINE
  5
234
100
AcDbEntity
  8
0
100
AcDbLine
 62
7
  6
CONTINUOUS
 10
47.1842279845
 20
185.207694275
 11
47.1840888389
 21
185.2236387417
  0
LINE
  5
235
100
AcDbEntity
  8
0
100
AcDbLine
 62
7
  6
CONTINUOUS
 10
47.1727847305
 20
186.5478338142
 11
47.1842281637
 21
185.2365489143
  0
LINE
  5
236
100
AcDbEntity
  8
0
100
AcDbLine
 62
7
  6
CONTINUOUS
 10
44.2032441885
 20
185.2165680034
 11
44.1970899314
 21
186.1305883909
  0
LINE
  5
237
100
AcDbEntity
  8
0
100
AcDbLine
 62
7
  6
CONTINUOUS
 10
43.5226169187
 20
194.3986892547
 11
43.5226169187
 21
195.8855959443
  0
LINE
  5
238
100
AcDbEntity
  8
0
100
AcDbLine
 62
7
  6
CONTINUOUS
 10
44.8788040868
 20
187.9621559714
 11
44.8788040868
 21
193.0097636286
  0
LINE
  5
239
100
AcDbEntity
  8
0
100
AcDbLine
 62
7
  6
CONTINUOUS
 10
46.2116879872
 20
194.3932322504
 11
46.2116879872
 21
195.88013894
  0
LINE
  5
23A
100
AcDbEntity
  8
0
100
AcDbLine
 62
7
  6
CONTINUOUS
 10
46.4771948451
 20
194.3686530313
 11
46.4771948451
 21
194.3376191608
  0
LINE
  5
23B
100
AcDbEntity
  8
0
100
AcDbLine
 62
7
  6
CONTINUOUS
 10
46.7964373122
 20
105.489636829
 11
46.7964373122
 21
104.4896368279
  0
LINE
  5
23C
100
AcDbEntity
  8
0
100
AcDbLine
 62
7
  6
CONTINUOUS
 10
46.8964373122
 20
105.6896420689
 11
46.8964373122
 21
104.689640685
  0
LINE
  5
23D
100
AcDbEntity
  8
0
100
AcDbLine
 62
7
  6
CONTINUOUS
 10
46.1350923841
 20
193.068732647
 11
46.1465593234
 21
194.3827105968
  0
LINE
  5
23E
100
AcDbEntity
  8
0
100
AcDbLine
 62
7
  6
CONTINUOUS
 10
45.6902452012
 20
187.4767301743
 11
45.6667477856
 21
186.1305589781
  0
LINE
  5
23F
100
AcDbEntity
  8
0
100
AcDbLine
 62
7
  6
CONTINUOUS
 10
46.4771948451
 20
194.3686530313
 11
46.3604604602
 21
195.8686774974
  0
LINE
  5
240
100
AcDbEntity
  8
0
100
AcDbLine
 62
7
  6
CONTINUOUS
 10
47.0285395649
 20
187.2508235878
 11
46.4771948451
 21
194.3376191608
  0
LINE
  5
241
100
AcDbEntity
  8
0
100
AcDbLine
 62
7
  6
CONTINUOUS
 10
47.0285395649
 20
187.1965087508
 11
47.0173366353
 21
187.3413803776
  0
LINE
  5
242
100
AcDbEntity
  8
0
100
AcDbLine
 62
7
  6
CONTINUOUS
 10
50.8964373119
 20
104.6896018124
 11
50.8964373122
 21
106.4896368273
  0
LINE
  5
243
100
AcDbEntity
  8
0
100
AcDbLine
 62
7
  6
CONTINUOUS
 10
51.1838543307
 20
104.2546755807
 11
51.1838543307
 21
195.7508385114
  0
LINE
  5
244
100
AcDbEntity
  8
0
100
AcDbLine
 62
7
  6
CONTINUOUS
 10
54.8520696123
 20
195.7508385114
 11
54.8520696123
 21
185.2508385114
  0
LINE
  5
245
100
AcDbEntity
  8
0
100
AcDbLine
 62
7
  6
CONTINUOUS
 10
87.9643007509
 20
93.1896368273
 11
86.4464373122
 21
93.1896368273
  0
LINE
  5
246
100
AcDbEntity
  8
0
100
AcDbLine
 62
7
  6
CONTINUOUS
 10
69.5464373122
 20
93.1896368273
 11
29.6964373122
 21
93.1896368273
  0
LINE
  5
247
100
AcDbEntity
  8
0
100
AcDbLine
 62
7
  6
CONTINUOUS
 10
128.4563641241
 20
93.2008385114
 11
126.7685141157
 21
93.2008385114
  0
LINE
  5
248
100
AcDbEntity
  8
0
100
AcDbLine
 62
7
  6
CONTINUOUS
 10
146.6423182493
 20
93.2008385114
 11
185.7864373122
 21
93.2008385114
  0
LINE
  5
249
100
AcDbEntity
  8
0
100
AcDbLine
 62
7
  6
CONTINUOUS
 10
194.5864373122
 20
93.3008385114
 11
185.7864373122
 21
93.3008385114
  0
LINE
  5
24A
100
AcDbEntity
  8
0
100
AcDbLine
 62
7
  6
CONTINUOUS
 10
185.7864373122
 20
95.7008385114
 11
194.5864373122
 21
95.7008385114
  0
LINE
  5
24B
100
AcDbEntity
  8
0
100
AcDbLine
 62
7
  6
CONTINUOUS
 10
89.5464373122
 20
97.6896368273
 11
92.2045115103
 21
96.4501564728
  0
LINE
  5
24C
100
AcDbEntity
  8
0
100
AcDbLine
 62
7
  6
CONTINUOUS
 10
125.1364373122
 20
98.6896368273
 11
89.5464373122
 21
98.6896368273
  0
LINE
  5
24D
100
AcDbEntity
  8
0
100
AcDbLine
 62
7
  6
CONTINUOUS
 10
145.238802507
 20
99.9008385114
 11
132.3457904573
 21
99.9008385114
  0
LINE
  5
24E
100
AcDbEntity
  8
0
100
AcDbLine
 62
7
  6
CONTINUOUS
 10
80.1464373126
 20
100.1896368273
 11
69.5464373122
 21
100.1896368273
  0
LINE
  5
24F
100
AcDbEntity
  8
0
100
AcDbLine
 62
7
  6
CONTINUOUS
 10
185.7864373122
 20
100.6008385114
 11
194.5864373122
 21
100.6008385114
  0
LINE
  5
250
100
AcDbEntity
  8
0
100
AcDbLine
 62
7
  6
CONTINUOUS
 10
69.0349298449
 20
195.7508385114
 11
69.0349298449
 21
198.2508385114
  0
LINE
  5
251
100
AcDbEntity
  8
0
100
AcDbLine
 62
7
  6
CONTINUOUS
 10
181.7891193081
 20
106.4719447688
 11
185.7864373122
 21
106.5417136525
  0
LINE
  5
252
100
AcDbEntity
  8
0
100
AcDbLine
 62
7
  6
CONTINUOUS
 10
166.2910138895
 20
105.0008385114
 11
166.3864373087
 21
105.0008385114
  0
LINE
  5
253
100
AcDbEntity
  8
0
100
AcDbLine
 62
7
  6
CONTINUOUS
 10
172.6864373122
 20
105.0008385114
 11
185.7864373122
 21
105.0008385114
  0
LINE
  5
254
100
AcDbEntity
  8
0
100
AcDbLine
 62
7
  6
CONTINUOUS
 10
29.3964373122
 20
106.4896368273
 11
46.4964373122
 21
106.4896368273
  0
LINE
  5
255
100
AcDbEntity
  8
0
100
AcDbLine
 62
7
  6
CONTINUOUS
 10
50.8964373121
 20
106.4896368273
 11
51.1838543307
 21
106.4896368273
  0
LINE
  5
256
100
AcDbEntity
  8
0
100
AcDbLine
 62
7
  6
CONTINUOUS
 10
167.3864372885
 20
106.5008385114
 11
180.7864373122
 21
106.5008385114
  0
LINE
  5
257
100
AcDbEntity
  8
0
100
AcDbLine
 62
7
  6
CONTINUOUS
 10
23.6964373122
 20
106.7676605291
 11
27.4018528867
 21
106.7676605291
  0
LINE
  5
258
100
AcDbEntity
  8
0
100
AcDbLine
 62
7
  6
CONTINUOUS
 10
23.6964373122
 20
106.8239420703
 11
27.4018528867
 21
106.8239420703
  0
LINE
  5
259
100
AcDbEntity
  8
0
100
AcDbLine
 62
7
  6
CONTINUOUS
 10
189.4864373122
 20
106.8520331903
 11
185.7810217377
 21
106.8520331903
  0
LINE
  5
25A
100
AcDbEntity
  8
0
100
AcDbLine
 62
7
  6
CONTINUOUS
 10
23.6964373122
 20
106.8782578224
 11
27.4018528867
 21
106.8782578224
  0
LINE
  5
25B
100
AcDbEntity
  8
0
100
AcDbLine
 62
7
  6
CONTINUOUS
 10
23.6964373122
 20
106.9269267379
 11
27.4018528867
 21
106.9269267379
  0
LINE
  5
25C
100
AcDbEntity
  8
0
100
AcDbLine
 62
7
  6
CONTINUOUS
 10
162.0039927961
 20
106.5008330873
 11
162.2914097834
 21
106.5007572551
  0
LINE
  5
25D
100
AcDbEntity
  8
0
100
AcDbLine
 62
7
  6
CONTINUOUS
 10
166.6914093067
 20
106.4995963579
 11
167.3864369124
 21
106.4994129816
  0
LINE
  5
25E
100
AcDbEntity
  8
0
100
AcDbLine
 62
7
  6
CONTINUOUS
 10
180.7864360033
 20
106.4958775218
 11
181.7891255527
 21
106.4956129719
  0
LINE
  5
25F
100
AcDbEntity
  8
0
100
AcDbLine
 62
7
  6
CONTINUOUS
 10
29.6951243784
 20
106.4143429245
 11
27.3964373122
 21
106.4544261707
  0
LINE
  5
260
100
AcDbEntity
  8
0
100
AcDbLine
 62
7
  6
CONTINUOUS
 10
29.6951644575
 20
106.4167550582
 11
29.1964456877
 21
106.4254650077
  0
LINE
  5
261
100
AcDbEntity
  8
0
100
AcDbLine
 62
7
  6
CONTINUOUS
 10
31.3937553163
 20
106.5476352731
 11
27.3964373122
 21
106.6173734656
  0
LINE
  5
262
100
AcDbEntity
  8
0
100
AcDbLine
 62
7
  6
CONTINUOUS
 10
69.5464373122
 20
100.1896368273
 11
69.5464373122
 21
93.1896368273
  0
LINE
  5
263
100
AcDbEntity
  8
0
100
AcDbLine
 62
7
  6
CONTINUOUS
 10
72.9964373136
 20
198.2508385114
 11
72.9964373136
 21
195.7508385114
  0
LINE
  5
264
100
AcDbEntity
  8
0
100
AcDbLine
 62
7
  6
CONTINUOUS
 10
86.4464373122
 20
93.1896368273
 11
86.4464373122
 21
93.8896368282
  0
LINE
  5
265
100
AcDbEntity
  8
0
100
AcDbLine
 62
7
  6
CONTINUOUS
 10
89.5464373122
 20
98.6896368273
 11
89.5464373122
 21
97.6896368273
  0
LINE
  5
266
100
AcDbEntity
  8
0
100
AcDbLine
 62
7
  6
CONTINUOUS
 10
92.2045115103
 20
96.4501564728
 11
92.2045115103
 21
95.5259669543
  0
LINE
  5
267
100
AcDbEntity
  8
0
100
AcDbLine
 62
7
  6
CONTINUOUS
 10
186.980836142
 20
144.8460029621
 11
185.1184317216
 21
144.8134945722
  0
LINE
  5
268
100
AcDbEntity
  8
0
100
AcDbLine
 62
7
  6
CONTINUOUS
 10
186.980836142
 20
144.8495288816
 11
185.1184317216
 21
144.8170204918
  0
LINE
  5
269
100
AcDbEntity
  8
0
100
AcDbLine
 62
7
  6
CONTINUOUS
 10
186.980836142
 20
144.8530548012
 11
185.1184317216
 21
144.8205464114
  0
LINE
  5
26A
100
AcDbEntity
  8
0
100
AcDbLine
 62
7
  6
CONTINUOUS
 10
185.1927969343
 20
140.5519038991
 11
189.4864373026
 21
140.62618049
  0
LINE
  5
26B
100
AcDbEntity
  8
0
100
AcDbLine
 62
7
  6
CONTINUOUS
 10
189.4864373122
 20
140.4148509363
 11
185.1951805698
 21
140.4148509363
  0
LINE
  5
26C
100
AcDbEntity
  8
0
100
AcDbLine
 62
7
  6
CONTINUOUS
 10
23.6964373122
 20
140.4896768571
 11
27.9876940546
 21
140.4896768571
  0
LINE
  5
26D
100
AcDbEntity
  8
0
100
AcDbLine
 62
7
  6
CONTINUOUS
 10
27.9900794838
 20
140.6185810564
 11
23.6964372908
 21
140.693526708
  0
LINE
  5
26E
100
AcDbEntity
  8
0
100
AcDbLine
 62
7
  6
CONTINUOUS
 10
28.0644424736
 20
144.8602302913
 11
26.2020184603
 21
144.8927389576
  0
LINE
  5
26F
100
AcDbEntity
  8
0
100
AcDbLine
 62
7
  6
CONTINUOUS
 10
126.7685141157
 20
93.2008385114
 11
125.1364373122
 21
96.7008385114
  0
LINE
  5
270
100
AcDbEntity
  8
0
100
AcDbLine
 62
7
  6
CONTINUOUS
 10
86.2608073657
 20
198.2508385114
 11
84.5322506091
 21
204.4084047573
  0
LINE
  5
271
100
AcDbEntity
  8
0
100
AcDbLine
 62
7
  6
CONTINUOUS
 10
167.4843724463
 20
187.4013243114
 11
171.9291386848
 21
190.0448609597
  0
LINE
  5
272
100
AcDbEntity
  8
0
100
AcDbLine
 62
7
  6
CONTINUOUS
 10
41.2447783277
 20
190.1203652168
 11
45.6902452012
 21
187.4767301743
  0
LINE
  5
273
100
AcDbEntity
  8
0
100
AcDbLine
 62
7
  6
CONTINUOUS
 10
91.123145696
 20
200.092805794
 11
91.8114822147
 21
198.2508385114
  0
LINE
  5
274
100
AcDbEntity
  8
0
100
AcDbLine
 62
7
  6
CONTINUOUS
 10
125.1364373122
 20
96.7008385114
 11
125.1364373122
 21
98.6896368273
  0
LINE
  5
275
100
AcDbEntity
  8
0
100
AcDbLine
 62
7
  6
CONTINUOUS
 10
128.4563641241
 20
94.2008385114
 11
128.4563641241
 21
93.2008385114
  0
LINE
  5
276
100
AcDbEntity
  8
0
100
AcDbLine
 62
7
  6
CONTINUOUS
 10
128.7964373122
 20
195.7508385114
 11
128.7964373122
 21
198.2508385114
  0
LINE
  5
277
100
AcDbEntity
  8
0
100
AcDbLine
 62
7
  6
CONTINUOUS
 10
90.836594297
 20
200.6099616661
 11
87.0427012073
 21
205.5559510817
  0
LINE
  5
278
100
AcDbEntity
  8
0
100
AcDbLine
 62
7
  6
CONTINUOUS
 10
146.6423182493
 20
93.2008385114
 11
145.2909430032
 21
96.9137114853
  0
LINE
  5
279
100
AcDbEntity
  8
0
100
AcDbLine
 62
7
  6
CONTINUOUS
 10
132.7579447795
 20
198.2508385114
 11
132.7579447795
 21
195.7508385114
  0
LINE
  5
27A
100
AcDbEntity
  8
0
100
AcDbLine
 62
7
  6
CONTINUOUS
 10
135.3498791225
 20
195.7508385114
 11
135.3511467427
 21
195.9041156951
  0
LINE
  5
27B
100
AcDbEntity
  8
0
100
AcDbLine
 62
7
  6
CONTINUOUS
 10
128.5576564023
 20
95.6493855754
 11
128.4563641241
 21
94.2008385114
  0
LINE
  5
27C
100
AcDbEntity
  8
0
100
AcDbLine
 62
7
  6
CONTINUOUS
 10
39.9084597296
 20
190.6661888758
 11
39.9082592057
 21
190.6662385579
  0
LINE
  5
27D
100
AcDbEntity
  8
0
100
AcDbLine
 62
7
  6
CONTINUOUS
 10
139.35100996
 20
195.8710363612
 11
139.3500159098
 21
195.7508385114
  0
LINE
  5
27E
100
AcDbEntity
  8
0
100
AcDbLine
 62
7
  6
CONTINUOUS
 10
92.2045115103
 20
95.5259669543
 11
90.5354511899
 21
94.125459055
  0
LINE
  5
27F
100
AcDbEntity
  8
0
100
AcDbLine
 62
7
  6
CONTINUOUS
 10
145.2909430032
 20
96.9137114853
 11
145.238802507
 21
99.9008385114
  0
LINE
  5
280
100
AcDbEntity
  8
0
100
AcDbLine
 62
7
  6
CONTINUOUS
 10
145.3864373122
 20
95.7008385114
 11
145.3864373122
 21
96.6513430275
  0
LINE
  5
281
100
AcDbEntity
  8
0
100
AcDbLine
 62
7
  6
CONTINUOUS
 10
180.8916480291
 20
190.7512599805
 11
180.8914371727
 21
190.7512493013
  0
LINE
  5
282
100
AcDbEntity
  8
0
100
AcDbLine
 62
7
  6
CONTINUOUS
 10
174.3057548508
 20
190.7347048485
 11
174.424071015
 21
190.7372456549
  0
LINE
  5
283
100
AcDbEntity
  8
0
100
AcDbLine
 62
7
  6
CONTINUOUS
 10
47.1842281637
 20
185.2236399576
 11
43.8640120345
 21
185.1946067085
  0
LINE
  5
284
100
AcDbEntity
  8
0
100
AcDbLine
 62
7
  6
CONTINUOUS
 10
31.7610812061
 20
185.1082031294
 11
29.9751373929
 21
185.0926484725
  0
LINE
  5
285
100
AcDbEntity
  8
0
100
AcDbLine
 62
7
  6
CONTINUOUS
 10
32.7651910117
 20
185.1169483202
 11
44.2027890944
 21
185.2165640398
  0
LINE
  5
286
100
AcDbEntity
  8
0
100
AcDbLine
 62
7
  6
CONTINUOUS
 10
29.9751372839
 20
185.0926017871
 11
31.7610812061
 21
185.1082031294
  0
LINE
  5
287
100
AcDbEntity
  8
0
100
AcDbLine
 62
7
  6
CONTINUOUS
 10
31.7611701337
 20
186.4195884703
 11
29.9636939598
 21
186.4039333724
  0
LINE
  5
288
100
AcDbEntity
  8
0
100
AcDbLine
 62
7
  6
CONTINUOUS
 10
174.424071015
 20
190.7372456549
 11
180.3179618773
 21
190.7495394859
  0
LINE
  5
289
100
AcDbEntity
  8
0
100
AcDbLine
 62
7
  6
CONTINUOUS
 10
32.7664593371
 20
185.1896368273
 11
51.1838543307
 21
185.1896368273
  0
LINE
  5
28A
100
AcDbEntity
  8
0
100
AcDbLine
 62
7
  6
CONTINUOUS
 10
51.1838543307
 20
185.2508385114
 11
54.8520696123
 21
185.2508385114
  0
LINE
  5
28B
100
AcDbEntity
  8
0
100
AcDbLine
 62
7
  6
CONTINUOUS
 10
180.3998267555
 20
186.0551379004
 11
167.5078700106
 21
186.0551497663
  0
LINE
  5
28C
100
AcDbEntity
  8
0
100
AcDbLine
 62
7
  6
CONTINUOUS
 10
44.1970900011
 20
186.1305884067
 11
45.666747162
 21
186.1305588283
  0
LINE
  5
28D
100
AcDbEntity
  8
0
100
AcDbLine
 62
7
  6
CONTINUOUS
 10
184.3159145926
 20
190.7959264101
 11
180.3173710423
 21
190.7959163039
  0
LINE
  5
28E
100
AcDbEntity
  8
0
100
AcDbLine
 62
7
  6
CONTINUOUS
 10
28.8670869316
 20
190.8705145089
 11
32.8656226584
 21
190.8705378242
  0
LINE
  5
28F
100
AcDbEntity
  8
0
100
AcDbLine
 62
7
  6
CONTINUOUS
 10
161.9938163162
 20
185.2008385114
 11
181.3121719559
 21
185.1957415507
  0
LINE
  5
290
100
AcDbEntity
  8
0
100
AcDbLine
 62
7
  6
CONTINUOUS
 10
184.3164637331
 20
190.7485778692
 11
180.8914370132
 21
190.7497500127
  0
LINE
  5
291
100
AcDbEntity
  8
0
100
AcDbLine
 62
7
  6
CONTINUOUS
 10
32.8648245847
 20
190.8256297918
 11
38.749492546
 21
190.8127912091
  0
LINE
  5
292
100
AcDbEntity
  8
0
100
AcDbLine
 62
7
  6
CONTINUOUS
 10
167.505029164
 20
186.4655843652
 11
166.0100898939
 21
186.4789697563
  0
LINE
  5
293
100
AcDbEntity
  8
0
100
AcDbLine
 62
7
  6
CONTINUOUS
 10
45.6916457315
 20
187.0848037291
 11
47.0285395649
 21
187.1888455392
  0
LINE
  5
294
100
AcDbEntity
  8
0
100
AcDbLine
 62
7
  6
CONTINUOUS
 10
47.0285395649
 20
187.1965087508
 11
45.6917796756
 21
187.0924773647
  0
LINE
  5
295
100
AcDbEntity
  8
0
100
AcDbLine
 62
7
  6
CONTINUOUS
 10
45.6926024992
 20
187.1396167918
 11
47.0285395649
 21
187.2435841428
  0
LINE
  5
296
100
AcDbEntity
  8
0
100
AcDbLine
 62
7
  6
CONTINUOUS
 10
47.0285395649
 20
187.2508235878
 11
45.6927290363
 21
187.1468660843
  0
LINE
  5
297
100
AcDbEntity
  8
0
100
AcDbLine
 62
7
  6
CONTINUOUS
 10
45.0492971669
 20
187.8607577893
 11
46.9695670838
 21
188.0101999912
  0
LINE
  5
298
100
AcDbEntity
  8
0
100
AcDbLine
 62
7
  6
CONTINUOUS
 10
46.2112875145
 20
194.393232251
 11
46.1964373122
 21
194.3926544009
  0
LINE
  5
299
100
AcDbEntity
  8
0
100
AcDbLine
 62
7
  6
CONTINUOUS
 10
167.0477822403
 20
193.0114072315
 11
168.0410469052
 21
193.0200753201
  0
LINE
  5
29A
100
AcDbEntity
  8
0
100
AcDbLine
 62
7
  6
CONTINUOUS
 10
168.0480285968
 20
193.820097933
 11
167.0408007461
 21
193.8113027529
  0
LINE
  5
29B
100
AcDbEntity
  8
0
100
AcDbLine
 62
7
  6
CONTINUOUS
 10
28.9011816368
 20
192.7122241056
 11
28.7322127827
 21
192.710746573
  0
LINE
  5
29C
100
AcDbEntity
  8
0
100
AcDbLine
 62
7
  6
CONTINUOUS
 10
168.0497741905
 20
194.0201231607
 11
167.0390553725
 21
194.0113027512
  0
LINE
  5
29D
100
AcDbEntity
  8
0
100
AcDbLine
 62
7
  6
CONTINUOUS
 10
30.3964373125
 20
192.8858324552
 11
43.52261473
 21
193.0001521977
  0
LINE
  5
29E
100
AcDbEntity
  8
0
100
AcDbLine
 62
7
  6
CONTINUOUS
 10
44.8451266124
 20
193.0097636286
 11
32.9009886564
 21
192.9053625547
  0
LINE
  5
29F
100
AcDbEntity
  8
0
100
AcDbLine
 62
7
  6
CONTINUOUS
 10
32.0571261283
 20
192.8979865386
 11
28.9027952832
 21
192.8704152288
  0
LINE
  5
2A0
100
AcDbEntity
  8
0
100
AcDbLine
 62
7
  6
CONTINUOUS
 10
43.5069069652
 20
194.8000800171
 11
30.3807295486
 21
194.6857602746
  0
LINE
  5
2A1
100
AcDbEntity
  8
0
100
AcDbLine
 62
7
  6
CONTINUOUS
 10
28.5490998048
 20
192.7080712022
 11
28.4349434886
 21
192.7075488492
  0
LINE
  5
2A2
100
AcDbEntity
  8
0
100
AcDbLine
 62
7
  6
CONTINUOUS
 10
184.280477064
 20
192.8176613036
 11
180.2819199929
 21
192.817428908
  0
LINE
  5
2A3
100
AcDbEntity
  8
0
100
AcDbLine
 62
7
  6
CONTINUOUS
 10
32.9010636304
 20
192.9012464003
 11
28.9025249241
 21
192.9010491136
  0
LINE
  5
2A4
100
AcDbEntity
  8
0
100
AcDbLine
 62
7
  6
CONTINUOUS
 10
169.3986296617
 20
194.3234044232
 11
169.6663609184
 21
194.3234025056
  0
LINE
  5
2A5
100
AcDbEntity
  8
0
100
AcDbLine
 62
7
  6
CONTINUOUS
 10
46.1964373122
 20
194.382275302
 11
45.1305851746
 21
194.382275302
  0
LINE
  5
2A6
100
AcDbEntity
  8
0
100
AcDbLine
 62
7
  6
CONTINUOUS
 10
30.3964375352
 20
194.3989196952
 11
31.9068187435
 21
194.3988931792
  0
LINE
  5
2A7
100
AcDbEntity
  8
0
100
AcDbLine
 62
7
  6
CONTINUOUS
 10
32.9272079863
 20
194.3988751896
 11
43.5226169188
 21
194.3986892547
  0
LINE
  5
2A8
100
AcDbEntity
  8
0
100
AcDbLine
 62
7
  6
CONTINUOUS
 10
28.9546261876
 20
194.3989196952
 11
31.9068187436
 21
194.3988931792
  0
LINE
  5
2A9
100
AcDbEntity
  8
0
100
AcDbLine
 62
7
  6
CONTINUOUS
 10
51.1838543307
 20
195.7508385114
 11
161.9864373122
 21
195.7508385114
  0
LINE
  5
2AA
100
AcDbEntity
  8
0
100
AcDbLine
 62
7
  6
CONTINUOUS
 10
184.2282484368
 20
195.8102937744
 11
169.6602577056
 21
195.810312155
  0
LINE
  5
2AB
100
AcDbEntity
  8
0
100
AcDbLine
 62
7
  6
CONTINUOUS
 10
166.8224153249
 20
195.8114122051
 11
166.9711866372
 21
195.8114122051
  0
LINE
  5
2AC
100
AcDbEntity
  8
0
100
AcDbLine
 62
7
  6
CONTINUOUS
 10
46.360461607
 20
195.8686924115
 11
46.2112874895
 21
195.8686927378
  0
LINE
  5
2AD
100
AcDbEntity
  8
0
100
AcDbLine
 62
7
  6
CONTINUOUS
 10
43.5226169187
 20
195.8855959443
 11
32.9531620917
 21
195.8857815754
  0
LINE
  5
2AE
100
AcDbEntity
  8
0
100
AcDbLine
 62
7
  6
CONTINUOUS
 10
30.3964375354
 20
195.8858263848
 11
31.9154689297
 21
195.885799717
  0
LINE
  5
2AF
100
AcDbEntity
  8
0
100
AcDbLine
 62
7
  6
CONTINUOUS
 10
28.9546261876
 20
195.8858263848
 11
30.3964375354
 21
195.8858263848
  0
LINE
  5
2B0
100
AcDbEntity
  8
0
100
AcDbLine
 62
7
  6
CONTINUOUS
 10
32.9531620917
 20
195.8858073103
 11
31.9154722235
 21
195.8858004763
  0
LINE
  5
2B1
100
AcDbEntity
  8
0
100
AcDbLine
 62
7
  6
CONTINUOUS
 10
169.6602577056
 20
195.810312155
 11
166.9715871099
 21
195.8106663976
  0
LINE
  5
2B2
100
AcDbEntity
  8
0
100
AcDbLine
 62
7
  6
CONTINUOUS
 10
166.9715455199
 20
194.323756712
 11
168.0868350699
 21
194.3234703583
  0
LINE
  5
2B3
100
AcDbEntity
  8
0
100
AcDbLine
 62
7
  6
CONTINUOUS
 10
162.0248406398
 20
195.6835211453
 11
161.9864373122
 21
195.6838387453
  0
LINE
  5
2B4
100
AcDbEntity
  8
0
100
AcDbLine
 62
7
  6
CONTINUOUS
 10
153.8850075364
 20
195.7508385114
 11
135.3511467427
 21
195.9041156951
  0
LINE
  5
2B5
100
AcDbEntity
  8
0
100
AcDbLine
 62
7
  6
CONTINUOUS
 10
46.1350923841
 20
193.068732647
 11
45.1430972555
 21
193.0773896399
  0
LINE
  5
2B6
100
AcDbEntity
  8
0
100
AcDbLine
 62
7
  6
CONTINUOUS
 10
46.1386193057
 20
193.4742852039
 11
45.1384329277
 21
193.4830136805
  0
LINE
  5
2B7
100
AcDbEntity
  8
0
100
AcDbLine
 62
7
  6
CONTINUOUS
 10
46.1424121137
 20
193.9088970715
 11
45.134639542
 21
193.9176917517
  0
LINE
  5
2B8
100
AcDbEntity
  8
0
100
AcDbLine
 62
7
  6
CONTINUOUS
 10
46.1429412261
 20
193.968133112
 11
45.1341225162
 21
193.9769369217
  0
LINE
  5
2B9
100
AcDbEntity
  8
0
100
AcDbLine
 62
7
  6
CONTINUOUS
 10
184.7479311141
 20
192.7932951595
 11
184.0708603899
 21
192.7991272241
  0
LINE
  5
2BA
100
AcDbEntity
  8
0
100
AcDbLine
 62
7
  6
CONTINUOUS
 10
184.0708603899
 20
192.7991272241
 11
182.7864270003
 21
192.8102973108
  0
LINE
  5
2BB
100
AcDbEntity
  8
0
100
AcDbLine
 62
7
  6
CONTINUOUS
 10
180.2817104506
 20
192.8321583043
 11
169.660257706
 21
192.9248626135
  0
LINE
  5
2BC
100
AcDbEntity
  8
0
100
AcDbLine
 62
7
  6
CONTINUOUS
 10
181.9705145837
 20
192.817418601
 11
182.7864270003
 21
192.8102973108
  0
LINE
  5
2BD
100
AcDbEntity
  8
0
100
AcDbLine
 62
7
  6
CONTINUOUS
 10
184.7610212309
 20
194.2932380286
 11
184.2546614286
 21
194.2975919176
  0
LINE
  5
2BE
100
AcDbEntity
  8
0
100
AcDbLine
 62
7
  6
CONTINUOUS
 10
184.7636809786
 20
194.6035727267
 11
184.249234147
 21
194.6080232571
  0
LINE
  5
2BF
100
AcDbEntity
  8
0
100
AcDbLine
 62
7
  6
CONTINUOUS
 10
169.3813191873
 20
194.4273561739
 11
168.0884578032
 21
194.438704343
  0
LINE
  5
2C0
100
AcDbEntity
  8
0
100
AcDbLine
 62
7
  6
CONTINUOUS
 10
168.0405506405
 20
192.9390836897
 11
169.6602847542
 21
192.9248623777
  0
LINE
  5
2C1
100
AcDbEntity
  8
0
100
AcDbLine
 62
7
  6
CONTINUOUS
 10
167.4891929874
 20
187.1251557009
 11
166.1543350595
 21
187.2290392789
  0
LINE
  5
2C2
100
AcDbEntity
  8
0
100
AcDbLine
 62
7
  6
CONTINUOUS
 10
166.2133192425
 20
187.9868555549
 11
168.2078786524
 21
187.831631569
  0
LINE
  5
2C3
100
AcDbEntity
  8
0
100
AcDbLine
 62
7
  6
CONTINUOUS
 10
161.9864373122
 20
195.7508385114
 11
161.9864373122
 21
104.5008385117
  0
LINE
  5
2C4
100
AcDbEntity
  8
0
100
AcDbLine
 62
7
  6
CONTINUOUS
 10
162.0247570268
 20
185.200830348
 11
162.0039927961
 21
106.5008330873
  0
LINE
  5
2C5
100
AcDbEntity
  8
0
100
AcDbLine
 62
7
  6
CONTINUOUS
 10
162.2604690729
 20
106.5007654185
 11
162.2600733319
 21
105.0008385114
  0
LINE
  5
2C6
100
AcDbEntity
  8
0
100
AcDbLine
 62
7
  6
CONTINUOUS
 10
162.2914097834
 20
106.5007572551
 11
162.2909348619
 21
104.7007223036
  0
LINE
  5
2C7
100
AcDbEntity
  8
0
100
AcDbLine
 62
7
  6
CONTINUOUS
 10
162.0041660561
 20
193.1836066344
 11
162.0248406398
 21
195.6835211453
  0
LINE
  5
2C8
100
AcDbEntity
  8
0
100
AcDbLine
 62
7
  6
CONTINUOUS
 10
166.1543350595
 20
187.2290392789
 11
166.8224153249
 21
195.8114122051
  0
LINE
  5
2C9
100
AcDbEntity
  8
0
100
AcDbLine
 62
7
  6
CONTINUOUS
 10
46.4771948451
 20
194.3376191608
 11
46.1459408204
 21
194.3118398001
  0
LINE
  5
2CA
100
AcDbEntity
  8
0
100
AcDbLine
 62
7
  6
CONTINUOUS
 10
46.4771948451
 20
194.3686530313
 11
46.1462125232
 21
194.3428948155
  0
LINE
  5
2CB
100
AcDbEntity
  8
0
100
AcDbLine
 62
7
  6
CONTINUOUS
 10
132.7579364316
 20
198.2508385114
 11
69.0349298449
 21
198.2508385114
  0
LINE
  5
2CC
100
AcDbEntity
  8
0
100
AcDbLine
 62
7
  6
CONTINUOUS
 10
166.7056797793
 20
194.3114122179
 11
167.0366621012
 21
194.2856539502
  0
LINE
  5
2CD
100
AcDbEntity
  8
0
100
AcDbLine
 62
7
  6
CONTINUOUS
 10
167.4843724463
 20
187.4013243114
 11
167.5078700106
 21
186.0551497663
  0
LINE
  5
2CE
100
AcDbEntity
  8
0
100
AcDbLine
 62
7
  6
CONTINUOUS
 10
167.0364373122
 20
194.3112635718
 11
167.0477822403
 21
193.0114072315
  0
LINE
  5
2CF
100
AcDbEntity
  8
0
100
AcDbLine
 62
7
  6
CONTINUOUS
 10
169.6602577057
 20
195.810312155
 11
169.6663597538
 21
194.3234024598
  0
LINE
  5
2D0
100
AcDbEntity
  8
0
100
AcDbLine
 62
7
  6
CONTINUOUS
 10
166.3864373102
 20
104.5008384986
 11
166.3864373102
 21
105.5008384777
  0
LINE
  5
2D1
100
AcDbEntity
  8
0
100
AcDbLine
 62
7
  6
CONTINUOUS
 10
166.9711866372
 20
194.323756712
 11
166.9711866372
 21
195.8106663977
  0
LINE
  5
2D2
100
AcDbEntity
  8
0
100
AcDbLine
 62
7
  6
CONTINUOUS
 10
167.0477822403
 20
193.0114725263
 11
167.0477822403
 21
193.0114072315
  0
LINE
  5
2D3
100
AcDbEntity
  8
0
100
AcDbLine
 62
7
  6
CONTINUOUS
 10
168.3040705376
 20
187.8888419509
 11
168.3040705376
 21
192.9367431255
  0
LINE
  5
2D4
100
AcDbEntity
  8
0
100
AcDbLine
 62
7
  6
CONTINUOUS
 10
166.2909344422
 20
104.6997196653
 11
166.2911982792
 21
105.6997071634
  0
LINE
  5
2D5
100
AcDbEntity
  8
0
100
AcDbLine
 62
7
  6
CONTINUOUS
 10
169.660257706
 20
192.9248626135
 11
169.6663597538
 21
194.3234024598
  0
LINE
  5
2D6
100
AcDbEntity
  8
0
100
AcDbLine
 62
7
  6
CONTINUOUS
 10
168.9803890013
 20
185.198995172
 11
168.9848905179
 21
186.0551503921
  0
LINE
  5
2D7
100
AcDbEntity
  8
0
100
AcDbLine
 62
7
  6
CONTINUOUS
 10
165.9989265935
 20
185.1997818019
 11
166.0100898939
 21
186.4789693144
  0
LINE
  5
2D8
100
AcDbEntity
  8
0
100
AcDbLine
 62
7
  6
CONTINUOUS
 10
168.0524216204
 20
194.3234885762
 11
168.040340118
 21
192.9390855269
  0
LINE
  5
2D9
100
AcDbEntity
  8
0
100
AcDbLine
 62
7
  6
CONTINUOUS
 10
168.2038605742
 20
194.4376816494
 11
168.1907703577
 21
192.9377387812
  0
LINE
  5
2DA
100
AcDbEntity
  8
0
100
AcDbLine
 62
7
  6
CONTINUOUS
 10
168.08845811
 20
194.438704339
 11
168.0868283664
 21
194.3234703589
  0
LINE
  5
2DB
100
AcDbEntity
  8
0
100
AcDbLine
 62
7
  6
CONTINUOUS
 10
171.5420374653
 20
192.908438392
 11
171.5420374653
 21
189.8146314706
  0
LINE
  5
2DC
100
AcDbEntity
  8
0
100
AcDbLine
 62
7
  6
CONTINUOUS
 10
172.6864373122
 20
105.0008385114
 11
172.6864373122
 21
93.2008385114
  0
LINE
  5
2DD
100
AcDbEntity
  8
0
100
AcDbLine
 62
7
  6
CONTINUOUS
 10
173.2364373122
 20
190.5648915057
 11
173.2364373122
 21
192.8936496271
  0
LINE
  5
2DE
100
AcDbEntity
  8
0
100
AcDbLine
 62
7
  6
CONTINUOUS
 10
180.2819199929
 20
192.817428908
 11
180.2297125327
 21
195.8102983355
  0
LINE
  5
2DF
100
AcDbEntity
  8
0
100
AcDbLine
 62
7
  6
CONTINUOUS
 10
181.7891193081
 20
106.4719447688
 11
181.2988117725
 21
134.5583540927
  0
LINE
  5
2E0
100
AcDbEntity
  8
0
100
AcDbLine
 62
7
  6
CONTINUOUS
 10
180.414825199
 20
185.195978307
 11
180.3998267555
 21
186.0551379004
  0
LINE
  5
2E1
100
AcDbEntity
  8
0
100
AcDbLine
 62
7
  6
CONTINUOUS
 10
184.2804850289
 20
192.8176614426
 11
184.2282484368
 21
195.8102937744
  0
LINE
  5
2E2
100
AcDbEntity
  8
0
100
AcDbLine
 62
7
  6
CONTINUOUS
 10
180.3172416186
 20
190.7959140448
 11
180.3180483814
 21
190.749541072
  0
LINE
  5
2E3
100
AcDbEntity
  8
0
100
AcDbLine
 62
7
  6
CONTINUOUS
 10
185.7864373122
 20
106.5417136525
 11
184.2808980016
 21
192.7973113726
  0
LINE
  5
2E4
100
AcDbEntity
  8
0
100
AcDbLine
 62
7
  6
CONTINUOUS
 10
180.7864373122
 20
106.5008385114
 11
180.7864373122
 21
105.0008385114
  0
LINE
  5
2E5
100
AcDbEntity
  8
0
100
AcDbLine
 62
7
  6
CONTINUOUS
 10
181.3121719559
 20
185.1957415507
 11
181.2914077251
 21
106.49574429
  0
LINE
  5
2E6
100
AcDbEntity
  8
0
100
AcDbLine
 62
7
  6
CONTINUOUS
 10
184.463673038
 20
194.2957848871
 11
184.4663813616
 21
194.6061280458
  0
LINE
  5
2E7
100
AcDbEntity
  8
0
100
AcDbLine
 62
7
  6
CONTINUOUS
 10
184.633780928
 20
192.7942605715
 11
184.6468702947
 21
194.2942034471
  0
LINE
  5
2E8
100
AcDbEntity
  8
0
100
AcDbLine
 62
7
  6
CONTINUOUS
 10
184.7637040704
 20
194.6035725252
 11
184.7480000217
 21
192.7932945582
  0
LINE
  5
2E9
100
AcDbEntity
  8
0
100
AcDbLine
 62
7
  6
CONTINUOUS
 10
185.7864373122
 20
105.0008385114
 11
185.7864373122
 21
93.2008385114
  0
LINE
  5
2EA
100
AcDbEntity
  8
0
100
AcDbLine
 62
7
  6
CONTINUOUS
 10
189.4864373122
 20
140.4148509363
 11
189.4864373122
 21
106.8520331903
  0
LINE
  5
2EB
100
AcDbEntity
  8
0
100
AcDbLine
 62
7
  6
CONTINUOUS
 10
189.4864373122
 20
140.4290563514
 11
189.4864373122
 21
141.6333086692
  0
LINE
  5
2EC
100
AcDbEntity
  8
0
100
AcDbLine
 62
7
  6
CONTINUOUS
 10
194.5864373122
 20
93.3008385114
 11
194.5864373122
 21
100.6008385114
  0
ARC
  5
2ED
100
AcDbEntity
  8
0
100
AcDbCircle
 62
7
  6
CONTINUOUS
 10
105.6937145692
 20
155.4878257489
 40
54.0
100
AcDbArc
 50
111.2547158294
 51
112.5379716537
  0
ARC
  5
2EE
100
AcDbEntity
  8
0
100
AcDbCircle
 62
7
  6
CONTINUOUS
 10
80.1464373122
 20
93.8896368273
 40
6.3
100
AcDbArc
 50
0.0000000085
 51
89.9999999965
  0
ARC
  5
2EF
100
AcDbEntity
  8
0
100
AcDbCircle
 62
7
  6
CONTINUOUS
 10
38.7036558579
 20
185.7958498945
 40
5.017150701
100
AcDbArc
 50
76.1077157815
 51
89.4765384838
  0
ARC
  5
2F0
100
AcDbEntity
  8
0
100
AcDbCircle
 62
7
  6
CONTINUOUS
 10
133.5454766536
 20
95.3006032067
 40
5.0
100
AcDbArc
 50
126.8586612009
 51
176.0000000004
  0
ARC
  5
2F1
100
AcDbEntity
  8
0
100
AcDbCircle
 62
7
  6
CONTINUOUS
 10
87.9643007509
 20
97.1896368273
 40
4.0
100
AcDbArc
 50
270.0
 51
310.000000004
  0
ARC
  5
2F2
100
AcDbEntity
  8
0
100
AcDbCircle
 62
7
  6
CONTINUOUS
 10
132.3457904573
 20
96.9008385114
 40
3.0
100
AcDbArc
 50
90.0
 51
126.8586611994
  0
ARC
  5
2F3
100
AcDbEntity
  8
0
100
AcDbCircle
 62
7
  6
CONTINUOUS
 10
147.7864373122
 20
95.7008385114
 40
2.4
100
AcDbArc
 50
180.0
 51
236.8129476063
  0
ARC
  5
2F4
100
AcDbEntity
  8
0
100
AcDbCircle
 62
7
  6
CONTINUOUS
 10
164.1864373122
 20
104.5008385114
 40
2.2
100
AcDbArc
 50
179.9999999921
 51
359.9999996661
  0
ARC
  5
2F5
100
AcDbEntity
  8
0
100
AcDbCircle
 62
7
  6
CONTINUOUS
 10
48.9964373122
 20
104.4896368273
 40
2.2
100
AcDbArc
 50
179.9999999831
 51
353.869085155
  0
ARC
  5
2F6
100
AcDbEntity
  8
0
100
AcDbCircle
 62
7
  6
CONTINUOUS
 10
89.249684504
 20
199.392703555
 40
2.0
100
AcDbArc
 50
20.4904994927
 51
37.4904299358
  0
ARC
  5
2F7
100
AcDbEntity
  8
0
100
AcDbCircle
 62
7
  6
CONTINUOUS
 10
164.2909346542
 20
104.7002296372
 40
2.0
100
AcDbArc
 50
179.9858860896
 51
359.9858864638
  0
ARC
  5
2F8
100
AcDbEntity
  8
0
100
AcDbCircle
 62
7
  6
CONTINUOUS
 10
48.8964373122
 20
104.6896368273
 40
2.0
100
AcDbArc
 50
179.9998894839
 51
359.9989969446
  0
ARC
  5
2F9
100
AcDbEntity
  8
0
100
AcDbCircle
 62
7
  6
CONTINUOUS
 10
167.2911981695
 20
105.6994380816
 40
1.0
100
AcDbArc
 50
126.8547786887
 51
179.9845827532
  0
ARC
  5
2FA
100
AcDbEntity
  8
0
100
AcDbCircle
 62
7
  6
CONTINUOUS
 10
45.8964373122
 20
105.6896368273
 40
1.0
100
AcDbArc
 50
0.0003003145
 51
53.1301023542
  0
ARC
  5
2FB
100
AcDbEntity
  8
0
100
AcDbCircle
 62
7
  6
CONTINUOUS
 10
167.3864373122
 20
105.5008385114
 40
1.0
100
AcDbArc
 50
90.0000013566
 51
180.0000019307
  0
ARC
  5
2FC
100
AcDbEntity
  8
0
100
AcDbCircle
 62
7
  6
CONTINUOUS
 10
45.7964373122
 20
105.4896368273
 40
1.0
100
AcDbArc
 50
0.0000000978
 51
90.0000000978
  0
ARC
  5
2FD
100
AcDbEntity
  8
0
100
AcDbCircle
 62
7
  6
CONTINUOUS
 10
85.3024453658
 20
204.6247379461
 40
0.8
100
AcDbArc
 50
112.5424987465
 51
195.6841731703
  0
ARC
  5
2FE
100
AcDbEntity
  8
0
100
AcDbCircle
 62
7
  6
CONTINUOUS
 10
86.4079300754
 20
205.0690572429
 40
0.8
100
AcDbArc
 50
37.4895916502
 51
111.2547218417
  0
SPLINE
  5
2FF
100
AcDbEntity
  8
0
100
AcDbSpline
 62
7
  6
CONTINUOUS
 70
0
 71
3
 72
25
 73
21
 74
0
 42
0.0000001
 43
0.0000001
 44
0.0000000001
 40
0.0
 40
0.0
 40
0.0
 40
0.0
 40
0.0011988215
 40
0.0026970194
 40
0.0047955775
 40
0.0107939244
 40
0.0191759752
 40
0.029912074
 40
0.0429723648
 40
0.0583269694
 40
0.0759459998
 40
0.117828713
 40
0.1681906508
 40
0.2265460418
 40
0.2923791431
 40
0.365025435
 40
0.443774224
 40
0.6166189797
 40
0.804563885
 40
1.0
 40
1.0
 40
1.0
 40
1.0
 10
45.1425283785
 20
193.0129624988
 30
0.0
 10
45.1425347199
 20
193.0128438165
 30
0.0
 10
45.1420720957
 20
193.0129843785
 30
0.0
 10
45.1416982512
 20
193.0128849036
 30
0.0
 10
45.140689665
 20
193.0129012046
 30
0.0
 10
45.1390993668
 20
193.0128280751
 30
0.0
 10
45.1365891178
 20
193.0127947704
 30
0.0
 10
45.1334074468
 20
193.0127325502
 30
0.0
 10
45.1295236095
 20
193.0126730338
 30
0.0
 10
45.1249612638
 20
193.0126047916
 30
0.0
 10
45.1175402789
 20
193.012501783
 30
0.0
 10
45.1066495026
 20
193.0123611925
 30
0.0
 10
45.0917199353
 20
193.0121813823
 30
0.0
 10
45.0744160973
 20
193.0119836715
 30
0.0
 10
45.0549029736
 20
193.0117702137
 30
0.0
 10
45.0333680857
 20
193.0115429888
 30
0.0
 10
45.0012244958
 20
193.0112143484
 30
0.0
 10
44.9576505635
 20
193.0107877447
 30
0.0
 10
44.9025085188
 20
193.0102727643
 30
0.0
 10
44.8645014869
 20
193.0099330476
 30
0.0
 10
44.8451266124
 20
193.0097636286
 30
0.0
  0
SPLINE
  5
300
100
AcDbEntity
  8
0
100
AcDbSpline
 62
7
  6
CONTINUOUS
 70
0
 71
3
 72
9
 73
5
 74
0
 42
0.0000001
 43
0.0000001
 44
0.0000000001
 40
0.0
 40
0.0
 40
0.0
 40
0.0
 40
0.2348002681
 40
1.0
 40
1.0
 40
1.0
 40
1.0
 10
44.9763896545
 20
194.8121006833
 30
0.0
 10
44.8613774551
 20
194.8112300561
 30
0.0
 10
44.3715481846
 20
194.8074349437
 30
0.0
 10
43.881721222
 20
194.8033443857
 30
0.0
 10
43.5069069652
 20
194.8000800171
 30
0.0
  0
LINE
  5
301
100
AcDbEntity
  8
0
100
AcDbLine
 62
7
  6
CONTINUOUS
 10
28.9426078815
 20
194.6724496536
 11
28.9209251549
 21
194.6722360691
  0
LINE
  5
302
100
AcDbEntity
  8
0
100
AcDbLine
 62
7
  6
CONTINUOUS
 10
28.9209251549
 20
194.6722360691
 11
28.5334087671
 21
194.6683315718
  0
SPLINE
  5
303
100
AcDbEntity
  8
0
100
AcDbSpline
 62
7
  6
CONTINUOUS
 70
0
 71
3
 72
22
 73
18
 74
0
 42
0.0000001
 43
0.0000001
 44
0.0000000001
 40
0.0
 40
0.0
 40
0.0
 40
0.0
 40
0.2171583123
 40
0.4140923445
 40
0.5866994052
 40
0.7320261618
 40
0.7937078656
 40
0.8476955309
 40
0.8937915952
 40
0.931811448
 40
0.9615705223
 40
0.9732948611
 40
0.9828941521
 40
0.9903656714
 40
0.9957075319
 40
0.9989182548
 40
1.0
 40
1.0
 40
1.0
 40
1.0
 10
44.9920974178
 20
193.0121728639
 30
0.0
 10
45.0029865213
 20
193.0122552933
 30
0.0
 10
45.0237506379
 20
193.0124089734
 30
0.0
 10
45.0531699867
 20
193.0126147843
 30
0.0
 10
45.0789875407
 20
193.0127821125
 30
0.0
 10
45.0980230171
 20
193.0128925875
 30
0.0
 10
45.1111105964
 20
193.0129582066
 30
0.0
 10
45.1192220721
 20
193.0129932916
 30
0.0
 10
45.1261477915
 20
193.0130178424
 30
0.0
 10
45.1318565127
 20
193.0130294674
 30
0.0
 10
45.1358467499
 20
193.0130343096
 30
0.0
 10
45.1384028715
 20
193.0130244405
 30
0.0
 10
45.1398581775
 20
193.0130273018
 30
0.0
 10
45.1409526132
 20
193.0129939838
 30
0.0
 10
45.1418227
 20
193.0130374443
 30
0.0
 10
45.1421884936
 20
193.0129283902
 30
0.0
 10
45.1425254842
 20
193.0130166657
 30
0.0
 10
45.1425283785
 20
193.0129624988
 30
0.0
  0
LINE
  5
304
100
AcDbEntity
  8
0
100
AcDbLine
 62
7
  6
CONTINUOUS
 10
28.5491189888
 20
192.8684037789
 11
28.8895307749
 21
192.8718426325
  0
SPLINE
  5
305
100
AcDbEntity
  8
0
100
AcDbSpline
 62
7
  6
CONTINUOUS
 70
0
 71
3
 72
9
 73
5
 74
0
 42
0.0000001
 43
0.0000001
 44
0.0000000001
 40
0.0
 40
0.0
 40
0.0
 40
0.0
 40
0.2342262176
 40
1.0
 40
1.0
 40
1.0
 40
1.0
 10
28.8895307749
 20
192.8718426325
 30
0.0
 10
29.0071824118
 20
192.8730084986
 30
0.0
 10
29.5094825029
 20
192.8778938272
 30
0.0
 10
30.0117855906
 20
192.8824688918
 30
0.0
 10
30.3964373125
 20
192.8858324552
 30
0.0
  0
SPLINE
  5
306
100
AcDbEntity
  8
0
100
AcDbSpline
 62
7
  6
CONTINUOUS
 70
0
 71
3
 72
9
 73
5
 74
0
 42
0.0000001
 43
0.0000001
 44
0.0000000001
 40
0.0
 40
0.0
 40
0.0
 40
0.0
 40
0.2610562532
 40
1.0
 40
1.0
 40
1.0
 40
1.0
 10
43.52261473
 20
193.0001521977
 30
0.0
 10
43.6504867105
 20
193.0012658728
 30
0.0
 10
44.1403126505
 20
193.0054678218
 30
0.0
 10
44.6301406536
 20
193.0094328989
 30
0.0
 10
44.9920974178
 20
193.0121728639
 30
0.0
  0
SPLINE
  5
307
100
AcDbEntity
  8
0
100
AcDbSpline
 62
7
  6
CONTINUOUS
 70
0
 71
3
 72
9
 73
5
 74
0
 42
0.0000001
 43
0.0000001
 44
0.0000000001
 40
0.0
 40
0.0
 40
0.0
 40
0.0
 40
0.4999810101
 40
1.0
 40
1.0
 40
1.0
 40
1.0
 10
171.9291386848
 20
190.0448609597
 30
0.0
 10
172.2872314457
 20
190.2559672625
 30
0.0
 10
173.0593656348
 20
190.5898531181
 30
0.0
 10
173.8902515617
 20
190.7213042277
 30
0.0
 10
174.3057515404
 20
190.734806718
 30
0.0
  0
LINE
  5
308
100
AcDbEntity
  8
0
100
AcDbLine
 62
7
  6
CONTINUOUS
 10
180.3179618773
 20
190.7495394859
 11
180.8914368579
 21
190.7513228656
  0
SPLINE
  5
309
100
AcDbEntity
  8
0
100
AcDbSpline
 62
7
  6
CONTINUOUS
 70
0
 71
3
 72
26
 73
22
 74
0
 42
0.0000001
 43
0.0000001
 44
0.0000000001
 40
0.0
 40
0.0
 40
0.0
 40
0.0
 40
0.2107313359
 40
0.403253393
 40
0.574462724
 40
0.6510803733
 40
0.7211668878
 40
0.7842997251
 40
0.8400527103
 40
0.8880112271
 40
0.9278293635
 40
0.9445853028
 40
0.9591855472
 40
0.9715905661
 40
0.9817739005
 40
0.9897208226
 40
0.9954170197
 40
0.9974166237
 40
0.9988481793
 40
0.9997098984
 40
1.0
 40
1.0
 40
1.0
 40
1.0
 10
189.4864373122
 20
141.6333086692
 30
0.0
 10
189.3183413411
 20
141.8649845891
 30
0.0
 10
188.9926506561
 20
142.305410058
 30
0.0
 10
188.5192100528
 20
142.92567866
 30
0.0
 10
188.1507831359
 20
143.3968739721
 30
0.0
 10
187.88233258
 20
143.7351081748
 30
0.0
 10
187.7042665127
 20
143.9576591345
 30
0.0
 10
187.5432019817
 20
144.1575156352
 30
0.0
 10
187.4004634467
 20
144.3335377703
 30
0.0
 10
187.277319286
 20
144.4846764306
 30
0.0
 10
187.1874117187
 20
144.5945701422
 30
0.0
 10
187.1261000511
 20
144.6693157191
 30
0.0
 10
187.0883678812
 20
144.715245941
 30
0.0
 10
187.0562987294
 20
144.7542685377
 30
0.0
 10
187.0299242375
 20
144.7862910425
 30
0.0
 10
187.0094292234
 20
144.8113049469
 30
0.0
 10
186.9957824404
 20
144.8276598533
 30
0.0
 10
186.9880995156
 20
144.8373009025
 30
0.0
 10
186.9840758655
 20
144.8416934635
 30
0.0
 10
186.9824177866
 20
144.844603416
 30
0.0
 10
186.9808360572
 20
144.8456092028
 30
0.0
 10
186.9808360572
 20
144.8460032447
 30
0.0
  0
LINE
  5
30A
100
AcDbEntity
  8
0
100
AcDbLine
 62
7
  6
CONTINUOUS
 10
169.398631584
 20
194.3234043061
 11
169.3813205317
 21
194.4273561695
  0
SPLINE
  5
30B
100
AcDbEntity
  8
0
100
AcDbSpline
 62
7
  6
CONTINUOUS
 70
0
 71
3
 72
26
 73
22
 74
0
 42
0.0000001
 43
0.0000001
 44
0.0000000001
 40
0.0
 40
0.0
 40
0.0
 40
0.0
 40
0.0003272703
 40
0.0012228709
 40
0.0026866588
 40
0.0047170921
 40
0.0104709709
 40
0.0184703568
 40
0.0287008804
 40
0.0411476812
 40
0.0557841074
 40
0.0725707497
 40
0.1124345353
 40
0.1604188707
 40
0.2161797144
 40
0.279303712
 40
0.3493655004
 40
0.4259435917
 40
0.5970395658
 40
0.7894213834
 40
1.0
 40
1.0
 40
1.0
 40
1.0
 10
26.20201829
 20
144.8927391455
 30
0.0
 10
26.2015752872
 20
144.8927425888
 30
0.0
 10
26.200590461
 20
144.8909601179
 30
0.0
 10
26.1979940745
 20
144.8888081498
 30
0.0
 10
26.194162188
 20
144.8840400802
 30
0.0
 10
26.1859312981
 20
144.87474226
 30
0.0
 10
26.1721306943
 20
144.8583308296
 30
0.0
 10
26.1511844083
 20
144.8335735572
 30
0.0
 10
26.1245118434
 20
144.8017272415
 30
0.0
 10
26.0921296785
 20
144.7629691367
 30
0.0
 10
26.0541343656
 20
144.7173271891
 30
0.0
 10
25.992506346
 20
144.6430716085
 30
0.0
 10
25.9023063176
 20
144.5338639103
 30
0.0
 10
25.77894163
 20
144.3836232869
 30
0.0
 10
25.6361170592
 20
144.2086210372
 30
0.0
 10
25.4750881603
 20
144.0099025533
 30
0.0
 10
25.2971705579
 20
143.7886016843
 30
0.0
 10
25.0290803515
 20
143.4522641963
 30
0.0
 10
24.6613291336
 20
142.9836261609
 30
0.0
 10
24.1889625276
 20
142.3665675593
 30
0.0
 10
23.8640973906
 20
141.9283411517
 30
0.0
 10
23.6964373122
 20
141.6978071449
 30
0.0
  0
SPLINE
  5
30C
100
AcDbEntity
  8
0
100
AcDbSpline
 62
7
  6
CONTINUOUS
 70
0
 71
3
 72
26
 73
22
 74
0
 42
0.0000001
 43
0.0000001
 44
0.0000000001
 40
0.0
 40
0.0
 40
0.0
 40
0.0
 40
0.0003059604
 40
0.0012079022
 40
0.0027080285
 40
0.0048067195
 40
0.0108003307
 40
0.019179585
 40
0.0299165613
 40
0.042981265
 40
0.0583436797
 40
0.0759735397
 40
0.1178597161
 40
0.1682147391
 40
0.2265826092
 40
0.2923965879
 40
0.3650333438
 40
0.443809323
 40
0.6166556347
 40
0.8044861282
 40
1.0
 40
1.0
 40
1.0
 40
1.0
 10
46.2116367568
 20
195.8801389407
 30
0.0
 10
46.2116222966
 20
195.8804128067
 30
0.0
 10
46.2099394604
 20
195.8800599123
 30
0.0
 10
46.2080919512
 20
195.8806015804
 30
0.0
 10
46.2037338086
 20
195.8804842901
 30
0.0
 10
46.1953357287
 20
195.880825265
 30
0.0
 10
46.180425831
 20
195.8809390327
 30
0.0
 10
46.1579909246
 20
195.8812453505
 30
0.0
 10
46.1291191187
 20
195.8814779722
 30
0.0
 10
46.0940251847
 20
195.8817378997
 30
0.0
 10
46.0527394168
 20
195.8819852226
 30
0.0
 10
45.9856244624
 20
195.8823348549
 30
0.0
 10
45.88714154
 20
195.8827443291
 30
0.0
 10
45.7521442274
 20
195.8831932738
 30
0.0
 10
45.5956985955
 20
195.8836147992
 30
0.0
 10
45.4192807603
 20
195.8840055356
 30
0.0
 10
45.2245699657
 20
195.8843607871
 30
0.0
 10
44.9339207871
 20
195.884795552
 30
0.0
 10
44.5400176107
 20
195.885214745
 30
0.0
 10
44.0414763377
 20
195.8855203927
 30
0.0
 10
43.6978657219
 20
195.8855928677
 30
0.0
 10
43.5226169187
 20
195.8855959443
 30
0.0
  0
SPLINE
  5
30D
100
AcDbEntity
  8
0
100
AcDbSpline
 62
7
  6
CONTINUOUS
 70
0
 71
3
 72
22
 73
18
 74
0
 42
0.0000001
 43
0.0000001
 44
0.0000000001
 40
0.0
 40
0.0
 40
0.0
 40
0.0
 40
0.0010820707
 40
0.0043032047
 40
0.0096586873
 40
0.0171401519
 40
0.0267388247
 40
0.0384458202
 40
0.0681490413
 40
0.1061534253
 40
0.1522644392
 40
0.2062632813
 40
0.2679311295
 40
0.413256741
 40
0.585787611
 40
0.7826673524
 40
1.0
 40
1.0
 40
1.0
 40
1.0
 10
47.1727847305
 20
186.5478338142
 30
0.0
 10
47.1727847346
 20
186.5483729385
 30
0.0
 10
47.1693588529
 20
186.5474923669
 30
0.0
 10
47.165783087
 20
186.5485804409
 30
0.0
 10
47.1570812292
 20
186.548146712
 30
0.0
 10
47.1462127693
 20
186.5484788534
 30
0.0
 10
47.1317506634
 20
186.5484511103
 30
0.0
 10
47.1063931338
 20
186.5485506595
 30
0.0
 10
47.066788988
 20
186.5485047256
 30
0.0
 10
47.0100969136
 20
186.548390513
 30
0.0
 10
46.9412783676
 20
186.5481475947
 30
0.0
 10
46.8606779333
 20
186.5478000493
 30
0.0
 10
46.7306435341
 20
186.5471500938
 30
0.0
 10
46.5415553079
 20
186.5460546695
 30
0.0
 10
46.2851014621
 20
186.5443958848
 30
0.0
 10
45.9927732984
 20
186.5423544587
 30
0.0
 10
45.7864042847
 20
186.5408292079
 30
0.0
 10
45.6781248998
 20
186.5400106127
 30
0.0
  0
SPLINE
  5
30E
100
AcDbEntity
  8
0
100
AcDbSpline
 62
7
  6
CONTINUOUS
 70
0
 71
3
 72
9
 73
5
 74
0
 42
0.0000001
 43
0.0000001
 44
0.0000000001
 40
0.0
 40
0.0
 40
0.0
 40
0.0
 40
0.2676791176
 40
1.0
 40
1.0
 40
1.0
 40
1.0
 10
43.5226169188
 20
194.3986892547
 30
0.0
 10
43.6681431252
 20
194.3986866999
 30
0.0
 10
44.2118022744
 20
194.3985855817
 30
0.0
 10
44.7554614671
 20
194.398172994
 30
0.0
 10
45.1535939518
 20
194.3975566644
 30
0.0
  0
SPLINE
  5
30F
100
AcDbEntity
  8
0
100
AcDbSpline
 62
7
  6
CONTINUOUS
 70
0
 71
3
 72
21
 73
17
 74
0
 42
0.0000001
 43
0.0000001
 44
0.0000000001
 40
0.0
 40
0.0
 40
0.0
 40
0.0
 40
0.2215888064
 40
0.4198432725
 40
0.5922014378
 40
0.7363946239
 40
0.797350371
 40
0.8505797032
 40
0.8959085191
 40
0.9332121044
 40
0.9623679189
 40
0.9832543455
 40
0.9905690653
 40
0.9957967538
 40
0.9989384871
 40
1.0
 40
1.0
 40
1.0
 40
1.0
 10
45.1535939518
 20
194.3975566644
 30
0.0
 10
45.2317460695
 20
194.3974356809
 30
0.0
 10
45.3798204426
 20
194.3971808732
 30
0.0
 10
45.5886837961
 20
194.3967302306
 30
0.0
 10
45.7702496585
 20
194.3962366965
 30
0.0
 10
45.9033931282
 20
194.3957765644
 30
0.0
 10
45.9945178157
 20
194.3953782384
 30
0.0
 10
46.0507807018
 20
194.3950951485
 30
0.0
 10
46.0986833088
 20
194.3947927878
 30
0.0
 10
46.1381468329
 20
194.3945290312
 30
0.0
 10
46.1688534374
 20
194.3941567652
 30
0.0
 10
46.1892850145
 20
194.3940565079
 30
0.0
 10
46.2007985219
 20
194.3936145395
 30
0.0
 10
46.2067797587
 20
194.3938227231
 30
0.0
 10
46.2093039834
 20
194.3930636421
 30
0.0
 10
46.2116170167
 20
194.3936061155
 30
0.0
 10
46.2116367568
 20
194.3932322511
 30
0.0
  0
SPLINE
  5
310
100
AcDbEntity
  8
0
100
AcDbSpline
 62
7
  6
CONTINUOUS
 70
0
 71
3
 72
26
 73
22
 74
0
 42
0.0000001
 43
0.0000001
 44
0.0000000001
 40
0.0
 40
0.0
 40
0.0
 40
0.0
 40
0.1953458143
 40
0.3831614673
 40
0.5560034273
 40
0.6347884099
 40
0.70746243
 40
0.7732983152
 40
0.8316950253
 40
0.8820843956
 40
0.923976111
 40
0.9416186015
 40
0.9569985837
 40
0.970071076
 40
0.9808024337
 40
0.9891759142
 40
0.9951762066
 40
0.9972816769
 40
0.9987882427
 40
0.9996942836
 40
1.0
 40
1.0
 40
1.0
 40
1.0
 10
44.2027890944
 20
185.2165640398
 30
0.0
 10
44.3969250037
 20
185.2182558562
 30
0.0
 10
44.7777139476
 20
185.2215005757
 30
0.0
 10
45.3302764641
 20
185.2259867323
 30
0.0
 10
45.7670010719
 20
185.2293354223
 30
0.0
 10
46.0892972271
 20
185.2316672828
 30
0.0
 10
46.3052493295
 20
185.2331592521
 30
0.0
 10
46.5009396098
 20
185.2344344857
 30
0.0
 10
46.6744835998
 20
185.2354823031
 30
0.0
 10
46.8242312423
 20
185.2362926614
 30
0.0
 10
46.9334780362
 20
185.2367923657
 30
0.0
 10
47.0079289212
 20
185.2370548919
 30
0.0
 10
47.0537439249
 20
185.2371808442
 30
0.0
 10
47.0926748689
 20
185.2372325467
 30
0.0
 10
47.1246864912
 20
185.2372538701
 30
0.0
 10
47.1495537071
 20
185.2371309498
 30
0.0
 10
47.16610459
 20
185.2371498088
 30
0.0
 10
47.1754233491
 20
185.2368528578
 30
0.0
 10
47.1802977309
 20
185.2370278196
 30
0.0
 10
47.1823150409
 20
185.2364419002
 30
0.0
 10
47.1842281659
 20
185.2368527487
 30
0.0
 10
47.1842281637
 20
185.2365489143
 30
0.0
  0
SPLINE
  5
311
100
AcDbEntity
  8
0
100
AcDbSpline
 62
7
  6
CONTINUOUS
 70
0
 71
3
 72
9
 73
5
 74
0
 42
0.0000001
 43
0.0000001
 44
0.0000000001
 40
0.0
 40
0.0
 40
0.0
 40
0.0
 40
0.2348123284
 40
1.0
 40
1.0
 40
1.0
 40
1.0
 10
45.6701113575
 20
186.1297252049
 30
0.0
 10
45.554816898
 20
186.129868563
 30
0.0
 10
45.063809942
 20
186.130384891
 30
0.0
 10
44.5728026727
 20
186.1305824606
 30
0.0
 10
44.1970900011
 20
186.1305884067
 30
0.0
  0
SPLINE
  5
312
100
AcDbEntity
  8
0
100
AcDbSpline
 62
7
  6
CONTINUOUS
 70
0
 71
3
 72
9
 73
5
 74
0
 42
0.0000001
 43
0.0000001
 44
0.0000000001
 40
0.0
 40
0.0
 40
0.0
 40
0.0
 40
0.2503055532
 40
1.0
 40
1.0
 40
1.0
 40
1.0
 10
39.9082602852
 20
190.6662430336
 30
0.0
 10
40.0254108915
 20
190.6372178611
 30
0.0
 10
40.4891161171
 20
190.5044183918
 30
0.0
 10
40.9333655097
 20
190.3039303695
 30
0.0
 10
41.2447783277
 20
190.1203652168
 30
0.0
  0
SPLINE
  5
313
100
AcDbEntity
  8
0
100
AcDbSpline
 62
7
  6
CONTINUOUS
 70
0
 71
3
 72
18
 73
14
 74
0
 42
0.0000001
 43
0.0000001
 44
0.0000000001
 40
0.0
 40
0.0
 40
0.0
 40
0.0
 40
0.0048552437
 40
0.0192003617
 40
0.0429322594
 40
0.0759301251
 40
0.1178574672
 40
0.1682225968
 40
0.2922825413
 40
0.4436205422
 40
0.6166376413
 40
0.8048975692
 40
1.0
 40
1.0
 40
1.0
 40
1.0
 10
28.4348967905
 20
192.7075484418
 30
0.0
 10
28.4350528485
 20
192.7080036149
 30
0.0
 10
28.4377360141
 20
192.7070678361
 30
0.0
 10
28.4412432813
 20
192.7081045948
 30
0.0
 10
28.448708095
 20
192.7076824848
 30
0.0
 10
28.4583000952
 20
192.7080556689
 30
0.0
 10
28.4707863708
 20
192.7081263065
 30
0.0
 10
28.4921941893
 20
192.7084257625
 30
0.0
 10
28.5244975672
 20
192.7087576634
 30
0.0
 10
28.5689273786
 20
192.7092280266
 30
0.0
 10
28.6197307912
 20
192.7097219994
 30
0.0
 10
28.6748679466
 20
192.7102378582
 30
0.0
 10
28.7128600474
 20
192.7105773398
 30
0.0
 10
28.732195083
 20
192.7107464182
 30
0.0
  0
ELLIPSE
  5
314
100
AcDbEntity
  8
0
100
AcDbEllipse
 62
7
  6
CONTINUOUS
 10
28.7191248625
 20
194.6694783727
 30
0.0
 11
0.2999543085
 21
0.0026176669
 31
0.0
 40
0.0020118477
 41
2.2384400798
 42
3.1415925549
  0
ELLIPSE
  5
315
100
AcDbEntity
  8
0
100
AcDbEllipse
 62
7
  6
CONTINUOUS
 10
28.7348326264
 20
192.8695505532
 30
0.0
 11
0.2999543085
 21
0.0026176669
 31
0.0
 40
0.0020118477
 41
2.2384283667
 42
3.141592555
  0
ENDSEC
  0
SECTION
  2
OBJECTS
  0
DICTIONARY
  5
C
100
AcDbDictionary
280
0
281
1
  3
ACAD_GROUP
350
D
  3
ACAD_MLINESTYLE
350
17
  3
ACAD_LAYOUT
350
1A
  3
ACAD_PLOTSETTINGS
350
19
  3
ACAD_PLOTSTYLENAME
350
E
  0
DICTIONARY
  5
D
102
{ACAD_REACTORS
330
C
102
}
100
AcDbDictionary
280
0
281
1
  0
ACDBDICTIONARYWDFLT
  5
E
102
{ACAD_REACTORS
330
C
102
}
100
AcDbDictionary
281
1
  3
Normal
350
F
100
AcDbDictionaryWithDefault
340
F
  0
DICTIONARY
  5
17
102
{ACAD_REACTORS
330
C
102
}
100
AcDbDictionary
280
0
281
1
  3
Standard
350
18
  0
DICTIONARY
  5
19
102
{ACAD_REACTORS
330
C
102
}
100
AcDbDictionary
281
1
  0
DICTIONARY
  5
1A
102
{ACAD_REACTORS
330
C
102
}
100
AcDbDictionary
281
1
  3
Model
350
316
  3
Layout1
350
317
  0
ACDBPLACEHOLDER
  5
F
102
{ACAD_REACTORS
330
E
102
}
  0
MLINESTYLE
  5
18
102
{ACAD_REACTORS
330
17
102
}
100
AcDbMlineStyle
  2
STANDARD
 70
0
  3

 62
256
 51
90.0
 52
90.0
 71
2
 49
0.5
 62
256
  6
BYLAYER
 49
-0.5
 62
256
  6
BYLAYER
  0
LAYOUT
  5
316
102
{ACAD_REACTORS
330
1A
102
}
100
AcDbPlotSettings
  1

  2
none_device
  4

  6

 40
0.0
 41
0.0
 42
0.0
 43
0.0
 44
210.0
 45
297.0
 46
0.0
 47
0.0
 48
0.0
 49
0.0
140
0.0
141
0.0
142
1.0
143
1.0
 70
1024
 72
1
 73
0
 74
0
  7

 75
0
147
1.0
148
0.0
149
0.0
100
AcDbLayout
  1
Model
 70
0
 71
0
 10
0.0
 20
0.0
 11
210.0
 21
297.0
 12
0.0
 22
0.0
 32
0.0
 14
0.0
 24
0.0
 34
0.0
 15
0.0
 25
0.0
 35
0.0
146
0.0
 13
0.0
 23
0.0
 33
0.0
 16
1.0
 26
0.0
 36
0.0
 17
0.0
 27
1.0
 37
0.0
 76
0
330
210
345
0
346
0
  0
LAYOUT
  5
317
102
{ACAD_REACTORS
330
1A
102
}
100
AcDbPlotSettings
  1

  2
none_device
  4

  6

 40
0.0
 41
0.0
 42
0.0
 43
0.0
 44
210.0
 45
297.0
 46
0.0
 47
0.0
 48
0.0
 49
0.0
140
0.0
141
0.0
142
1.0
143
1.0
 70
0
 72
1
 73
0
 74
0
  7

 75
0
147
1.0
148
0.0
149
0.0
100
AcDbLayout
  1
Layout1
 70
0
 71
1
 10
0.0
 20
0.0
 11
210.0
 21
297.0
 12
0.0
 22
0.0
 32
0.0
 14
0.0
 24
0.0
 34
0.0
 15
0.0
 25
0.0
 35
0.0
146
0.0
 13
0.0
 23
0.0
 33
0.0
 16
1.0
 26
0.0
 36
0.0
 17
0.0
 27
1.0
 37
0.0
 76
0
330
211
345
0
346
0
  0
ENDSEC
  0
EOF
