999
DXF file: C:\Users\sesa63760\Dev\_Creo\CAD\MCADPP0003050_3D-CAD\drw0001_2.dxf
999
Pro/ENGINEER 2019471 by Parametric Technology Corporation
  0
SECTION
  2
HEADER
  9
$ACADVER
  1
AC1024
  9
$DWGCODEPAGE
  3
ANSI_1252
  9
$EXTMAX
 10
81.8060782113
 20
115.697167756
 30
0.0
  9
$EXTMIN
 10
0.0
 20
0.0
 30
0.0
  9
$LIMMIN
 10
0.0
 20
0.0
  9
$LIMMAX
 10
81.8060782113
 20
115.697167756
  9
$VIEWCTR
 10
40.9030391057
 20
57.848583878
  9
$VIEWSIZE
 40
115.697167756
  9
$CLAYER
  8
0
  9
$LTSCALE
 40
7.5417413056
  9
$CELTYPE
  6
BYLAYER
  9
$DIMSCALE
 40
1.0
  9
$DIMASZ
 40
0.9738818835
  9
$DIMEXO
 40
1.0
  9
$DIMDLI
 40
5.2106576293
  9
$DIMEXE
 40
1.0
  9
$DIMCEN
 40
1.2341031227
  9
$DIMLFAC
 40
1.0
  9
$DIMBLK
  1
_FILLED
  9
$DIMALT
 70
0
  9
$DIMALTF
 40
0.0393700787
  9
$DIMTXT
 40
1.3634346369
  9
$DIMTOL
 70
1
  9
$DIMLIM
 70
0
  9
$DIMTFAC
 40
1.0
  9
$DIMTP
 40
0.01
  9
$DIMTM
 40
0.01
  9
$DIMGAP
 40
0.625
  9
$DIMDSEP
 70
46
  9
$AUNITS
 70
0
  9
$PDMODE
 70
3
  9
$PDSIZE
 40
0.3125
  9
$HANDSEED
  5
48F
  9
$TILEMODE
 70
1
  9
$MEASUREMENT
 70
1
  9
$INSUNITS
 70
4
  0
ENDSEC
  0
SECTION
  2
CLASSES
  0
CLASS
  1
ACDBDICTIONARYWDFLT
  2
AcDbDictionaryWithDefault
  3
AutoCAD 2000
 90
0
 91
1
280
0
281
0
  0
CLASS
  1
ACDBPLACEHOLDER
  2
AcDbPlaceHolder
  3
AutoCAD 2000
 90
0
 91
1
280
0
281
0
  0
CLASS
  1
LAYOUT
  2
AcDbLayout
  3
AutoCAD 2000
 90
0
 91
0
280
0
281
0
  0
ENDSEC
  0
SECTION
  2
TABLES
  0
TABLE
  2
VPORT
  5
8
100
AcDbSymbolTable
 70
2
  0
VPORT
  5
1F4
100
AcDbSymbolTableRecord
100
AcDbViewportTableRecord
  2
*ACTIVE
 70
0
 10
0.0
 20
0.0
 11
1.0
 21
1.0
 12
40.9030391057
 22
57.848583878
 13
0.0
 23
0.0
 14
1.0
 24
1.0
 15
0.0
 25
0.0
 16
0.0
 26
0.0
 36
1.0
 17
0.0
 27
0.0
 37
0.0
 40
115.697167756
 41
0.7070707071
 42
50.0
 43
0.0
 44
0.0
 50
0.0
 51
0.0
 71
0
 72
100
 73
1
 74
1
 75
0
 76
0
 77
0
 78
0
  0
ENDTAB
  0
TABLE
  2
LTYPE
  5
5
100
AcDbSymbolTable
 70
6
  0
LTYPE
  5
14
100
AcDbSymbolTableRecord
100
AcDbLinetypeTableRecord
  2
BYBLOCK
 70
0
  3

 72
65
 73
0
 40
0.0
  0
LTYPE
  5
15
100
AcDbSymbolTableRecord
100
AcDbLinetypeTableRecord
  2
BYLAYER
 70
0
  3

 72
65
 73
0
 40
0.0
  0
LTYPE
  5
16
100
AcDbSymbolTableRecord
100
AcDbLinetypeTableRecord
  2
CONTINUOUS
 70
64
  3
Solid line
 72
65
 73
0
 40
0.0
  0
LTYPE
  5
1F5
100
AcDbSymbolTableRecord
100
AcDbLinetypeTableRecord
  2
CENTER
 70
64
  3
____ _ ____ _ ____ _ ____ _ ____ _ ____ _ ____
 72
65
 73
4
 40
0.6
 49
0.375
 74
0
 49
-0.075
 74
0
 49
0.075
 74
0
 49
-0.075
 74
0
  0
LTYPE
  5
1F6
100
AcDbSymbolTableRecord
100
AcDbLinetypeTableRecord
  2
HIDDEN
 70
64
  3
- - - - - - - - - - - - - - - - - - - -
 72
65
 73
2
 40
0.2
 49
0.1
 74
0
 49
-0.1
 74
0
  0
LTYPE
  5
1F7
100
AcDbSymbolTableRecord
100
AcDbLinetypeTableRecord
  2
PHANTOM
 70
64
  3
_____ _ _ _____ _ _ _____ _ _ _____
 72
65
 73
6
 40
0.8
 49
0.45
 74
0
 49
-0.05
 74
0
 49
0.1
 74
0
 49
-0.05
 74
0
 49
0.1
 74
0
 49
-0.05
 74
0
  0
LTYPE
  5
1F8
100
AcDbSymbolTableRecord
100
AcDbLinetypeTableRecord
  2
DOT
 70
64
  3
. . . . . . . . . . . . . . . . . . . .
 72
65
 73
2
 40
0.2
 49
0.1
 74
0
 49
-0.1
 74
0
  0
LTYPE
  5
1F9
100
AcDbSymbolTableRecord
100
AcDbLinetypeTableRecord
  2
DASHED
 70
64
  3
- - - - - - - - - - - - - - - - - - - -
 72
65
 73
2
 40
0.2
 49
0.1
 74
0
 49
-0.1
 74
0
  0
ENDTAB
  0
TABLE
  2
LAYER
  5
2
100
AcDbSymbolTable
 70
36
  0
LAYER
  5
10
100
AcDbSymbolTableRecord
100
AcDbLayerTableRecord
  2
0
 70
0
 62
7
  6
CONTINUOUS
370
-3
390
F
  0
LAYER
  5
1FA
100
AcDbSymbolTableRecord
100
AcDbLayerTableRecord
  2
DEFAULT_1
 70
0
 62
7
  6
CENTER
370
-3
390
F
  0
LAYER
  5
1FB
100
AcDbSymbolTableRecord
100
AcDbLayerTableRecord
  2
DEFAULT_2
 70
0
 62
8
  6
HIDDEN
370
-3
390
F
  0
LAYER
  5
1FC
100
AcDbSymbolTableRecord
100
AcDbLayerTableRecord
  2
DEFAULT_3
 70
0
 62
7
  6
PHANTOM
370
-3
390
F
  0
LAYER
  5
1FD
100
AcDbSymbolTableRecord
100
AcDbLayerTableRecord
  2
00_COMPONENTS
 70
0
 62
7
  6
CONTINUOUS
370
-3
390
F
  0
LAYER
  5
1FE
100
AcDbSymbolTableRecord
100
AcDbLayerTableRecord
  2
01_1_DEFAULT_DATUMS
 70
0
 62
7
  6
CONTINUOUS
370
-3
390
F
  0
LAYER
  5
1FF
100
AcDbSymbolTableRecord
100
AcDbLayerTableRecord
  2
01_PLANES
 70
0
 62
7
  6
CONTINUOUS
370
-3
390
F
  0
LAYER
  5
200
100
AcDbSymbolTableRecord
100
AcDbLayerTableRecord
  2
02_COORD_SYS
 70
0
 62
7
  6
CONTINUOUS
370
-3
390
F
  0
LAYER
  5
201
100
AcDbSymbolTableRecord
100
AcDbLayerTableRecord
  2
03_AXES
 70
0
 62
7
  6
CONTINUOUS
370
-3
390
F
  0
LAYER
  5
202
100
AcDbSymbolTableRecord
100
AcDbLayerTableRecord
  2
04_POINTS
 70
0
 62
7
  6
CONTINUOUS
370
-3
390
F
  0
LAYER
  5
203
100
AcDbSymbolTableRecord
100
AcDbLayerTableRecord
  2
05_CURVES
 70
0
 62
7
  6
CONTINUOUS
370
-3
390
F
  0
LAYER
  5
204
100
AcDbSymbolTableRecord
100
AcDbLayerTableRecord
  2
06_SURFS
 70
0
 62
7
  6
CONTINUOUS
370
-3
390
F
  0
LAYER
  5
205
100
AcDbSymbolTableRecord
100
AcDbLayerTableRecord
  2
07_COSMETICS
 70
0
 62
7
  6
CONTINUOUS
370
-3
390
F
  0
LAYER
  5
206
100
AcDbSymbolTableRecord
100
AcDbLayerTableRecord
  2
10_NOTES
 70
0
 62
7
  6
CONTINUOUS
370
-3
390
F
  0
LAYER
  5
207
100
AcDbSymbolTableRecord
100
AcDbLayerTableRecord
  2
11_NOTES_PUB
 70
0
 62
7
  6
CONTINUOUS
370
-3
390
F
  0
LAYER
  5
208
100
AcDbSymbolTableRecord
100
AcDbLayerTableRecord
  2
13_REF_GTOL
 70
0
 62
7
  6
CONTINUOUS
370
-3
390
F
  0
LAYER
  5
209
100
AcDbSymbolTableRecord
100
AcDbLayerTableRecord
  2
16_MISC
 70
0
 62
7
  6
CONTINUOUS
370
-3
390
F
  0
LAYER
  5
20A
100
AcDbSymbolTableRecord
100
AcDbLayerTableRecord
  2
17_NO_PRINT
 70
0
 62
7
  6
CONTINUOUS
370
-3
390
F
  0
LAYER
  5
20B
100
AcDbSymbolTableRecord
100
AcDbLayerTableRecord
  2
18_DATUM_CAMS_JOINTS
 70
0
 62
7
  6
CONTINUOUS
370
-3
390
F
  0
LAYER
  5
20C
100
AcDbSymbolTableRecord
100
AcDbLayerTableRecord
  2
19_DATUM_FUNCTIONAL
 70
0
 62
7
  6
CONTINUOUS
370
-3
390
F
  0
LAYER
  5
20D
100
AcDbSymbolTableRecord
100
AcDbLayerTableRecord
  2
20_DATUM_KINEMATIC_SCHEME
 70
0
 62
7
  6
CONTINUOUS
370
-3
390
F
  0
LAYER
  5
20E
100
AcDbSymbolTableRecord
100
AcDbLayerTableRecord
  2
INTFCLR_48444
 70
0
 62
7
  6
CONTINUOUS
370
-3
390
F
  0
ENDTAB
  0
TABLE
  2
STYLE
  5
3
100
AcDbSymbolTable
 70
1
  0
STYLE
  5
11
100
AcDbSymbolTableRecord
100
AcDbTextStyleTableRecord
  2
STANDARD
 70
0
 40
0.0
 41
0.8
 50
0.0
 71
0
 42
0.2
  3
txt
  4

  0
STYLE
  5
20F
100
AcDbSymbolTableRecord
100
AcDbTextStyleTableRecord
  2
TEXTSTYLE_1
 70
0
 40
0.0
 41
0.8
 50
0.0
 71
0
 42
0.2
  3
gdt
  4

  0
ENDTAB
  0
TABLE
  2
VIEW
  5
6
100
AcDbSymbolTable
 70
0
  0
ENDTAB
  0
TABLE
  2
UCS
  5
7
100
AcDbSymbolTable
 70
0
  0
ENDTAB
  0
TABLE
  2
APPID
  5
9
100
AcDbSymbolTable
 70
1
  0
APPID
  5
210
100
AcDbSymbolTableRecord
100
AcDbRegAppTableRecord
  2
ACAD
 70
0
  0
ENDTAB
  0
TABLE
  2
BLOCK_RECORD
  5
1
100
AcDbSymbolTable
 70
0
  0
BLOCK_RECORD
  5
211
100
AcDbSymbolTableRecord
100
AcDbBlockTableRecord
  2
*Model_Space
  0
BLOCK_RECORD
  5
212
100
AcDbSymbolTableRecord
100
AcDbBlockTableRecord
  2
*Paper_Space
  0
BLOCK_RECORD
  5
213
100
AcDbSymbolTableRecord
100
AcDbBlockTableRecord
  2
_FILLED
  0
ENDTAB
  0
TABLE
  2
DIMSTYLE
  5
A
100
AcDbSymbolTable
 70
1
100
AcDbDimStyleTable
 71
0
  0
DIMSTYLE
105
214
100
AcDbSymbolTableRecord
100
AcDbDimStyleTableRecord
  2
STANDARD
 70
0
  3

  4

 40
1.0
 41
0.9738818835
 42
1.0
 43
0.38
 44
1.0
 45
0.0
 46
0.0
 47
0.01
 48
0.01
140
1.3634346369
141
0.09
142
0.0
143
25.4
144
1.0
145
0.0
146
1.0
147
0.625
 71
1
 72
0
 73
0
 74
0
 75
0
 76
0
 77
1
 78
8
 79
2
170
0
171
1
172
0
173
0
174
0
175
0
176
0
177
0
178
0
270
2
179
2
271
2
272
2
273
2
274
2
275
0
280
0
281
0
282
0
283
1
284
8
285
0
286
0
287
3
288
0
340
11
278
46
341
213
342
213
343
213
344
213
  0
ENDTAB
  0
ENDSEC
  0
SECTION
  2
BLOCKS
  0
BLOCK
  5
20
100
AcDbEntity
  8
0
100
AcDbBlockBegin
  2
*Model_Space
 70
0
 10
0.0
 20
0.0
 30
0.0
  3
*Model_Space
  1

  0
ENDBLK
  5
21
100
AcDbEntity
  8
0
100
AcDbBlockEnd
  0
BLOCK
  5
1C
100
AcDbEntity
  8
0
100
AcDbBlockBegin
  2
*Paper_Space
 70
0
 10
0.0
 20
0.0
 30
0.0
  3
*Paper_Space
  1

  0
ENDBLK
  5
1D
100
AcDbEntity
  8
0
100
AcDbBlockEnd
  0
BLOCK
  5
215
100
AcDbEntity
  8
0
100
AcDbBlockBegin
  2
_FILLED
 70
64
 10
0.0
 20
0.0
  3
_FILLED
  1

  0
SOLID
  5
216
100
AcDbEntity
  8
0
  6
BYBLOCK
 62
0
100
AcDbTrace
 10
0.0
 20
0.0
 11
-1.0
 21
0.25
 12
-1.0
 22
-0.25
 13
-1.0
 23
-0.25
  0
ENDBLK
  5
217
100
AcDbEntity
  8
0
  6
BYBLOCK
 62
0
100
AcDbBlockEnd
  0
ENDSEC
  0
SECTION
  2
ENTITIES
  0
LINE
  5
218
100
AcDbEntity
  8
0
100
AcDbLine
 62
7
  6
CONTINUOUS
 10
73.9694879074
 20
10.9382115932
 11
8.9694879074
 21
10.9382115932
  0
LINE
  5
219
100
AcDbEntity
  8
0
100
AcDbLine
 62
7
  6
CONTINUOUS
 10
9.015187304
 20
16.1748437602
 11
73.9237885108
 21
16.1748437602
  0
LINE
  5
21A
100
AcDbEntity
  8
0
100
AcDbLine
 62
7
  6
CONTINUOUS
 10
9.7751583655
 20
16.9282115932
 11
73.1638174493
 21
16.9282115932
  0
LINE
  5
21B
100
AcDbEntity
  8
0
100
AcDbLine
 62
7
  6
CONTINUOUS
 10
25.9694879074
 20
17.4382115932
 11
34.9694879074
 21
17.4382115932
  0
LINE
  5
21C
100
AcDbEntity
  8
0
100
AcDbLine
 62
7
  6
CONTINUOUS
 10
47.9694879074
 20
17.4382115932
 11
56.9694879074
 21
17.4382115932
  0
LINE
  5
21D
100
AcDbEntity
  8
0
100
AcDbLine
 62
7
  6
CONTINUOUS
 10
73.1442668391
 20
18.41512179
 11
71.4993000065
 21
18.41512179
  0
LINE
  5
21E
100
AcDbEntity
  8
0
100
AcDbLine
 62
7
  6
CONTINUOUS
 10
11.4396758082
 20
18.41512179
 11
9.7947089757
 21
18.41512179
  0
LINE
  5
21F
100
AcDbEntity
  8
0
100
AcDbLine
 62
7
  6
CONTINUOUS
 10
71.4988581845
 20
18.4282115932
 11
57.4694879074
 21
18.4282115932
  0
LINE
  5
220
100
AcDbEntity
  8
0
100
AcDbLine
 62
7
  6
CONTINUOUS
 10
25.4694879074
 20
18.4282115932
 11
11.4401176303
 21
18.4282115932
  0
LINE
  5
221
100
AcDbEntity
  8
0
100
AcDbLine
 62
7
  6
CONTINUOUS
 10
56.9694879074
 20
18.8382115932
 11
47.9694879074
 21
18.8382115932
  0
LINE
  5
222
100
AcDbEntity
  8
0
100
AcDbLine
 62
7
  6
CONTINUOUS
 10
34.9694879074
 20
18.8382115932
 11
25.9694879074
 21
18.8382115932
  0
LINE
  5
223
100
AcDbEntity
  8
0
100
AcDbLine
 62
7
  6
CONTINUOUS
 10
47.9694879074
 20
23.7382115932
 11
34.9694879074
 21
23.7382115932
  0
LINE
  5
224
100
AcDbEntity
  8
0
100
AcDbLine
 62
7
  6
CONTINUOUS
 10
9.2194879074
 20
75.0679623834
 11
9.2194879074
 21
75.8882115932
  0
LINE
  5
225
100
AcDbEntity
  8
0
100
AcDbLine
 62
7
  6
CONTINUOUS
 10
9.2194879074
 20
82.7882115932
 11
9.2194879074
 21
92.7882115932
  0
LINE
  5
226
100
AcDbEntity
  8
0
100
AcDbLine
 62
7
  6
CONTINUOUS
 10
9.3694879074
 20
102.9382115932
 11
9.3694879074
 21
100.4382115932
  0
LINE
  5
227
100
AcDbEntity
  8
0
100
AcDbLine
 62
7
  6
CONTINUOUS
 10
9.7194879074
 20
103.7382115932
 11
9.7194879074
 21
103.4152162878
  0
LINE
  5
228
100
AcDbEntity
  8
0
100
AcDbLine
 62
7
  6
CONTINUOUS
 10
8.9694879074
 20
10.9382115932
 11
9.776723178
 21
103.4382115932
  0
LINE
  5
229
100
AcDbEntity
  8
0
100
AcDbLine
 62
7
  6
CONTINUOUS
 10
10.5366942396
 20
103.4382115932
 11
9.7947089757
 21
18.41512179
  0
LINE
  5
22A
100
AcDbEntity
  8
0
100
AcDbLine
 62
7
  6
CONTINUOUS
 10
9.7947089757
 20
18.41512179
 11
9.7751583655
 21
16.9282115932
  0
LINE
  5
22B
100
AcDbEntity
  8
0
100
AcDbLine
 62
7
  6
CONTINUOUS
 10
42.9172188726
 20
24.5634473117
 11
42.6327780374
 21
24.5634473117
  0
LINE
  5
22C
100
AcDbEntity
  8
0
100
AcDbLine
 62
7
  6
CONTINUOUS
 10
42.2152334779
 20
24.5634473117
 11
41.9307926427
 21
24.5634473117
  0
LINE
  5
22D
100
AcDbEntity
  8
0
100
AcDbLine
 62
7
  6
CONTINUOUS
 10
39.3945285283
 20
24.6478251534
 11
39.0717975806
 21
24.6478251534
  0
LINE
  5
22E
100
AcDbEntity
  8
0
100
AcDbLine
 62
7
  6
CONTINUOUS
 10
39.0717975806
 20
24.938659416
 11
39.3945285283
 21
24.938659416
  0
LINE
  5
22F
100
AcDbEntity
  8
0
100
AcDbLine
 62
7
  6
CONTINUOUS
 10
39.3762951415
 20
25.2151314928
 11
39.0918543062
 21
25.2151314928
  0
LINE
  5
230
100
AcDbEntity
  8
0
100
AcDbLine
 62
7
  6
CONTINUOUS
 10
38.6743097468
 20
25.2151314928
 11
38.3898689115
 21
25.2151314928
  0
LINE
  5
231
100
AcDbEntity
  8
0
100
AcDbLine
 62
7
  6
CONTINUOUS
 10
40.5742286592
 20
25.773461466
 11
39.7227294921
 21
25.773461466
  0
LINE
  5
232
100
AcDbEntity
  8
0
100
AcDbLine
 62
7
  6
CONTINUOUS
 10
39.7227294921
 20
26.0427524499
 11
40.5742286592
 21
26.0427524499
  0
LINE
  5
233
100
AcDbEntity
  8
0
100
AcDbLine
 62
7
  6
CONTINUOUS
 10
37.3487425209
 20
26.8775545
 11
37.6331833562
 21
26.8775545
  0
LINE
  5
234
100
AcDbEntity
  8
0
100
AcDbLine
 62
7
  6
CONTINUOUS
 10
38.3898689115
 20
26.8775545
 11
38.6743097468
 21
26.8775545
  0
LINE
  5
235
100
AcDbEntity
  8
0
100
AcDbLine
 62
7
  6
CONTINUOUS
 10
39.0918543062
 20
26.8775545
 11
39.3762951415
 21
26.8775545
  0
LINE
  5
236
100
AcDbEntity
  8
0
100
AcDbLine
 62
7
  6
CONTINUOUS
 10
41.9490260295
 20
26.8775545
 11
42.2152334779
 21
26.8775545
  0
LINE
  5
237
100
AcDbEntity
  8
0
100
AcDbLine
 62
7
  6
CONTINUOUS
 10
42.6327780374
 20
26.8775545
 11
42.9172188726
 21
26.8775545
  0
LINE
  5
238
100
AcDbEntity
  8
0
100
AcDbLine
 62
7
  6
CONTINUOUS
 10
14.7649683616
 20
16.1748437602
 11
14.7649683616
 21
16.9282115932
  0
LINE
  5
239
100
AcDbEntity
  8
0
100
AcDbLine
 62
7
  6
CONTINUOUS
 10
14.7649683616
 20
16.1748437602
 11
14.719268965
 21
10.9382115932
  0
LINE
  5
23A
100
AcDbEntity
  8
0
100
AcDbLine
 62
7
  6
CONTINUOUS
 10
12.7294879074
 20
56.6282115932
 11
13.5465594967
 21
103.4382115932
  0
LINE
  5
23B
100
AcDbEntity
  8
0
100
AcDbLine
 62
7
  6
CONTINUOUS
 10
15.0467879192
 20
103.4382115932
 11
14.2297163299
 21
56.6282115932
  0
LINE
  5
23C
100
AcDbEntity
  8
0
100
AcDbLine
 62
7
  6
CONTINUOUS
 10
12.7294879074
 20
56.6282115932
 11
11.3894879074
 21
16.9282115932
  0
LINE
  5
23D
100
AcDbEntity
  8
0
100
AcDbLine
 62
7
  6
CONTINUOUS
 10
49.5408015141
 20
27.85950394
 11
49.0416118794
 21
27.85950394
  0
LINE
  5
23E
100
AcDbEntity
  8
0
100
AcDbLine
 62
7
  6
CONTINUOUS
 10
32.9119519956
 20
27.8728021717
 11
33.7028758324
 21
27.8728021717
  0
LINE
  5
23F
100
AcDbEntity
  8
0
100
AcDbLine
 62
7
  6
CONTINUOUS
 10
52.8341565064
 20
27.8728021717
 11
53.6250803432
 21
27.8728021717
  0
LINE
  5
240
100
AcDbEntity
  8
0
100
AcDbLine
 62
7
  6
CONTINUOUS
 10
53.6250803432
 20
27.8850367159
 11
52.8341565064
 21
27.8850367159
  0
LINE
  5
241
100
AcDbEntity
  8
0
100
AcDbLine
 62
7
  6
CONTINUOUS
 10
33.7028758324
 20
27.8850367159
 11
32.9119519956
 21
27.8850367159
  0
LINE
  5
242
100
AcDbEntity
  8
0
100
AcDbLine
 62
7
  6
CONTINUOUS
 10
42.8224050983
 20
28.309730848
 11
42.3975671841
 21
28.309730848
  0
LINE
  5
243
100
AcDbEntity
  8
0
100
AcDbLine
 62
7
  6
CONTINUOUS
 10
41.4913678564
 20
28.309730848
 11
41.2123970373
 21
28.309730848
  0
LINE
  5
244
100
AcDbEntity
  8
0
100
AcDbLine
 62
7
  6
CONTINUOUS
 10
39.6552657981
 20
28.8626750016
 11
39.3708249629
 21
28.8626750016
  0
LINE
  5
245
100
AcDbEntity
  8
0
100
AcDbLine
 62
7
  6
CONTINUOUS
 10
30.8503636343
 20
29.3148721621
 11
30.8827785456
 21
29.3148721621
  0
LINE
  5
246
100
AcDbEntity
  8
0
100
AcDbLine
 62
7
  6
CONTINUOUS
 10
40.8477292998
 20
29.4210049749
 11
39.9962301327
 21
29.4210049749
  0
LINE
  5
247
100
AcDbEntity
  8
0
100
AcDbLine
 62
7
  6
CONTINUOUS
 10
49.6574951949
 20
29.6787142177
 11
50.5262148189
 21
29.6787142177
  0
LINE
  5
248
100
AcDbEntity
  8
0
100
AcDbLine
 62
7
  6
CONTINUOUS
 10
39.9962301327
 20
29.6902959587
 11
40.8477292998
 21
29.6902959587
  0
LINE
  5
249
100
AcDbEntity
  8
0
100
AcDbLine
 62
7
  6
CONTINUOUS
 10
45.3896659704
 20
30.1014135275
 11
45.0286449102
 21
30.1014135275
  0
LINE
  5
24A
100
AcDbEntity
  8
0
100
AcDbLine
 62
7
  6
CONTINUOUS
 10
37.456319341
 20
30.5250980088
 11
37.7407601762
 21
30.5250980088
  0
LINE
  5
24B
100
AcDbEntity
  8
0
100
AcDbLine
 62
7
  6
CONTINUOUS
 10
38.4135721519
 20
30.5250980088
 11
38.6980129872
 21
30.5250980088
  0
LINE
  5
24C
100
AcDbEntity
  8
0
100
AcDbLine
 62
7
  6
CONTINUOUS
 10
39.3708249629
 20
30.5250980088
 11
39.6552657981
 21
30.5250980088
  0
LINE
  5
24D
100
AcDbEntity
  8
0
100
AcDbLine
 62
7
  6
CONTINUOUS
 10
41.2123970373
 20
30.5250980088
 11
41.5478913558
 21
30.5250980088
  0
LINE
  5
24E
100
AcDbEntity
  8
0
100
AcDbLine
 62
7
  6
CONTINUOUS
 10
42.5434342791
 20
30.5250980088
 11
42.8224050983
 21
30.5250980088
  0
LINE
  5
24F
100
AcDbEntity
  8
0
100
AcDbLine
 62
7
  6
CONTINUOUS
 10
45.0286449102
 20
30.5250980088
 11
45.3896659704
 21
30.5250980088
  0
LINE
  5
250
100
AcDbEntity
  8
0
100
AcDbLine
 62
7
  6
CONTINUOUS
 10
15.9694879074
 20
103.4382115932
 11
15.9694879074
 21
67.1382115932
  0
LINE
  5
251
100
AcDbEntity
  8
0
100
AcDbLine
 62
7
  6
CONTINUOUS
 10
16.3522000824
 20
89.148211679
 11
16.3522000824
 21
88.5382115932
  0
LINE
  5
252
100
AcDbEntity
  8
0
100
AcDbLine
 62
7
  6
CONTINUOUS
 10
16.5244879074
 20
67.1382115932
 11
16.5244879074
 21
56.6282115932
  0
LINE
  5
253
100
AcDbEntity
  8
0
100
AcDbLine
 62
7
  6
CONTINUOUS
 10
17.3694879074
 20
86.5382115932
 11
17.3694879074
 21
69.4382115932
  0
LINE
  5
254
100
AcDbEntity
  8
0
100
AcDbLine
 62
7
  6
CONTINUOUS
 10
17.4694879074
 20
62.0382115932
 11
17.4694879074
 21
68.9382115932
  0
LINE
  5
255
100
AcDbEntity
  8
0
100
AcDbLine
 62
7
  6
CONTINUOUS
 10
17.619365841
 20
62.8882115932
 11
17.619365841
 21
67.4882115932
  0
LINE
  5
256
100
AcDbEntity
  8
0
100
AcDbLine
 62
7
  6
CONTINUOUS
 10
17.7194879074
 20
69.7041732103
 11
17.7194879074
 21
72.4882115932
  0
LINE
  5
257
100
AcDbEntity
  8
0
100
AcDbLine
 62
7
  6
CONTINUOUS
 10
18.1196099738
 20
67.4882115932
 11
18.1196099738
 21
62.8882115932
  0
LINE
  5
258
100
AcDbEntity
  8
0
100
AcDbLine
 62
7
  6
CONTINUOUS
 10
18.2694879074
 20
62.0382115932
 11
18.2694879074
 21
68.9382115932
  0
LINE
  5
259
100
AcDbEntity
  8
0
100
AcDbLine
 62
7
  6
CONTINUOUS
 10
18.3194879074
 20
70.2382115932
 11
18.3194879074
 21
70.0918593874
  0
LINE
  5
25A
100
AcDbEntity
  8
0
100
AcDbLine
 62
7
  6
CONTINUOUS
 10
19.2194879074
 20
72.4882115932
 11
19.2194879074
 21
70.2382115932
  0
LINE
  5
25B
100
AcDbEntity
  8
0
100
AcDbLine
 62
7
  6
CONTINUOUS
 10
18.2694879074
 20
68.3382115932
 11
18.1196099738
 21
67.4882115932
  0
LINE
  5
25C
100
AcDbEntity
  8
0
100
AcDbLine
 62
7
  6
CONTINUOUS
 10
17.4694879074
 20
62.0382115932
 11
17.619365841
 21
62.8882115932
  0
LINE
  5
25D
100
AcDbEntity
  8
0
100
AcDbLine
 62
7
  6
CONTINUOUS
 10
53.9881273502
 20
32.6660489893
 11
52.4970414285
 21
32.6660489893
  0
LINE
  5
25E
100
AcDbEntity
  8
0
100
AcDbLine
 62
7
  6
CONTINUOUS
 10
34.0659228394
 20
32.6660489893
 11
32.5748369177
 21
32.6660489893
  0
LINE
  5
25F
100
AcDbEntity
  8
0
100
AcDbLine
 62
7
  6
CONTINUOUS
 10
39.8444879074
 20
33.0882115932
 11
43.0944879074
 21
33.0882115932
  0
LINE
  5
260
100
AcDbEntity
  8
0
100
AcDbLine
 62
7
  6
CONTINUOUS
 10
32.3997963964
 20
33.5596961433
 11
34.2409633606
 21
33.5596961433
  0
LINE
  5
261
100
AcDbEntity
  8
0
100
AcDbLine
 62
7
  6
CONTINUOUS
 10
52.3220009072
 20
33.5596961433
 11
54.1631678714
 21
33.5596961433
  0
LINE
  5
262
100
AcDbEntity
  8
0
100
AcDbLine
 62
7
  6
CONTINUOUS
 10
30.3771059287
 20
34.8491013225
 11
28.017300383
 21
34.8491013225
  0
LINE
  5
263
100
AcDbEntity
  8
0
100
AcDbLine
 62
7
  6
CONTINUOUS
 10
50.5262148189
 20
34.9576156198
 11
49.6574951949
 21
34.9576156198
  0
LINE
  5
264
100
AcDbEntity
  8
0
100
AcDbLine
 62
7
  6
CONTINUOUS
 10
49.0416118794
 20
34.9576156198
 11
48.1923412022
 21
34.9576156198
  0
LINE
  5
265
100
AcDbEntity
  8
0
100
AcDbLine
 62
7
  6
CONTINUOUS
 10
28.017300383
 20
35.7618980583
 11
30.9800232796
 21
35.7618980583
  0
LINE
  5
266
100
AcDbEntity
  8
0
100
AcDbLine
 62
7
  6
CONTINUOUS
 10
31.2976894108
 20
35.7618980583
 11
31.9654365844
 21
35.7618980583
  0
LINE
  5
267
100
AcDbEntity
  8
0
100
AcDbLine
 62
7
  6
CONTINUOUS
 10
34.6753231726
 20
35.7618980583
 11
35.3171384172
 21
35.7618980583
  0
LINE
  5
268
100
AcDbEntity
  8
0
100
AcDbLine
 62
7
  6
CONTINUOUS
 10
48.1923412022
 20
35.7618980583
 11
50.5262148189
 21
35.7618980583
  0
LINE
  5
269
100
AcDbEntity
  8
0
100
AcDbLine
 62
7
  6
CONTINUOUS
 10
51.2198939216
 20
35.7618980583
 11
51.8876410952
 21
35.7618980583
  0
LINE
  5
26A
100
AcDbEntity
  8
0
100
AcDbLine
 62
7
  6
CONTINUOUS
 10
54.5975276834
 20
35.7618980583
 11
55.239342928
 21
35.7618980583
  0
LINE
  5
26B
100
AcDbEntity
  8
0
100
AcDbLine
 62
7
  6
CONTINUOUS
 10
32.6723632628
 20
37.0774121922
 11
29.016612552
 21
37.0774121922
  0
LINE
  5
26C
100
AcDbEntity
  8
0
100
AcDbLine
 62
7
  6
CONTINUOUS
 10
53.9578673175
 20
37.1940934019
 11
50.2311084973
 21
37.1940934019
  0
LINE
  5
26D
100
AcDbEntity
  8
0
100
AcDbLine
 62
7
  6
CONTINUOUS
 10
25.9694879074
 20
37.5536058408
 11
29.016612552
 21
37.5536058408
  0
LINE
  5
26E
100
AcDbEntity
  8
0
100
AcDbLine
 62
7
  6
CONTINUOUS
 10
32.6723632628
 20
37.5536058408
 11
39.8444879074
 21
37.5536058408
  0
LINE
  5
26F
100
AcDbEntity
  8
0
100
AcDbLine
 62
7
  6
CONTINUOUS
 10
43.0944879074
 20
37.5536058408
 11
50.2311084973
 21
37.5536058408
  0
LINE
  5
270
100
AcDbEntity
  8
0
100
AcDbLine
 62
7
  6
CONTINUOUS
 10
53.9578673175
 20
37.5536058408
 11
56.9694879074
 21
37.5536058408
  0
LINE
  5
271
100
AcDbEntity
  8
0
100
AcDbLine
 62
7
  6
CONTINUOUS
 10
26.7444879074
 20
43.2882679943
 11
27.6694879074
 21
42.7882115932
  0
LINE
  5
272
100
AcDbEntity
  8
0
100
AcDbLine
 62
7
  6
CONTINUOUS
 10
27.6694879074
 20
43.5982115932
 11
26.7444879074
 21
44.0982679943
  0
LINE
  5
273
100
AcDbEntity
  8
0
100
AcDbLine
 62
7
  6
CONTINUOUS
 10
18.1196099738
 20
62.8882115932
 11
18.2694879074
 21
62.0382115932
  0
LINE
  5
274
100
AcDbEntity
  8
0
100
AcDbLine
 62
7
  6
CONTINUOUS
 10
17.619365841
 20
67.4882115932
 11
17.4694879074
 21
68.3382115932
  0
LINE
  5
275
100
AcDbEntity
  8
0
100
AcDbLine
 62
7
  6
CONTINUOUS
 10
23.7194879074
 20
70.2382115932
 11
23.7194879074
 21
72.4882115932
  0
LINE
  5
276
100
AcDbEntity
  8
0
100
AcDbLine
 62
7
  6
CONTINUOUS
 10
24.6194879074
 20
70.0918738909
 11
24.6194879074
 21
70.2382115932
  0
LINE
  5
277
100
AcDbEntity
  8
0
100
AcDbLine
 62
7
  6
CONTINUOUS
 10
24.6694879074
 20
68.9382115932
 11
24.6694879074
 21
62.0382115932
  0
LINE
  5
278
100
AcDbEntity
  8
0
100
AcDbLine
 62
7
  6
CONTINUOUS
 10
24.819365841
 20
62.8882115932
 11
24.819365841
 21
67.4882115932
  0
LINE
  5
279
100
AcDbEntity
  8
0
100
AcDbLine
 62
7
  6
CONTINUOUS
 10
25.2194879074
 20
72.4882115932
 11
25.2194879074
 21
69.7041897528
  0
LINE
  5
27A
100
AcDbEntity
  8
0
100
AcDbLine
 62
7
  6
CONTINUOUS
 10
25.3196099738
 20
67.4882115932
 11
25.3196099738
 21
62.8882115932
  0
LINE
  5
27B
100
AcDbEntity
  8
0
100
AcDbLine
 62
7
  6
CONTINUOUS
 10
25.4694879074
 20
56.6282115932
 11
25.4694879074
 21
55.1282115932
  0
LINE
  5
27C
100
AcDbEntity
  8
0
100
AcDbLine
 62
7
  6
CONTINUOUS
 10
25.4694879074
 20
18.4282115932
 11
25.4694879074
 21
16.9282115932
  0
LINE
  5
27D
100
AcDbEntity
  8
0
100
AcDbLine
 62
7
  6
CONTINUOUS
 10
25.4694879074
 20
62.0382115932
 11
25.4694879074
 21
68.9382115932
  0
LINE
  5
27E
100
AcDbEntity
  8
0
100
AcDbLine
 62
7
  6
CONTINUOUS
 10
25.5694879074
 20
69.4382115932
 11
25.5694879074
 21
86.5382115932
  0
LINE
  5
27F
100
AcDbEntity
  8
0
100
AcDbLine
 62
7
  6
CONTINUOUS
 10
25.9694879074
 20
16.9282115932
 11
25.9694879074
 21
39.6419225916
  0
LINE
  5
280
100
AcDbEntity
  8
0
100
AcDbLine
 62
7
  6
CONTINUOUS
 10
25.9694879074
 20
41.2882115932
 11
25.9694879074
 21
42.7882115932
  0
LINE
  5
281
100
AcDbEntity
  8
0
100
AcDbLine
 62
7
  6
CONTINUOUS
 10
25.9694879074
 20
43.7882115932
 11
25.9694879074
 21
51.5382115932
  0
LINE
  5
282
100
AcDbEntity
  8
0
100
AcDbLine
 62
7
  6
CONTINUOUS
 10
26.4144879074
 20
56.6282115932
 11
26.4144879074
 21
67.1382115932
  0
LINE
  5
283
100
AcDbEntity
  8
0
100
AcDbLine
 62
7
  6
CONTINUOUS
 10
26.5867757324
 20
89.1482115932
 11
26.5867757324
 21
88.5382115932
  0
LINE
  5
284
100
AcDbEntity
  8
0
100
AcDbLine
 62
7
  6
CONTINUOUS
 10
26.7444879074
 20
44.0982679943
 11
26.7444879074
 21
42.7882115932
  0
LINE
  5
285
100
AcDbEntity
  8
0
100
AcDbLine
 62
7
  6
CONTINUOUS
 10
25.4694879074
 20
68.3382115932
 11
25.3196099738
 21
67.4882115932
  0
LINE
  5
286
100
AcDbEntity
  8
0
100
AcDbLine
 62
7
  6
CONTINUOUS
 10
24.6694879074
 20
62.0382115932
 11
24.819365841
 21
62.8882115932
  0
LINE
  5
287
100
AcDbEntity
  8
0
100
AcDbLine
 62
7
  6
CONTINUOUS
 10
54.4444879074
 20
43.4571500086
 11
55.2444879074
 21
43.5982115932
  0
LINE
  5
288
100
AcDbEntity
  8
0
100
AcDbLine
 62
7
  6
CONTINUOUS
 10
49.7444879074
 20
42.9292731778
 11
48.9444879074
 21
42.7882115932
  0
LINE
  5
289
100
AcDbEntity
  8
0
100
AcDbLine
 62
7
  6
CONTINUOUS
 10
56.9694879074
 20
39.6419225916
 11
53.9578673175
 21
39.6419225916
  0
LINE
  5
28A
100
AcDbEntity
  8
0
100
AcDbLine
 62
7
  6
CONTINUOUS
 10
50.2311084973
 20
39.6419225916
 11
43.0944879074
 21
39.6419225916
  0
LINE
  5
28B
100
AcDbEntity
  8
0
100
AcDbLine
 62
7
  6
CONTINUOUS
 10
39.8444879074
 20
39.6419225916
 11
32.6723632628
 21
39.6419225916
  0
LINE
  5
28C
100
AcDbEntity
  8
0
100
AcDbLine
 62
7
  6
CONTINUOUS
 10
29.016612552
 20
39.6419225916
 11
25.9694879074
 21
39.6419225916
  0
LINE
  5
28D
100
AcDbEntity
  8
0
100
AcDbLine
 62
7
  6
CONTINUOUS
 10
25.9694879074
 20
41.2882115932
 11
29.016612552
 21
41.2882115932
  0
LINE
  5
28E
100
AcDbEntity
  8
0
100
AcDbLine
 62
7
  6
CONTINUOUS
 10
32.6723632628
 20
41.2882115932
 11
35.7194879074
 21
41.2882115932
  0
LINE
  5
28F
100
AcDbEntity
  8
0
100
AcDbLine
 62
7
  6
CONTINUOUS
 10
47.2194879074
 20
41.2882115932
 11
50.2311084973
 21
41.2882115932
  0
LINE
  5
290
100
AcDbEntity
  8
0
100
AcDbLine
 62
7
  6
CONTINUOUS
 10
53.9578673175
 20
41.2882115932
 11
56.9694879074
 21
41.2882115932
  0
LINE
  5
291
100
AcDbEntity
  8
0
100
AcDbLine
 62
7
  6
CONTINUOUS
 10
54.2887879074
 20
41.5982115932
 11
49.9001879074
 21
41.5982115932
  0
LINE
  5
292
100
AcDbEntity
  8
0
100
AcDbLine
 62
7
  6
CONTINUOUS
 10
33.0387879074
 20
41.5982115932
 11
28.6501879074
 21
41.5982115932
  0
LINE
  5
293
100
AcDbEntity
  8
0
100
AcDbLine
 62
7
  6
CONTINUOUS
 10
54.2887879074
 20
42.2882115932
 11
49.9001879074
 21
42.2882115932
  0
LINE
  5
294
100
AcDbEntity
  8
0
100
AcDbLine
 62
7
  6
CONTINUOUS
 10
33.0387879074
 20
42.2882115932
 11
28.6501879074
 21
42.2882115932
  0
LINE
  5
295
100
AcDbEntity
  8
0
100
AcDbLine
 62
7
  6
CONTINUOUS
 10
25.9694879074
 20
42.7882115932
 11
34.9444879074
 21
42.7882115932
  0
LINE
  5
296
100
AcDbEntity
  8
0
100
AcDbLine
 62
7
  6
CONTINUOUS
 10
47.9944879074
 20
42.7882115932
 11
56.9694879074
 21
42.7882115932
  0
LINE
  5
297
100
AcDbEntity
  8
0
100
AcDbLine
 62
7
  6
CONTINUOUS
 10
54.4444879074
 20
42.9292731778
 11
49.7444879074
 21
42.9292731778
  0
LINE
  5
298
100
AcDbEntity
  8
0
100
AcDbLine
 62
7
  6
CONTINUOUS
 10
28.4694879074
 20
42.9292731778
 11
33.2194879074
 21
42.9292731778
  0
LINE
  5
299
100
AcDbEntity
  8
0
100
AcDbLine
 62
7
  6
CONTINUOUS
 10
28.4694879074
 20
43.4571500086
 11
27.6694879074
 21
43.5982115932
  0
LINE
  5
29A
100
AcDbEntity
  8
0
100
AcDbLine
 62
7
  6
CONTINUOUS
 10
33.2194879074
 20
42.9292731778
 11
34.0194879074
 21
42.7882115932
  0
LINE
  5
29B
100
AcDbEntity
  8
0
100
AcDbLine
 62
7
  6
CONTINUOUS
 10
25.3196099738
 20
62.8882115932
 11
25.4694879074
 21
62.0382115932
  0
LINE
  5
29C
100
AcDbEntity
  8
0
100
AcDbLine
 62
7
  6
CONTINUOUS
 10
24.819365841
 20
67.4882115932
 11
24.6694879074
 21
68.3382115932
  0
LINE
  5
29D
100
AcDbEntity
  8
0
100
AcDbLine
 62
7
  6
CONTINUOUS
 10
26.9694879074
 20
67.1382115932
 11
26.9694879074
 21
103.4382115932
  0
LINE
  5
29E
100
AcDbEntity
  8
0
100
AcDbLine
 62
7
  6
CONTINUOUS
 10
27.2567377597
 20
46.2373038002
 11
27.2567377597
 21
43.8213449482
  0
LINE
  5
29F
100
AcDbEntity
  8
0
100
AcDbLine
 62
7
  6
CONTINUOUS
 10
27.4694879074
 20
17.4382115932
 11
27.4694879074
 21
16.9282115932
  0
LINE
  5
2A0
100
AcDbEntity
  8
0
100
AcDbLine
 62
7
  6
CONTINUOUS
 10
27.6694879074
 20
43.5982115932
 11
27.6694879074
 21
42.7882115932
  0
LINE
  5
2A1
100
AcDbEntity
  8
0
100
AcDbLine
 62
7
  6
CONTINUOUS
 10
28.017300383
 20
34.8368667784
 11
28.017300383
 21
35.7618980583
  0
LINE
  5
2A2
100
AcDbEntity
  8
0
100
AcDbLine
 62
7
  6
CONTINUOUS
 10
28.2182728333
 20
29.8829764243
 11
28.218272871
 21
29.8756034711
  0
LINE
  5
2A3
100
AcDbEntity
  8
0
100
AcDbLine
 62
7
  6
CONTINUOUS
 10
28.4694879074
 20
43.4571500086
 11
28.4694879074
 21
42.9292731778
  0
LINE
  5
2A4
100
AcDbEntity
  8
0
100
AcDbLine
 62
7
  6
CONTINUOUS
 10
28.6501879074
 20
41.5982115932
 11
28.6501879074
 21
42.2882115932
  0
LINE
  5
2A5
100
AcDbEntity
  8
0
100
AcDbLine
 62
7
  6
CONTINUOUS
 10
28.6694879074
 20
103.7382115932
 11
28.6694879074
 21
104.3341195615
  0
LINE
  5
2A6
100
AcDbEntity
  8
0
100
AcDbLine
 62
7
  6
CONTINUOUS
 10
28.7194879074
 20
103.4382115932
 11
28.7194879074
 21
56.6282115932
  0
LINE
  5
2A7
100
AcDbEntity
  8
0
100
AcDbLine
 62
7
  6
CONTINUOUS
 10
28.8730540424
 20
29.9404251699
 11
28.8730540424
 21
29.9281906257
  0
LINE
  5
2A8
100
AcDbEntity
  8
0
100
AcDbLine
 62
7
  6
CONTINUOUS
 10
29.016612552
 20
41.5982115932
 11
29.016612552
 21
37.0774121922
  0
LINE
  5
2A9
100
AcDbEntity
  8
0
100
AcDbLine
 62
7
  6
CONTINUOUS
 10
29.6510119146
 20
27.719073673
 11
29.6510119146
 21
27.7068391289
  0
LINE
  5
2AA
100
AcDbEntity
  8
0
100
AcDbLine
 62
7
  6
CONTINUOUS
 10
29.8195694536
 20
32.7490305108
 11
29.8195694536
 21
32.7367959666
  0
LINE
  5
2AB
100
AcDbEntity
  8
0
100
AcDbLine
 62
7
  6
CONTINUOUS
 10
30.2194879074
 20
103.4382115932
 11
30.2194879074
 21
56.6282115932
  0
LINE
  5
2AC
100
AcDbEntity
  8
0
100
AcDbLine
 62
7
  6
CONTINUOUS
 10
34.0194879074
 20
43.5982115932
 11
33.2194879074
 21
43.4571500086
  0
LINE
  5
2AD
100
AcDbEntity
  8
0
100
AcDbLine
 62
7
  6
CONTINUOUS
 10
27.6694879074
 20
42.7882115932
 11
28.4694879074
 21
42.9292731778
  0
LINE
  5
2AE
100
AcDbEntity
  8
0
100
AcDbLine
 62
7
  6
CONTINUOUS
 10
56.1944879074
 20
43.2882115932
 11
56.1693835772
 21
43.2882115932
  0
LINE
  5
2AF
100
AcDbEntity
  8
0
100
AcDbLine
 62
7
  6
CONTINUOUS
 10
48.0195922376
 20
43.2882115932
 11
47.9944879074
 21
43.2882115932
  0
LINE
  5
2B0
100
AcDbEntity
  8
0
100
AcDbLine
 62
7
  6
CONTINUOUS
 10
33.2194879074
 20
43.4571500086
 11
28.4694879074
 21
43.4571500086
  0
LINE
  5
2B1
100
AcDbEntity
  8
0
100
AcDbLine
 62
7
  6
CONTINUOUS
 10
49.7444879074
 20
43.4571500086
 11
54.4444879074
 21
43.4571500086
  0
LINE
  5
2B2
100
AcDbEntity
  8
INTFCLR_48444
100
AcDbLine
 62
7
  6
CONTINUOUS
 10
53.9787879074
 20
43.5982115932
 11
50.2101879074
 21
43.5982115932
  0
LINE
  5
2B3
100
AcDbEntity
  8
0
100
AcDbLine
 62
7
  6
CONTINUOUS
 10
55.2444879074
 20
43.5982115932
 11
48.9444879074
 21
43.5982115932
  0
LINE
  5
2B4
100
AcDbEntity
  8
INTFCLR_48444
100
AcDbLine
 62
7
  6
CONTINUOUS
 10
32.7287879074
 20
43.5982115932
 11
28.9601879074
 21
43.5982115932
  0
LINE
  5
2B5
100
AcDbEntity
  8
0
100
AcDbLine
 62
7
  6
CONTINUOUS
 10
27.6694879074
 20
43.5982115932
 11
34.0194879074
 21
43.5982115932
  0
LINE
  5
2B6
100
AcDbEntity
  8
0
100
AcDbLine
 62
7
  6
CONTINUOUS
 10
25.9694879074
 20
43.7882115932
 11
26.7444879074
 21
43.7882115932
  0
LINE
  5
2B7
100
AcDbEntity
  8
0
100
AcDbLine
 62
7
  6
CONTINUOUS
 10
36.7194879074
 20
43.7882115932
 11
46.2194879074
 21
43.7882115932
  0
LINE
  5
2B8
100
AcDbEntity
  8
0
100
AcDbLine
 62
7
  6
CONTINUOUS
 10
56.1944879074
 20
43.7882115932
 11
56.9694879074
 21
43.7882115932
  0
LINE
  5
2B9
100
AcDbEntity
  8
0
100
AcDbLine
 62
7
  6
CONTINUOUS
 10
48.0195922376
 20
44.0982115932
 11
47.9944879074
 21
44.0982115932
  0
LINE
  5
2BA
100
AcDbEntity
  8
0
100
AcDbLine
 62
7
  6
CONTINUOUS
 10
56.1693835772
 20
44.0982115932
 11
56.1944879074
 21
44.0982115932
  0
LINE
  5
2BB
100
AcDbEntity
  8
0
100
AcDbLine
 62
7
  6
CONTINUOUS
 10
56.9694879074
 20
45.2882115932
 11
55.6822380551
 21
45.2882115932
  0
LINE
  5
2BC
100
AcDbEntity
  8
0
100
AcDbLine
 62
7
  6
CONTINUOUS
 10
48.5067377597
 20
45.2882115932
 11
34.4322380551
 21
45.2882115932
  0
LINE
  5
2BD
100
AcDbEntity
  8
0
100
AcDbLine
 62
7
  6
CONTINUOUS
 10
27.2567377597
 20
45.2882115932
 11
25.9694879074
 21
45.2882115932
  0
LINE
  5
2BE
100
AcDbEntity
  8
0
100
AcDbLine
 62
7
  6
CONTINUOUS
 10
56.9694879074
 20
45.7882115932
 11
55.6822380551
 21
45.7882115932
  0
LINE
  5
2BF
100
AcDbEntity
  8
0
100
AcDbLine
 62
7
  6
CONTINUOUS
 10
48.5067377597
 20
45.7882115932
 11
34.4322380551
 21
45.7882115932
  0
LINE
  5
2C0
100
AcDbEntity
  8
0
100
AcDbLine
 62
7
  6
CONTINUOUS
 10
27.2567377597
 20
45.7882115932
 11
25.9694879074
 21
45.7882115932
  0
LINE
  5
2C1
100
AcDbEntity
  8
0
100
AcDbLine
 62
7
  6
CONTINUOUS
 10
27.2567377597
 20
46.2373038002
 11
34.4322380551
 21
46.2373038002
  0
LINE
  5
2C2
100
AcDbEntity
  8
0
100
AcDbLine
 62
7
  6
CONTINUOUS
 10
48.5067377597
 20
46.2373038002
 11
55.6822380551
 21
46.2373038002
  0
LINE
  5
2C3
100
AcDbEntity
  8
0
100
AcDbLine
 62
7
  6
CONTINUOUS
 10
48.9444879074
 20
43.5982115932
 11
49.7444879074
 21
43.4571500086
  0
LINE
  5
2C4
100
AcDbEntity
  8
0
100
AcDbLine
 62
7
  6
CONTINUOUS
 10
55.2444879074
 20
42.7882115932
 11
54.4444879074
 21
42.9292731778
  0
LINE
  5
2C5
100
AcDbEntity
  8
0
100
AcDbLine
 62
7
  6
CONTINUOUS
 10
41.5478913558
 20
30.5250980088
 11
42.5434342791
 21
28.6149272964
  0
LINE
  5
2C6
100
AcDbEntity
  8
0
100
AcDbLine
 62
7
  6
CONTINUOUS
 10
42.3975671841
 20
28.309730848
 11
41.4913678564
 21
30.0637127898
  0
LINE
  5
2C7
100
AcDbEntity
  8
0
100
AcDbLine
 62
7
  6
CONTINUOUS
 10
32.9119519956
 20
27.8850367159
 11
31.2976894108
 21
35.7618980583
  0
LINE
  5
2C8
100
AcDbEntity
  8
0
100
AcDbLine
 62
7
  6
CONTINUOUS
 10
32.5748369177
 20
32.6660489893
 11
33.3203798785
 21
28.9318805247
  0
LINE
  5
2C9
100
AcDbEntity
  8
0
100
AcDbLine
 62
7
  6
CONTINUOUS
 10
31.9654365844
 20
35.7618980583
 11
32.3997963964
 21
33.5596961433
  0
LINE
  5
2CA
100
AcDbEntity
  8
0
100
AcDbLine
 62
7
  6
CONTINUOUS
 10
30.8827785456
 20
29.3148721621
 11
30.8827785456
 21
28.1791954816
  0
LINE
  5
2CB
100
AcDbEntity
  8
0
100
AcDbLine
 62
7
  6
CONTINUOUS
 10
30.9800232796
 20
35.7618980583
 11
30.9800232796
 21
34.6326045718
  0
LINE
  5
2CC
100
AcDbEntity
  8
0
100
AcDbLine
 62
7
  6
CONTINUOUS
 10
31.2976894108
 20
35.7618980583
 11
31.2976894108
 21
35.7496635142
  0
LINE
  5
2CD
100
AcDbEntity
  8
0
100
AcDbLine
 62
7
  6
CONTINUOUS
 10
32.6723632628
 20
41.5982115932
 11
32.6723632628
 21
37.0774121922
  0
LINE
  5
2CE
100
AcDbEntity
  8
0
100
AcDbLine
 62
7
  6
CONTINUOUS
 10
32.7194879074
 20
56.6282115932
 11
32.7194879074
 21
103.4382115932
  0
LINE
  5
2CF
100
AcDbEntity
  8
0
100
AcDbLine
 62
7
  6
CONTINUOUS
 10
32.9119519956
 20
27.8850367159
 11
32.9119519956
 21
27.8728021717
  0
LINE
  5
2D0
100
AcDbEntity
  8
0
100
AcDbLine
 62
7
  6
CONTINUOUS
 10
33.0387879074
 20
41.5982115932
 11
33.0387879074
 21
42.2882115932
  0
LINE
  5
2D1
100
AcDbEntity
  8
0
100
AcDbLine
 62
7
  6
CONTINUOUS
 10
33.2194879074
 20
43.4571500086
 11
33.2194879074
 21
42.9292731778
  0
LINE
  5
2D2
100
AcDbEntity
  8
0
100
AcDbLine
 62
7
  6
CONTINUOUS
 10
33.7028758324
 20
27.8850367159
 11
33.7028758324
 21
27.8728021717
  0
LINE
  5
2D3
100
AcDbEntity
  8
0
100
AcDbLine
 62
7
  6
CONTINUOUS
 10
34.0194879074
 20
43.5982115932
 11
34.0194879074
 21
42.7882115932
  0
LINE
  5
2D4
100
AcDbEntity
  8
0
100
AcDbLine
 62
7
  6
CONTINUOUS
 10
34.2194879074
 20
56.6282115932
 11
34.2194879074
 21
103.4382115932
  0
LINE
  5
2D5
100
AcDbEntity
  8
0
100
AcDbLine
 62
7
  6
CONTINUOUS
 10
34.2694879074
 20
103.7382115932
 11
34.2694879074
 21
104.3341195615
  0
LINE
  5
2D6
100
AcDbEntity
  8
0
100
AcDbLine
 62
7
  6
CONTINUOUS
 10
48.0195922376
 20
43.2882115932
 11
48.9444879074
 21
42.7882115932
  0
LINE
  5
2D7
100
AcDbEntity
  8
0
100
AcDbLine
 62
7
  6
CONTINUOUS
 10
48.9444879074
 20
43.5982115932
 11
48.0195922376
 21
44.0982115932
  0
LINE
  5
2D8
100
AcDbEntity
  8
0
100
AcDbLine
 62
7
  6
CONTINUOUS
 10
34.4322380551
 20
46.2373038002
 11
34.4322380551
 21
43.8213449482
  0
LINE
  5
2D9
100
AcDbEntity
  8
0
100
AcDbLine
 62
7
  6
CONTINUOUS
 10
34.9444879074
 20
42.7882115932
 11
34.9444879074
 21
44.0982679943
  0
LINE
  5
2DA
100
AcDbEntity
  8
0
100
AcDbLine
 62
7
  6
CONTINUOUS
 10
34.9694879074
 20
23.7382115932
 11
34.9694879074
 21
16.9282115932
  0
LINE
  5
2DB
100
AcDbEntity
  8
0
100
AcDbLine
 62
7
  6
CONTINUOUS
 10
35.3171384172
 20
35.7618980583
 11
35.3171384172
 21
35.7496635142
  0
LINE
  5
2DC
100
AcDbEntity
  8
0
100
AcDbLine
 62
7
  6
CONTINUOUS
 10
35.7194879074
 20
42.7882115932
 11
35.7194879074
 21
41.2882115932
  0
LINE
  5
2DD
100
AcDbEntity
  8
0
100
AcDbLine
 62
7
  6
CONTINUOUS
 10
35.9694879074
 20
103.4382115932
 11
35.9694879074
 21
67.1382115932
  0
LINE
  5
2DE
100
AcDbEntity
  8
0
100
AcDbLine
 62
7
  6
CONTINUOUS
 10
36.3522000824
 20
89.148211679
 11
36.3522000824
 21
88.5382115932
  0
LINE
  5
2DF
100
AcDbEntity
  8
0
100
AcDbLine
 62
7
  6
CONTINUOUS
 10
36.5244879074
 20
67.1382115932
 11
36.5244879074
 21
56.6282115932
  0
LINE
  5
2E0
100
AcDbEntity
  8
0
100
AcDbLine
 62
7
  6
CONTINUOUS
 10
37.3487425209
 20
25.7863607471
 11
37.3487425209
 21
26.8775545
  0
LINE
  5
2E1
100
AcDbEntity
  8
0
100
AcDbLine
 62
7
  6
CONTINUOUS
 10
37.3694879074
 20
86.5382115932
 11
37.3694879074
 21
69.4382115932
  0
LINE
  5
2E2
100
AcDbEntity
  8
0
100
AcDbLine
 62
7
  6
CONTINUOUS
 10
37.456319341
 20
29.4177467969
 11
37.456319341
 21
30.5250980088
  0
LINE
  5
2E3
100
AcDbEntity
  8
0
100
AcDbLine
 62
7
  6
CONTINUOUS
 10
37.4694879074
 20
62.0382115932
 11
37.4694879074
 21
68.9382115932
  0
LINE
  5
2E4
100
AcDbEntity
  8
0
100
AcDbLine
 62
7
  6
CONTINUOUS
 10
37.5985397586
 20
28.9578244825
 11
37.5985397586
 21
28.9455899384
  0
LINE
  5
2E5
100
AcDbEntity
  8
0
100
AcDbLine
 62
7
  6
CONTINUOUS
 10
37.619365841
 20
62.8882115932
 11
37.619365841
 21
67.4882115932
  0
LINE
  5
2E6
100
AcDbEntity
  8
0
100
AcDbLine
 62
7
  6
CONTINUOUS
 10
37.6331833562
 20
26.8775545
 11
37.6331833562
 21
25.9174156926
  0
LINE
  5
2E7
100
AcDbEntity
  8
0
100
AcDbLine
 62
7
  6
CONTINUOUS
 10
37.7194879074
 20
69.7041732103
 11
37.7194879074
 21
72.4882115932
  0
LINE
  5
2E8
100
AcDbEntity
  8
0
100
AcDbLine
 62
7
  6
CONTINUOUS
 10
37.7407601762
 20
30.5250980088
 11
37.7407601762
 21
29.5505970156
  0
LINE
  5
2E9
100
AcDbEntity
  8
0
100
AcDbLine
 62
7
  6
CONTINUOUS
 10
37.8775107403
 20
25.1684543889
 11
37.8775107403
 21
25.1562198448
  0
LINE
  5
2EA
100
AcDbEntity
  8
0
100
AcDbLine
 62
7
  6
CONTINUOUS
 10
37.952267464
 20
28.8159978977
 11
37.952267464
 21
28.8037633536
  0
LINE
  5
2EB
100
AcDbEntity
  8
0
100
AcDbLine
 62
7
  6
CONTINUOUS
 10
38.1196099738
 20
67.4882115932
 11
38.1196099738
 21
62.8882115932
  0
LINE
  5
2EC
100
AcDbEntity
  8
0
100
AcDbLine
 62
7
  6
CONTINUOUS
 10
38.2694879074
 20
68.3382115932
 11
38.1196099738
 21
67.4882115932
  0
LINE
  5
2ED
100
AcDbEntity
  8
0
100
AcDbLine
 62
7
  6
CONTINUOUS
 10
37.4694879074
 20
62.0382115932
 11
37.619365841
 21
62.8882115932
  0
LINE
  5
2EE
100
AcDbEntity
  8
0
100
AcDbLine
 62
7
  6
CONTINUOUS
 10
26.9694879074
 20
52.5382115932
 11
55.9694879074
 21
52.5382115932
  0
LINE
  5
2EF
100
AcDbEntity
  8
0
100
AcDbLine
 62
7
  6
CONTINUOUS
 10
38.2694879074
 20
62.0382115932
 11
38.2694879074
 21
68.9382115932
  0
LINE
  5
2F0
100
AcDbEntity
  8
0
100
AcDbLine
 62
7
  6
CONTINUOUS
 10
38.3194879074
 20
70.2382115932
 11
38.3194879074
 21
70.0918593874
  0
LINE
  5
2F1
100
AcDbEntity
  8
0
100
AcDbLine
 62
7
  6
CONTINUOUS
 10
38.3898689115
 20
25.2028969486
 11
38.3898689115
 21
25.400044635
  0
LINE
  5
2F2
100
AcDbEntity
  8
0
100
AcDbLine
 62
7
  6
CONTINUOUS
 10
38.3898689115
 20
25.6352254276
 11
38.3898689115
 21
26.8775545
  0
LINE
  5
2F3
100
AcDbEntity
  8
0
100
AcDbLine
 62
7
  6
CONTINUOUS
 10
38.4135721519
 20
29.4177467969
 11
38.4135721519
 21
30.5250980088
  0
LINE
  5
2F4
100
AcDbEntity
  8
0
100
AcDbLine
 62
7
  6
CONTINUOUS
 10
38.4682723125
 20
29.1032416139
 11
38.4682723125
 21
29.0910070697
  0
LINE
  5
2F5
100
AcDbEntity
  8
0
100
AcDbLine
 62
7
  6
CONTINUOUS
 10
38.6743097468
 20
26.8775545
 11
38.6743097468
 21
25.2028969486
  0
LINE
  5
2F6
100
AcDbEntity
  8
0
100
AcDbLine
 62
7
  6
CONTINUOUS
 10
38.6980129872
 20
30.5250980088
 11
38.6980129872
 21
29.5505970156
  0
LINE
  5
2F7
100
AcDbEntity
  8
0
100
AcDbLine
 62
7
  6
CONTINUOUS
 10
38.9095202749
 20
28.8159978977
 11
38.9095202749
 21
28.8037633536
  0
LINE
  5
2F8
100
AcDbEntity
  8
0
100
AcDbLine
 62
7
  6
CONTINUOUS
 10
39.0717975806
 20
24.6355906092
 11
39.0717975806
 21
24.938659416
  0
LINE
  5
2F9
100
AcDbEntity
  8
0
100
AcDbLine
 62
7
  6
CONTINUOUS
 10
39.0918543062
 20
25.2028969486
 11
39.0918543062
 21
26.8775545
  0
LINE
  5
2FA
100
AcDbEntity
  8
0
100
AcDbLine
 62
7
  6
CONTINUOUS
 10
39.2194879074
 20
72.4882115932
 11
39.2194879074
 21
70.2382115932
  0
LINE
  5
2FB
100
AcDbEntity
  8
0
100
AcDbLine
 62
7
  6
CONTINUOUS
 10
39.3708249629
 20
28.8504404574
 11
39.3708249629
 21
29.0457928706
  0
LINE
  5
2FC
100
AcDbEntity
  8
0
100
AcDbLine
 62
7
  6
CONTINUOUS
 10
39.3708249629
 20
29.2827689364
 11
39.3708249629
 21
30.5250980088
  0
LINE
  5
2FD
100
AcDbEntity
  8
0
100
AcDbLine
 62
7
  6
CONTINUOUS
 10
39.3762951415
 20
26.8775545
 11
39.3762951415
 21
25.2028969486
  0
LINE
  5
2FE
100
AcDbEntity
  8
0
100
AcDbLine
 62
7
  6
CONTINUOUS
 10
39.3945285283
 20
24.938659416
 11
39.3945285283
 21
24.6355906092
  0
LINE
  5
2FF
100
AcDbEntity
  8
0
100
AcDbLine
 62
7
  6
CONTINUOUS
 10
39.6552657981
 20
30.5250980088
 11
39.6552657981
 21
28.8504404574
  0
LINE
  5
300
100
AcDbEntity
  8
0
100
AcDbLine
 62
7
  6
CONTINUOUS
 10
39.7227294921
 20
25.7612269219
 11
39.7227294921
 21
26.0427524499
  0
LINE
  5
301
100
AcDbEntity
  8
0
100
AcDbLine
 62
7
  6
CONTINUOUS
 10
39.8444879074
 20
39.6419225916
 11
39.8444879074
 21
33.0882115932
  0
LINE
  5
302
100
AcDbEntity
  8
0
100
AcDbLine
 62
7
  6
CONTINUOUS
 10
39.9962301327
 20
29.4087704307
 11
39.9962301327
 21
29.6902959587
  0
LINE
  5
303
100
AcDbEntity
  8
0
100
AcDbLine
 62
7
  6
CONTINUOUS
 10
40.5742286592
 20
26.0427524499
 11
40.5742286592
 21
25.7612269219
  0
LINE
  5
304
100
AcDbEntity
  8
0
100
AcDbLine
 62
7
  6
CONTINUOUS
 10
40.8003226564
 20
26.019413898
 11
40.8003226564
 21
26.0071793539
  0
LINE
  5
305
100
AcDbEntity
  8
0
100
AcDbLine
 62
7
  6
CONTINUOUS
 10
40.8477292998
 20
29.6902959587
 11
40.8477292998
 21
29.4087704307
  0
LINE
  5
306
100
AcDbEntity
  8
0
100
AcDbLine
 62
7
  6
CONTINUOUS
 10
41.0938801851
 20
26.0409571767
 11
41.0938801851
 21
26.0287226326
  0
LINE
  5
307
100
AcDbEntity
  8
0
100
AcDbLine
 62
7
  6
CONTINUOUS
 10
41.2123970373
 20
28.2974963038
 11
41.2123970373
 21
30.5250980088
  0
LINE
  5
308
100
AcDbEntity
  8
0
100
AcDbLine
 62
7
  6
CONTINUOUS
 10
41.4147877941
 20
25.1684543889
 11
41.4147877941
 21
25.1562198448
  0
LINE
  5
309
100
AcDbEntity
  8
0
100
AcDbLine
 62
7
  6
CONTINUOUS
 10
41.4913678564
 20
30.0637127898
 11
41.4913678564
 21
28.2974963038
  0
LINE
  5
30A
100
AcDbEntity
  8
0
100
AcDbLine
 62
7
  6
CONTINUOUS
 10
41.5588315504
 20
26.6728933523
 11
41.5588315504
 21
26.6606588081
  0
LINE
  5
30B
100
AcDbEntity
  8
0
100
AcDbLine
 62
7
  6
CONTINUOUS
 10
41.9307926427
 20
24.5512127676
 11
41.9307926427
 21
25.3892729957
  0
LINE
  5
30C
100
AcDbEntity
  8
0
100
AcDbLine
 62
7
  6
CONTINUOUS
 10
41.9307926427
 20
25.6244537883
 11
41.9307926427
 21
26.5777438713
  0
LINE
  5
30D
100
AcDbEntity
  8
0
100
AcDbLine
 62
7
  6
CONTINUOUS
 10
34.2409633606
 20
33.5596961433
 11
34.6753231726
 21
35.7618980583
  0
LINE
  5
30E
100
AcDbEntity
  8
0
100
AcDbLine
 62
7
  6
CONTINUOUS
 10
33.3203798785
 20
28.9318805247
 11
34.0659228394
 21
32.6660489893
  0
LINE
  5
30F
100
AcDbEntity
  8
0
100
AcDbLine
 62
7
  6
CONTINUOUS
 10
33.7028758324
 20
27.8728021717
 11
35.3171384172
 21
35.7618980583
  0
LINE
  5
310
100
AcDbEntity
  8
0
100
AcDbLine
 62
7
  6
CONTINUOUS
 10
12.6788581845
 20
55.1282115932
 11
25.4694879074
 21
55.1282115932
  0
LINE
  5
311
100
AcDbEntity
  8
0
100
AcDbLine
 62
7
  6
CONTINUOUS
 10
57.4694879074
 20
55.1282115932
 11
70.2601176303
 21
55.1282115932
  0
LINE
  5
312
100
AcDbEntity
  8
0
100
AcDbLine
 62
7
  6
CONTINUOUS
 10
12.7294879074
 20
56.6282115932
 11
70.2094879074
 21
56.6282115932
  0
LINE
  5
313
100
AcDbEntity
  8
0
100
AcDbLine
 62
7
  6
CONTINUOUS
 10
38.1196099738
 20
62.8882115932
 11
38.2694879074
 21
62.0382115932
  0
LINE
  5
314
100
AcDbEntity
  8
0
100
AcDbLine
 62
7
  6
CONTINUOUS
 10
37.619365841
 20
67.4882115932
 11
37.4694879074
 21
68.3382115932
  0
LINE
  5
315
100
AcDbEntity
  8
0
100
AcDbLine
 62
7
  6
CONTINUOUS
 10
42.2152334779
 20
26.8775545
 11
42.2152334779
 21
24.5512127676
  0
LINE
  5
316
100
AcDbEntity
  8
0
100
AcDbLine
 62
7
  6
CONTINUOUS
 10
42.3975671841
 20
28.309730848
 11
42.3975671841
 21
28.2974963038
  0
LINE
  5
317
100
AcDbEntity
  8
0
100
AcDbLine
 62
7
  6
CONTINUOUS
 10
42.5434342791
 20
28.6149272964
 11
42.5434342791
 21
30.5250980088
  0
LINE
  5
318
100
AcDbEntity
  8
0
100
AcDbLine
 62
7
  6
CONTINUOUS
 10
42.6327780374
 20
24.5512127676
 11
42.6327780374
 21
26.8775545
  0
LINE
  5
319
100
AcDbEntity
  8
0
100
AcDbLine
 62
7
  6
CONTINUOUS
 10
42.8224050983
 20
30.5250980088
 11
42.8224050983
 21
28.2974963038
  0
LINE
  5
31A
100
AcDbEntity
  8
0
100
AcDbLine
 62
7
  6
CONTINUOUS
 10
42.9172188726
 20
26.8775545
 11
42.9172188726
 21
24.5512127676
  0
LINE
  5
31B
100
AcDbEntity
  8
0
100
AcDbLine
 62
7
  6
CONTINUOUS
 10
43.0944879074
 20
33.0882115932
 11
43.0944879074
 21
39.6419225916
  0
LINE
  5
31C
100
AcDbEntity
  8
0
100
AcDbLine
 62
7
  6
CONTINUOUS
 10
43.1615460942
 20
29.9075240191
 11
43.1615460942
 21
29.895289475
  0
LINE
  5
31D
100
AcDbEntity
  8
0
100
AcDbLine
 62
7
  6
CONTINUOUS
 10
43.2180695935
 20
28.8231789906
 11
43.2180695935
 21
28.8109444465
  0
LINE
  5
31E
100
AcDbEntity
  8
0
100
AcDbLine
 62
7
  6
CONTINUOUS
 10
43.4715136711
 20
29.9362483907
 11
43.4715136711
 21
29.9240138466
  0
LINE
  5
31F
100
AcDbEntity
  8
0
100
AcDbLine
 62
7
  6
CONTINUOUS
 10
43.5134504609
 20
28.8267695371
 11
43.5134504609
 21
28.8145349929
  0
LINE
  5
320
100
AcDbEntity
  8
0
100
AcDbLine
 62
7
  6
CONTINUOUS
 10
43.7194879074
 20
70.2382115932
 11
43.7194879074
 21
72.4882115932
  0
LINE
  5
321
100
AcDbEntity
  8
0
100
AcDbLine
 62
7
  6
CONTINUOUS
 10
43.7377211195
 20
29.2702020239
 11
43.7377211195
 21
29.2579674797
  0
LINE
  5
322
100
AcDbEntity
  8
0
100
AcDbLine
 62
7
  6
CONTINUOUS
 10
43.8908815692
 20
30.3545470524
 11
43.8908815692
 21
30.3423125082
  0
LINE
  5
323
100
AcDbEntity
  8
0
100
AcDbLine
 62
7
  6
CONTINUOUS
 10
43.8945282466
 20
28.2594631976
 11
43.8945282466
 21
28.2472286535
  0
LINE
  5
324
100
AcDbEntity
  8
0
100
AcDbLine
 62
7
  6
CONTINUOUS
 10
44.0549820511
 20
29.1319659855
 11
44.0549820511
 21
29.1197314413
  0
LINE
  5
325
100
AcDbEntity
  8
0
100
AcDbLine
 62
7
  6
CONTINUOUS
 10
44.1859772961
 20
101.9382115932
 11
44.1859772961
 21
100.4382115932
  0
LINE
  5
326
100
AcDbEntity
  8
0
100
AcDbLine
 62
7
  6
CONTINUOUS
 10
44.1972026313
 20
26.1594452096
 11
44.1972026313
 21
26.1472106655
  0
LINE
  5
327
100
AcDbEntity
  8
0
100
AcDbLine
 62
7
  6
CONTINUOUS
 10
44.2701360162
 20
28.8088168048
 11
44.2701360162
 21
28.7965822607
  0
LINE
  5
328
100
AcDbEntity
  8
0
100
AcDbLine
 62
7
  6
CONTINUOUS
 10
44.3230128382
 20
29.8913665601
 11
44.3230128382
 21
29.8791320159
  0
LINE
  5
329
100
AcDbEntity
  8
0
100
AcDbLine
 62
7
  6
CONTINUOUS
 10
44.3922998708
 20
24.6391811557
 11
44.3922998708
 21
24.9439520918
  0
LINE
  5
32A
100
AcDbEntity
  8
0
100
AcDbLine
 62
7
  6
CONTINUOUS
 10
44.4415300154
 20
25.5939341434
 11
44.4415300154
 21
25.5816995993
  0
LINE
  5
32B
100
AcDbEntity
  8
0
100
AcDbLine
 62
7
  6
CONTINUOUS
 10
44.5035235308
 20
26.1720121222
 11
44.5035235308
 21
26.1597775781
  0
LINE
  5
32C
100
AcDbEntity
  8
0
100
AcDbLine
 62
7
  6
CONTINUOUS
 10
44.5728102383
 20
28.8429269961
 11
44.5728102383
 21
28.830692452
  0
LINE
  5
32D
100
AcDbEntity
  8
0
100
AcDbLine
 62
7
  6
CONTINUOUS
 10
44.6150470017
 20
100.4382115932
 11
44.6150470017
 21
101.9382115932
  0
LINE
  5
32E
100
AcDbEntity
  8
0
100
AcDbLine
 62
7
  6
CONTINUOUS
 10
44.6194879074
 20
70.0918738909
 11
44.6194879074
 21
70.2382115932
  0
LINE
  5
32F
100
AcDbEntity
  8
0
100
AcDbLine
 62
7
  6
CONTINUOUS
 10
44.627510399
 20
29.9129098388
 11
44.627510399
 21
29.9006752946
  0
LINE
  5
330
100
AcDbEntity
  8
0
100
AcDbLine
 62
7
  6
CONTINUOUS
 10
44.6475672871
 20
24.620896055
 11
44.6475672871
 21
24.6086615108
  0
LINE
  5
331
100
AcDbEntity
  8
0
100
AcDbLine
 62
7
  6
CONTINUOUS
 10
44.6694879074
 20
68.9382115932
 11
44.6694879074
 21
62.0382115932
  0
LINE
  5
332
100
AcDbEntity
  8
0
100
AcDbLine
 62
7
  6
CONTINUOUS
 10
44.819365841
 20
62.8882115932
 11
44.819365841
 21
67.4882115932
  0
LINE
  5
333
100
AcDbEntity
  8
0
100
AcDbLine
 62
7
  6
CONTINUOUS
 10
44.8773079617
 20
25.4628791979
 11
44.8773079617
 21
25.4506446538
  0
LINE
  5
334
100
AcDbEntity
  8
0
100
AcDbLine
 62
7
  6
CONTINUOUS
 10
44.9101280581
 20
26.6818697184
 11
44.9101280581
 21
26.6696351743
  0
LINE
  5
335
100
AcDbEntity
  8
0
100
AcDbLine
 62
7
  6
CONTINUOUS
 10
45.0286449102
 20
30.0891789834
 11
45.0286449102
 21
30.5250980088
  0
LINE
  5
336
100
AcDbEntity
  8
0
100
AcDbLine
 62
7
  6
CONTINUOUS
 10
45.190922216
 20
26.5562005926
 11
45.190922216
 21
26.5439660484
  0
LINE
  5
337
100
AcDbEntity
  8
0
100
AcDbLine
 62
7
  6
CONTINUOUS
 10
45.2194879074
 20
72.4882115932
 11
45.2194879074
 21
69.7041897528
  0
LINE
  5
338
100
AcDbEntity
  8
0
100
AcDbLine
 62
7
  6
CONTINUOUS
 10
45.3196099738
 20
67.4882115932
 11
45.3196099738
 21
62.8882115932
  0
LINE
  5
339
100
AcDbEntity
  8
0
100
AcDbLine
 62
7
  6
CONTINUOUS
 10
45.3513760205
 20
25.9709415209
 11
45.3513760205
 21
25.9587069768
  0
LINE
  5
33A
100
AcDbEntity
  8
0
100
AcDbLine
 62
7
  6
CONTINUOUS
 10
45.3896659704
 20
30.5250980088
 11
45.3896659704
 21
30.0891789834
  0
LINE
  5
33B
100
AcDbEntity
  8
0
100
AcDbLine
 62
7
  6
CONTINUOUS
 10
45.4097228585
 20
24.9781554269
 11
45.4097228585
 21
24.9659208828
  0
LINE
  5
33C
100
AcDbEntity
  8
0
100
AcDbLine
 62
7
  6
CONTINUOUS
 10
45.4694879074
 20
62.0382115932
 11
45.4694879074
 21
68.9382115932
  0
LINE
  5
33D
100
AcDbEntity
  8
0
100
AcDbLine
 62
7
  6
CONTINUOUS
 10
45.4694879074
 20
97.0240089944
 11
45.4694879074
 21
100.4382115932
  0
LINE
  5
33E
100
AcDbEntity
  8
0
100
AcDbLine
 62
7
  6
CONTINUOUS
 10
45.5694879074
 20
69.4382115932
 11
45.5694879074
 21
86.5382115932
  0
LINE
  5
33F
100
AcDbEntity
  8
0
100
AcDbLine
 62
7
  6
CONTINUOUS
 10
45.6558735813
 20
25.9045164115
 11
45.6558735813
 21
25.8922818674
  0
LINE
  5
340
100
AcDbEntity
  8
0
100
AcDbLine
 62
7
  6
CONTINUOUS
 10
45.4694879074
 20
68.3382115932
 11
45.3196099738
 21
67.4882115932
  0
LINE
  5
341
100
AcDbEntity
  8
0
100
AcDbLine
 62
7
  6
CONTINUOUS
 10
44.6694879074
 20
62.0382115932
 11
44.819365841
 21
62.8882115932
  0
LINE
  5
342
100
AcDbEntity
  8
0
100
AcDbLine
 62
7
  6
CONTINUOUS
 10
45.9694879074
 20
96.1522855966
 11
45.9694879074
 21
100.4382115932
  0
LINE
  5
343
100
AcDbEntity
  8
0
100
AcDbLine
 62
7
  6
CONTINUOUS
 10
46.4144879074
 20
56.6282115932
 11
46.4144879074
 21
67.1382115932
  0
LINE
  5
344
100
AcDbEntity
  8
0
100
AcDbLine
 62
7
  6
CONTINUOUS
 10
46.5867757324
 20
89.1482115932
 11
46.5867757324
 21
88.5382115932
  0
LINE
  5
345
100
AcDbEntity
  8
0
100
AcDbLine
 62
7
  6
CONTINUOUS
 10
46.9694879074
 20
67.1382115932
 11
46.9694879074
 21
103.4382115932
  0
LINE
  5
346
100
AcDbEntity
  8
0
100
AcDbLine
 62
7
  6
CONTINUOUS
 10
47.2194879074
 20
41.2882115932
 11
47.2194879074
 21
42.7882115932
  0
LINE
  5
347
100
AcDbEntity
  8
0
100
AcDbLine
 62
7
  6
CONTINUOUS
 10
47.9694879074
 20
16.9282115932
 11
47.9694879074
 21
23.7382115932
  0
LINE
  5
348
100
AcDbEntity
  8
0
100
AcDbLine
 62
7
  6
CONTINUOUS
 10
47.9944879074
 20
42.7882115932
 11
47.9944879074
 21
44.0982115932
  0
LINE
  5
349
100
AcDbEntity
  8
0
100
AcDbLine
 62
7
  6
CONTINUOUS
 10
48.1923412022
 20
34.9453810756
 11
48.1923412022
 21
35.7618980583
  0
LINE
  5
34A
100
AcDbEntity
  8
0
100
AcDbLine
 62
7
  6
CONTINUOUS
 10
48.5067377597
 20
46.2373038002
 11
48.5067377597
 21
43.8348599861
  0
LINE
  5
34B
100
AcDbEntity
  8
0
100
AcDbLine
 62
7
  6
CONTINUOUS
 10
48.6694879074
 20
103.4382115932
 11
48.6694879074
 21
104.3341195615
  0
LINE
  5
34C
100
AcDbEntity
  8
0
100
AcDbLine
 62
7
  6
CONTINUOUS
 10
48.7194879074
 20
103.4382115932
 11
48.7194879074
 21
56.6282115932
  0
LINE
  5
34D
100
AcDbEntity
  8
0
100
AcDbLine
 62
7
  6
CONTINUOUS
 10
48.9444879074
 20
43.5982115932
 11
48.9444879074
 21
42.7882115932
  0
LINE
  5
34E
100
AcDbEntity
  8
0
100
AcDbLine
 62
7
  6
CONTINUOUS
 10
49.0416118794
 20
27.8472693959
 11
49.0416118794
 21
34.9576156198
  0
LINE
  5
34F
100
AcDbEntity
  8
0
100
AcDbLine
 62
7
  6
CONTINUOUS
 10
49.5408015141
 20
27.85950394
 11
49.5408015141
 21
27.8472693959
  0
LINE
  5
350
100
AcDbEntity
  8
0
100
AcDbLine
 62
7
  6
CONTINUOUS
 10
41.9307926427
 20
26.8003577513
 11
41.9490260295
 21
26.8775545
  0
LINE
  5
351
100
AcDbEntity
  8
0
100
AcDbLine
 62
7
  6
CONTINUOUS
 10
65.4694879074
 20
62.0382115932
 11
64.6694879074
 21
62.0382115932
  0
LINE
  5
352
100
AcDbEntity
  8
0
100
AcDbLine
 62
7
  6
CONTINUOUS
 10
58.2694879074
 20
62.0382115932
 11
57.4694879074
 21
62.0382115932
  0
LINE
  5
353
100
AcDbEntity
  8
0
100
AcDbLine
 62
7
  6
CONTINUOUS
 10
45.4694879074
 20
62.0382115932
 11
44.6694879074
 21
62.0382115932
  0
LINE
  5
354
100
AcDbEntity
  8
0
100
AcDbLine
 62
7
  6
CONTINUOUS
 10
38.2694879074
 20
62.0382115932
 11
37.4694879074
 21
62.0382115932
  0
LINE
  5
355
100
AcDbEntity
  8
0
100
AcDbLine
 62
7
  6
CONTINUOUS
 10
25.4694879074
 20
62.0382115932
 11
24.6694879074
 21
62.0382115932
  0
LINE
  5
356
100
AcDbEntity
  8
0
100
AcDbLine
 62
7
  6
CONTINUOUS
 10
18.2694879074
 20
62.0382115932
 11
17.4694879074
 21
62.0382115932
  0
LINE
  5
357
100
AcDbEntity
  8
0
100
AcDbLine
 62
7
  6
CONTINUOUS
 10
17.619365841
 20
62.8882115932
 11
18.1196099738
 21
62.8882115932
  0
LINE
  5
358
100
AcDbEntity
  8
0
100
AcDbLine
 62
7
  6
CONTINUOUS
 10
24.819365841
 20
62.8882115932
 11
25.3196099738
 21
62.8882115932
  0
LINE
  5
359
100
AcDbEntity
  8
0
100
AcDbLine
 62
7
  6
CONTINUOUS
 10
37.619365841
 20
62.8882115932
 11
38.1196099738
 21
62.8882115932
  0
LINE
  5
35A
100
AcDbEntity
  8
0
100
AcDbLine
 62
7
  6
CONTINUOUS
 10
44.819365841
 20
62.8882115932
 11
45.3196099738
 21
62.8882115932
  0
LINE
  5
35B
100
AcDbEntity
  8
0
100
AcDbLine
 62
7
  6
CONTINUOUS
 10
57.619365841
 20
62.8882115932
 11
58.1196099738
 21
62.8882115932
  0
LINE
  5
35C
100
AcDbEntity
  8
0
100
AcDbLine
 62
7
  6
CONTINUOUS
 10
64.819365841
 20
62.8882115932
 11
65.3196099738
 21
62.8882115932
  0
LINE
  5
35D
100
AcDbEntity
  8
0
100
AcDbLine
 62
7
  6
CONTINUOUS
 10
52.8341565064
 20
27.8850367159
 11
51.2198939216
 21
35.7618980583
  0
LINE
  5
35E
100
AcDbEntity
  8
0
100
AcDbLine
 62
7
  6
CONTINUOUS
 10
52.4970414285
 20
32.6660489893
 11
53.2425843893
 21
28.9318805247
  0
LINE
  5
35F
100
AcDbEntity
  8
0
100
AcDbLine
 62
7
  6
CONTINUOUS
 10
51.8876410952
 20
35.7618980583
 11
52.3220009072
 21
33.5596961433
  0
LINE
  5
360
100
AcDbEntity
  8
0
100
AcDbLine
 62
7
  6
CONTINUOUS
 10
45.3196099738
 20
62.8882115932
 11
45.4694879074
 21
62.0382115932
  0
LINE
  5
361
100
AcDbEntity
  8
0
100
AcDbLine
 62
7
  6
CONTINUOUS
 10
44.819365841
 20
67.4882115932
 11
44.6694879074
 21
68.3382115932
  0
LINE
  5
362
100
AcDbEntity
  8
0
100
AcDbLine
 62
7
  6
CONTINUOUS
 10
49.6574951949
 20
34.9576156198
 11
49.6574951949
 21
29.6787142177
  0
LINE
  5
363
100
AcDbEntity
  8
0
100
AcDbLine
 62
7
  6
CONTINUOUS
 10
49.7444879074
 20
43.4571500086
 11
49.7444879074
 21
42.9292731778
  0
LINE
  5
364
100
AcDbEntity
  8
0
100
AcDbLine
 62
7
  6
CONTINUOUS
 10
49.9001879074
 20
42.2882115932
 11
49.9001879074
 21
41.5982115932
  0
LINE
  5
365
100
AcDbEntity
  8
0
100
AcDbLine
 62
7
  6
CONTINUOUS
 10
50.2194879074
 20
103.4382115932
 11
50.2194879074
 21
56.6282115932
  0
LINE
  5
366
100
AcDbEntity
  8
0
100
AcDbLine
 62
7
  6
CONTINUOUS
 10
50.2311084973
 20
41.5982115932
 11
50.2311084973
 21
37.1940934019
  0
LINE
  5
367
100
AcDbEntity
  8
0
100
AcDbLine
 62
7
  6
CONTINUOUS
 10
50.5262148189
 20
35.7618980583
 11
50.5262148189
 21
34.9453810756
  0
LINE
  5
368
100
AcDbEntity
  8
0
100
AcDbLine
 62
7
  6
CONTINUOUS
 10
50.5262148189
 20
29.6787142177
 11
50.5262148189
 21
28.9451787564
  0
LINE
  5
369
100
AcDbEntity
  8
0
100
AcDbLine
 62
7
  6
CONTINUOUS
 10
51.2198939216
 20
35.7618980583
 11
51.2198939216
 21
35.7496635142
  0
LINE
  5
36A
100
AcDbEntity
  8
0
100
AcDbLine
 62
7
  6
CONTINUOUS
 10
52.7194879074
 20
56.6282115932
 11
52.7194879074
 21
103.4382115932
  0
LINE
  5
36B
100
AcDbEntity
  8
0
100
AcDbLine
 62
7
  6
CONTINUOUS
 10
52.8341565064
 20
27.8850367159
 11
52.8341565064
 21
27.8728021717
  0
LINE
  5
36C
100
AcDbEntity
  8
0
100
AcDbLine
 62
7
  6
CONTINUOUS
 10
34.9444879074
 20
44.0982679943
 11
34.0194879074
 21
43.5982115932
  0
LINE
  5
36D
100
AcDbEntity
  8
0
100
AcDbLine
 62
7
  6
CONTINUOUS
 10
34.0194879074
 20
42.7882115932
 11
34.9444879074
 21
43.2882679943
  0
LINE
  5
36E
100
AcDbEntity
  8
0
100
AcDbLine
 62
7
  6
CONTINUOUS
 10
52.7194879074
 20
67.0282115932
 11
50.2194879074
 21
67.0282115932
  0
LINE
  5
36F
100
AcDbEntity
  8
0
100
AcDbLine
 62
7
  6
CONTINUOUS
 10
32.7194879074
 20
67.0282115932
 11
30.2194879074
 21
67.0282115932
  0
LINE
  5
370
100
AcDbEntity
  8
0
100
AcDbLine
 62
7
  6
CONTINUOUS
 10
64.6694879074
 20
67.1382115932
 11
58.2694879074
 21
67.1382115932
  0
LINE
  5
371
100
AcDbEntity
  8
0
100
AcDbLine
 62
7
  6
CONTINUOUS
 10
52.7194879074
 20
67.1382115932
 11
50.2194879074
 21
67.1382115932
  0
LINE
  5
372
100
AcDbEntity
  8
0
100
AcDbLine
 62
7
  6
CONTINUOUS
 10
44.6694879074
 20
67.1382115932
 11
38.2694879074
 21
67.1382115932
  0
LINE
  5
373
100
AcDbEntity
  8
0
100
AcDbLine
 62
7
  6
CONTINUOUS
 10
32.7194879074
 20
67.1382115932
 11
30.2194879074
 21
67.1382115932
  0
LINE
  5
374
100
AcDbEntity
  8
0
100
AcDbLine
 62
7
  6
CONTINUOUS
 10
24.6694879074
 20
67.1382115932
 11
18.2694879074
 21
67.1382115932
  0
LINE
  5
375
100
AcDbEntity
  8
0
100
AcDbLine
 62
7
  6
CONTINUOUS
 10
15.9694879074
 20
67.1382115932
 11
17.4694879074
 21
67.1382115932
  0
LINE
  5
376
100
AcDbEntity
  8
0
100
AcDbLine
 62
7
  6
CONTINUOUS
 10
25.4694879074
 20
67.1382115932
 11
26.9694879074
 21
67.1382115932
  0
LINE
  5
377
100
AcDbEntity
  8
0
100
AcDbLine
 62
7
  6
CONTINUOUS
 10
35.9694879074
 20
67.1382115932
 11
37.4694879074
 21
67.1382115932
  0
LINE
  5
378
100
AcDbEntity
  8
0
100
AcDbLine
 62
7
  6
CONTINUOUS
 10
45.4694879074
 20
67.1382115932
 11
46.9694879074
 21
67.1382115932
  0
LINE
  5
379
100
AcDbEntity
  8
0
100
AcDbLine
 62
7
  6
CONTINUOUS
 10
55.9694879074
 20
67.1382115932
 11
57.4694879074
 21
67.1382115932
  0
LINE
  5
37A
100
AcDbEntity
  8
0
100
AcDbLine
 62
7
  6
CONTINUOUS
 10
65.4694879074
 20
67.1382115932
 11
66.9694879074
 21
67.1382115932
  0
LINE
  5
37B
100
AcDbEntity
  8
0
100
AcDbLine
 62
7
  6
CONTINUOUS
 10
15.9694879074
 20
67.4382115932
 11
17.4694879074
 21
67.4382115932
  0
LINE
  5
37C
100
AcDbEntity
  8
0
100
AcDbLine
 62
7
  6
CONTINUOUS
 10
18.2694879074
 20
67.4382115932
 11
24.6694879074
 21
67.4382115932
  0
LINE
  5
37D
100
AcDbEntity
  8
0
100
AcDbLine
 62
7
  6
CONTINUOUS
 10
25.4694879074
 20
67.4382115932
 11
26.9694879074
 21
67.4382115932
  0
LINE
  5
37E
100
AcDbEntity
  8
0
100
AcDbLine
 62
7
  6
CONTINUOUS
 10
35.9694879074
 20
67.4382115932
 11
37.4694879074
 21
67.4382115932
  0
LINE
  5
37F
100
AcDbEntity
  8
0
100
AcDbLine
 62
7
  6
CONTINUOUS
 10
38.2694879074
 20
67.4382115932
 11
44.6694879074
 21
67.4382115932
  0
LINE
  5
380
100
AcDbEntity
  8
0
100
AcDbLine
 62
7
  6
CONTINUOUS
 10
45.4694879074
 20
67.4382115932
 11
46.9694879074
 21
67.4382115932
  0
LINE
  5
381
100
AcDbEntity
  8
0
100
AcDbLine
 62
7
  6
CONTINUOUS
 10
55.9694879074
 20
67.4382115932
 11
57.4694879074
 21
67.4382115932
  0
LINE
  5
382
100
AcDbEntity
  8
0
100
AcDbLine
 62
7
  6
CONTINUOUS
 10
58.2694879074
 20
67.4382115932
 11
64.6694879074
 21
67.4382115932
  0
LINE
  5
383
100
AcDbEntity
  8
0
100
AcDbLine
 62
7
  6
CONTINUOUS
 10
65.4694879074
 20
67.4382115932
 11
66.9694879074
 21
67.4382115932
  0
LINE
  5
384
100
AcDbEntity
  8
0
100
AcDbLine
 62
7
  6
CONTINUOUS
 10
65.3196099738
 20
67.4882115932
 11
64.819365841
 21
67.4882115932
  0
LINE
  5
385
100
AcDbEntity
  8
0
100
AcDbLine
 62
7
  6
CONTINUOUS
 10
58.1196099738
 20
67.4882115932
 11
57.619365841
 21
67.4882115932
  0
LINE
  5
386
100
AcDbEntity
  8
0
100
AcDbLine
 62
7
  6
CONTINUOUS
 10
45.3196099738
 20
67.4882115932
 11
44.819365841
 21
67.4882115932
  0
LINE
  5
387
100
AcDbEntity
  8
0
100
AcDbLine
 62
7
  6
CONTINUOUS
 10
38.1196099738
 20
67.4882115932
 11
37.619365841
 21
67.4882115932
  0
LINE
  5
388
100
AcDbEntity
  8
0
100
AcDbLine
 62
7
  6
CONTINUOUS
 10
25.3196099738
 20
67.4882115932
 11
24.819365841
 21
67.4882115932
  0
LINE
  5
389
100
AcDbEntity
  8
0
100
AcDbLine
 62
7
  6
CONTINUOUS
 10
18.1196099738
 20
67.4882115932
 11
17.619365841
 21
67.4882115932
  0
LINE
  5
38A
100
AcDbEntity
  8
0
100
AcDbLine
 62
7
  6
CONTINUOUS
 10
17.4694879074
 20
68.3382115932
 11
18.2694879074
 21
68.3382115932
  0
LINE
  5
38B
100
AcDbEntity
  8
0
100
AcDbLine
 62
7
  6
CONTINUOUS
 10
24.6694879074
 20
68.3382115932
 11
25.4694879074
 21
68.3382115932
  0
LINE
  5
38C
100
AcDbEntity
  8
0
100
AcDbLine
 62
7
  6
CONTINUOUS
 10
37.4694879074
 20
68.3382115932
 11
38.2694879074
 21
68.3382115932
  0
LINE
  5
38D
100
AcDbEntity
  8
0
100
AcDbLine
 62
7
  6
CONTINUOUS
 10
44.6694879074
 20
68.3382115932
 11
45.4694879074
 21
68.3382115932
  0
LINE
  5
38E
100
AcDbEntity
  8
0
100
AcDbLine
 62
7
  6
CONTINUOUS
 10
57.4694879074
 20
68.3382115932
 11
58.2694879074
 21
68.3382115932
  0
LINE
  5
38F
100
AcDbEntity
  8
0
100
AcDbLine
 62
7
  6
CONTINUOUS
 10
64.6694879074
 20
68.3382115932
 11
65.4694879074
 21
68.3382115932
  0
LINE
  5
390
100
AcDbEntity
  8
0
100
AcDbLine
 62
7
  6
CONTINUOUS
 10
64.1694879074
 20
69.4382115932
 11
58.7694879074
 21
69.4382115932
  0
LINE
  5
391
100
AcDbEntity
  8
0
100
AcDbLine
 62
7
  6
CONTINUOUS
 10
44.1694879074
 20
69.4382115932
 11
38.7694879074
 21
69.4382115932
  0
LINE
  5
392
100
AcDbEntity
  8
0
100
AcDbLine
 62
7
  6
CONTINUOUS
 10
24.1694879074
 20
69.4382115932
 11
18.7694879074
 21
69.4382115932
  0
LINE
  5
393
100
AcDbEntity
  8
0
100
AcDbLine
 62
7
  6
CONTINUOUS
 10
17.3694879074
 20
69.4382115932
 11
17.6320853544
 21
69.4382115932
  0
LINE
  5
394
100
AcDbEntity
  8
0
100
AcDbLine
 62
7
  6
CONTINUOUS
 10
25.3068743454
 20
69.4382115932
 11
25.5694879074
 21
69.4382115932
  0
LINE
  5
395
100
AcDbEntity
  8
0
100
AcDbLine
 62
7
  6
CONTINUOUS
 10
37.3694879074
 20
69.4382115932
 11
37.6320853544
 21
69.4382115932
  0
LINE
  5
396
100
AcDbEntity
  8
0
100
AcDbLine
 62
7
  6
CONTINUOUS
 10
45.3068743454
 20
69.4382115932
 11
45.5694879074
 21
69.4382115932
  0
LINE
  5
397
100
AcDbEntity
  8
0
100
AcDbLine
 62
7
  6
CONTINUOUS
 10
57.3694879074
 20
69.4382115932
 11
57.6320853544
 21
69.4382115932
  0
LINE
  5
398
100
AcDbEntity
  8
0
100
AcDbLine
 62
7
  6
CONTINUOUS
 10
65.3068743454
 20
69.4382115932
 11
65.5694879074
 21
69.4382115932
  0
LINE
  5
399
100
AcDbEntity
  8
0
100
AcDbLine
 62
7
  6
CONTINUOUS
 10
53.6250803432
 20
27.8850367159
 11
53.6250803432
 21
27.8728021717
  0
LINE
  5
39A
100
AcDbEntity
  8
0
100
AcDbLine
 62
7
  6
CONTINUOUS
 10
53.9578673175
 20
41.5982115932
 11
53.9578673175
 21
37.1940934019
  0
LINE
  5
39B
100
AcDbEntity
  8
0
100
AcDbLine
 62
7
  6
CONTINUOUS
 10
54.2194879074
 20
56.6282115932
 11
54.2194879074
 21
103.4382115932
  0
LINE
  5
39C
100
AcDbEntity
  8
0
100
AcDbLine
 62
7
  6
CONTINUOUS
 10
54.2694879074
 20
103.4382115932
 11
54.2694879074
 21
104.3341195615
  0
LINE
  5
39D
100
AcDbEntity
  8
0
100
AcDbLine
 62
7
  6
CONTINUOUS
 10
54.2887879074
 20
42.2882115932
 11
54.2887879074
 21
41.5982115932
  0
LINE
  5
39E
100
AcDbEntity
  8
0
100
AcDbLine
 62
7
  6
CONTINUOUS
 10
54.4444879074
 20
43.4571500086
 11
54.4444879074
 21
42.9292731778
  0
LINE
  5
39F
100
AcDbEntity
  8
0
100
AcDbLine
 62
7
  6
CONTINUOUS
 10
55.239342928
 20
35.7618980583
 11
55.239342928
 21
35.7496635142
  0
LINE
  5
3A0
100
AcDbEntity
  8
0
100
AcDbLine
 62
7
  6
CONTINUOUS
 10
55.2444879074
 20
43.5982115932
 11
55.2444879074
 21
42.7882115932
  0
LINE
  5
3A1
100
AcDbEntity
  8
0
100
AcDbLine
 62
7
  6
CONTINUOUS
 10
55.4694879074
 20
17.4382115932
 11
55.4694879074
 21
16.9282115932
  0
LINE
  5
3A2
100
AcDbEntity
  8
0
100
AcDbLine
 62
7
  6
CONTINUOUS
 10
55.6822380551
 20
46.2373038002
 11
55.6822380551
 21
43.8348599861
  0
LINE
  5
3A3
100
AcDbEntity
  8
0
100
AcDbLine
 62
7
  6
CONTINUOUS
 10
55.9694879074
 20
103.4382115932
 11
55.9694879074
 21
67.1382115932
  0
LINE
  5
3A4
100
AcDbEntity
  8
0
100
AcDbLine
 62
7
  6
CONTINUOUS
 10
56.1944879074
 20
44.0982115932
 11
56.1944879074
 21
42.7882115932
  0
LINE
  5
3A5
100
AcDbEntity
  8
0
100
AcDbLine
 62
7
  6
CONTINUOUS
 10
56.3522000824
 20
89.148211679
 11
56.3522000824
 21
88.5382115932
  0
LINE
  5
3A6
100
AcDbEntity
  8
0
100
AcDbLine
 62
7
  6
CONTINUOUS
 10
56.5244879074
 20
67.1382115932
 11
56.5244879074
 21
56.6282115932
  0
LINE
  5
3A7
100
AcDbEntity
  8
0
100
AcDbLine
 62
7
  6
CONTINUOUS
 10
56.9694879074
 20
100.4382115932
 11
56.9694879074
 21
96.1522855966
  0
LINE
  5
3A8
100
AcDbEntity
  8
0
100
AcDbLine
 62
7
  6
CONTINUOUS
 10
56.9694879074
 20
51.5382115932
 11
56.9694879074
 21
43.7882115932
  0
LINE
  5
3A9
100
AcDbEntity
  8
0
100
AcDbLine
 62
7
  6
CONTINUOUS
 10
56.9694879074
 20
39.6419225916
 11
56.9694879074
 21
16.9282115932
  0
LINE
  5
3AA
100
AcDbEntity
  8
0
100
AcDbLine
 62
7
  6
CONTINUOUS
 10
56.9694879074
 20
41.2882115932
 11
56.9694879074
 21
42.7882115932
  0
LINE
  5
3AB
100
AcDbEntity
  8
0
100
AcDbLine
 62
7
  6
CONTINUOUS
 10
58.2694879074
 20
68.3382115932
 11
58.1196099738
 21
67.4882115932
  0
LINE
  5
3AC
100
AcDbEntity
  8
0
100
AcDbLine
 62
7
  6
CONTINUOUS
 10
57.4694879074
 20
62.0382115932
 11
57.619365841
 21
62.8882115932
  0
LINE
  5
3AD
100
AcDbEntity
  8
0
100
AcDbLine
 62
7
  6
CONTINUOUS
 10
17.3694879074
 20
70.2382115932
 11
25.5694879074
 21
70.2382115932
  0
LINE
  5
3AE
100
AcDbEntity
  8
0
100
AcDbLine
 62
7
  6
CONTINUOUS
 10
37.3694879074
 20
70.2382115932
 11
45.5694879074
 21
70.2382115932
  0
LINE
  5
3AF
100
AcDbEntity
  8
0
100
AcDbLine
 62
7
  6
CONTINUOUS
 10
57.3694879074
 20
70.2382115932
 11
65.5694879074
 21
70.2382115932
  0
LINE
  5
3B0
100
AcDbEntity
  8
0
100
AcDbLine
 62
7
  6
CONTINUOUS
 10
17.3694879074
 20
72.4882115932
 11
25.5694879074
 21
72.4882115932
  0
LINE
  5
3B1
100
AcDbEntity
  8
0
100
AcDbLine
 62
7
  6
CONTINUOUS
 10
37.3694879074
 20
72.4882115932
 11
45.5694879074
 21
72.4882115932
  0
LINE
  5
3B2
100
AcDbEntity
  8
0
100
AcDbLine
 62
7
  6
CONTINUOUS
 10
57.3694879074
 20
72.4882115932
 11
65.5694879074
 21
72.4882115932
  0
LINE
  5
3B3
100
AcDbEntity
  8
0
100
AcDbLine
 62
7
  6
CONTINUOUS
 10
57.3694879074
 20
86.5382115932
 11
57.3694879074
 21
69.4382115932
  0
LINE
  5
3B4
100
AcDbEntity
  8
0
100
AcDbLine
 62
7
  6
CONTINUOUS
 10
57.4694879074
 20
100.4382115932
 11
57.4694879074
 21
97.0240089944
  0
LINE
  5
3B5
100
AcDbEntity
  8
0
100
AcDbLine
 62
7
  6
CONTINUOUS
 10
57.4694879074
 20
16.9282115932
 11
57.4694879074
 21
18.4282115932
  0
LINE
  5
3B6
100
AcDbEntity
  8
0
100
AcDbLine
 62
7
  6
CONTINUOUS
 10
57.4694879074
 20
55.1282115932
 11
57.4694879074
 21
56.6282115932
  0
LINE
  5
3B7
100
AcDbEntity
  8
0
100
AcDbLine
 62
7
  6
CONTINUOUS
 10
57.4694879074
 20
62.0382115932
 11
57.4694879074
 21
68.9382115932
  0
LINE
  5
3B8
100
AcDbEntity
  8
0
100
AcDbLine
 62
7
  6
CONTINUOUS
 10
57.619365841
 20
62.8882115932
 11
57.619365841
 21
67.4882115932
  0
LINE
  5
3B9
100
AcDbEntity
  8
0
100
AcDbLine
 62
7
  6
CONTINUOUS
 10
57.7194879074
 20
69.7041732103
 11
57.7194879074
 21
72.4882115932
  0
LINE
  5
3BA
100
AcDbEntity
  8
0
100
AcDbLine
 62
7
  6
CONTINUOUS
 10
58.1196099738
 20
67.4882115932
 11
58.1196099738
 21
62.8882115932
  0
LINE
  5
3BB
100
AcDbEntity
  8
0
100
AcDbLine
 62
7
  6
CONTINUOUS
 10
58.2694879074
 20
62.0382115932
 11
58.2694879074
 21
68.9382115932
  0
LINE
  5
3BC
100
AcDbEntity
  8
0
100
AcDbLine
 62
7
  6
CONTINUOUS
 10
58.3194879074
 20
70.2382115932
 11
58.3194879074
 21
70.0918593874
  0
LINE
  5
3BD
100
AcDbEntity
  8
0
100
AcDbLine
 62
7
  6
CONTINUOUS
 10
58.3239288131
 20
101.9382115932
 11
58.3239288131
 21
100.4382115932
  0
LINE
  5
3BE
100
AcDbEntity
  8
0
100
AcDbLine
 62
7
  6
CONTINUOUS
 10
58.7529985187
 20
100.4382115932
 11
58.7529985187
 21
101.9382115932
  0
LINE
  5
3BF
100
AcDbEntity
  8
0
100
AcDbLine
 62
7
  6
CONTINUOUS
 10
59.2194879074
 20
72.4882115932
 11
59.2194879074
 21
70.2382115932
  0
LINE
  5
3C0
100
AcDbEntity
  8
0
100
AcDbLine
 62
7
  6
CONTINUOUS
 10
54.1631678714
 20
33.5596961433
 11
54.5975276834
 21
35.7618980583
  0
LINE
  5
3C1
100
AcDbEntity
  8
0
100
AcDbLine
 62
7
  6
CONTINUOUS
 10
53.2425843893
 20
28.9318805247
 11
53.9881273502
 21
32.6660489893
  0
LINE
  5
3C2
100
AcDbEntity
  8
0
100
AcDbLine
 62
7
  6
CONTINUOUS
 10
53.6250803432
 20
27.8728021717
 11
55.239342928
 21
35.7618980583
  0
LINE
  5
3C3
100
AcDbEntity
  8
0
100
AcDbLine
 62
7
  6
CONTINUOUS
 10
56.1693835772
 20
44.0982115932
 11
55.2444879074
 21
43.5982115932
  0
LINE
  5
3C4
100
AcDbEntity
  8
0
100
AcDbLine
 62
7
  6
CONTINUOUS
 10
58.1196099738
 20
62.8882115932
 11
58.2694879074
 21
62.0382115932
  0
LINE
  5
3C5
100
AcDbEntity
  8
0
100
AcDbLine
 62
7
  6
CONTINUOUS
 10
57.619365841
 20
67.4882115932
 11
57.4694879074
 21
68.3382115932
  0
LINE
  5
3C6
100
AcDbEntity
  8
0
100
AcDbLine
 62
7
  6
CONTINUOUS
 10
63.7194879074
 20
70.2382115932
 11
63.7194879074
 21
72.4882115932
  0
LINE
  5
3C7
100
AcDbEntity
  8
0
100
AcDbLine
 62
7
  6
CONTINUOUS
 10
64.6194879074
 20
70.0918738909
 11
64.6194879074
 21
70.2382115932
  0
LINE
  5
3C8
100
AcDbEntity
  8
0
100
AcDbLine
 62
7
  6
CONTINUOUS
 10
64.6694879074
 20
68.9382115932
 11
64.6694879074
 21
62.0382115932
  0
LINE
  5
3C9
100
AcDbEntity
  8
0
100
AcDbLine
 62
7
  6
CONTINUOUS
 10
65.4694879074
 20
68.3382115932
 11
65.3196099738
 21
67.4882115932
  0
LINE
  5
3CA
100
AcDbEntity
  8
0
100
AcDbLine
 62
7
  6
CONTINUOUS
 10
64.6694879074
 20
62.0382115932
 11
64.819365841
 21
62.8882115932
  0
LINE
  5
3CB
100
AcDbEntity
  8
0
100
AcDbLine
 62
7
  6
CONTINUOUS
 10
55.2444879074
 20
42.7882115932
 11
56.1693835772
 21
43.2882115932
  0
LINE
  5
3CC
100
AcDbEntity
  8
0
100
AcDbLine
 62
7
  6
CONTINUOUS
 10
68.2197068498
 20
10.9382115932
 11
68.1740074532
 21
16.1748437602
  0
LINE
  5
3CD
100
AcDbEntity
  8
0
100
AcDbLine
 62
7
  6
CONTINUOUS
 10
64.819365841
 20
62.8882115932
 11
64.819365841
 21
67.4882115932
  0
LINE
  5
3CE
100
AcDbEntity
  8
0
100
AcDbLine
 62
7
  6
CONTINUOUS
 10
65.2194879074
 20
72.4882115932
 11
65.2194879074
 21
69.7041897528
  0
LINE
  5
3CF
100
AcDbEntity
  8
0
100
AcDbLine
 62
7
  6
CONTINUOUS
 10
65.3196099738
 20
67.4882115932
 11
65.3196099738
 21
62.8882115932
  0
LINE
  5
3D0
100
AcDbEntity
  8
0
100
AcDbLine
 62
7
  6
CONTINUOUS
 10
65.4694879074
 20
62.0382115932
 11
65.4694879074
 21
68.9382115932
  0
LINE
  5
3D1
100
AcDbEntity
  8
0
100
AcDbLine
 62
7
  6
CONTINUOUS
 10
65.5694879074
 20
69.4382115932
 11
65.5694879074
 21
86.5382115932
  0
LINE
  5
3D2
100
AcDbEntity
  8
0
100
AcDbLine
 62
7
  6
CONTINUOUS
 10
66.4144879074
 20
56.6282115932
 11
66.4144879074
 21
67.1382115932
  0
LINE
  5
3D3
100
AcDbEntity
  8
0
100
AcDbLine
 62
7
  6
CONTINUOUS
 10
66.5867757324
 20
89.1482115932
 11
66.5867757324
 21
88.5382115932
  0
LINE
  5
3D4
100
AcDbEntity
  8
0
100
AcDbLine
 62
7
  6
CONTINUOUS
 10
66.9694879074
 20
67.1382115932
 11
66.9694879074
 21
103.4382115932
  0
LINE
  5
3D5
100
AcDbEntity
  8
0
100
AcDbLine
 62
7
  6
CONTINUOUS
 10
68.1740074532
 20
16.9282115932
 11
68.1740074532
 21
16.1748437602
  0
LINE
  5
3D6
100
AcDbEntity
  8
0
100
AcDbLine
 62
7
  6
CONTINUOUS
 10
65.3196099738
 20
62.8882115932
 11
65.4694879074
 21
62.0382115932
  0
LINE
  5
3D7
100
AcDbEntity
  8
0
100
AcDbLine
 62
7
  6
CONTINUOUS
 10
64.819365841
 20
67.4882115932
 11
64.6694879074
 21
68.3382115932
  0
LINE
  5
3D8
100
AcDbEntity
  8
0
100
AcDbLine
 62
7
  6
CONTINUOUS
 10
71.5494879074
 20
16.9282115932
 11
70.2094879074
 21
56.6282115932
  0
LINE
  5
3D9
100
AcDbEntity
  8
0
100
AcDbLine
 62
7
  6
CONTINUOUS
 10
68.7092594849
 20
56.6282115932
 11
67.8921878956
 21
103.4382115932
  0
LINE
  5
3DA
100
AcDbEntity
  8
0
100
AcDbLine
 62
7
  6
CONTINUOUS
 10
69.3924163181
 20
103.4382115932
 11
70.2094879074
 21
56.6282115932
  0
LINE
  5
3DB
100
AcDbEntity
  8
0
100
AcDbLine
 62
7
  6
CONTINUOUS
 10
65.5694879074
 20
86.5382115932
 11
57.3694879074
 21
86.5382115932
  0
LINE
  5
3DC
100
AcDbEntity
  8
0
100
AcDbLine
 62
7
  6
CONTINUOUS
 10
45.5694879074
 20
86.5382115932
 11
37.3694879074
 21
86.5382115932
  0
LINE
  5
3DD
100
AcDbEntity
  8
0
100
AcDbLine
 62
7
  6
CONTINUOUS
 10
25.5694879074
 20
86.5382115932
 11
17.3694879074
 21
86.5382115932
  0
LINE
  5
3DE
100
AcDbEntity
  8
0
100
AcDbLine
 62
7
  6
CONTINUOUS
 10
73.1638174493
 20
16.9282115932
 11
73.1442668391
 21
18.41512179
  0
LINE
  5
3DF
100
AcDbEntity
  8
0
100
AcDbLine
 62
7
  6
CONTINUOUS
 10
73.1442668391
 20
18.41512179
 11
72.4022815752
 21
103.4382115932
  0
LINE
  5
3E0
100
AcDbEntity
  8
0
100
AcDbLine
 62
7
  6
CONTINUOUS
 10
73.1622526368
 20
103.4382115932
 11
73.9694879074
 21
10.9382115932
  0
LINE
  5
3E1
100
AcDbEntity
  8
0
100
AcDbLine
 62
7
  6
CONTINUOUS
 10
73.2194879074
 20
103.7382115932
 11
73.2194879074
 21
103.4151811939
  0
LINE
  5
3E2
100
AcDbEntity
  8
0
100
AcDbLine
 62
7
  6
CONTINUOUS
 10
73.5694879074
 20
100.4382115932
 11
73.5694879074
 21
102.9382115932
  0
LINE
  5
3E3
100
AcDbEntity
  8
0
100
AcDbLine
 62
7
  6
CONTINUOUS
 10
73.7194879074
 20
75.0679623834
 11
73.7194879074
 21
75.8882115932
  0
LINE
  5
3E4
100
AcDbEntity
  8
0
100
AcDbLine
 62
7
  6
CONTINUOUS
 10
73.7194879074
 20
82.7882115932
 11
73.7194879074
 21
92.7882115932
  0
LINE
  5
3E5
100
AcDbEntity
  8
0
100
AcDbLine
 62
7
  6
CONTINUOUS
 10
66.9694879074
 20
88.5382115932
 11
55.9694879074
 21
88.5382115932
  0
LINE
  5
3E6
100
AcDbEntity
  8
0
100
AcDbLine
 62
7
  6
CONTINUOUS
 10
46.9694879074
 20
88.5382115932
 11
35.9694879074
 21
88.5382115932
  0
LINE
  5
3E7
100
AcDbEntity
  8
0
100
AcDbLine
 62
7
  6
CONTINUOUS
 10
26.9694879074
 20
88.5382115932
 11
15.9694879074
 21
88.5382115932
  0
LINE
  5
3E8
100
AcDbEntity
  8
0
100
AcDbLine
 62
7
  6
CONTINUOUS
 10
16.3522000824
 20
89.1482115932
 11
26.5867757324
 21
89.1482115932
  0
LINE
  5
3E9
100
AcDbEntity
  8
0
100
AcDbLine
 62
7
  6
CONTINUOUS
 10
36.3522000824
 20
89.1482115932
 11
46.5867757324
 21
89.1482115932
  0
LINE
  5
3EA
100
AcDbEntity
  8
0
100
AcDbLine
 62
7
  6
CONTINUOUS
 10
56.3522000824
 20
89.1482115932
 11
66.5867757324
 21
89.1482115932
  0
LINE
  5
3EB
100
AcDbEntity
  8
0
100
AcDbLine
 62
7
  6
CONTINUOUS
 10
56.9694879074
 20
96.1522855966
 11
55.9694879074
 21
96.1522855966
  0
LINE
  5
3EC
100
AcDbEntity
  8
0
100
AcDbLine
 62
7
  6
CONTINUOUS
 10
46.9694879074
 20
96.1522855966
 11
45.9694879074
 21
96.1522855966
  0
LINE
  5
3ED
100
AcDbEntity
  8
0
100
AcDbLine
 62
7
  6
CONTINUOUS
 10
73.5694879074
 20
100.4382115932
 11
73.1884332401
 21
100.4382115932
  0
LINE
  5
3EE
100
AcDbEntity
  8
0
100
AcDbLine
 62
7
  6
CONTINUOUS
 10
9.7505425747
 20
100.4382115932
 11
9.3694879074
 21
100.4382115932
  0
LINE
  5
3EF
100
AcDbEntity
  8
0
100
AcDbLine
 62
7
  6
CONTINUOUS
 10
15.9694879074
 20
100.4382115932
 11
26.9694879074
 21
100.4382115932
  0
LINE
  5
3F0
100
AcDbEntity
  8
0
100
AcDbLine
 62
7
  6
CONTINUOUS
 10
35.9694879074
 20
100.4382115932
 11
46.9694879074
 21
100.4382115932
  0
LINE
  5
3F1
100
AcDbEntity
  8
0
100
AcDbLine
 62
7
  6
CONTINUOUS
 10
50.2194879074
 20
100.4382115932
 11
52.7194879074
 21
100.4382115932
  0
LINE
  5
3F2
100
AcDbEntity
  8
0
100
AcDbLine
 62
7
  6
CONTINUOUS
 10
55.9694879074
 20
100.4382115932
 11
66.9694879074
 21
100.4382115932
  0
LINE
  5
3F3
100
AcDbEntity
  8
0
100
AcDbLine
 62
7
  6
CONTINUOUS
 10
44.1859772961
 20
101.9382115932
 11
46.9694879074
 21
101.9382115932
  0
LINE
  5
3F4
100
AcDbEntity
  8
0
100
AcDbLine
 62
7
  6
CONTINUOUS
 10
50.2194879074
 20
101.9382115932
 11
52.7194879074
 21
101.9382115932
  0
LINE
  5
3F5
100
AcDbEntity
  8
0
100
AcDbLine
 62
7
  6
CONTINUOUS
 10
55.9694879074
 20
101.9382115932
 11
58.7529985187
 21
101.9382115932
  0
LINE
  5
3F6
100
AcDbEntity
  8
0
100
AcDbLine
 62
7
  6
CONTINUOUS
 10
52.7194879074
 20
102.4382115932
 11
51.996270595
 21
102.4382115932
  0
LINE
  5
3F7
100
AcDbEntity
  8
0
100
AcDbLine
 62
7
  6
CONTINUOUS
 10
50.9427052198
 20
102.4382115932
 11
50.2194879074
 21
102.4382115932
  0
LINE
  5
3F8
100
AcDbEntity
  8
0
100
AcDbLine
 62
7
  6
CONTINUOUS
 10
45.0521438179
 20
102.4382115932
 11
46.9694879074
 21
102.4382115932
  0
LINE
  5
3F9
100
AcDbEntity
  8
0
100
AcDbLine
 62
7
  6
CONTINUOUS
 10
55.9694879074
 20
102.4382115932
 11
57.8868319969
 21
102.4382115932
  0
LINE
  5
3FA
100
AcDbEntity
  8
0
100
AcDbLine
 62
7
  6
CONTINUOUS
 10
9.3694879074
 20
102.9382115932
 11
9.7723597441
 21
102.9382115932
  0
LINE
  5
3FB
100
AcDbEntity
  8
0
100
AcDbLine
 62
7
  6
CONTINUOUS
 10
15.9694879074
 20
102.9382115932
 11
26.9694879074
 21
102.9382115932
  0
LINE
  5
3FC
100
AcDbEntity
  8
0
100
AcDbLine
 62
7
  6
CONTINUOUS
 10
35.9694879074
 20
102.9382115932
 11
46.9694879074
 21
102.9382115932
  0
LINE
  5
3FD
100
AcDbEntity
  8
0
100
AcDbLine
 62
7
  6
CONTINUOUS
 10
55.9694879074
 20
102.9382115932
 11
66.9694879074
 21
102.9382115932
  0
LINE
  5
3FE
100
AcDbEntity
  8
0
100
AcDbLine
 62
7
  6
CONTINUOUS
 10
73.1598532136
 20
102.9382115932
 11
73.5694879074
 21
102.9382115932
  0
LINE
  5
3FF
100
AcDbEntity
  8
0
100
AcDbLine
 62
7
  6
CONTINUOUS
 10
9.776723178
 20
103.4382115932
 11
50.2194879074
 21
103.4382115932
  0
LINE
  5
400
100
AcDbEntity
  8
0
100
AcDbLine
 62
7
  6
CONTINUOUS
 10
52.7194879074
 20
103.4382115932
 11
73.1622526328
 21
103.4382115932
  0
LINE
  5
401
100
AcDbEntity
  8
0
100
AcDbLine
 62
7
  6
CONTINUOUS
 10
73.2194879074
 20
103.7382115932
 11
54.2694879074
 21
103.7382115932
  0
LINE
  5
402
100
AcDbEntity
  8
0
100
AcDbLine
 62
7
  6
CONTINUOUS
 10
48.6694879074
 20
103.7382115932
 11
9.7194879074
 21
103.7382115932
  0
LINE
  5
403
100
AcDbEntity
  8
0
100
AcDbLine
 62
7
  6
CONTINUOUS
 10
28.6694878184
 20
104.3341195615
 11
34.2694879074
 21
104.3341195615
  0
LINE
  5
404
100
AcDbEntity
  8
0
100
AcDbLine
 62
7
  6
CONTINUOUS
 10
48.6694878184
 20
104.3341195615
 11
54.2694879074
 21
104.3341195615
  0
ARC
  5
405
100
AcDbEntity
  8
0
100
AcDbCircle
 62
7
  6
CONTINUOUS
 10
73.7136765084
 20
-40.5161344864
 40
58.9340071065
100
AcDbArc
 50
90.0314282677
 51
90.5535900252
  0
ARC
  5
406
100
AcDbEntity
  8
0
100
AcDbCircle
 62
7
  6
CONTINUOUS
 10
73.1638174493
 20
16.1682115932
 40
0.76
100
AcDbArc
 50
0.5
 51
90.0
  0
ARC
  5
407
100
AcDbEntity
  8
0
100
AcDbCircle
 62
7
  6
CONTINUOUS
 10
9.7751583655
 20
16.1682115932
 40
0.76
100
AcDbArc
 50
90.0
 51
179.5
  0
ARC
  5
408
100
AcDbEntity
  8
0
100
AcDbCircle
 62
7
  6
CONTINUOUS
 10
24.1694879074
 20
68.9382115932
 40
1.3
100
AcDbArc
 50
0.0
 51
90.0
  0
ARC
  5
409
100
AcDbEntity
  8
0
100
AcDbCircle
 62
7
  6
CONTINUOUS
 10
18.7694879074
 20
68.9382115932
 40
1.3
100
AcDbArc
 50
90.0
 51
180.0
  0
ARC
  5
40A
100
AcDbEntity
  8
0
100
AcDbCircle
 62
7
  6
CONTINUOUS
 10
38.7694879074
 20
68.9382115932
 40
1.3
100
AcDbArc
 50
90.0
 51
180.0
  0
ARC
  5
40B
100
AcDbEntity
  8
0
100
AcDbCircle
 62
7
  6
CONTINUOUS
 10
26.9694879074
 20
51.5382115932
 40
1.0
100
AcDbArc
 50
90.0
 51
180.0
  0
ARC
  5
40C
100
AcDbEntity
  8
0
100
AcDbCircle
 62
7
  6
CONTINUOUS
 10
36.7194879074
 20
42.7882115932
 40
1.0
100
AcDbArc
 50
90.0
 51
180.0
  0
ARC
  5
40D
100
AcDbEntity
  8
0
100
AcDbCircle
 62
7
  6
CONTINUOUS
 10
24.1694879074
 20
68.9382115932
 40
0.5
100
AcDbArc
 50
0.0
 51
90.0
  0
ARC
  5
40E
100
AcDbEntity
  8
0
100
AcDbCircle
 62
7
  6
CONTINUOUS
 10
18.7694879074
 20
68.9382115932
 40
0.5
100
AcDbArc
 50
90.0
 51
180.0
  0
ARC
  5
40F
100
AcDbEntity
  8
0
100
AcDbCircle
 62
7
  6
CONTINUOUS
 10
38.7694879074
 20
68.9382115932
 40
0.5
100
AcDbArc
 50
90.0
 51
180.0
  0
ARC
  5
410
100
AcDbEntity
  8
0
100
AcDbCircle
 62
7
  6
CONTINUOUS
 10
28.1501879074
 20
42.2882115932
 40
0.5
100
AcDbArc
 50
0.0
 51
90.0
  0
ARC
  5
411
100
AcDbEntity
  8
0
100
AcDbCircle
 62
7
  6
CONTINUOUS
 10
33.5387879074
 20
42.2882115932
 40
0.5
100
AcDbArc
 50
90.0
 51
180.0
  0
ARC
  5
412
100
AcDbEntity
  8
INTFCLR_48444
100
AcDbCircle
 62
7
  6
CONTINUOUS
 10
28.9601879074
 20
43.0982115932
 40
0.5
100
AcDbArc
 50
83.5204091668
 51
90.0
  0
ARC
  5
413
100
AcDbEntity
  8
INTFCLR_48444
100
AcDbCircle
 62
7
  6
CONTINUOUS
 10
32.7287879074
 20
43.0982115932
 40
0.5
100
AcDbArc
 50
90.0
 51
96.4795908332
  0
ARC
  5
414
100
AcDbEntity
  8
0
100
AcDbCircle
 62
7
  6
CONTINUOUS
 10
11.2194879074
 20
92.7882115932
 40
2.0
100
AcDbArc
 50
143.6640284163
 51
180.0
  0
ARC
  5
415
100
AcDbEntity
  8
0
100
AcDbCircle
 62
7
  6
CONTINUOUS
 10
9.9194879074
 20
82.7882115932
 40
0.7
100
AcDbArc
 50
180.0
 51
240.0850612179
  0
ARC
  5
416
100
AcDbEntity
  8
0
100
AcDbCircle
 62
7
  6
CONTINUOUS
 10
9.9194879074
 20
75.8882115932
 40
0.7
100
AcDbArc
 50
124.5196547803
 51
180.0
  0
ARC
  5
417
100
AcDbEntity
  8
0
100
AcDbCircle
 62
7
  6
CONTINUOUS
 10
9.9194879074
 20
75.0679623834
 40
0.7
100
AcDbArc
 50
180.0
 51
235.3834568359
  0
ARC
  5
418
100
AcDbEntity
  8
0
100
AcDbCircle
 62
7
  6
CONTINUOUS
 10
9.8694879074
 20
102.9382115932
 40
0.5
100
AcDbArc
 50
98.7824281601
 51
180.0
  0
ARC
  5
419
100
AcDbEntity
  8
0
100
AcDbCircle
 62
7
  6
CONTINUOUS
 10
64.1694879074
 20
68.9382115932
 40
1.3
100
AcDbArc
 50
0.0
 51
90.0
  0
ARC
  5
41A
100
AcDbEntity
  8
0
100
AcDbCircle
 62
7
  6
CONTINUOUS
 10
58.7694879074
 20
68.9382115932
 40
1.3
100
AcDbArc
 50
90.0
 51
180.0
  0
ARC
  5
41B
100
AcDbEntity
  8
0
100
AcDbCircle
 62
7
  6
CONTINUOUS
 10
44.1694879074
 20
68.9382115932
 40
1.3
100
AcDbArc
 50
0.0
 51
90.0
  0
ARC
  5
41C
100
AcDbEntity
  8
0
100
AcDbCircle
 62
7
  6
CONTINUOUS
 10
55.9694879074
 20
51.5382115932
 40
1.0
100
AcDbArc
 50
0.0
 51
90.0
  0
ARC
  5
41D
100
AcDbEntity
  8
0
100
AcDbCircle
 62
7
  6
CONTINUOUS
 10
46.2194879074
 20
42.7882115932
 40
1.0
100
AcDbArc
 50
0.0
 51
90.0
  0
ARC
  5
41E
100
AcDbEntity
  8
0
100
AcDbCircle
 62
7
  6
CONTINUOUS
 10
64.1694879074
 20
68.9382115932
 40
0.5
100
AcDbArc
 50
0.0
 51
90.0
  0
ARC
  5
41F
100
AcDbEntity
  8
0
100
AcDbCircle
 62
7
  6
CONTINUOUS
 10
58.7694879074
 20
68.9382115932
 40
0.5
100
AcDbArc
 50
90.0
 51
180.0
  0
ARC
  5
420
100
AcDbEntity
  8
0
100
AcDbCircle
 62
7
  6
CONTINUOUS
 10
44.1694879074
 20
68.9382115932
 40
0.5
100
AcDbArc
 50
0.0
 51
90.0
  0
ARC
  5
421
100
AcDbEntity
  8
0
100
AcDbCircle
 62
7
  6
CONTINUOUS
 10
54.7887879074
 20
42.2882115932
 40
0.5
100
AcDbArc
 50
90.0
 51
180.0
  0
ARC
  5
422
100
AcDbEntity
  8
0
100
AcDbCircle
 62
7
  6
CONTINUOUS
 10
49.4001879074
 20
42.2882115932
 40
0.5
100
AcDbArc
 50
0.0
 51
90.0
  0
ARC
  5
423
100
AcDbEntity
  8
INTFCLR_48444
100
AcDbCircle
 62
7
  6
CONTINUOUS
 10
50.2101879074
 20
43.0982115932
 40
0.5
100
AcDbArc
 50
87.6019769481
 51
90.0
  0
ARC
  5
424
100
AcDbEntity
  8
INTFCLR_48444
100
AcDbCircle
 62
7
  6
CONTINUOUS
 10
53.9787879074
 20
43.0982115932
 40
0.5
100
AcDbArc
 50
90.0
 51
92.3980230519
  0
ARC
  5
425
100
AcDbEntity
  8
0
100
AcDbCircle
 62
7
  6
CONTINUOUS
 10
71.7194879074
 20
92.7882115932
 40
2.0
100
AcDbArc
 50
0.0
 51
36.3343831999
  0
ARC
  5
426
100
AcDbEntity
  8
0
100
AcDbCircle
 62
7
  6
CONTINUOUS
 10
73.0194879074
 20
75.8882115932
 40
0.7
100
AcDbArc
 50
0.0
 51
55.4803452197
  0
ARC
  5
427
100
AcDbEntity
  8
0
100
AcDbCircle
 62
7
  6
CONTINUOUS
 10
73.0194879074
 20
75.0679623834
 40
0.7
100
AcDbArc
 50
304.6165431641
 51
360.0
  0
ARC
  5
428
100
AcDbEntity
  8
0
100
AcDbCircle
 62
7
  6
CONTINUOUS
 10
73.0194879074
 20
82.7882115932
 40
0.7
100
AcDbArc
 50
299.9149387821
 51
360.0
  0
ARC
  5
429
100
AcDbEntity
  8
0
100
AcDbCircle
 62
7
  6
CONTINUOUS
 10
73.0694879074
 20
102.9382115932
 40
0.5
100
AcDbArc
 50
0.0
 51
79.7554841687
  0
ARC
  5
42A
100
AcDbEntity
  8
0
100
AcDbCircle
 62
7
  6
CONTINUOUS
 10
170.5480019668
 20
-56.2612017082
 40
167.1794467465
100
AcDbArc
 50
146.9763564043
 51
147.3512826023
  0
SPLINE
  5
42B
100
AcDbEntity
  8
0
100
AcDbSpline
 62
7
  6
CONTINUOUS
 70
0
 71
3
 72
10
 73
6
 74
0
 42
0.0000001
 43
0.0000001
 44
0.0000000001
 40
0.0
 40
0.0
 40
0.0
 40
0.0
 40
0.1888497884
 40
0.4245448693
 40
1.0
 40
1.0
 40
1.0
 40
1.0
 10
37.7881669821
 20
29.1983910948
 30
0.0
 10
37.7770727065
 20
29.2188726736
 30
0.0
 10
37.7609160356
 20
29.2694161727
 30
0.0
 10
37.7425108327
 20
29.3914192454
 30
0.0
 10
37.7407601762
 20
29.4918531831
 30
0.0
 10
37.7407601762
 20
29.5628315597
 30
0.0
  0
SPLINE
  5
42C
100
AcDbEntity
  8
0
100
AcDbSpline
 62
7
  6
CONTINUOUS
 70
0
 71
3
 72
11
 73
7
 74
0
 42
0.0000001
 43
0.0000001
 44
0.0000000001
 40
0.0
 40
0.0
 40
0.0
 40
0.0
 40
0.3080517707
 40
0.557267958
 40
0.7766960728
 40
1.0
 40
1.0
 40
1.0
 40
1.0
 10
38.0252010115
 20
29.0816983351
 30
0.0
 10
37.9964610995
 20
29.0816983351
 30
0.0
 10
37.9442786891
 20
29.0848784636
 30
0.0
 10
37.8738608031
 20
29.1057722253
 30
0.0
 10
37.820483307
 20
29.1444831512
 30
0.0
 10
37.7973705298
 20
29.1797009602
 30
0.0
 10
37.7881669821
 20
29.1983910948
 30
0.0
  0
SPLINE
  5
42D
100
AcDbEntity
  8
0
100
AcDbSpline
 62
7
  6
CONTINUOUS
 70
0
 71
3
 72
10
 73
6
 74
0
 42
0.0000001
 43
0.0000001
 44
0.0000000001
 40
0.0
 40
0.0
 40
0.0
 40
0.0
 40
0.3031634335
 40
0.5689206006
 40
1.0
 40
1.0
 40
1.0
 40
1.0
 10
38.419042168
 20
29.2881547561
 30
0.0
 10
38.385889811
 20
29.2566382802
 30
0.0
 10
38.3204929617
 20
29.200390017
 30
0.0
 10
38.1946181975
 20
29.1179446831
 30
0.0
 10
38.090243835
 20
29.0816983351
 30
0.0
 10
38.0252010115
 20
29.0816983351
 30
0.0
  0
SPLINE
  5
42E
100
AcDbEntity
  8
0
100
AcDbSpline
 62
7
  6
CONTINUOUS
 70
0
 71
3
 72
10
 73
6
 74
0
 42
0.0000001
 43
0.0000001
 44
0.0000000001
 40
0.0
 40
0.0
 40
0.0
 40
0.0
 40
0.1888497884
 40
0.4245448693
 40
1.0
 40
1.0
 40
1.0
 40
1.0
 10
38.745419793
 20
29.1983910948
 30
0.0
 10
38.7343255174
 20
29.2188726736
 30
0.0
 10
38.7181688466
 20
29.2694161727
 30
0.0
 10
38.6997636437
 20
29.3914192454
 30
0.0
 10
38.6980129872
 20
29.4918531831
 30
0.0
 10
38.6980129872
 20
29.5628315597
 30
0.0
  0
SPLINE
  5
42F
100
AcDbEntity
  8
0
100
AcDbSpline
 62
7
  6
CONTINUOUS
 70
0
 71
3
 72
11
 73
7
 74
0
 42
0.0000001
 43
0.0000001
 44
0.0000000001
 40
0.0
 40
0.0
 40
0.0
 40
0.0
 40
0.3080517707
 40
0.557267958
 40
0.7766960728
 40
1.0
 40
1.0
 40
1.0
 40
1.0
 10
38.9824538224
 20
29.0816983351
 30
0.0
 10
38.9537139104
 20
29.0816983351
 30
0.0
 10
38.9015315001
 20
29.0848784636
 30
0.0
 10
38.8311136141
 20
29.1057722253
 30
0.0
 10
38.777736118
 20
29.1444831512
 30
0.0
 10
38.7546233407
 20
29.1797009602
 30
0.0
 10
38.745419793
 20
29.1983910948
 30
0.0
  0
SPLINE
  5
430
100
AcDbEntity
  8
0
100
AcDbSpline
 62
7
  6
CONTINUOUS
 70
0
 71
3
 72
10
 73
6
 74
0
 42
0.0000001
 43
0.0000001
 44
0.0000000001
 40
0.0
 40
0.0
 40
0.0
 40
0.0
 40
0.2840204104
 40
0.5489292815
 40
1.0
 40
1.0
 40
1.0
 40
1.0
 10
39.3708249629
 20
29.2827689364
 30
0.0
 10
39.339975231
 20
29.2541464514
 30
0.0
 10
39.2774778862
 20
29.2015013751
 30
0.0
 10
39.1541056946
 20
29.1205734707
 30
0.0
 10
39.0492879918
 20
29.0816983351
 30
0.0
 10
38.9824538224
 20
29.0816983351
 30
0.0
  0
SPLINE
  5
431
100
AcDbEntity
  8
0
100
AcDbSpline
 62
7
  6
CONTINUOUS
 70
0
 71
3
 72
10
 73
6
 74
0
 42
0.0000001
 43
0.0000001
 44
0.0000000001
 40
0.0
 40
0.0
 40
0.0
 40
0.0
 40
0.4309767671
 40
0.6968030923
 40
1.0
 40
1.0
 40
1.0
 40
1.0
 10
29.1064414041
 20
28.9510301066
 30
0.0
 10
29.0224920899
 20
29.0725847202
 30
0.0
 10
28.9367954548
 20
29.3029949112
 30
0.0
 10
28.8819294148
 20
29.6409767902
 30
0.0
 10
28.8730540424
 20
29.8364982039
 30
0.0
 10
28.8730540424
 20
29.9404251699
 30
0.0
  0
SPLINE
  5
432
100
AcDbEntity
  8
0
100
AcDbSpline
 62
7
  6
CONTINUOUS
 70
0
 71
3
 72
11
 73
7
 74
0
 42
0.0000001
 43
0.0000001
 44
0.0000000001
 40
0.0
 40
0.0
 40
0.0
 40
0.0
 40
0.2440170586
 40
0.4831215843
 40
0.7308909212
 40
1.0
 40
1.0
 40
1.0
 40
1.0
 10
29.6963927905
 20
28.6318704088
 30
0.0
 10
29.6397478101
 20
28.6318704088
 30
0.0
 10
29.526997924
 20
28.6444977638
 30
0.0
 10
29.3669870766
 20
28.7062493799
 30
0.0
 10
29.2231124613
 20
28.809669955
 30
0.0
 10
29.1433155685
 20
28.9006042947
 30
0.0
 10
29.1064414041
 20
28.9510301066
 30
0.0
  0
SPLINE
  5
433
100
AcDbEntity
  8
0
100
AcDbSpline
 62
7
  6
CONTINUOUS
 70
0
 71
3
 72
9
 73
5
 74
0
 42
0.0000001
 43
0.0000001
 44
0.0000000001
 40
0.0
 40
0.0
 40
0.0
 40
0.0
 40
0.5206926648
 40
1.0
 40
1.0
 40
1.0
 40
1.0
 10
30.3835889109
 20
28.8808149731
 30
0.0
 10
30.2771081614
 20
28.8095225757
 30
0.0
 10
30.0599105993
 20
28.6907755389
 30
0.0
 10
29.8143512763
 20
28.6318704088
 30
0.0
 10
29.6963927905
 20
28.6318704088
 30
0.0
  0
SPLINE
  5
434
100
AcDbEntity
  8
0
100
AcDbSpline
 62
7
  6
CONTINUOUS
 70
0
 71
3
 72
10
 73
6
 74
0
 42
0.0000001
 43
0.0000001
 44
0.0000000001
 40
0.0
 40
0.0
 40
0.0
 40
0.0
 40
0.4663487128
 40
0.7359325363
 40
1.0
 40
1.0
 40
1.0
 40
1.0
 10
30.8503636343
 20
29.3148721621
 30
0.0
 10
30.7851412565
 20
29.2399506345
 30
0.0
 10
30.6782686915
 20
29.1249264412
 30
0.0
 10
30.521053267
 20
28.9810512631
 30
0.0
 10
30.430610923
 20
28.9116804617
 30
0.0
 10
30.3835889109
 20
28.8808149731
 30
0.0
  0
SPLINE
  5
435
100
AcDbEntity
  8
0
100
AcDbSpline
 62
7
  6
CONTINUOUS
 70
0
 71
3
 72
9
 73
5
 74
0
 42
0.0000001
 43
0.0000001
 44
0.0000000001
 40
0.0
 40
0.0
 40
0.0
 40
0.0
 40
0.4644073666
 40
1.0
 40
1.0
 40
1.0
 40
1.0
 10
28.4646261595
 20
31.4596253315
 30
0.0
 10
28.3823961375
 20
31.2257284391
 30
0.0
 10
28.2539526326
 20
30.7041341563
 30
0.0
 10
28.2182728333
 20
30.1689101948
 30
0.0
 10
28.2182728333
 20
29.8829764243
 30
0.0
  0
SPLINE
  5
436
100
AcDbEntity
  8
0
100
AcDbSpline
 62
7
  6
CONTINUOUS
 70
0
 71
3
 72
9
 73
5
 74
0
 42
0.0000001
 43
0.0000001
 44
0.0000000001
 40
0.0
 40
0.0
 40
0.0
 40
0.0
 40
0.5035457947
 40
1.0
 40
1.0
 40
1.0
 40
1.0
 10
29.1064414041
 20
32.8064792564
 30
0.0
 10
28.9810773577
 20
32.5894049677
 30
0.0
 10
28.7448743696
 20
32.1507360238
 30
0.0
 10
28.5477927701
 20
31.6923553309
 30
0.0
 10
28.4646261595
 20
31.4596253315
 30
0.0
  0
SPLINE
  5
437
100
AcDbEntity
  8
0
100
AcDbSpline
 62
7
  6
CONTINUOUS
 70
0
 71
3
 72
9
 73
5
 74
0
 42
0.0000001
 43
0.0000001
 44
0.0000000001
 40
0.0
 40
0.0
 40
0.0
 40
0.0
 40
0.5129458744
 40
1.0
 40
1.0
 40
1.0
 40
1.0
 10
29.7839130485
 20
33.9299213887
 30
0.0
 10
29.6634368981
 20
33.7406804808
 30
0.0
 10
29.4309452507
 20
33.370188556
 30
0.0
 10
29.2107439756
 20
32.9922080727
 30
0.0
 10
29.1064414041
 20
32.8064792564
 30
0.0
  0
SPLINE
  5
438
100
AcDbEntity
  8
0
100
AcDbSpline
 62
7
  6
CONTINUOUS
 70
0
 71
3
 72
11
 73
7
 74
0
 42
0.0000001
 43
0.0000001
 44
0.0000000001
 40
0.0
 40
0.0
 40
0.0
 40
0.0
 40
0.2602903313
 40
0.5070435461
 40
0.7503356152
 40
1.0
 40
1.0
 40
1.0
 40
1.0
 10
44.9119513968
 20
26.9242316039
 30
0.0
 10
44.8634283661
 20
26.9242316039
 30
0.0
 10
44.7685866743
 20
26.9160813472
 30
0.0
 10
44.633523934
 20
26.8760302219
 30
0.0
 10
44.5117033905
 20
26.8093124432
 30
0.0
 10
44.4412860472
 20
26.7492209677
 30
0.0
 10
44.408709919
 20
26.7159799097
 30
0.0
  0
SPLINE
  5
439
100
AcDbEntity
  8
0
100
AcDbSpline
 62
7
  6
CONTINUOUS
 70
0
 71
3
 72
10
 73
6
 74
0
 42
0.0000001
 43
0.0000001
 44
0.0000000001
 40
0.0
 40
0.0
 40
0.0
 40
0.0
 40
0.2460338224
 40
0.4884293524
 40
1.0
 40
1.0
 40
1.0
 40
1.0
 10
45.4078995198
 20
26.7231610026
 30
0.0
 10
45.3770171501
 20
26.7559070215
 30
0.0
 10
45.3087666447
 20
26.8148763458
 30
0.0
 10
45.1463780914
 20
26.9018309194
 30
0.0
 10
45.0055421489
 20
26.9242316039
 30
0.0
 10
44.9119513968
 20
26.9242316039
 30
0.0
  0
SPLINE
  5
43A
100
AcDbEntity
  8
0
100
AcDbSpline
 62
7
  6
CONTINUOUS
 70
0
 71
3
 72
11
 73
7
 74
0
 42
0.0000001
 43
0.0000001
 44
0.0000000001
 40
0.0
 40
0.0
 40
0.0
 40
0.0
 40
0.3105315454
 40
0.5123835428
 40
0.6917461436
 40
1.0
 40
1.0
 40
1.0
 40
1.0
 10
45.6558735813
 20
25.9045164115
 30
0.0
 10
45.6558735813
 20
25.9950158868
 30
0.0
 10
45.6479780583
 20
26.1446548063
 30
0.0
 10
45.6105025512
 20
26.3433542207
 30
0.0
 10
45.5472478193
 20
26.5343092214
 30
0.0
 10
45.4704535348
 20
26.6586827549
 30
0.0
 10
45.4078995198
 20
26.7231610026
 30
0.0
  0
SPLINE
  5
43B
100
AcDbEntity
  8
0
100
AcDbSpline
 62
7
  6
CONTINUOUS
 70
0
 71
3
 72
10
 73
6
 74
0
 42
0.0000001
 43
0.0000001
 44
0.0000000001
 40
0.0
 40
0.0
 40
0.0
 40
0.0
 40
0.5806918196
 40
0.8193193363
 40
1.0
 40
1.0
 40
1.0
 40
1.0
 10
44.6876807382
 20
24.8776201263
 30
0.0
 10
44.6288148109
 20
24.8776201263
 30
0.0
 10
44.5452914749
 20
24.8880605028
 30
0.0
 10
44.4481503864
 20
24.9170856499
 30
0.0
 10
44.4088712232
 20
24.9340525792
 30
0.0
 10
44.3931459466
 20
24.9434435582
 30
0.0
  0
SPLINE
  5
43C
100
AcDbEntity
  8
0
100
AcDbSpline
 62
7
  6
CONTINUOUS
 70
0
 71
3
 72
12
 73
8
 74
0
 42
0.0000001
 43
0.0000001
 44
0.0000000001
 40
0.0
 40
0.0
 40
0.0
 40
0.0
 40
0.2987540888
 40
0.542801546
 40
0.6543216452
 40
0.7647555683
 40
1.0
 40
1.0
 40
1.0
 40
1.0
 10
45.3459060044
 20
25.6172726954
 30
0.0
 10
45.336122652
 20
25.5081013739
 30
0.0
 10
45.2998638422
 20
25.3098581633
 30
0.0
 10
45.1806941941
 20
25.0940300051
 30
0.0
 10
45.0519308013
 20
24.9793030186
 30
0.0
 10
44.9036195701
 20
24.8982425798
 30
0.0
 10
44.7739887199
 20
24.8776201263
 30
0.0
 10
44.6876807382
 20
24.8776201263
 30
0.0
  0
SPLINE
  5
43D
100
AcDbEntity
  8
0
100
AcDbSpline
 62
7
  6
CONTINUOUS
 70
0
 71
3
 72
9
 73
5
 74
0
 42
0.0000001
 43
0.0000001
 44
0.0000000001
 40
0.0
 40
0.0
 40
0.0
 40
0.0
 40
0.4721187189
 40
1.0
 40
1.0
 40
1.0
 40
1.0
 10
44.408709919
 20
26.7159799097
 30
0.0
 10
44.3413047193
 20
26.6483600139
 30
0.0
 10
44.2318701803
 20
26.4704823959
 30
0.0
 10
44.1972026313
 20
26.2661994382
 30
0.0
 10
44.1972026313
 20
26.1594452096
 30
0.0
  0
SPLINE
  5
43E
100
AcDbEntity
  8
0
100
AcDbSpline
 62
7
  6
CONTINUOUS
 70
0
 71
3
 72
11
 73
7
 74
0
 42
0.0000001
 43
0.0000001
 44
0.0000000001
 40
0.0
 40
0.0
 40
0.0
 40
0.0
 40
0.2303533511
 40
0.458871917
 40
0.7088628689
 40
1.0
 40
1.0
 40
1.0
 40
1.0
 10
44.6566839805
 20
25.7860283786
 30
0.0
 10
44.6309583433
 20
25.8067526453
 30
0.0
 10
44.5840353321
 20
25.8541256693
 30
0.0
 10
44.534704085
 20
25.9444400959
 30
0.0
 10
44.5078849694
 20
26.0524458107
 30
0.0
 10
44.5035235308
 20
26.1302602587
 30
0.0
 10
44.5035235308
 20
26.1720121222
 30
0.0
  0
SPLINE
  5
43F
100
AcDbEntity
  8
0
100
AcDbSpline
 62
7
  6
CONTINUOUS
 70
0
 71
3
 72
10
 73
6
 74
0
 42
0.0000001
 43
0.0000001
 44
0.0000000001
 40
0.0
 40
0.0
 40
0.0
 40
0.0
 40
0.5075560722
 40
0.753572853
 40
1.0
 40
1.0
 40
1.0
 40
1.0
 10
44.9447714931
 20
25.7088316299
 30
0.0
 10
44.8934652389
 20
25.7088316299
 30
0.0
 10
44.816475518
 20
25.7139753197
 30
0.0
 10
44.7197384978
 20
25.7451707965
 30
0.0
 10
44.6763661058
 20
25.7707599407
 30
0.0
 10
44.6566839805
 20
25.7860283786
 30
0.0
  0
SPLINE
  5
440
100
AcDbEntity
  8
0
100
AcDbSpline
 62
7
  6
CONTINUOUS
 70
0
 71
3
 72
9
 73
5
 74
0
 42
0.0000001
 43
0.0000001
 44
0.0000000001
 40
0.0
 40
0.0
 40
0.0
 40
0.0
 40
0.5099685776
 40
1.0
 40
1.0
 40
1.0
 40
1.0
 10
45.3459060044
 20
25.8309102093
 30
0.0
 10
45.2845341446
 20
25.7932857245
 30
0.0
 10
45.1559525695
 20
25.7311149925
 30
0.0
 10
45.0139440297
 20
25.7088316299
 30
0.0
 10
44.9447714931
 20
25.7088316299
 30
0.0
  0
SPLINE
  5
441
100
AcDbEntity
  8
0
100
AcDbSpline
 62
7
  6
CONTINUOUS
 70
0
 71
3
 72
9
 73
5
 74
0
 42
0.0000001
 43
0.0000001
 44
0.0000000001
 40
0.0
 40
0.0
 40
0.0
 40
0.0
 40
0.5509351122
 40
1.0
 40
1.0
 40
1.0
 40
1.0
 10
45.3513760205
 20
25.9709415209
 30
0.0
 10
45.3513760205
 20
25.9452020946
 30
0.0
 10
45.3503215382
 20
25.898468455
 30
0.0
 10
45.3470879067
 20
25.8518569898
 30
0.0
 10
45.3459060044
 20
25.8309102093
 30
0.0
  0
SPLINE
  5
442
100
AcDbEntity
  8
0
100
AcDbSpline
 62
7
  6
CONTINUOUS
 70
0
 71
3
 72
9
 73
5
 74
0
 42
0.0000001
 43
0.0000001
 44
0.0000000001
 40
0.0
 40
0.0
 40
0.0
 40
0.0
 40
0.4733083286
 40
1.0
 40
1.0
 40
1.0
 40
1.0
 10
41.9307926427
 20
26.8003577513
 30
0.0
 10
41.8701675935
 20
26.8370912204
 30
0.0
 10
41.7349656485
 20
26.9061010286
 30
0.0
 10
41.5830118234
 20
26.9242316039
 30
0.0
 10
41.5041313898
 20
26.9242316039
 30
0.0
  0
SPLINE
  5
443
100
AcDbEntity
  8
0
100
AcDbSpline
 62
7
  6
CONTINUOUS
 70
0
 71
3
 72
13
 73
9
 74
0
 42
0.0000001
 43
0.0000001
 44
0.0000000001
 40
0.0
 40
0.0
 40
0.0
 40
0.0
 40
0.115238108
 40
0.2269686229
 40
0.3390297228
 40
0.4547591782
 40
0.706581728
 40
1.0
 40
1.0
 40
1.0
 40
1.0
 10
41.5041313898
 20
26.9242316039
 30
0.0
 10
41.4551152724
 20
26.9242316039
 30
0.0
 10
41.3581438956
 20
26.9135744682
 30
0.0
 10
41.2212729129
 20
26.8642192479
 30
0.0
 10
41.0994237524
 20
26.7843465362
 30
0.0
 10
40.9564725455
 20
26.6367461207
 30
0.0
 10
40.8293764109
 20
26.37814789
 30
0.0
 10
40.8003226564
 20
26.1442183113
 30
0.0
 10
40.8003226564
 20
26.019413898
 30
0.0
  0
SPLINE
  5
444
100
AcDbEntity
  8
0
100
AcDbSpline
 62
7
  6
CONTINUOUS
 70
0
 71
3
 72
14
 73
10
 74
0
 42
0.0000001
 43
0.0000001
 44
0.0000000001
 40
0.0
 40
0.0
 40
0.0
 40
0.0
 40
0.1168267988
 40
0.2219312906
 40
0.3230922737
 40
0.4284809801
 40
0.5449615803
 40
0.6773248368
 40
1.0
 40
1.0
 40
1.0
 40
1.0
 10
41.4822513255
 20
25.4341548263
 30
0.0
 10
41.4504627105
 20
25.4341548263
 30
0.0
 10
41.3897565977
 20
25.4395421842
 30
0.0
 10
41.305780471
 20
25.4689456625
 30
0.0
 10
41.2360808853
 20
25.5193351064
 30
0.0
 10
41.1813448751
 20
25.5893522052
 30
0.0
 10
41.1406711335
 20
25.6774563745
 30
0.0
 10
41.100985825
 20
25.8283739306
 30
0.0
 10
41.0938801851
 20
25.9531571458
 30
0.0
 10
41.0938801851
 20
26.0409571767
 30
0.0
  0
SPLINE
  5
445
100
AcDbEntity
  8
0
100
AcDbSpline
 62
7
  6
CONTINUOUS
 70
0
 71
3
 72
9
 73
5
 74
0
 42
0.0000001
 43
0.0000001
 44
0.0000000001
 40
0.0
 40
0.0
 40
0.0
 40
0.0
 40
0.5154241609
 40
1.0
 40
1.0
 40
1.0
 40
1.0
 10
41.9307926427
 20
25.6244537883
 30
0.0
 10
41.8662321013
 20
25.5692826006
 30
0.0
 10
41.7265094282
 20
25.4784536583
 30
0.0
 10
41.5620916951
 20
25.4341548263
 30
0.0
 10
41.4822513255
 20
25.4341548263
 30
0.0
  0
SPLINE
  5
446
100
AcDbEntity
  8
0
100
AcDbSpline
 62
7
  6
CONTINUOUS
 70
0
 71
3
 72
10
 73
6
 74
0
 42
0.0000001
 43
0.0000001
 44
0.0000000001
 40
0.0
 40
0.0
 40
0.0
 40
0.0
 40
0.1978425704
 40
0.4348571336
 40
1.0
 40
1.0
 40
1.0
 40
1.0
 10
37.6878835168
 20
25.5580286789
 30
0.0
 10
37.675786972
 20
25.5798643218
 30
0.0
 10
37.6573370724
 20
25.6322282155
 30
0.0
 10
37.6357546075
 20
25.7566969429
 30
0.0
 10
37.6331833562
 20
25.858344423
 30
0.0
 10
37.6331833562
 20
25.9296502367
 30
0.0
  0
SPLINE
  5
447
100
AcDbEntity
  8
0
100
AcDbSpline
 62
7
  6
CONTINUOUS
 70
0
 71
3
 72
11
 73
7
 74
0
 42
0.0000001
 43
0.0000001
 44
0.0000000001
 40
0.0
 40
0.0
 40
0.0
 40
0.0
 40
0.3074913405
 40
0.5575917519
 40
0.7778733722
 40
1.0
 40
1.0
 40
1.0
 40
1.0
 10
37.9522676265
 20
25.4341548263
 30
0.0
 10
37.9207328079
 20
25.4341548263
 30
0.0
 10
37.863349062
 20
25.4375790493
 30
0.0
 10
37.7856994362
 20
25.459774769
 30
0.0
 10
37.7259327179
 20
25.5006199958
 30
0.0
 10
37.6988823089
 20
25.5380796095
 30
0.0
 10
37.6878835168
 20
25.5580286789
 30
0.0
  0
SPLINE
  5
448
100
AcDbEntity
  8
0
100
AcDbSpline
 62
7
  6
CONTINUOUS
 70
0
 71
3
 72
10
 73
6
 74
0
 42
0.0000001
 43
0.0000001
 44
0.0000000001
 40
0.0
 40
0.0
 40
0.0
 40
0.0
 40
0.2790009308
 40
0.5399823529
 40
1.0
 40
1.0
 40
1.0
 40
1.0
 10
38.3898689115
 20
25.6352254276
 30
0.0
 10
38.3549609461
 20
25.6060977582
 30
0.0
 10
38.2845916305
 20
25.5527114426
 30
0.0
 10
38.144333866
 20
25.4703974287
 30
0.0
 10
38.0272290339
 20
25.4341548263
 30
0.0
 10
37.9522676265
 20
25.4341548263
 30
0.0
  0
SPLINE
  5
449
100
AcDbEntity
  8
0
100
AcDbSpline
 62
7
  6
CONTINUOUS
 70
0
 71
3
 72
11
 73
7
 74
0
 42
0.0000001
 43
0.0000001
 44
0.0000000001
 40
0.0
 40
0.0
 40
0.0
 40
0.0
 40
0.2514668146
 40
0.4838057364
 40
0.7265535036
 40
1.0
 40
1.0
 40
1.0
 40
1.0
 10
44.2701360162
 20
28.8088168048
 30
0.0
 10
44.2701360162
 20
28.7620830897
 30
0.0
 10
44.2537684866
 20
28.6703407913
 30
0.0
 10
44.1701528025
 20
28.5584295472
 30
0.0
 10
44.0441075085
 20
28.4913536449
 30
0.0
 10
43.9471701025
 20
28.4784865312
 30
0.0
 10
43.8963515853
 20
28.4784865312
 30
0.0
  0
SPLINE
  5
44A
100
AcDbEntity
  8
0
100
AcDbSpline
 62
7
  6
CONTINUOUS
 70
0
 71
3
 72
11
 73
7
 74
0
 42
0.0000001
 43
0.0000001
 44
0.0000000001
 40
0.0
 40
0.0
 40
0.0
 40
0.0
 40
0.2826166543
 40
0.5260162647
 40
0.7569043527
 40
1.0
 40
1.0
 40
1.0
 40
1.0
 10
43.8963515853
 20
28.4784865312
 30
0.0
 10
43.841843664
 20
28.4784865312
 30
0.0
 10
43.7389619534
 20
28.4927611387
 30
0.0
 10
43.6093377739
 20
28.5688388197
 30
0.0
 10
43.5292723316
 20
28.6870495106
 30
0.0
 10
43.5134504609
 20
28.779883983
 30
0.0
 10
43.5134504609
 20
28.8267695371
 30
0.0
  0
SPLINE
  5
44B
100
AcDbEntity
  8
0
100
AcDbSpline
 62
7
  6
CONTINUOUS
 70
0
 71
3
 72
11
 73
7
 74
0
 42
0.0000001
 43
0.0000001
 44
0.0000000001
 40
0.0
 40
0.0
 40
0.0
 40
0.0
 40
0.2591684058
 40
0.5035457514
 40
0.7463581352
 40
1.0
 40
1.0
 40
1.0
 40
1.0
 10
44.3230128382
 20
29.8913665601
 30
0.0
 10
44.3230128382
 20
29.8427899528
 30
0.0
 10
44.3127307566
 20
29.7478796094
 30
0.0
 10
44.2620234614
 20
29.6157689678
 30
0.0
 10
44.1787167727
 20
29.5027254886
 30
0.0
 10
44.1057535684
 20
29.4433677715
 30
0.0
 10
44.0659220832
 20
29.4174144284
 30
0.0
  0
SPLINE
  5
44C
100
AcDbEntity
  8
0
100
AcDbSpline
 62
7
  6
CONTINUOUS
 70
0
 71
3
 72
10
 73
6
 74
0
 42
0.0000001
 43
0.0000001
 44
0.0000000001
 40
0.0
 40
0.0
 40
0.0
 40
0.0
 40
0.5804504853
 40
0.8127260332
 40
1.0
 40
1.0
 40
1.0
 40
1.0
 10
44.0659220832
 20
29.4174144284
 30
0.0
 10
44.001624437
 20
29.4431668167
 30
0.0
 10
43.9109619029
 20
29.4776549049
 30
0.0
 10
43.8006781964
 20
29.52318678
 30
0.0
 10
43.7553735368
 20
29.5446927648
 30
0.0
 10
43.7358977808
 20
29.5556504668
 30
0.0
  0
SPLINE
  5
44D
100
AcDbEntity
  8
0
100
AcDbSpline
 62
7
  6
CONTINUOUS
 70
0
 71
3
 72
12
 73
8
 74
0
 42
0.0000001
 43
0.0000001
 44
0.0000000001
 40
0.0
 40
0.0
 40
0.0
 40
0.0
 40
0.3062001346
 40
0.540861987
 40
0.6469789875
 40
0.7547928606
 40
1.0
 40
1.0
 40
1.0
 40
1.0
 10
43.7358977808
 20
29.5556504668
 30
0.0
 10
43.6913189919
 20
29.5794041182
 30
0.0
 10
43.6139140129
 20
29.6243292869
 30
0.0
 10
43.5352564202
 20
29.6994077845
 30
0.0
 10
43.4990001189
 20
29.7645001852
 30
0.0
 10
43.4753479349
 20
29.836862569
 30
0.0
 10
43.4715136711
 20
29.8957977047
 30
0.0
 10
43.4715136711
 20
29.9362483907
 30
0.0
  0
SPLINE
  5
44E
100
AcDbEntity
  8
0
100
AcDbSpline
 62
7
  6
CONTINUOUS
 70
0
 71
3
 72
9
 73
5
 74
0
 42
0.0000001
 43
0.0000001
 44
0.0000000001
 40
0.0
 40
0.0
 40
0.0
 40
0.0
 40
0.4691513719
 40
1.0
 40
1.0
 40
1.0
 40
1.0
 10
44.4342364981
 20
30.3850666972
 30
0.0
 10
44.3680766149
 20
30.4477500537
 30
0.0
 10
44.1941992266
 20
30.5484473891
 30
0.0
 10
43.9976528724
 20
30.5753656592
 30
0.0
 10
43.8945282466
 20
30.5753656592
 30
0.0
  0
SPLINE
  5
44F
100
AcDbEntity
  8
0
100
AcDbSpline
 62
7
  6
CONTINUOUS
 70
0
 71
3
 72
11
 73
7
 74
0
 42
0.0000001
 43
0.0000001
 44
0.0000000001
 40
0.0
 40
0.0
 40
0.0
 40
0.0
 40
0.2688489444
 40
0.516180678
 40
0.7545198804
 40
1.0
 40
1.0
 40
1.0
 40
1.0
 10
43.8945282466
 20
30.5753656592
 30
0.0
 10
43.7960611502
 20
30.5753656592
 30
0.0
 10
43.6048040571
 20
30.5438405194
 30
0.0
 10
43.3616637714
 20
30.3990121491
 30
0.0
 10
43.1984057897
 20
30.1773168238
 30
0.0
 10
43.1615460942
 20
29.9974321816
 30
0.0
 10
43.1615460942
 20
29.9075240191
 30
0.0
  0
SPLINE
  5
450
100
AcDbEntity
  8
0
100
AcDbSpline
 62
7
  6
CONTINUOUS
 70
0
 71
3
 72
11
 73
7
 74
0
 42
0.0000001
 43
0.0000001
 44
0.0000000001
 40
0.0
 40
0.0
 40
0.0
 40
0.0
 40
0.2717328029
 40
0.5266545364
 40
0.7688747378
 40
1.0
 40
1.0
 40
1.0
 40
1.0
 10
43.5686088467
 20
29.349399381
 30
0.0
 10
43.5144405459
 20
29.3233048707
 30
0.0
 10
43.4157250603
 20
29.2580431539
 30
0.0
 10
43.3037404614
 20
29.1272415389
 30
0.0
 10
43.234693512
 20
28.9795339262
 30
0.0
 10
43.2180695935
 20
28.8743197538
 30
0.0
 10
43.2180695935
 20
28.8231789906
 30
0.0
  0
SPLINE
  5
451
100
AcDbEntity
  8
0
100
AcDbSpline
 62
7
  6
CONTINUOUS
 70
0
 71
3
 72
9
 73
5
 74
0
 42
0.0000001
 43
0.0000001
 44
0.0000000001
 40
0.0
 40
0.0
 40
0.0
 40
0.0
 40
0.5083991487
 40
1.0
 40
1.0
 40
1.0
 40
1.0
 10
44.627510399
 20
29.9129098388
 30
0.0
 10
44.627510399
 20
30.0012194629
 30
0.0
 10
44.5968970187
 20
30.1772013716
 30
0.0
 10
44.496246369
 20
30.3263595881
 30
0.0
 10
44.4342364981
 20
30.3850666972
 30
0.0
  0
SPLINE
  5
452
100
AcDbEntity
  8
0
100
AcDbSpline
 62
7
  6
CONTINUOUS
 70
0
 71
3
 72
11
 73
7
 74
0
 42
0.0000001
 43
0.0000001
 44
0.0000000001
 40
0.0
 40
0.0
 40
0.0
 40
0.0
 40
0.2487128962
 40
0.4762633114
 40
0.7175401843
 40
1.0
 40
1.0
 40
1.0
 40
1.0
 10
44.5728102383
 20
28.8429269961
 30
0.0
 10
44.5728102383
 20
28.895065144
 30
0.0
 10
44.5620023126
 20
28.9960047613
 30
0.0
 10
44.4959527485
 20
29.1344299801
 30
0.0
 10
44.3839653139
 20
29.2481344985
 30
0.0
 10
44.2911319113
 20
29.3077449189
 30
0.0
 10
44.2396087907
 20
29.336925347
 30
0.0
  0
SPLINE
  5
453
100
AcDbEntity
  8
0
100
AcDbSpline
 62
7
  6
CONTINUOUS
 70
0
 71
3
 72
9
 73
5
 74
0
 42
0.0000001
 43
0.0000001
 44
0.0000000001
 40
0.0
 40
0.0
 40
0.0
 40
0.0
 40
0.3078917491
 40
1.0
 40
1.0
 40
1.0
 40
1.0
 10
38.4135721519
 20
29.429981341
 30
0.0
 10
38.4135721519
 20
29.4154124439
 30
0.0
 10
38.4140857765
 20
29.3680918475
 30
0.0
 10
38.4166725868
 20
29.3208182654
 30
0.0
 10
38.419042168
 20
29.2881547561
 30
0.0
  0
SPLINE
  5
454
100
AcDbEntity
  8
0
100
AcDbSpline
 62
7
  6
CONTINUOUS
 70
0
 71
3
 72
10
 73
6
 74
0
 42
0.0000001
 43
0.0000001
 44
0.0000000001
 40
0.0
 40
0.0
 40
0.0
 40
0.0
 40
0.2474927049
 40
0.4882573074
 40
1.0
 40
1.0
 40
1.0
 40
1.0
 10
38.9095202749
 20
28.8159978977
 30
0.0
 10
38.9433711002
 20
28.8159978977
 30
0.0
 10
39.0103997362
 20
28.8223172977
 30
0.0
 10
39.1418243403
 20
28.8631403657
 30
0.0
 10
39.2291039408
 20
28.9216452202
 30
0.0
 10
39.2831166211
 20
28.9661619408
 30
0.0
  0
SPLINE
  5
455
100
AcDbEntity
  8
0
100
AcDbSpline
 62
7
  6
CONTINUOUS
 70
0
 71
3
 72
9
 73
5
 74
0
 42
0.0000001
 43
0.0000001
 44
0.0000000001
 40
0.0
 40
0.0
 40
0.0
 40
0.0
 40
0.2412395631
 40
1.0
 40
1.0
 40
1.0
 40
1.0
 10
39.2831166211
 20
28.9661619408
 30
0.0
 10
39.2904691475
 20
28.9722218208
 30
0.0
 10
39.320607599
 20
28.9977537385
 30
0.0
 10
39.3494707882
 20
29.0247673869
 30
0.0
 10
39.3708249629
 20
29.0457928706
 30
0.0
  0
SPLINE
  5
456
100
AcDbEntity
  8
0
100
AcDbSpline
 62
7
  6
CONTINUOUS
 70
0
 71
3
 72
11
 73
7
 74
0
 42
0.0000001
 43
0.0000001
 44
0.0000000001
 40
0.0
 40
0.0
 40
0.0
 40
0.0
 40
0.2680194914
 40
0.5081190723
 40
0.7460235216
 40
1.0
 40
1.0
 40
1.0
 40
1.0
 10
38.4682723125
 20
29.1032416139
 30
0.0
 10
38.4866847842
 20
29.056545549
 30
0.0
 10
38.5332193651
 20
28.9714638708
 30
0.0
 10
38.6398149608
 20
28.8768069603
 30
0.0
 10
38.7692637197
 20
28.8251567076
 30
0.0
 10
38.861955233
 20
28.8159978977
 30
0.0
 10
38.9095202749
 20
28.8159978977
 30
0.0
  0
SPLINE
  5
457
100
AcDbEntity
  8
0
100
AcDbSpline
 62
7
  6
CONTINUOUS
 70
0
 71
3
 72
11
 73
7
 74
0
 42
0.0000001
 43
0.0000001
 44
0.0000000001
 40
0.0
 40
0.0
 40
0.0
 40
0.0
 40
0.2261522616
 40
0.4548446512
 40
0.7077189996
 40
1.0
 40
1.0
 40
1.0
 40
1.0
 10
37.952267464
 20
28.8159978977
 30
0.0
 10
37.9981250265
 20
28.8159978977
 30
0.0
 10
38.0909921675
 20
28.8280683414
 30
0.0
 10
38.2238172106
 20
28.8864150565
 30
0.0
 10
38.3503338244
 20
28.9807462805
 30
0.0
 10
38.4283167975
 20
29.0594683749
 30
0.0
 10
38.4682723125
 20
29.1032416139
 30
0.0
  0
SPLINE
  5
458
100
AcDbEntity
  8
0
100
AcDbSpline
 62
7
  6
CONTINUOUS
 70
0
 71
3
 72
10
 73
6
 74
0
 42
0.0000001
 43
0.0000001
 44
0.0000000001
 40
0.0
 40
0.0
 40
0.0
 40
0.0
 40
0.2459854805
 40
0.4862390745
 40
1.0
 40
1.0
 40
1.0
 40
1.0
 10
37.5985397586
 20
28.9578244825
 30
0.0
 10
37.6196552808
 20
28.9335688937
 30
0.0
 10
37.6673074439
 20
28.8902983406
 30
0.0
 10
37.7841978483
 20
28.8291320517
 30
0.0
 10
37.8851008235
 20
28.8159978977
 30
0.0
 10
37.952267464
 20
28.8159978977
 30
0.0
  0
SPLINE
  5
459
100
AcDbEntity
  8
0
100
AcDbSpline
 62
7
  6
CONTINUOUS
 70
0
 71
3
 72
11
 73
7
 74
0
 42
0.0000001
 43
0.0000001
 44
0.0000000001
 40
0.0
 40
0.0
 40
0.0
 40
0.0
 40
0.3093271723
 40
0.5694352949
 40
0.7946020265
 40
1.0
 40
1.0
 40
1.0
 40
1.0
 10
37.456319341
 20
29.429981341
 30
0.0
 10
37.456319341
 20
29.3780260502
 30
0.0
 10
37.4612186304
 20
29.2821976163
 30
0.0
 10
37.4881518338
 20
29.150817366
 30
0.0
 10
37.5331695406
 20
29.043001803
 30
0.0
 10
37.5755361102
 20
28.9835348033
 30
0.0
 10
37.5985397586
 20
28.9578244825
 30
0.0
  0
SPLINE
  5
45A
100
AcDbEntity
  8
0
100
AcDbSpline
 62
7
  6
CONTINUOUS
 70
0
 71
3
 72
15
 73
11
 74
0
 42
0.0000001
 43
0.0000001
 44
0.0000000001
 40
0.0
 40
0.0
 40
0.0
 40
0.0
 40
0.1715304113
 40
0.314800813
 40
0.4355349249
 40
0.5414772441
 40
0.6422587734
 40
0.74763777
 40
0.8652601621
 40
1.0
 40
1.0
 40
1.0
 40
1.0
 10
49.5408015141
 20
27.85950394
 30
0.0
 10
49.5447609807
 20
27.9569669687
 30
0.0
 10
49.5585974479
 20
28.1357718765
 30
0.0
 10
49.6070331525
 20
28.3794856225
 30
0.0
 10
49.6835618636
 20
28.5770321998
 30
0.0
 10
49.7917736086
 20
28.7313881388
 30
0.0
 10
49.9330908152
 20
28.8428514225
 30
0.0
 10
50.1049078545
 20
28.9139777397
 30
0.0
 10
50.3058652083
 20
28.9513392793
 30
0.0
 10
50.4495929249
 20
28.9574133006
 30
0.0
 10
50.5262148189
 20
28.9574133006
 30
0.0
  0
SPLINE
  5
45B
100
AcDbEntity
  8
0
100
AcDbSpline
 62
7
  6
CONTINUOUS
 70
0
 71
3
 72
18
 73
14
 74
0
 42
0.0000001
 43
0.0000001
 44
0.0000000001
 40
0.0
 40
0.0
 40
0.0
 40
0.0
 40
0.0045960743
 40
0.0176318661
 40
0.0390493616
 40
0.0686851218
 40
0.1063635027
 40
0.1519055135
 40
0.2658585199
 40
0.4090965092
 40
0.5801680131
 40
0.7776202867
 40
1.0
 40
1.0
 40
1.0
 40
1.0
 10
73.9042379007
 20
18.4151217864
 30
0.0
 10
73.9042349196
 20
18.4154633823
 30
0.0
 10
73.9022434607
 20
18.4153716583
 30
0.0
 10
73.9000016107
 20
18.4159153412
 30
0.0
 10
73.8948815319
 20
18.416011348
 30
0.0
 10
73.8884490882
 20
18.4163325537
 30
0.0
 10
73.8800038672
 20
18.4165415107
 30
0.0
 10
73.8653801973
 20
18.4168703378
 30
0.0
 10
73.8428632286
 20
18.4171858053
 30
0.0
 10
73.8110410812
 20
18.4174846579
 30
0.0
 10
73.773001604
 20
18.4176993
 30
0.0
 10
73.7290830525
 20
18.4178328824
 30
0.0
 10
73.6978782778
 20
18.4178619105
 30
0.0
 10
73.6813496307
 20
18.4178637518
 30
0.0
  0
SPLINE
  5
45C
100
AcDbEntity
  8
0
100
AcDbSpline
 62
7
  6
CONTINUOUS
 70
0
 71
3
 72
9
 73
5
 74
0
 42
0.0000001
 43
0.0000001
 44
0.0000000001
 40
0.0
 40
0.0
 40
0.0
 40
0.0
 40
0.5093475952
 40
1.0
 40
1.0
 40
1.0
 40
1.0
 10
44.6150470017
 20
101.9382115932
 30
0.0
 10
44.6150470017
 20
102.0029151227
 30
0.0
 10
44.6362212956
 20
102.1309076059
 30
0.0
 10
44.7001285019
 20
102.2444648523
 30
0.0
 10
44.7407186089
 20
102.2917649838
 30
0.0
  0
SPLINE
  5
45D
100
AcDbEntity
  8
0
100
AcDbSpline
 62
7
  6
CONTINUOUS
 70
0
 71
3
 72
9
 73
5
 74
0
 42
0.0000001
 43
0.0000001
 44
0.0000000001
 40
0.0
 40
0.0
 40
0.0
 40
0.0
 40
0.5111734278
 40
1.0
 40
1.0
 40
1.0
 40
1.0
 10
44.7407186089
 20
102.2917649838
 30
0.0
 10
44.7765655338
 20
102.3335378291
 30
0.0
 10
44.8620546788
 20
102.4038178594
 30
0.0
 10
44.969150416
 20
102.4343238595
 30
0.0
 10
45.0216915818
 20
102.437528231
 30
0.0
  0
SPLINE
  5
45E
100
AcDbEntity
  8
0
100
AcDbSpline
 62
7
  6
CONTINUOUS
 70
0
 71
3
 72
11
 73
7
 74
0
 42
0.0000001
 43
0.0000001
 44
0.0000000001
 40
0.0
 40
0.0
 40
0.0
 40
0.0
 40
0.2500606078
 40
0.5002010345
 40
0.750217403
 40
1.0
 40
1.0
 40
1.0
 40
1.0
 10
45.0216915818
 20
102.437528231
 30
0.0
 10
44.938779764
 20
102.4338045259
 30
0.0
 10
44.7735494081
 20
102.3956044832
 30
0.0
 10
44.554461295
 20
102.273144942
 30
0.0
 10
44.3624357475
 20
102.1136190851
 30
0.0
 10
44.2445986561
 20
101.9968329532
 30
0.0
 10
44.1859772961
 20
101.9382115932
 30
0.0
  0
SPLINE
  5
45F
100
AcDbEntity
  8
0
100
AcDbSpline
 62
7
  6
CONTINUOUS
 70
0
 71
3
 72
9
 73
5
 74
0
 42
0.0000001
 43
0.0000001
 44
0.0000000001
 40
0.0
 40
0.0
 40
0.0
 40
0.0
 40
0.494672214
 40
1.0
 40
1.0
 40
1.0
 40
1.0
 10
29.8195694536
 20
32.7490305108
 30
0.0
 10
29.9972063402
 20
33.0696853471
 30
0.0
 10
30.3755344449
 20
33.7072905606
 30
0.0
 10
30.7767590448
 20
34.3303404396
 30
0.0
 10
30.9800232796
 20
34.6448391159
 30
0.0
  0
SPLINE
  5
460
100
AcDbEntity
  8
0
100
AcDbSpline
 62
7
  6
CONTINUOUS
 70
0
 71
3
 72
14
 73
10
 74
0
 42
0.0000001
 43
0.0000001
 44
0.0000000001
 40
0.0
 40
0.0
 40
0.0
 40
0.0
 40
0.10497794
 40
0.2083788031
 40
0.3102043622
 40
0.4159003719
 40
0.5322805493
 40
0.6659840817
 40
1.0
 40
1.0
 40
1.0
 40
1.0
 10
28.8730540424
 20
29.9404251699
 30
0.0
 10
28.8730540424
 20
30.0453607838
 30
0.0
 10
28.8817125527
 20
30.2537467202
 30
0.0
 10
28.9189738423
 20
30.561877099
 30
0.0
 10
28.9809940967
 20
30.8668099022
 30
0.0
 10
29.0733963791
 20
31.1775210724
 30
0.0
 10
29.2009055702
 20
31.5098046455
 30
0.0
 10
29.4413295446
 20
32.0420733457
 30
0.0
 10
29.6585743058
 20
32.4565288028
 30
0.0
 10
29.8195694536
 20
32.7490305108
 30
0.0
  0
SPLINE
  5
461
100
AcDbEntity
  8
0
100
AcDbSpline
 62
7
  6
CONTINUOUS
 70
0
 71
3
 72
13
 73
9
 74
0
 42
0.0000001
 43
0.0000001
 44
0.0000000001
 40
0.0
 40
0.0
 40
0.0
 40
0.0
 40
0.1203341732
 40
0.246699897
 40
0.3814416606
 40
0.5204077163
 40
0.7851383926
 40
1.0
 40
1.0
 40
1.0
 40
1.0
 10
29.6510119146
 20
27.719073673
 30
0.0
 10
29.7047140512
 20
27.719073673
 30
0.0
 10
29.8149224959
 20
27.7255302504
 30
0.0
 10
29.9828154819
 20
27.755877164
 30
0.0
 10
30.1541585575
 20
27.8070699951
 30
0.0
 10
30.3783674269
 20
27.8940078963
 30
0.0
 10
30.6261599093
 20
28.0166447268
 30
0.0
 10
30.8076852091
 20
28.1318030308
 30
0.0
 10
30.8827785456
 20
28.1914300258
 30
0.0
  0
SPLINE
  5
462
100
AcDbEntity
  8
0
100
AcDbSpline
 62
7
  6
CONTINUOUS
 70
0
 71
3
 72
15
 73
11
 74
0
 42
0.0000001
 43
0.0000001
 44
0.0000000001
 40
0.0
 40
0.0
 40
0.0
 40
0.0
 40
0.1636462725
 40
0.3119334733
 40
0.445838356
 40
0.5670629425
 40
0.6783696289
 40
0.7838764898
 40
0.8890297754
 40
1.0
 40
1.0
 40
1.0
 40
1.0
 10
28.2182728333
 20
29.8829764243
 30
0.0
 10
28.2182728333
 20
29.7247034329
 30
0.0
 10
28.2326159128
 20
29.4226768542
 30
0.0
 10
28.3031866647
 20
28.9961615792
 30
0.0
 10
28.4201444284
 20
28.6223374391
 30
0.0
 10
28.5824084211
 20
28.3049557158
 30
0.0
 10
28.7894754497
 20
28.0483847173
 30
0.0
 10
29.0407858054
 20
27.8585824104
 30
0.0
 10
29.3334064407
 20
27.7426334383
 30
0.0
 10
29.5436853674
 20
27.719073673
 30
0.0
 10
29.6510119146
 20
27.719073673
 30
0.0
  0
SPLINE
  5
463
100
AcDbEntity
  8
0
100
AcDbSpline
 62
7
  6
CONTINUOUS
 70
0
 71
3
 72
8
 73
4
 74
0
 42
0.0000001
 43
0.0000001
 44
0.0000000001
 40
0.0
 40
0.0
 40
0.0
 40
0.0
 40
1.0
 40
1.0
 40
1.0
 40
1.0
 10
57.917284233
 20
102.437528231
 30
0.0
 10
57.9522704278
 20
102.435394499
 30
0.0
 10
57.9872653216
 20
102.4281238183
 30
0.0
 10
58.0202873827
 20
102.4163709414
 30
0.0
  0
SPLINE
  5
464
100
AcDbEntity
  8
0
100
AcDbSpline
 62
7
  6
CONTINUOUS
 70
0
 71
3
 72
9
 73
5
 74
0
 42
0.0000001
 43
0.0000001
 44
0.0000000001
 40
0.0
 40
0.0
 40
0.0
 40
0.0
 40
0.4912878425
 40
1.0
 40
1.0
 40
1.0
 40
1.0
 10
58.0202873827
 20
102.4163709414
 30
0.0
 10
58.0540911544
 20
102.404339846
 30
0.0
 10
58.119690771
 20
102.3699848881
 30
0.0
 10
58.1740618213
 20
102.3199601514
 30
0.0
 10
58.1982572059
 20
102.2917649838
 30
0.0
  0
SPLINE
  5
465
100
AcDbEntity
  8
0
100
AcDbSpline
 62
7
  6
CONTINUOUS
 70
0
 71
3
 72
9
 73
5
 74
0
 42
0.0000001
 43
0.0000001
 44
0.0000000001
 40
0.0
 40
0.0
 40
0.0
 40
0.0
 40
0.4906524048
 40
1.0
 40
1.0
 40
1.0
 40
1.0
 10
58.1982572059
 20
102.2917649838
 30
0.0
 10
58.2388473129
 20
102.2444648523
 30
0.0
 10
58.3027545192
 20
102.1309076059
 30
0.0
 10
58.3239288131
 20
102.0029151227
 30
0.0
 10
58.3239288131
 20
101.9382115932
 30
0.0
  0
SPLINE
  5
466
100
AcDbEntity
  8
0
100
AcDbSpline
 62
7
  6
CONTINUOUS
 70
0
 71
3
 72
9
 73
5
 74
0
 42
0.0000001
 43
0.0000001
 44
0.0000000001
 40
0.0
 40
0.0
 40
0.0
 40
0.0
 40
0.5
 40
1.0
 40
1.0
 40
1.0
 40
1.0
 10
51.996270595
 20
102.4382115932
 30
0.0
 10
51.8206746961
 20
102.4382115932
 30
0.0
 10
51.4694879074
 20
102.4336170991
 30
0.0
 10
51.1183011187
 20
102.4382115932
 30
0.0
 10
50.9427052198
 20
102.4382115932
 30
0.0
  0
SPLINE
  5
467
100
AcDbEntity
  8
0
100
AcDbSpline
 62
7
  6
CONTINUOUS
 70
0
 71
3
 72
11
 73
7
 74
0
 42
0.0000001
 43
0.0000001
 44
0.0000000001
 40
0.0
 40
0.0
 40
0.0
 40
0.0
 40
0.250065958
 40
0.5002080218
 40
0.7502258977
 40
1.0
 40
1.0
 40
1.0
 40
1.0
 10
57.917284233
 20
102.437528231
 30
0.0
 10
58.0001799315
 20
102.4338052498
 30
0.0
 10
58.1653567794
 20
102.3953503319
 30
0.0
 10
58.3841547463
 20
102.2725515807
 30
0.0
 10
58.5762608735
 20
102.1132604747
 30
0.0
 10
58.6943918027
 20
101.9968183092
 30
0.0
 10
58.7529985187
 20
101.9382115932
 30
0.0
  0
SPLINE
  5
468
100
AcDbEntity
  8
0
100
AcDbSpline
 62
7
  6
CONTINUOUS
 70
0
 71
3
 72
11
 73
7
 74
0
 42
0.0000001
 43
0.0000001
 44
0.0000000001
 40
0.0
 40
0.0
 40
0.0
 40
0.0
 40
0.2228881893
 40
0.4596466914
 40
0.7170995077
 40
1.0
 40
1.0
 40
1.0
 40
1.0
 10
45.4097228585
 20
24.9781554269
 30
0.0
 10
45.452369087
 20
25.0365760224
 30
0.0
 10
45.5273723402
 20
25.166912764
 30
0.0
 10
45.6035364079
 20
25.3879644849
 30
0.0
 10
45.6474660851
 20
25.6371366483
 30
0.0
 10
45.6558735813
 20
25.8127113376
 30
0.0
 10
45.6558735813
 20
25.9045164115
 30
0.0
  0
SPLINE
  5
469
100
AcDbEntity
  8
0
100
AcDbSpline
 62
7
  6
CONTINUOUS
 70
0
 71
3
 72
11
 73
7
 74
0
 42
0.0000001
 43
0.0000001
 44
0.0000000001
 40
0.0
 40
0.0
 40
0.0
 40
0.0
 40
0.274750692
 40
0.5260262235
 40
0.7642267425
 40
1.0
 40
1.0
 40
1.0
 40
1.0
 10
44.6475672871
 20
24.620896055
 30
0.0
 10
44.7275555446
 20
24.620896055
 30
0.0
 10
44.8813575478
 20
24.6351212611
 30
0.0
 10
45.0946308752
 20
24.7054210234
 30
0.0
 10
45.2745684452
 20
24.8200610246
 30
0.0
 10
45.3694727532
 20
24.9225543404
 30
0.0
 10
45.4097228585
 20
24.9781554269
 30
0.0
  0
SPLINE
  5
46A
100
AcDbEntity
  8
0
100
AcDbSpline
 62
7
  6
CONTINUOUS
 70
0
 71
3
 72
9
 73
5
 74
0
 42
0.0000001
 43
0.0000001
 44
0.0000000001
 40
0.0
 40
0.0
 40
0.0
 40
0.0
 40
0.4546866566
 40
1.0
 40
1.0
 40
1.0
 40
1.0
 10
44.3922998708
 20
24.6514156998
 30
0.0
 10
44.4294239645
 20
24.6392314776
 30
0.0
 10
44.514795496
 20
24.6243821869
 30
0.0
 10
44.6007070838
 20
24.620896055
 30
0.0
 10
44.6475672871
 20
24.620896055
 30
0.0
  0
SPLINE
  5
46B
100
AcDbEntity
  8
0
100
AcDbSpline
 62
7
  6
CONTINUOUS
 70
0
 71
3
 72
10
 73
6
 74
0
 42
0.0000001
 43
0.0000001
 44
0.0000000001
 40
0.0
 40
0.0
 40
0.0
 40
0.0
 40
0.2584744275
 40
0.5037865151
 40
1.0
 40
1.0
 40
1.0
 40
1.0
 10
44.8773079617
 20
25.4628791979
 30
0.0
 10
44.9204268874
 20
25.4628791979
 30
0.0
 10
45.0046886485
 20
25.4692788227
 30
0.0
 10
45.1671349736
 20
25.5103046803
 30
0.0
 10
45.2775883592
 20
25.5705284729
 30
0.0
 10
45.3459060044
 20
25.6172726954
 30
0.0
  0
SPLINE
  5
46C
100
AcDbEntity
  8
0
100
AcDbSpline
 62
7
  6
CONTINUOUS
 70
0
 71
3
 72
10
 73
6
 74
0
 42
0.0000001
 43
0.0000001
 44
0.0000000001
 40
0.0
 40
0.0
 40
0.0
 40
0.0
 40
0.2645049756
 40
0.5011040809
 40
1.0
 40
1.0
 40
1.0
 40
1.0
 10
44.4415300154
 20
25.5939341434
 30
0.0
 10
44.4744657252
 20
25.5697499895
 30
0.0
 10
44.539917875
 20
25.5276549686
 30
0.0
 10
44.6845325405
 20
25.4702448545
 30
0.0
 10
44.8002377091
 20
25.4628791979
 30
0.0
 10
44.8773079617
 20
25.4628791979
 30
0.0
  0
SPLINE
  5
46D
100
AcDbEntity
  8
0
100
AcDbSpline
 62
7
  6
CONTINUOUS
 70
0
 71
3
 72
11
 73
7
 74
0
 42
0.0000001
 43
0.0000001
 44
0.0000000001
 40
0.0
 40
0.0
 40
0.0
 40
0.0
 40
0.2797839456
 40
0.5306917546
 40
0.7653601885
 40
1.0
 40
1.0
 40
1.0
 40
1.0
 10
44.1972026313
 20
26.1594452096
 30
0.0
 10
44.1972026313
 20
26.099824855
 30
0.0
 10
44.2053726922
 20
25.9863620843
 30
0.0
 10
44.2499171197
 20
25.8280189293
 30
0.0
 10
44.3280008689
 20
25.6937945838
 30
0.0
 10
44.40130792
 20
25.6236363806
 30
0.0
 10
44.4415300154
 20
25.5939341434
 30
0.0
  0
SPLINE
  5
46E
100
AcDbEntity
  8
0
100
AcDbSpline
 62
7
  6
CONTINUOUS
 70
0
 71
3
 72
12
 73
8
 74
0
 42
0.0000001
 43
0.0000001
 44
0.0000000001
 40
0.0
 40
0.0
 40
0.0
 40
0.0
 40
0.3061647058
 40
0.5505097993
 40
0.6609677261
 40
0.7698518194
 40
1.0
 40
1.0
 40
1.0
 40
1.0
 10
44.5035235308
 20
26.1720121222
 30
0.0
 10
44.5035235308
 20
26.2470069803
 30
0.0
 10
44.516838978
 20
26.3831430908
 30
0.0
 10
44.5892430901
 20
26.5335682255
 30
0.0
 10
44.6724124601
 20
26.6125505671
 30
0.0
 10
44.7687510559
 20
26.6677198176
 30
0.0
 10
44.8537534015
 20
26.6818697184
 30
0.0
 10
44.9101280581
 20
26.6818697184
 30
0.0
  0
SPLINE
  5
46F
100
AcDbEntity
  8
0
100
AcDbSpline
 62
7
  6
CONTINUOUS
 70
0
 71
3
 72
10
 73
6
 74
0
 42
0.0000001
 43
0.0000001
 44
0.0000000001
 40
0.0
 40
0.0
 40
0.0
 40
0.0
 40
0.3938893538
 40
0.6645340144
 40
1.0
 40
1.0
 40
1.0
 40
1.0
 10
45.190922216
 20
26.5562005926
 30
0.0
 10
45.2465217715
 20
26.4971349699
 30
0.0
 10
45.3068519821
 20
26.3672692878
 30
0.0
 10
45.3451758018
 20
26.1653397891
 30
0.0
 10
45.3513760205
 20
26.0400273735
 30
0.0
 10
45.3513760205
 20
25.9709415209
 30
0.0
  0
SPLINE
  5
470
100
AcDbEntity
  8
0
100
AcDbSpline
 62
7
  6
CONTINUOUS
 70
0
 71
3
 72
9
 73
5
 74
0
 42
0.0000001
 43
0.0000001
 44
0.0000000001
 40
0.0
 40
0.0
 40
0.0
 40
0.0
 40
0.4763744394
 40
1.0
 40
1.0
 40
1.0
 40
1.0
 10
44.9101280581
 20
26.6818697184
 30
0.0
 10
44.9602244001
 20
26.6818697184
 30
0.0
 10
45.0677826164
 20
26.6647439386
 30
0.0
 10
45.1538283739
 20
26.5968975168
 30
0.0
 10
45.190922216
 20
26.5562005926
 30
0.0
  0
SPLINE
  5
471
100
AcDbEntity
  8
0
100
AcDbSpline
 62
7
  6
CONTINUOUS
 70
0
 71
3
 72
10
 73
6
 74
0
 42
0.0000001
 43
0.0000001
 44
0.0000000001
 40
0.0
 40
0.0
 40
0.0
 40
0.0
 40
0.2627194823
 40
0.5096966163
 40
1.0
 40
1.0
 40
1.0
 40
1.0
 10
41.4147877941
 20
25.1684543889
 30
0.0
 10
41.4649908788
 20
25.1684543889
 30
0.0
 10
41.5628445936
 20
25.1789936098
 30
0.0
 10
41.7445319453
 20
25.2424843764
 30
0.0
 10
41.8606127928
 20
25.3272004582
 30
0.0
 10
41.9307926427
 20
25.3892729957
 30
0.0
  0
SPLINE
  5
472
100
AcDbEntity
  8
0
100
AcDbSpline
 62
7
  6
CONTINUOUS
 70
0
 71
3
 72
14
 73
10
 74
0
 42
0.0000001
 43
0.0000001
 44
0.0000000001
 40
0.0
 40
0.0
 40
0.0
 40
0.0
 40
0.3059708621
 40
0.4370355177
 40
0.5563731876
 40
0.66748365
 40
0.7749149015
 40
0.8839599676
 40
1.0
 40
1.0
 40
1.0
 40
1.0
 10
40.8003226564
 20
26.019413898
 30
0.0
 10
40.8003226564
 20
25.8991970801
 30
0.0
 10
40.8166373839
 20
25.7255615786
 30
0.0
 10
40.8880326298
 20
25.5179826507
 30
0.0
 10
40.9584848777
 20
25.3935383835
 30
0.0
 10
41.0480321328
 20
25.2939316085
 30
0.0
 10
41.1558846934
 20
25.2211911287
 30
0.0
 10
41.2803325998
 20
25.177308138
 30
0.0
 10
41.3691953369
 20
25.1684543889
 30
0.0
 10
41.4147877941
 20
25.1684543889
 30
0.0
  0
SPLINE
  5
473
100
AcDbEntity
  8
0
100
AcDbSpline
 62
7
  6
CONTINUOUS
 70
0
 71
3
 72
13
 73
9
 74
0
 42
0.0000001
 43
0.0000001
 44
0.0000000001
 40
0.0
 40
0.0
 40
0.0
 40
0.0
 40
0.3209309436
 40
0.4509919179
 40
0.5664181959
 40
0.6729658417
 40
0.7770657632
 40
1.0
 40
1.0
 40
1.0
 40
1.0
 10
41.0938801851
 20
26.0409571767
 30
0.0
 10
41.0938801851
 20
26.1360695466
 30
0.0
 10
41.1046142838
 20
26.2714296368
 30
0.0
 10
41.1594858349
 20
26.4309698817
 30
0.0
 10
41.2130488579
 20
26.5215161602
 30
0.0
 10
41.281499149
 20
26.5912219398
 30
0.0
 10
41.3931933906
 20
26.6573621712
 30
0.0
 10
41.492761874
 20
26.6728933523
 30
0.0
 10
41.5588315504
 20
26.6728933523
 30
0.0
  0
SPLINE
  5
474
100
AcDbEntity
  8
0
100
AcDbSpline
 62
7
  6
CONTINUOUS
 70
0
 71
3
 72
10
 73
6
 74
0
 42
0.0000001
 43
0.0000001
 44
0.0000000001
 40
0.0
 40
0.0
 40
0.0
 40
0.0
 40
0.2413142238
 40
0.4726604345
 40
1.0
 40
1.0
 40
1.0
 40
1.0
 10
41.5588315504
 20
26.6728933523
 30
0.0
 10
41.5899887758
 20
26.6728933523
 30
0.0
 10
41.651119101
 20
26.6700350265
 30
0.0
 10
41.7784662636
 20
26.6462387428
 30
0.0
 10
41.869505348
 20
26.6074044517
 30
0.0
 10
41.9307926427
 20
26.5777438713
 30
0.0
  0
SPLINE
  5
475
100
AcDbEntity
  8
0
100
AcDbSpline
 62
7
  6
CONTINUOUS
 70
0
 71
3
 72
9
 73
5
 74
0
 42
0.0000001
 43
0.0000001
 44
0.0000000001
 40
0.0
 40
0.0
 40
0.0
 40
0.0
 40
0.5388598446
 40
1.0
 40
1.0
 40
1.0
 40
1.0
 10
47.1556740489
 20
16.1748437602
 30
0.0
 10
47.1553218103
 20
16.2725071465
 30
0.0
 10
47.1406711997
 20
16.4538830849
 30
0.0
 10
47.0945648373
 20
16.6310024579
 30
0.0
 10
47.0619463101
 20
16.7079524787
 30
0.0
  0
SPLINE
  5
476
100
AcDbEntity
  8
0
100
AcDbSpline
 62
7
  6
CONTINUOUS
 70
0
 71
3
 72
11
 73
7
 74
0
 42
0.0000001
 43
0.0000001
 44
0.0000000001
 40
0.0
 40
0.0
 40
0.0
 40
0.0
 40
0.3202445924
 40
0.5864067984
 40
0.8065911076
 40
1.0
 40
1.0
 40
1.0
 40
1.0
 10
47.0619463101
 20
16.7079524787
 30
0.0
 10
47.0479951134
 20
16.7408645985
 30
0.0
 10
47.018398233
 20
16.7996269503
 30
0.0
 10
46.9627890661
 20
16.8713911423
 30
0.0
 10
46.9005524485
 20
16.9171674666
 30
0.0
 10
46.8539911665
 20
16.9282115932
 30
0.0
 10
46.8324021195
 20
16.9282115932
 30
0.0
  0
SPLINE
  5
477
100
AcDbEntity
  8
0
100
AcDbSpline
 62
7
  6
CONTINUOUS
 70
0
 71
3
 72
11
 73
7
 74
0
 42
0.0000001
 43
0.0000001
 44
0.0000000001
 40
0.0
 40
0.0
 40
0.0
 40
0.0
 40
0.1934090942
 40
0.4135935101
 40
0.6797554908
 40
1.0
 40
1.0
 40
1.0
 40
1.0
 10
36.1065736953
 20
16.9282115932
 30
0.0
 10
36.0849846268
 20
16.9282115932
 30
0.0
 10
36.0384233157
 20
16.9171674412
 30
0.0
 10
35.9761866935
 20
16.8713911124
 30
0.0
 10
35.9205775887
 20
16.7996269046
 30
0.0
 10
35.8909807252
 20
16.7408645896
 30
0.0
 10
35.8770295354
 20
16.7079524787
 30
0.0
  0
SPLINE
  5
478
100
AcDbEntity
  8
0
100
AcDbSpline
 62
7
  6
CONTINUOUS
 70
0
 71
3
 72
9
 73
5
 74
0
 42
0.0000001
 43
0.0000001
 44
0.0000000001
 40
0.0
 40
0.0
 40
0.0
 40
0.0
 40
0.4611405286
 40
1.0
 40
1.0
 40
1.0
 40
1.0
 10
35.8770295354
 20
16.7079524787
 30
0.0
 10
35.8444109869
 20
16.6310023903
 30
0.0
 10
35.7983044736
 20
16.4538830477
 30
0.0
 10
35.7836540043
 20
16.2725070823
 30
0.0
 10
35.7833017659
 20
16.1748437602
 30
0.0
  0
SPLINE
  5
479
100
AcDbEntity
  8
0
100
AcDbSpline
 62
7
  6
CONTINUOUS
 70
0
 71
3
 72
12
 73
8
 74
0
 42
0.0000001
 43
0.0000001
 44
0.0000000001
 40
0.0
 40
0.0
 40
0.0
 40
0.0
 40
0.2500004441
 40
0.437499725
 40
0.6250002166
 40
0.8124996192
 40
1.0
 40
1.0
 40
1.0
 40
1.0
 10
35.7833017659
 20
16.1748437602
 30
0.0
 10
35.7817278624
 20
15.7384556551
 30
0.0
 10
35.7749270504
 20
14.9747980571
 30
0.0
 10
35.7727148656
 20
13.8838188756
 30
0.0
 10
35.7755571311
 20
12.9019419375
 30
0.0
 10
35.7704693443
 20
11.9200701841
 30
0.0
 10
35.765622804
 20
11.2655027694
 30
0.0
 10
35.7644462774
 20
10.9382115932
 30
0.0
  0
SPLINE
  5
47A
100
AcDbEntity
  8
0
100
AcDbSpline
 62
7
  6
CONTINUOUS
 70
0
 71
3
 72
12
 73
8
 74
0
 42
0.0000001
 43
0.0000001
 44
0.0000000001
 40
0.0
 40
0.0
 40
0.0
 40
0.0
 40
0.2500004433
 40
0.4374997231
 40
0.6250002153
 40
0.8124996179
 40
1.0
 40
1.0
 40
1.0
 40
1.0
 10
47.1745295374
 20
10.9382115932
 30
0.0
 10
47.1729608357
 20
11.3745997155
 30
0.0
 10
47.1661564223
 20
12.1382572983
 30
0.0
 10
47.1639403109
 20
13.2292364718
 30
0.0
 10
47.1667829687
 20
14.2111134022
 30
0.0
 10
47.1617006847
 20
15.1929851876
 30
0.0
 10
47.1568544768
 20
15.8475525958
 30
0.0
 10
47.1556740489
 20
16.1748437602
 30
0.0
  0
SPLINE
  5
47B
100
AcDbEntity
  8
0
100
AcDbSpline
 62
7
  6
CONTINUOUS
 70
0
 71
3
 72
10
 73
6
 74
0
 42
0.0000001
 43
0.0000001
 44
0.0000000001
 40
0.0
 40
0.0
 40
0.0
 40
0.0
 40
0.24193469
 40
0.4816652248
 40
1.0
 40
1.0
 40
1.0
 40
1.0
 10
37.8775107403
 20
25.1684543889
 30
0.0
 10
37.9154686869
 20
25.1684543889
 30
0.0
 10
37.9912792838
 20
25.1753893777
 30
0.0
 10
38.1425913123
 20
25.2199390006
 30
0.0
 10
38.2453479493
 20
25.2841961949
 30
0.0
 10
38.30984529
 20
25.3337297158
 30
0.0
  0
SPLINE
  5
47C
100
AcDbEntity
  8
0
100
AcDbSpline
 62
7
  6
CONTINUOUS
 70
0
 71
3
 72
9
 73
5
 74
0
 42
0.0000001
 43
0.0000001
 44
0.0000000001
 40
0.0
 40
0.0
 40
0.0
 40
0.0
 40
0.2429691383
 40
1.0
 40
1.0
 40
1.0
 40
1.0
 10
38.30984529
 20
25.3337297158
 30
0.0
 10
38.3165218029
 20
25.3388572324
 30
0.0
 10
38.3437884368
 20
25.3602368201
 30
0.0
 10
38.3702382482
 20
25.3826489838
 30
0.0
 10
38.3898689115
 20
25.400044635
 30
0.0
  0
SPLINE
  5
47D
100
AcDbEntity
  8
0
100
AcDbSpline
 62
7
  6
CONTINUOUS
 70
0
 71
3
 72
12
 73
8
 74
0
 42
0.0000001
 43
0.0000001
 44
0.0000000001
 40
0.0
 40
0.0
 40
0.0
 40
0.0
 40
0.294271455
 40
0.5344630715
 40
0.6455244558
 40
0.7570426097
 40
1.0
 40
1.0
 40
1.0
 40
1.0
 10
37.3487425209
 20
25.7985952912
 30
0.0
 10
37.3487425209
 20
25.7074158666
 30
0.0
 10
37.3653820487
 20
25.5401814959
 30
0.0
 10
37.4564036326
 20
25.3549017394
 30
0.0
 10
37.5625897451
 20
25.2564233756
 30
0.0
 10
37.6897647127
 20
25.1858141339
 30
0.0
 10
37.8022308765
 20
25.1684543889
 30
0.0
 10
37.8775107403
 20
25.1684543889
 30
0.0
  0
SPLINE
  5
47E
100
AcDbEntity
  8
0
100
AcDbSpline
 62
7
  6
CONTINUOUS
 70
0
 71
3
 72
9
 73
5
 74
0
 42
0.0000001
 43
0.0000001
 44
0.0000000001
 40
0.0
 40
0.0
 40
0.0
 40
0.0
 40
0.2762005503
 40
1.0
 40
1.0
 40
1.0
 40
1.0
 10
9.7947089757
 20
18.4151217895
 30
0.0
 10
9.7452626219
 20
18.4155532684
 30
0.0
 10
9.5662380344
 20
18.4169430548
 30
0.0
 10
9.3872081346
 20
18.4178781896
 30
0.0
 10
9.2576261841
 20
18.417863754
 30
0.0
  0
SPLINE
  5
47F
100
AcDbEntity
  8
0
100
AcDbSpline
 62
7
  6
CONTINUOUS
 70
0
 71
3
 72
18
 73
14
 74
0
 42
0.0000001
 43
0.0000001
 44
0.0000000001
 40
0.0
 40
0.0
 40
0.0
 40
0.0
 40
0.2223797133
 40
0.4198319869
 40
0.5909034908
 40
0.7341414801
 40
0.8480944865
 40
0.8936364973
 40
0.9313148782
 40
0.9609506384
 40
0.9823681339
 40
0.9954039257
 40
1.0
 40
1.0
 40
1.0
 40
1.0
 10
9.257626184
 20
18.4178637518
 30
0.0
 10
9.241097537
 20
18.4178619105
 30
0.0
 10
9.2098927623
 20
18.4178328824
 30
0.0
 10
9.1659742108
 20
18.4176993
 30
0.0
 10
9.1279347336
 20
18.4174846579
 30
0.0
 10
9.0961125862
 20
18.4171858053
 30
0.0
 10
9.0735956175
 20
18.4168703378
 30
0.0
 10
9.0589719476
 20
18.4165415107
 30
0.0
 10
9.0505267266
 20
18.4163325537
 30
0.0
 10
9.0440942829
 20
18.416011348
 30
0.0
 10
9.0389742041
 20
18.4159153412
 30
0.0
 10
9.0367323541
 20
18.4153716583
 30
0.0
 10
9.0347408952
 20
18.4154633823
 30
0.0
 10
9.0347379141
 20
18.4151217864
 30
0.0
  0
SPLINE
  5
480
100
AcDbEntity
  8
0
100
AcDbSpline
 62
7
  6
CONTINUOUS
 70
0
 71
3
 72
11
 73
7
 74
0
 42
0.0000001
 43
0.0000001
 44
0.0000000001
 40
0.0
 40
0.0
 40
0.0
 40
0.0
 40
0.26155389
 40
0.5434469926
 40
0.8036947676
 40
1.0
 40
1.0
 40
1.0
 40
1.0
 10
43.7377211195
 20
29.2702020239
 30
0.0
 10
43.7664809529
 20
29.260982486
 30
0.0
 10
43.8252981944
 20
29.238941955
 30
0.0
 10
43.9106946141
 20
29.2025836121
 30
0.0
 10
43.9879846888
 20
29.1665552816
 30
0.0
 10
44.0351322391
 20
29.1429107805
 30
0.0
 10
44.0549820511
 20
29.1319659855
 30
0.0
  0
SPLINE
  5
481
100
AcDbEntity
  8
0
100
AcDbSpline
 62
7
  6
CONTINUOUS
 70
0
 71
3
 72
11
 73
7
 74
0
 42
0.0000001
 43
0.0000001
 44
0.0000000001
 40
0.0
 40
0.0
 40
0.0
 40
0.0
 40
0.2786758824
 40
0.5213829723
 40
0.7517597684
 40
1.0
 40
1.0
 40
1.0
 40
1.0
 10
44.0549820511
 20
29.1319659855
 30
0.0
 10
44.0880299976
 20
29.1132145469
 30
0.0
 10
44.1478499061
 20
29.0740427678
 30
0.0
 10
44.2196428552
 20
28.9990518627
 30
0.0
 10
44.2626178501
 20
28.9085925295
 30
0.0
 10
44.2701360162
 20
28.842664085
 30
0.0
 10
44.2701360162
 20
28.8088168048
 30
0.0
  0
SPLINE
  5
482
100
AcDbEntity
  8
0
100
AcDbSpline
 62
7
  6
CONTINUOUS
 70
0
 71
3
 72
11
 73
7
 74
0
 42
0.0000001
 43
0.0000001
 44
0.0000000001
 40
0.0
 40
0.0
 40
0.0
 40
0.0
 40
0.2449808737
 40
0.4741901555
 40
0.7152302879
 40
1.0
 40
1.0
 40
1.0
 40
1.0
 10
43.5134504609
 20
28.8267695371
 30
0.0
 10
43.5134504609
 20
28.8690827528
 30
0.0
 10
43.5185732179
 20
28.9513409143
 30
0.0
 10
43.5553132325
 20
29.0709106713
 30
0.0
 10
43.6295099689
 20
29.1802754527
 30
0.0
 10
43.6984129101
 20
29.2406371071
 30
0.0
 10
43.7377211195
 20
29.2702020239
 30
0.0
  0
SPLINE
  5
483
100
AcDbEntity
  8
0
100
AcDbSpline
 62
7
  6
CONTINUOUS
 70
0
 71
3
 72
11
 73
7
 74
0
 42
0.0000001
 43
0.0000001
 44
0.0000000001
 40
0.0
 40
0.0
 40
0.0
 40
0.0
 40
0.2495439619
 40
0.487507982
 40
0.7323585554
 40
1.0
 40
1.0
 40
1.0
 40
1.0
 10
43.8908815692
 20
30.3545470524
 30
0.0
 10
43.9494120955
 20
30.3545470524
 30
0.0
 10
44.0655153862
 20
30.3324036885
 30
0.0
 10
44.209790544
 20
30.2303274441
 30
0.0
 10
44.3032660204
 20
30.0758507119
 30
0.0
 10
44.3230128382
 20
29.9541418502
 30
0.0
 10
44.3230128382
 20
29.8913665601
 30
0.0
  0
SPLINE
  5
484
100
AcDbEntity
  8
0
100
AcDbSpline
 62
7
  6
CONTINUOUS
 70
0
 71
3
 72
11
 73
7
 74
0
 42
0.0000001
 43
0.0000001
 44
0.0000000001
 40
0.0
 40
0.0
 40
0.0
 40
0.0
 40
0.2663101556
 40
0.5020608212
 40
0.7372424943
 40
1.0
 40
1.0
 40
1.0
 40
1.0
 10
43.4715136711
 20
29.9362483907
 30
0.0
 10
43.4715136711
 20
29.995241147
 30
0.0
 10
43.4878969984
 20
30.1082192038
 30
0.0
 10
43.5776656455
 20
30.2510226686
 30
0.0
 10
43.720771104
 20
30.3384900063
 30
0.0
 10
43.8326757923
 20
30.3545470524
 30
0.0
 10
43.8908815692
 20
30.3545470524
 30
0.0
  0
SPLINE
  5
485
100
AcDbEntity
  8
0
100
AcDbSpline
 62
7
  6
CONTINUOUS
 70
0
 71
3
 72
11
 73
7
 74
0
 42
0.0000001
 43
0.0000001
 44
0.0000000001
 40
0.0
 40
0.0
 40
0.0
 40
0.0
 40
0.2559610384
 40
0.48577732
 40
0.7248498385
 40
1.0
 40
1.0
 40
1.0
 40
1.0
 10
43.1615460942
 20
29.9075240191
 30
0.0
 10
43.1615460942
 20
29.8448558617
 30
0.0
 10
43.1751695029
 20
29.7244352792
 30
0.0
 10
43.2577364528
 20
29.5628252853
 30
0.0
 10
43.3947348921
 20
29.4383404213
 30
0.0
 10
43.5066521232
 20
29.3788978462
 30
0.0
 10
43.5681061047
 20
29.3513002112
 30
0.0
  0
SPLINE
  5
486
100
AcDbEntity
  8
0
100
AcDbSpline
 62
7
  6
CONTINUOUS
 70
0
 71
3
 72
11
 73
7
 74
0
 42
0.0000001
 43
0.0000001
 44
0.0000000001
 40
0.0
 40
0.0
 40
0.0
 40
0.0
 40
0.2707052937
 40
0.5193674655
 40
0.7583228369
 40
1.0
 40
1.0
 40
1.0
 40
1.0
 10
44.2392101145
 20
29.3385684249
 30
0.0
 10
44.2989105818
 20
29.3667008291
 30
0.0
 10
44.4079579304
 20
29.4342587198
 30
0.0
 10
44.5342109095
 20
29.5727520505
 30
0.0
 10
44.6111302541
 20
29.7359763695
 30
0.0
 10
44.627510399
 20
29.8539899712
 30
0.0
 10
44.627510399
 20
29.9129098388
 30
0.0
  0
SPLINE
  5
487
100
AcDbEntity
  8
0
100
AcDbSpline
 62
7
  6
CONTINUOUS
 70
0
 71
3
 72
11
 73
7
 74
0
 42
0.0000001
 43
0.0000001
 44
0.0000000001
 40
0.0
 40
0.0
 40
0.0
 40
0.0
 40
0.277825949
 40
0.5269358388
 40
0.7611983252
 40
1.0
 40
1.0
 40
1.0
 40
1.0
 10
43.8945282466
 20
28.2594631976
 30
0.0
 10
43.9864375271
 20
28.2594631976
 30
0.0
 10
44.162651135
 20
28.2856794538
 30
0.0
 10
44.3881431225
 20
28.4104982589
 30
0.0
 10
44.5391747862
 20
28.6048066548
 30
0.0
 10
44.5728102383
 20
28.7639275715
 30
0.0
 10
44.5728102383
 20
28.8429269961
 30
0.0
  0
SPLINE
  5
488
100
AcDbEntity
  8
0
100
AcDbSpline
 62
7
  6
CONTINUOUS
 70
0
 71
3
 72
11
 73
7
 74
0
 42
0.0000001
 43
0.0000001
 44
0.0000000001
 40
0.0
 40
0.0
 40
0.0
 40
0.0
 40
0.2369125854
 40
0.465907515
 40
0.7135668238
 40
1.0
 40
1.0
 40
1.0
 40
1.0
 10
43.2180695935
 20
28.8231789906
 30
0.0
 10
43.2180695935
 20
28.7456780776
 30
0.0
 10
43.2486355877
 20
28.5903118761
 30
0.0
 10
43.3971869884
 20
28.4001516538
 30
0.0
 10
43.6242801682
 20
28.2822610017
 30
0.0
 10
43.8008277256
 20
28.2594631976
 30
0.0
 10
43.8945282466
 20
28.2594631976
 30
0.0
  0
ELLIPSE
  5
489
100
AcDbEntity
  8
0
100
AcDbEllipse
 62
7
  6
CONTINUOUS
 10
45.9694879074
 20
97.0240089944
 30
0.0
 11
0.0
 21
0.8717233978
 31
0.0
 40
0.5735764364
 41
-4.7123889804
 42
-3.1415926536
  0
ELLIPSE
  5
48A
100
AcDbEntity
  8
0
100
AcDbEllipse
 62
7
  6
CONTINUOUS
 10
45.0521438179
 20
101.9382115932
 30
0.0
 11
-0.5826559105
 21
-0.0
 31
0.0
 40
0.8581394113
 41
-1.5707963268
 42
-1.5185079755
  0
ELLIPSE
  5
48B
100
AcDbEntity
  8
0
100
AcDbEllipse
 62
7
  6
CONTINUOUS
 10
57.8868319969
 20
101.9382115932
 30
0.0
 11
0.5826559105
 21
0.0
 31
0.0
 40
0.8581394113
 41
1.5185079755
 42
1.5707963268
  0
ELLIPSE
  5
48C
100
AcDbEntity
  8
0
100
AcDbEllipse
 62
7
  6
CONTINUOUS
 10
56.9694879074
 20
97.0240089944
 30
0.0
 11
-0.0
 21
0.8717233978
 31
0.0
 40
0.5735764364
 41
-3.1415926536
 42
-1.5707963268
  0
ENDSEC
  0
SECTION
  2
OBJECTS
  0
DICTIONARY
  5
C
100
AcDbDictionary
280
0
281
1
  3
ACAD_GROUP
350
D
  3
ACAD_MLINESTYLE
350
17
  3
ACAD_LAYOUT
350
1A
  3
ACAD_PLOTSETTINGS
350
19
  3
ACAD_PLOTSTYLENAME
350
E
  0
DICTIONARY
  5
D
102
{ACAD_REACTORS
330
C
102
}
100
AcDbDictionary
280
0
281
1
  0
ACDBDICTIONARYWDFLT
  5
E
102
{ACAD_REACTORS
330
C
102
}
100
AcDbDictionary
281
1
  3
Normal
350
F
100
AcDbDictionaryWithDefault
340
F
  0
DICTIONARY
  5
17
102
{ACAD_REACTORS
330
C
102
}
100
AcDbDictionary
280
0
281
1
  3
Standard
350
18
  0
DICTIONARY
  5
19
102
{ACAD_REACTORS
330
C
102
}
100
AcDbDictionary
281
1
  0
DICTIONARY
  5
1A
102
{ACAD_REACTORS
330
C
102
}
100
AcDbDictionary
281
1
  3
Model
350
48D
  3
Layout1
350
48E
  0
ACDBPLACEHOLDER
  5
F
102
{ACAD_REACTORS
330
E
102
}
  0
MLINESTYLE
  5
18
102
{ACAD_REACTORS
330
17
102
}
100
AcDbMlineStyle
  2
STANDARD
 70
0
  3

 62
256
 51
90.0
 52
90.0
 71
2
 49
0.5
 62
256
  6
BYLAYER
 49
-0.5
 62
256
  6
BYLAYER
  0
LAYOUT
  5
48D
102
{ACAD_REACTORS
330
1A
102
}
100
AcDbPlotSettings
  1

  2
none_device
  4

  6

 40
0.0
 41
0.0
 42
0.0
 43
0.0
 44
210.0
 45
297.0
 46
0.0
 47
0.0
 48
0.0
 49
0.0
140
0.0
141
0.0
142
1.0
143
1.0
 70
1024
 72
1
 73
0
 74
0
  7

 75
0
147
1.0
148
0.0
149
0.0
100
AcDbLayout
  1
Model
 70
0
 71
0
 10
0.0
 20
0.0
 11
210.0
 21
297.0
 12
0.0
 22
0.0
 32
0.0
 14
0.0
 24
0.0
 34
0.0
 15
0.0
 25
0.0
 35
0.0
146
0.0
 13
0.0
 23
0.0
 33
0.0
 16
1.0
 26
0.0
 36
0.0
 17
0.0
 27
1.0
 37
0.0
 76
0
330
211
345
0
346
0
  0
LAYOUT
  5
48E
102
{ACAD_REACTORS
330
1A
102
}
100
AcDbPlotSettings
  1

  2
none_device
  4

  6

 40
0.0
 41
0.0
 42
0.0
 43
0.0
 44
210.0
 45
297.0
 46
0.0
 47
0.0
 48
0.0
 49
0.0
140
0.0
141
0.0
142
1.0
143
1.0
 70
0
 72
1
 73
0
 74
0
  7

 75
0
147
1.0
148
0.0
149
0.0
100
AcDbLayout
  1
Layout1
 70
0
 71
1
 10
0.0
 20
0.0
 11
210.0
 21
297.0
 12
0.0
 22
0.0
 32
0.0
 14
0.0
 24
0.0
 34
0.0
 15
0.0
 25
0.0
 35
0.0
146
0.0
 13
0.0
 23
0.0
 33
0.0
 16
1.0
 26
0.0
 36
0.0
 17
0.0
 27
1.0
 37
0.0
 76
0
330
212
345
0
346
0
  0
ENDSEC
  0
EOF
