999
DXF file: C:\Users\sesa63760\Dev\_Creo\CAD\MCADPP0002971_3D-CAD\drw0001_4.dxf
999
Pro/ENGINEER 2019471 by Parametric Technology Corporation
  0
SECTION
  2
HEADER
  9
$ACADVER
  1
AC1024
  9
$DWGCODEPAGE
  3
ANSI_1252
  9
$EXTMAX
 10
113.7095812698
 20
160.8178363673
 30
0.0
  9
$EXTMIN
 10
0.0
 20
0.0
 30
0.0
  9
$LIMMIN
 10
0.0
 20
0.0
  9
$LIMMAX
 10
113.7095812698
 20
160.8178363673
  9
$VIEWCTR
 10
56.8547906349
 20
80.4089181836
  9
$VIEWSIZE
 40
160.8178363673
  9
$CLAYER
  8
0
  9
$LTSCALE
 40
10.4829404447
  9
$CELTYPE
  6
BYLAYER
  9
$DIMSCALE
 40
1.0
  9
$DIMASZ
 40
1.3536854913
  9
$DIMEXO
 40
1.0
  9
$DIMDLI
 40
7.2427588527
  9
$DIMEXE
 40
1.0
  9
$DIMCEN
 40
1.7153902546
  9
$DIMLFAC
 40
1.0
  9
$DIMBLK
  1
_FILLED
  9
$DIMALT
 70
0
  9
$DIMALTF
 40
0.0393700787
  9
$DIMTXT
 40
1.8951596878
  9
$DIMTOL
 70
1
  9
$DIMLIM
 70
0
  9
$DIMTFAC
 40
1.0
  9
$DIMTP
 40
0.01
  9
$DIMTM
 40
0.01
  9
$DIMGAP
 40
0.625
  9
$DIMDSEP
 70
46
  9
$AUNITS
 70
0
  9
$PDMODE
 70
3
  9
$PDSIZE
 40
0.3125
  9
$HANDSEED
  5
2F0
  9
$TILEMODE
 70
1
  9
$MEASUREMENT
 70
1
  9
$INSUNITS
 70
4
  0
ENDSEC
  0
SECTION
  2
CLASSES
  0
CLASS
  1
ACDBDICTIONARYWDFLT
  2
AcDbDictionaryWithDefault
  3
AutoCAD 2000
 90
0
 91
1
280
0
281
0
  0
CLASS
  1
ACDBPLACEHOLDER
  2
AcDbPlaceHolder
  3
AutoCAD 2000
 90
0
 91
1
280
0
281
0
  0
CLASS
  1
LAYOUT
  2
AcDbLayout
  3
AutoCAD 2000
 90
0
 91
0
280
0
281
0
  0
ENDSEC
  0
SECTION
  2
TABLES
  0
TABLE
  2
VPORT
  5
8
100
AcDbSymbolTable
 70
2
  0
VPORT
  5
1F4
100
AcDbSymbolTableRecord
100
AcDbViewportTableRecord
  2
*ACTIVE
 70
0
 10
0.0
 20
0.0
 11
1.0
 21
1.0
 12
56.8547906349
 22
80.4089181836
 13
0.0
 23
0.0
 14
1.0
 24
1.0
 15
0.0
 25
0.0
 16
0.0
 26
0.0
 36
1.0
 17
0.0
 27
0.0
 37
0.0
 40
160.8178363673
 41
0.7070707071
 42
50.0
 43
0.0
 44
0.0
 50
0.0
 51
0.0
 71
0
 72
100
 73
1
 74
1
 75
0
 76
0
 77
0
 78
0
  0
ENDTAB
  0
TABLE
  2
LTYPE
  5
5
100
AcDbSymbolTable
 70
6
  0
LTYPE
  5
14
100
AcDbSymbolTableRecord
100
AcDbLinetypeTableRecord
  2
BYBLOCK
 70
0
  3

 72
65
 73
0
 40
0.0
  0
LTYPE
  5
15
100
AcDbSymbolTableRecord
100
AcDbLinetypeTableRecord
  2
BYLAYER
 70
0
  3

 72
65
 73
0
 40
0.0
  0
LTYPE
  5
16
100
AcDbSymbolTableRecord
100
AcDbLinetypeTableRecord
  2
CONTINUOUS
 70
64
  3
Solid line
 72
65
 73
0
 40
0.0
  0
LTYPE
  5
1F5
100
AcDbSymbolTableRecord
100
AcDbLinetypeTableRecord
  2
CENTER
 70
64
  3
____ _ ____ _ ____ _ ____ _ ____ _ ____ _ ____
 72
65
 73
4
 40
0.6
 49
0.375
 74
0
 49
-0.075
 74
0
 49
0.075
 74
0
 49
-0.075
 74
0
  0
LTYPE
  5
1F6
100
AcDbSymbolTableRecord
100
AcDbLinetypeTableRecord
  2
HIDDEN
 70
64
  3
- - - - - - - - - - - - - - - - - - - -
 72
65
 73
2
 40
0.2
 49
0.1
 74
0
 49
-0.1
 74
0
  0
LTYPE
  5
1F7
100
AcDbSymbolTableRecord
100
AcDbLinetypeTableRecord
  2
PHANTOM
 70
64
  3
_____ _ _ _____ _ _ _____ _ _ _____
 72
65
 73
6
 40
0.8
 49
0.45
 74
0
 49
-0.05
 74
0
 49
0.1
 74
0
 49
-0.05
 74
0
 49
0.1
 74
0
 49
-0.05
 74
0
  0
LTYPE
  5
1F8
100
AcDbSymbolTableRecord
100
AcDbLinetypeTableRecord
  2
DOT
 70
64
  3
. . . . . . . . . . . . . . . . . . . .
 72
65
 73
2
 40
0.2
 49
0.1
 74
0
 49
-0.1
 74
0
  0
LTYPE
  5
1F9
100
AcDbSymbolTableRecord
100
AcDbLinetypeTableRecord
  2
DASHED
 70
64
  3
- - - - - - - - - - - - - - - - - - - -
 72
65
 73
2
 40
0.2
 49
0.1
 74
0
 49
-0.1
 74
0
  0
ENDTAB
  0
TABLE
  2
LAYER
  5
2
100
AcDbSymbolTable
 70
36
  0
LAYER
  5
10
100
AcDbSymbolTableRecord
100
AcDbLayerTableRecord
  2
0
 70
0
 62
7
  6
CONTINUOUS
370
-3
390
F
  0
LAYER
  5
1FA
100
AcDbSymbolTableRecord
100
AcDbLayerTableRecord
  2
DEFAULT_1
 70
0
 62
7
  6
CENTER
370
-3
390
F
  0
LAYER
  5
1FB
100
AcDbSymbolTableRecord
100
AcDbLayerTableRecord
  2
DEFAULT_2
 70
0
 62
8
  6
HIDDEN
370
-3
390
F
  0
LAYER
  5
1FC
100
AcDbSymbolTableRecord
100
AcDbLayerTableRecord
  2
DEFAULT_3
 70
0
 62
7
  6
PHANTOM
370
-3
390
F
  0
LAYER
  5
1FD
100
AcDbSymbolTableRecord
100
AcDbLayerTableRecord
  2
00_COMPONENTS
 70
0
 62
7
  6
CONTINUOUS
370
-3
390
F
  0
LAYER
  5
1FE
100
AcDbSymbolTableRecord
100
AcDbLayerTableRecord
  2
01_1_DEFAULT_DATUMS
 70
0
 62
7
  6
CONTINUOUS
370
-3
390
F
  0
LAYER
  5
1FF
100
AcDbSymbolTableRecord
100
AcDbLayerTableRecord
  2
01_PLANES
 70
0
 62
7
  6
CONTINUOUS
370
-3
390
F
  0
LAYER
  5
200
100
AcDbSymbolTableRecord
100
AcDbLayerTableRecord
  2
02_COORD_SYS
 70
0
 62
7
  6
CONTINUOUS
370
-3
390
F
  0
LAYER
  5
201
100
AcDbSymbolTableRecord
100
AcDbLayerTableRecord
  2
03_AXES
 70
0
 62
7
  6
CONTINUOUS
370
-3
390
F
  0
LAYER
  5
202
100
AcDbSymbolTableRecord
100
AcDbLayerTableRecord
  2
04_POINTS
 70
0
 62
7
  6
CONTINUOUS
370
-3
390
F
  0
LAYER
  5
203
100
AcDbSymbolTableRecord
100
AcDbLayerTableRecord
  2
05_CURVES
 70
0
 62
7
  6
CONTINUOUS
370
-3
390
F
  0
LAYER
  5
204
100
AcDbSymbolTableRecord
100
AcDbLayerTableRecord
  2
06_SURFS
 70
0
 62
7
  6
CONTINUOUS
370
-3
390
F
  0
LAYER
  5
205
100
AcDbSymbolTableRecord
100
AcDbLayerTableRecord
  2
07_COSMETICS
 70
0
 62
7
  6
CONTINUOUS
370
-3
390
F
  0
LAYER
  5
206
100
AcDbSymbolTableRecord
100
AcDbLayerTableRecord
  2
10_NOTES
 70
0
 62
7
  6
CONTINUOUS
370
-3
390
F
  0
LAYER
  5
207
100
AcDbSymbolTableRecord
100
AcDbLayerTableRecord
  2
11_NOTES_PUB
 70
0
 62
7
  6
CONTINUOUS
370
-3
390
F
  0
LAYER
  5
208
100
AcDbSymbolTableRecord
100
AcDbLayerTableRecord
  2
13_REF_GTOL
 70
0
 62
7
  6
CONTINUOUS
370
-3
390
F
  0
LAYER
  5
209
100
AcDbSymbolTableRecord
100
AcDbLayerTableRecord
  2
16_MISC
 70
0
 62
7
  6
CONTINUOUS
370
-3
390
F
  0
LAYER
  5
20A
100
AcDbSymbolTableRecord
100
AcDbLayerTableRecord
  2
17_NO_PRINT
 70
0
 62
7
  6
CONTINUOUS
370
-3
390
F
  0
LAYER
  5
20B
100
AcDbSymbolTableRecord
100
AcDbLayerTableRecord
  2
18_DATUM_CAMS_JOINTS
 70
0
 62
7
  6
CONTINUOUS
370
-3
390
F
  0
LAYER
  5
20C
100
AcDbSymbolTableRecord
100
AcDbLayerTableRecord
  2
19_DATUM_FUNCTIONAL
 70
0
 62
7
  6
CONTINUOUS
370
-3
390
F
  0
LAYER
  5
20D
100
AcDbSymbolTableRecord
100
AcDbLayerTableRecord
  2
20_DATUM_KINEMATIC_SCHEME
 70
0
 62
7
  6
CONTINUOUS
370
-3
390
F
  0
ENDTAB
  0
TABLE
  2
STYLE
  5
3
100
AcDbSymbolTable
 70
1
  0
STYLE
  5
11
100
AcDbSymbolTableRecord
100
AcDbTextStyleTableRecord
  2
STANDARD
 70
0
 40
0.0
 41
0.8
 50
0.0
 71
0
 42
0.2
  3
txt
  4

  0
STYLE
  5
20E
100
AcDbSymbolTableRecord
100
AcDbTextStyleTableRecord
  2
TEXTSTYLE_1
 70
0
 40
0.0
 41
0.8
 50
0.0
 71
0
 42
0.2
  3
gdt
  4

  0
ENDTAB
  0
TABLE
  2
VIEW
  5
6
100
AcDbSymbolTable
 70
0
  0
ENDTAB
  0
TABLE
  2
UCS
  5
7
100
AcDbSymbolTable
 70
0
  0
ENDTAB
  0
TABLE
  2
APPID
  5
9
100
AcDbSymbolTable
 70
1
  0
APPID
  5
20F
100
AcDbSymbolTableRecord
100
AcDbRegAppTableRecord
  2
ACAD
 70
0
  0
ENDTAB
  0
TABLE
  2
BLOCK_RECORD
  5
1
100
AcDbSymbolTable
 70
0
  0
BLOCK_RECORD
  5
210
100
AcDbSymbolTableRecord
100
AcDbBlockTableRecord
  2
*Model_Space
  0
BLOCK_RECORD
  5
211
100
AcDbSymbolTableRecord
100
AcDbBlockTableRecord
  2
*Paper_Space
  0
BLOCK_RECORD
  5
212
100
AcDbSymbolTableRecord
100
AcDbBlockTableRecord
  2
_FILLED
  0
ENDTAB
  0
TABLE
  2
DIMSTYLE
  5
A
100
AcDbSymbolTable
 70
1
100
AcDbDimStyleTable
 71
0
  0
DIMSTYLE
105
213
100
AcDbSymbolTableRecord
100
AcDbDimStyleTableRecord
  2
STANDARD
 70
0
  3

  4

 40
1.0
 41
1.3536854913
 42
1.0
 43
0.38
 44
1.0
 45
0.0
 46
0.0
 47
0.01
 48
0.01
140
1.8951596878
141
0.09
142
0.0
143
25.4
144
1.0
145
0.0
146
1.0
147
0.625
 71
1
 72
0
 73
0
 74
0
 75
0
 76
0
 77
1
 78
8
 79
2
170
0
171
1
172
0
173
0
174
0
175
0
176
0
177
0
178
0
270
2
179
2
271
2
272
2
273
2
274
2
275
0
280
0
281
0
282
0
283
1
284
8
285
0
286
0
287
3
288
0
340
11
278
46
341
212
342
212
343
212
344
212
  0
ENDTAB
  0
ENDSEC
  0
SECTION
  2
BLOCKS
  0
BLOCK
  5
20
100
AcDbEntity
  8
0
100
AcDbBlockBegin
  2
*Model_Space
 70
0
 10
0.0
 20
0.0
 30
0.0
  3
*Model_Space
  1

  0
ENDBLK
  5
21
100
AcDbEntity
  8
0
100
AcDbBlockEnd
  0
BLOCK
  5
1C
100
AcDbEntity
  8
0
100
AcDbBlockBegin
  2
*Paper_Space
 70
0
 10
0.0
 20
0.0
 30
0.0
  3
*Paper_Space
  1

  0
ENDBLK
  5
1D
100
AcDbEntity
  8
0
100
AcDbBlockEnd
  0
BLOCK
  5
214
100
AcDbEntity
  8
0
100
AcDbBlockBegin
  2
_FILLED
 70
64
 10
0.0
 20
0.0
  3
_FILLED
  1

  0
SOLID
  5
215
100
AcDbEntity
  8
0
  6
BYBLOCK
 62
0
100
AcDbTrace
 10
0.0
 20
0.0
 11
-1.0
 21
0.25
 12
-1.0
 22
-0.25
 13
-1.0
 23
-0.25
  0
ENDBLK
  5
216
100
AcDbEntity
  8
0
  6
BYBLOCK
 62
0
100
AcDbBlockEnd
  0
ENDSEC
  0
SECTION
  2
ENTITIES
  0
LINE
  5
217
100
AcDbEntity
  8
0
100
AcDbLine
 62
7
  6
CONTINUOUS
 10
12.6643325389
 20
80.7895911962
 11
12.6643325389
 21
90.9495911962
  0
LINE
  5
218
100
AcDbEntity
  8
0
100
AcDbLine
 62
7
  6
CONTINUOUS
 10
21.6943325389
 20
80.7895911962
 11
21.6943325389
 21
90.9495911962
  0
LINE
  5
219
100
AcDbEntity
  8
0
100
AcDbLine
 62
7
  6
CONTINUOUS
 10
22.5343325389
 20
80.7895911962
 11
22.5343325389
 21
79.1595911962
  0
LINE
  5
21A
100
AcDbEntity
  8
0
100
AcDbLine
 62
7
  6
CONTINUOUS
 10
22.5343325389
 20
90.9495911962
 11
22.5343325389
 21
97.6595911962
  0
LINE
  5
21B
100
AcDbEntity
  8
0
100
AcDbLine
 62
7
  6
CONTINUOUS
 10
22.5643325389
 20
97.6595911962
 11
22.5643325389
 21
79.1595911962
  0
LINE
  5
21C
100
AcDbEntity
  8
0
100
AcDbLine
 62
7
  6
CONTINUOUS
 10
83.0978405859
 20
45.8818343826
 11
83.9478405859
 21
46.1095911962
  0
LINE
  5
21D
100
AcDbEntity
  8
0
100
AcDbLine
 62
7
  6
CONTINUOUS
 10
87.7978405859
 20
41.9095911962
 11
87.5263498985
 21
41.9095911962
  0
LINE
  5
21E
100
AcDbEntity
  8
0
100
AcDbLine
 62
7
  6
CONTINUOUS
 10
85.5263498985
 20
41.9095911962
 11
84.8302499547
 21
41.9095911962
  0
LINE
  5
21F
100
AcDbEntity
  8
0
100
AcDbLine
 62
7
  6
CONTINUOUS
 10
48.2654312171
 20
41.9095911962
 11
47.5693312733
 21
41.9095911962
  0
LINE
  5
220
100
AcDbEntity
  8
0
100
AcDbLine
 62
7
  6
CONTINUOUS
 10
45.5693312733
 20
41.9095911962
 11
45.2978405859
 21
41.9095911962
  0
LINE
  5
221
100
AcDbEntity
  8
0
100
AcDbLine
 62
7
  6
CONTINUOUS
 10
28.9978405859
 20
44.2095911962
 11
46.4978405859
 21
44.2095911962
  0
LINE
  5
222
100
AcDbEntity
  8
0
100
AcDbLine
 62
7
  6
CONTINUOUS
 10
86.4978405859
 20
44.2095911962
 11
103.9978405859
 21
44.2095911962
  0
LINE
  5
223
100
AcDbEntity
  8
0
100
AcDbLine
 62
7
  6
CONTINUOUS
 10
103.9978405859
 20
45.2095911962
 11
86.4978405859
 21
45.2095911962
  0
LINE
  5
224
100
AcDbEntity
  8
0
100
AcDbLine
 62
7
  6
CONTINUOUS
 10
46.4978405859
 20
45.2095911962
 11
28.9978405859
 21
45.2095911962
  0
LINE
  5
225
100
AcDbEntity
  8
0
100
AcDbLine
 62
7
  6
CONTINUOUS
 10
28.9978405859
 20
46.2095911962
 11
46.4978405859
 21
46.2095911962
  0
LINE
  5
226
100
AcDbEntity
  8
0
100
AcDbLine
 62
7
  6
CONTINUOUS
 10
86.4978405859
 20
46.2095911962
 11
103.9978405859
 21
46.2095911962
  0
LINE
  5
227
100
AcDbEntity
  8
0
100
AcDbLine
 62
7
  6
CONTINUOUS
 10
49.1478405859
 20
47.1095911962
 11
83.9478405859
 21
47.1095911962
  0
LINE
  5
228
100
AcDbEntity
  8
0
100
AcDbLine
 62
7
  6
CONTINUOUS
 10
49.1478405859
 20
46.1095911962
 11
49.9978405859
 21
45.8818343826
  0
LINE
  5
229
100
AcDbEntity
  8
0
100
AcDbLine
 62
7
  6
CONTINUOUS
 10
28.9978405859
 20
44.2099693337
 11
28.9978405859
 21
63.2095911962
  0
LINE
  5
22A
100
AcDbEntity
  8
0
100
AcDbLine
 62
7
  6
CONTINUOUS
 10
46.7693312733
 20
48.6095911962
 11
51.338613984
 21
48.6095911962
  0
LINE
  5
22B
100
AcDbEntity
  8
0
100
AcDbLine
 62
7
  6
CONTINUOUS
 10
81.7570671879
 20
48.6095911962
 11
86.3263498985
 21
48.6095911962
  0
LINE
  5
22C
100
AcDbEntity
  8
0
100
AcDbLine
 62
7
  6
CONTINUOUS
 10
103.9978405859
 20
49.7095911962
 11
86.4978405859
 21
49.7095911962
  0
LINE
  5
22D
100
AcDbEntity
  8
0
100
AcDbLine
 62
7
  6
CONTINUOUS
 10
28.9978405859
 20
49.7095911962
 11
46.4978405859
 21
49.7095911962
  0
LINE
  5
22E
100
AcDbEntity
  8
0
100
AcDbLine
 62
7
  6
CONTINUOUS
 10
103.9978405859
 20
50.0095911962
 11
86.4978405859
 21
50.0095911962
  0
LINE
  5
22F
100
AcDbEntity
  8
0
100
AcDbLine
 62
7
  6
CONTINUOUS
 10
46.4978405859
 20
50.0095911962
 11
28.9978405859
 21
50.0095911962
  0
LINE
  5
230
100
AcDbEntity
  8
0
100
AcDbLine
 62
7
  6
CONTINUOUS
 10
77.7570671879
 20
50.5095911962
 11
55.338613984
 21
50.5095911962
  0
LINE
  5
231
100
AcDbEntity
  8
0
100
AcDbLine
 62
7
  6
CONTINUOUS
 10
103.9978405859
 20
50.7095911962
 11
86.4978405859
 21
50.7095911962
  0
LINE
  5
232
100
AcDbEntity
  8
0
100
AcDbLine
 62
7
  6
CONTINUOUS
 10
28.9978405859
 20
50.7095911962
 11
46.4978405859
 21
50.7095911962
  0
LINE
  5
233
100
AcDbEntity
  8
0
100
AcDbLine
 62
7
  6
CONTINUOUS
 10
28.9978405859
 20
51.9095911962
 11
46.4978405859
 21
51.9095911962
  0
LINE
  5
234
100
AcDbEntity
  8
0
100
AcDbLine
 62
7
  6
CONTINUOUS
 10
86.4978405859
 20
51.9095911962
 11
103.9978405859
 21
51.9095911962
  0
LINE
  5
235
100
AcDbEntity
  8
0
100
AcDbLine
 62
7
  6
CONTINUOUS
 10
68.0478405859
 20
52.4595911962
 11
65.0478405859
 21
52.4595911962
  0
LINE
  5
236
100
AcDbEntity
  8
0
100
AcDbLine
 62
7
  6
CONTINUOUS
 10
55.4478405859
 20
52.5095911962
 11
65.9909036386
 21
52.5095911962
  0
LINE
  5
237
100
AcDbEntity
  8
0
100
AcDbLine
 62
7
  6
CONTINUOUS
 10
67.1047775332
 20
52.5095911962
 11
77.6478405859
 21
52.5095911962
  0
LINE
  5
238
100
AcDbEntity
  8
0
100
AcDbLine
 62
7
  6
CONTINUOUS
 10
28.9978405859
 20
52.9095911962
 11
46.4978405859
 21
52.9095911962
  0
LINE
  5
239
100
AcDbEntity
  8
0
100
AcDbLine
 62
7
  6
CONTINUOUS
 10
86.4978405859
 20
52.9095911962
 11
103.9978405859
 21
52.9095911962
  0
LINE
  5
23A
100
AcDbEntity
  8
0
100
AcDbLine
 62
7
  6
CONTINUOUS
 10
68.0478391719
 20
53.1595911962
 11
65.0480266296
 21
53.1595911962
  0
LINE
  5
23B
100
AcDbEntity
  8
0
100
AcDbLine
 62
7
  6
CONTINUOUS
 10
77.6478405859
 20
53.6095911962
 11
76.1478405859
 21
53.6095911962
  0
LINE
  5
23C
100
AcDbEntity
  8
0
100
AcDbLine
 62
7
  6
CONTINUOUS
 10
56.9478405859
 20
53.6095911962
 11
55.4478405859
 21
53.6095911962
  0
LINE
  5
23D
100
AcDbEntity
  8
0
100
AcDbLine
 62
7
  6
CONTINUOUS
 10
55.4478405859
 20
54.3601465462
 11
56.7465579018
 21
54.3601465462
  0
LINE
  5
23E
100
AcDbEntity
  8
0
100
AcDbLine
 62
7
  6
CONTINUOUS
 10
76.34912327
 20
54.3601465462
 11
77.6478405859
 21
54.3601465462
  0
LINE
  5
23F
100
AcDbEntity
  8
0
100
AcDbLine
 62
7
  6
CONTINUOUS
 10
103.9978405859
 20
55.7595911962
 11
86.4978405859
 21
55.7595911962
  0
LINE
  5
240
100
AcDbEntity
  8
0
100
AcDbLine
 62
7
  6
CONTINUOUS
 10
46.4978405859
 20
55.7595911962
 11
28.9978405859
 21
55.7595911962
  0
LINE
  5
241
100
AcDbEntity
  8
0
100
AcDbLine
 62
7
  6
CONTINUOUS
 10
86.4978405859
 20
55.9095911962
 11
80.6679415986
 21
55.9095911962
  0
LINE
  5
242
100
AcDbEntity
  8
0
100
AcDbLine
 62
7
  6
CONTINUOUS
 10
52.4277395732
 20
55.9095911962
 11
46.4978405859
 21
55.9095911962
  0
LINE
  5
243
100
AcDbEntity
  8
0
100
AcDbLine
 62
7
  6
CONTINUOUS
 10
54.5123863666
 20
55.9095911962
 11
78.5832948052
 21
55.9095911962
  0
LINE
  5
244
100
AcDbEntity
  8
0
100
AcDbLine
 62
7
  6
CONTINUOUS
 10
35.4978405859
 20
63.2129282415
 11
35.4978405859
 21
63.5095911962
  0
LINE
  5
245
100
AcDbEntity
  8
0
100
AcDbLine
 62
7
  6
CONTINUOUS
 10
38.7643325389
 20
64.5067393889
 11
38.7642747776
 21
75.9105941452
  0
LINE
  5
246
100
AcDbEntity
  8
0
100
AcDbLine
 62
7
  6
CONTINUOUS
 10
83.6478405859
 20
58.7776818989
 11
82.5140936238
 21
58.7053277613
  0
LINE
  5
247
100
AcDbEntity
  8
0
100
AcDbLine
 62
7
  6
CONTINUOUS
 10
81.5613489128
 20
56.9095911962
 11
80.5693796168
 21
56.9095911962
  0
LINE
  5
248
100
AcDbEntity
  8
0
100
AcDbLine
 62
7
  6
CONTINUOUS
 10
78.7596217859
 20
56.9095911962
 11
77.9978405859
 21
56.9095911962
  0
LINE
  5
249
100
AcDbEntity
  8
0
100
AcDbLine
 62
7
  6
CONTINUOUS
 10
54.9978405859
 20
56.9095911962
 11
54.3360593859
 21
56.9095911962
  0
LINE
  5
24A
100
AcDbEntity
  8
0
100
AcDbLine
 62
7
  6
CONTINUOUS
 10
52.526301555
 20
56.9095911962
 11
51.434332259
 21
56.9095911962
  0
LINE
  5
24B
100
AcDbEntity
  8
0
100
AcDbLine
 62
7
  6
CONTINUOUS
 10
48.8478405859
 20
58.4095911962
 11
49.4978405859
 21
58.4095911962
  0
LINE
  5
24C
100
AcDbEntity
  8
0
100
AcDbLine
 62
7
  6
CONTINUOUS
 10
83.4978405859
 20
58.4095911962
 11
84.1478405859
 21
58.4095911962
  0
LINE
  5
24D
100
AcDbEntity
  8
0
100
AcDbLine
 62
7
  6
CONTINUOUS
 10
54.9978405859
 20
58.9095911962
 11
77.9978405859
 21
58.9095911962
  0
LINE
  5
24E
100
AcDbEntity
  8
0
100
AcDbLine
 62
7
  6
CONTINUOUS
 10
103.9978405859
 20
59.0775894471
 11
86.4978405859
 21
59.0775894471
  0
LINE
  5
24F
100
AcDbEntity
  8
0
100
AcDbLine
 62
7
  6
CONTINUOUS
 10
28.9978405859
 20
59.0775894471
 11
46.4978405859
 21
59.0775894471
  0
LINE
  5
250
100
AcDbEntity
  8
0
100
AcDbLine
 62
7
  6
CONTINUOUS
 10
54.997840586
 20
59.9095928056
 11
52.6477682997
 21
59.9095960243
  0
LINE
  5
251
100
AcDbEntity
  8
0
100
AcDbLine
 62
7
  6
CONTINUOUS
 10
80.4478405859
 20
59.9095911962
 11
77.9978405859
 21
59.9095911962
  0
LINE
  5
252
100
AcDbEntity
  8
0
100
AcDbLine
 62
7
  6
CONTINUOUS
 10
80.6478405859
 20
59.9095911962
 11
84.1478405859
 21
59.9095911962
  0
LINE
  5
253
100
AcDbEntity
  8
0
100
AcDbLine
 62
7
  6
CONTINUOUS
 10
52.4478405859
 20
59.9095911962
 11
48.8478405859
 21
59.9095960243
  0
LINE
  5
254
100
AcDbEntity
  8
0
100
AcDbLine
 62
7
  6
CONTINUOUS
 10
50.581587548
 20
58.7053277613
 11
49.3478405859
 21
58.7840637584
  0
LINE
  5
255
100
AcDbEntity
  8
0
100
AcDbLine
 62
7
  6
CONTINUOUS
 10
54.5178564925
 20
55.8785685704
 11
56.1978405859
 21
54.9086293019
  0
LINE
  5
256
100
AcDbEntity
  8
0
100
AcDbLine
 62
7
  6
CONTINUOUS
 10
44.3929724344
 20
65.3411217177
 11
45.1822090126
 21
64.1491562182
  0
LINE
  5
257
100
AcDbEntity
  8
0
100
AcDbLine
 62
7
  6
CONTINUOUS
 10
41.4750068978
 20
66.9086811137
 11
41.4750068978
 21
67.4086811137
  0
LINE
  5
258
100
AcDbEntity
  8
0
100
AcDbLine
 62
7
  6
CONTINUOUS
 10
36.0003658718
 20
66.9458791933
 11
38.6780722752
 21
75.9092008349
  0
LINE
  5
259
100
AcDbEntity
  8
0
100
AcDbLine
 62
7
  6
CONTINUOUS
 10
38.7643325389
 20
68.7049150552
 11
40.9665242202
 21
76.0732273715
  0
LINE
  5
25A
100
AcDbEntity
  8
0
100
AcDbLine
 62
7
  6
CONTINUOUS
 10
28.9978405859
 20
62.0053277613
 11
46.4978405859
 21
62.0053277613
  0
LINE
  5
25B
100
AcDbEntity
  8
0
100
AcDbLine
 62
7
  6
CONTINUOUS
 10
86.4978405859
 20
62.0053277613
 11
103.9978405859
 21
62.0053277613
  0
LINE
  5
25C
100
AcDbEntity
  8
0
100
AcDbLine
 62
7
  6
CONTINUOUS
 10
103.9978405859
 20
62.1095911962
 11
86.4978405859
 21
62.1095911962
  0
LINE
  5
25D
100
AcDbEntity
  8
0
100
AcDbLine
 62
7
  6
CONTINUOUS
 10
28.9978405859
 20
62.1095911962
 11
46.4978405859
 21
62.1095911962
  0
LINE
  5
25E
100
AcDbEntity
  8
0
100
AcDbLine
 62
7
  6
CONTINUOUS
 10
103.9978405859
 20
63.2095911962
 11
86.4978405859
 21
63.2095911962
  0
LINE
  5
25F
100
AcDbEntity
  8
0
100
AcDbLine
 62
7
  6
CONTINUOUS
 10
28.9978405859
 20
63.2095911962
 11
46.4978405859
 21
63.2095911962
  0
LINE
  5
260
100
AcDbEntity
  8
0
100
AcDbLine
 62
7
  6
CONTINUOUS
 10
45.599104941
 20
64.4251956809
 11
44.8098683628
 21
65.6171611803
  0
LINE
  5
261
100
AcDbEntity
  8
0
100
AcDbLine
 62
7
  6
CONTINUOUS
 10
44.2978405859
 20
42.9095911962
 11
44.2978405859
 21
44.2095911962
  0
LINE
  5
262
100
AcDbEntity
  8
0
100
AcDbLine
 62
7
  6
CONTINUOUS
 10
46.4978405859
 20
44.2099693337
 11
46.4978405859
 21
63.2095911962
  0
LINE
  5
263
100
AcDbEntity
  8
0
100
AcDbLine
 62
7
  6
CONTINUOUS
 10
91.4978405859
 20
66.9095911962
 11
97.0058097228
 21
66.9105418943
  0
LINE
  5
264
100
AcDbEntity
  8
0
100
AcDbLine
 62
7
  6
CONTINUOUS
 10
35.5393417051
 20
64.5067393889
 11
38.7643325389
 21
64.5067393889
  0
LINE
  5
265
100
AcDbEntity
  8
0
100
AcDbLine
 62
7
  6
CONTINUOUS
 10
38.7643325389
 20
66.9086811137
 11
41.4750068977
 21
66.9086811137
  0
LINE
  5
266
100
AcDbEntity
  8
0
100
AcDbLine
 62
7
  6
CONTINUOUS
 10
38.7643325389
 20
67.4086811137
 11
41.4750068977
 21
67.4086811137
  0
LINE
  5
267
100
AcDbEntity
  8
0
100
AcDbLine
 62
7
  6
CONTINUOUS
 10
91.4978405859
 20
67.4095911962
 11
94.6188958049
 21
67.4095911962
  0
LINE
  5
268
100
AcDbEntity
  8
0
100
AcDbLine
 62
7
  6
CONTINUOUS
 10
47.4693312733
 20
43.9095911962
 11
47.4693312733
 21
46.7095911962
  0
LINE
  5
269
100
AcDbEntity
  8
0
100
AcDbLine
 62
7
  6
CONTINUOUS
 10
48.8478405859
 20
55.9095911962
 11
48.8478405859
 21
59.9095960243
  0
LINE
  5
26A
100
AcDbEntity
  8
0
100
AcDbLine
 62
7
  6
CONTINUOUS
 10
49.1478405859
 20
47.1095911962
 11
49.1478405859
 21
46.1095911962
  0
LINE
  5
26B
100
AcDbEntity
  8
0
100
AcDbLine
 62
7
  6
CONTINUOUS
 10
49.3478405859
 20
59.9095960243
 11
49.3478405859
 21
58.4095911962
  0
LINE
  5
26C
100
AcDbEntity
  8
0
100
AcDbLine
 62
7
  6
CONTINUOUS
 10
54.0250522154
 20
58.673400508
 11
54.5178564925
 21
55.8785685704
  0
LINE
  5
26D
100
AcDbEntity
  8
0
100
AcDbLine
 62
7
  6
CONTINUOUS
 10
51.4978405859
 20
56.4095911962
 11
51.4978405859
 21
55.9095911962
  0
LINE
  5
26E
100
AcDbEntity
  8
0
100
AcDbLine
 62
7
  6
CONTINUOUS
 10
52.338613984
 20
49.6095911962
 11
52.338613984
 21
52.4595911962
  0
LINE
  5
26F
100
AcDbEntity
  8
0
100
AcDbLine
 62
7
  6
CONTINUOUS
 10
54.338613984
 20
49.5095911962
 11
54.338613984
 21
48.1095911962
  0
LINE
  5
270
100
AcDbEntity
  8
0
100
AcDbLine
 62
7
  6
CONTINUOUS
 10
51.9779405024
 20
79.1595912575
 11
53.716850667
 21
81.1476151735
  0
LINE
  5
271
100
AcDbEntity
  8
0
100
AcDbLine
 62
7
  6
CONTINUOUS
 10
38.6767204766
 20
75.9101801756
 11
38.7643740057
 21
75.9101801756
  0
LINE
  5
272
100
AcDbEntity
  8
0
100
AcDbLine
 62
7
  6
CONTINUOUS
 10
35.4992645482
 20
76.6196766051
 11
27.2499995141
 21
77.0895446485
  0
LINE
  5
273
100
AcDbEntity
  8
0
100
AcDbLine
 62
7
  6
CONTINUOUS
 10
54.9978405859
 20
55.9095911962
 11
54.997840586
 21
59.9095928056
  0
LINE
  5
274
100
AcDbEntity
  8
0
100
AcDbLine
 62
7
  6
CONTINUOUS
 10
55.4478405859
 20
54.3601465462
 11
55.4478405859
 21
52.5095911962
  0
LINE
  5
275
100
AcDbEntity
  8
0
100
AcDbLine
 62
7
  6
CONTINUOUS
 10
57.9978405859
 20
58.9095911962
 11
57.9978405859
 21
55.9095911962
  0
LINE
  5
276
100
AcDbEntity
  8
0
100
AcDbLine
 62
7
  6
CONTINUOUS
 10
22.5343325389
 20
79.1595911962
 11
51.9779406306
 21
79.1595911962
  0
LINE
  5
277
100
AcDbEntity
  8
0
100
AcDbLine
 62
7
  6
CONTINUOUS
 10
49.9978405859
 20
45.8818343826
 11
48.9348445462
 21
42.4049310029
  0
LINE
  5
278
100
AcDbEntity
  8
0
100
AcDbLine
 62
7
  6
CONTINUOUS
 10
49.899849573
 20
60.4673469061
 11
50.1552017915
 21
60.8972250802
  0
LINE
  5
279
100
AcDbEntity
  8
0
100
AcDbLine
 62
7
  6
CONTINUOUS
 10
46.4031000652
 20
63.2129282415
 11
46.5453979139
 21
63.3913545779
  0
LINE
  5
27A
100
AcDbEntity
  8
0
100
AcDbLine
 62
7
  6
CONTINUOUS
 10
44.8098683628
 20
65.6171611803
 11
44.3929724344
 21
65.3411217177
  0
LINE
  5
27B
100
AcDbEntity
  8
0
100
AcDbLine
 62
7
  6
CONTINUOUS
 10
22.5643325389
 20
80.7895911962
 11
12.6643325389
 21
80.7895911962
  0
LINE
  5
27C
100
AcDbEntity
  8
0
100
AcDbLine
 62
7
  6
CONTINUOUS
 10
22.5643325389
 20
81.1595911468
 11
51.4416975924
 21
81.1595911468
  0
LINE
  5
27D
100
AcDbEntity
  8
0
100
AcDbLine
 62
7
  6
CONTINUOUS
 10
87.3506486529
 20
64.3899412663
 11
87.7677086182
 21
64.1141497048
  0
LINE
  5
27E
100
AcDbEntity
  8
0
100
AcDbLine
 62
7
  6
CONTINUOUS
 10
88.5784208293
 20
65.3401321269
 11
88.1613608641
 21
65.6159236884
  0
LINE
  5
27F
100
AcDbEntity
  8
0
100
AcDbLine
 62
7
  6
CONTINUOUS
 10
65.0478559291
 20
53.15905276
 11
65.0478412042
 21
53.1595935615
  0
LINE
  5
280
100
AcDbEntity
  8
0
100
AcDbLine
 62
7
  6
CONTINUOUS
 10
65.0478405859
 20
52.4595911962
 11
65.0478405859
 21
53.1590526834
  0
LINE
  5
281
100
AcDbEntity
  8
0
100
AcDbLine
 62
7
  6
CONTINUOUS
 10
45.1822090126
 20
64.1491562183
 11
45.5991049409
 21
64.4251956809
  0
LINE
  5
282
100
AcDbEntity
  8
0
100
AcDbLine
 62
7
  6
CONTINUOUS
 10
53.7168506663
 20
95.6715672196
 11
51.9779405001
 21
97.6595911377
  0
LINE
  5
283
100
AcDbEntity
  8
0
100
AcDbLine
 62
7
  6
CONTINUOUS
 10
68.0478405859
 20
52.4595911962
 11
68.0478405859
 21
53.1590526834
  0
LINE
  5
284
100
AcDbEntity
  8
0
100
AcDbLine
 62
7
  6
CONTINUOUS
 10
68.047772255
 20
53.1595935616
 11
68.0477571081
 21
53.1590531116
  0
LINE
  5
285
100
AcDbEntity
  8
0
100
AcDbLine
 62
7
  6
CONTINUOUS
 10
22.5643325389
 20
90.9495911962
 11
12.6643325389
 21
90.9495911962
  0
LINE
  5
286
100
AcDbEntity
  8
0
100
AcDbLine
 62
7
  6
CONTINUOUS
 10
86.5007160715
 20
63.2148028115
 11
86.3951710645
 21
63.3477429039
  0
LINE
  5
287
100
AcDbEntity
  8
0
100
AcDbLine
 62
7
  6
CONTINUOUS
 10
83.0957484939
 20
60.4675180255
 11
82.8403960645
 21
60.8973960743
  0
LINE
  5
288
100
AcDbEntity
  8
0
100
AcDbLine
 62
7
  6
CONTINUOUS
 10
22.5643325389
 20
93.4095911962
 11
22.5343325389
 21
93.4095911962
  0
LINE
  5
289
100
AcDbEntity
  8
0
100
AcDbLine
 62
7
  6
CONTINUOUS
 10
22.5343325389
 20
94.4095911962
 11
22.5643325389
 21
94.4095911962
  0
LINE
  5
28A
100
AcDbEntity
  8
0
100
AcDbLine
 62
7
  6
CONTINUOUS
 10
51.4416975784
 20
95.6595911962
 11
22.5643325389
 21
95.6595911962
  0
LINE
  5
28B
100
AcDbEntity
  8
0
100
AcDbLine
 62
7
  6
CONTINUOUS
 10
84.1608366255
 20
42.4049310029
 11
83.0978405859
 21
45.8818343826
  0
LINE
  5
28C
100
AcDbEntity
  8
0
100
AcDbLine
 62
7
  6
CONTINUOUS
 10
74.9978405859
 20
55.9095911962
 11
74.9978405859
 21
58.9095911962
  0
LINE
  5
28D
100
AcDbEntity
  8
0
100
AcDbLine
 62
7
  6
CONTINUOUS
 10
77.6478405859
 20
52.5095911962
 11
77.6478405859
 21
54.3601465462
  0
LINE
  5
28E
100
AcDbEntity
  8
0
100
AcDbLine
 62
7
  6
CONTINUOUS
 10
77.9978405859
 20
55.9095911962
 11
77.9978405859
 21
59.9095911962
  0
LINE
  5
28F
100
AcDbEntity
  8
0
100
AcDbLine
 62
7
  6
CONTINUOUS
 10
78.7570671879
 20
48.1095911962
 11
78.7570671879
 21
49.5095911962
  0
LINE
  5
290
100
AcDbEntity
  8
0
100
AcDbLine
 62
7
  6
CONTINUOUS
 10
22.5343325389
 20
97.6595911962
 11
51.9779406225
 21
97.6595911962
  0
LINE
  5
291
100
AcDbEntity
  8
0
100
AcDbLine
 62
7
  6
CONTINUOUS
 10
80.7570671879
 20
52.4595911962
 11
80.7570671879
 21
49.6095911962
  0
LINE
  5
292
100
AcDbEntity
  8
0
100
AcDbLine
 62
7
  6
CONTINUOUS
 10
81.4978405859
 20
56.4095911962
 11
81.4978405859
 21
55.9095911962
  0
LINE
  5
293
100
AcDbEntity
  8
0
100
AcDbLine
 62
7
  6
CONTINUOUS
 10
78.5778246792
 20
55.8785685704
 11
79.0706289564
 21
58.673400508
  0
LINE
  5
294
100
AcDbEntity
  8
0
100
AcDbLine
 62
7
  6
CONTINUOUS
 10
96.8883896283
 20
66.9095912055
 11
96.9965135835
 21
66.9418654572
  0
LINE
  5
295
100
AcDbEntity
  8
0
100
AcDbLine
 62
7
  6
CONTINUOUS
 10
27.249999514
 20
99.7296377439
 11
35.4992645481
 21
100.1995057873
  0
LINE
  5
296
100
AcDbEntity
  8
0
100
AcDbLine
 62
7
  6
CONTINUOUS
 10
83.6478405859
 20
59.9095911962
 11
83.6478405859
 21
58.4095911962
  0
LINE
  5
297
100
AcDbEntity
  8
0
100
AcDbLine
 62
7
  6
CONTINUOUS
 10
83.9478405859
 20
46.1095911962
 11
83.9478405859
 21
47.1095911962
  0
LINE
  5
298
100
AcDbEntity
  8
0
100
AcDbLine
 62
7
  6
CONTINUOUS
 10
84.1478405859
 20
55.9095911962
 11
84.1478405859
 21
59.9095911962
  0
LINE
  5
299
100
AcDbEntity
  8
0
100
AcDbLine
 62
7
  6
CONTINUOUS
 10
85.6263498985
 20
46.7095911962
 11
85.6263498985
 21
43.9095911962
  0
LINE
  5
29A
100
AcDbEntity
  8
0
100
AcDbLine
 62
7
  6
CONTINUOUS
 10
86.4978405859
 20
44.2099693337
 11
86.4978405859
 21
63.2095911962
  0
LINE
  5
29B
100
AcDbEntity
  8
0
100
AcDbLine
 62
7
  6
CONTINUOUS
 10
88.7978405859
 20
44.2095911962
 11
88.7978405859
 21
42.9095911962
  0
LINE
  5
29C
100
AcDbEntity
  8
0
100
AcDbLine
 62
7
  6
CONTINUOUS
 10
76.8978405858
 20
54.9086293019
 11
78.5778246792
 21
55.8785685704
  0
LINE
  5
29D
100
AcDbEntity
  8
0
100
AcDbLine
 62
7
  6
CONTINUOUS
 10
92.0314459898
 20
76.0779658832
 11
94.6188958049
 21
67.4095911962
  0
LINE
  5
29E
100
AcDbEntity
  8
0
100
AcDbLine
 62
7
  6
CONTINUOUS
 10
91.4978405859
 20
67.4095911962
 11
91.4978405859
 21
66.9095911962
  0
LINE
  5
29F
100
AcDbEntity
  8
0
100
AcDbLine
 62
7
  6
CONTINUOUS
 10
88.1613608642
 20
65.6159236885
 11
87.3506486529
 21
64.3899412663
  0
LINE
  5
2A0
100
AcDbEntity
  8
0
100
AcDbLine
 62
7
  6
CONTINUOUS
 10
87.7677086182
 20
64.1141497048
 11
88.5784208294
 21
65.3401321269
  0
LINE
  5
2A1
100
AcDbEntity
  8
0
100
AcDbLine
 62
7
  6
CONTINUOUS
 10
94.3193047611
 20
75.9109460238
 11
96.9965135835
 21
66.9418654572
  0
LINE
  5
2A2
100
AcDbEntity
  8
0
100
AcDbLine
 62
7
  6
CONTINUOUS
 10
97.4978405859
 20
63.5067322897
 11
97.4978405859
 21
63.2129282415
  0
LINE
  5
2A3
100
AcDbEntity
  8
0
100
AcDbLine
 62
7
  6
CONTINUOUS
 10
103.9978405859
 20
44.2099693337
 11
103.9978405859
 21
63.2095911962
  0
ARC
  5
2A4
100
AcDbEntity
  8
0
100
AcDbCircle
 62
7
  6
CONTINUOUS
 10
48.7178405859
 20
54.1595911962
 40
4.0
100
AcDbArc
 50
334.8493365876
 51
23.8597709695
  0
ARC
  5
2A5
100
AcDbEntity
  8
0
100
AcDbCircle
 62
7
  6
CONTINUOUS
 10
50.4478405859
 20
56.6095911962
 40
2.1
100
AcDbArc
 50
336.6597063066
 51
86.3484159126
  0
ARC
  5
2A6
100
AcDbEntity
  8
0
100
AcDbCircle
 62
7
  6
CONTINUOUS
 10
49.4978405859
 20
56.4095911962
 40
2.0
100
AcDbArc
 50
0.0
 51
90.0
  0
ARC
  5
2A7
100
AcDbEntity
  8
0
100
AcDbCircle
 62
7
  6
CONTINUOUS
 10
52.5478405859
 20
58.4129282415
 40
1.5
100
AcDbArc
 50
10.0000000003
 51
93.8225537288
  0
ARC
  5
2A8
100
AcDbEntity
  8
0
100
AcDbCircle
 62
7
  6
CONTINUOUS
 10
55.4478405859
 20
53.6095911962
 40
1.5
100
AcDbArc
 50
0.0
 51
60.0000000013
  0
ARC
  5
2A9
100
AcDbEntity
  8
0
100
AcDbCircle
 62
7
  6
CONTINUOUS
 10
55.338613984
 20
49.5095911962
 40
1.0
100
AcDbArc
 50
90.0
 51
180.0
  0
ARC
  5
2AA
100
AcDbEntity
  8
0
100
AcDbCircle
 62
7
  6
CONTINUOUS
 10
53.338613984
 20
48.1095911962
 40
1.0
100
AcDbArc
 50
270.0
 51
360.0
  0
ARC
  5
2AB
100
AcDbEntity
  8
0
100
AcDbCircle
 62
7
  6
CONTINUOUS
 10
46.5693312733
 20
41.9095911962
 40
1.0
100
AcDbArc
 50
180.0
 51
360.0
  0
ARC
  5
2AC
100
AcDbEntity
  8
0
100
AcDbCircle
 62
7
  6
CONTINUOUS
 10
45.2978405859
 20
42.9095911962
 40
1.0
100
AcDbArc
 50
180.0
 51
270.0
  0
ARC
  5
2AD
100
AcDbEntity
  8
0
100
AcDbCircle
 62
7
  6
CONTINUOUS
 10
51.338613984
 20
49.6095911962
 40
1.0
100
AcDbArc
 50
270.0
 51
360.0
  0
ARC
  5
2AE
100
AcDbEntity
  8
0
100
AcDbCircle
 62
7
  6
CONTINUOUS
 10
46.5693312733
 20
43.9095911962
 40
0.9
100
AcDbArc
 50
160.3977391071
 51
360.0
  0
ARC
  5
2AF
100
AcDbEntity
  8
0
100
AcDbCircle
 62
7
  6
CONTINUOUS
 10
49.7466865791
 20
60.2095013761
 40
0.7999053518
100
AcDbArc
 50
337.9798847757
 51
59.2892366656
  0
ARC
  5
2B0
100
AcDbEntity
  8
0
100
AcDbCircle
 62
7
  6
CONTINUOUS
 10
48.2654312171
 20
42.6095911962
 40
0.7
100
AcDbArc
 50
270.0
 51
342.9999999982
  0
ARC
  5
2B1
100
AcDbEntity
  8
0
100
AcDbCircle
 62
7
  6
CONTINUOUS
 10
46.7693312733
 20
46.7095911962
 40
0.7
100
AcDbArc
 50
0.0
 51
89.9999993146
  0
ARC
  5
2B2
100
AcDbEntity
  8
0
100
AcDbCircle
 62
7
  6
CONTINUOUS
 10
46.7693312733
 20
48.0095911962
 40
0.6
100
AcDbArc
 50
241.0982586979
 51
270.0000007996
  0
ARC
  5
2B3
100
AcDbEntity
  8
0
100
AcDbCircle
 62
7
  6
CONTINUOUS
 10
46.7693312733
 20
48.0095911962
 40
0.6
100
AcDbArc
 50
90.0
 51
118.9017409266
  0
ARC
  5
2B4
100
AcDbEntity
  8
0
100
AcDbCircle
 62
7
  6
CONTINUOUS
 10
49.7466865791
 20
60.2095013761
 40
0.2999053518
100
AcDbArc
 50
270.0000000075
 51
59.2892366654
  0
ARC
  5
2B5
100
AcDbEntity
  8
0
100
AcDbCircle
 62
7
  6
CONTINUOUS
 10
47.4978405859
 20
63.5095911962
 40
12.0
100
AcDbArc
 50
163.3600000004
 51
180.0
  0
ARC
  5
2B6
100
AcDbEntity
  8
0
100
AcDbCircle
 62
7
  6
CONTINUOUS
 10
49.3512684055
 20
66.9096171302
 40
5.0001200653
100
AcDbArc
 50
213.5097531575
 51
227.7516766603
  0
ARC
  5
2B7
100
AcDbEntity
  8
0
100
AcDbCircle
 62
7
  6
CONTINUOUS
 10
27.5343325389
 20
82.081453575
 40
5.0
100
AcDbArc
 50
214.735916276
 51
266.7400249041
  0
ARC
  5
2B8
100
AcDbEntity
  8
0
100
AcDbCircle
 62
7
  6
CONTINUOUS
 10
35.2149315233
 20
71.6277676786
 40
5.0
100
AcDbArc
 50
48.6107944032
 51
86.740024903
  0
ARC
  5
2B9
100
AcDbEntity
  8
0
100
AcDbCircle
 62
7
  6
CONTINUOUS
 10
49.3512684055
 20
66.9096171302
 40
4.5001200653
100
AcDbArc
 50
213.5097531578
 51
231.4270809566
  0
ARC
  5
2BA
100
AcDbEntity
  8
0
100
AcDbCircle
 62
7
  6
CONTINUOUS
 10
41.4750068978
 20
63.4090480658
 40
3.9996330478
100
AcDbArc
 50
33.5097531558
 51
90.0000000007
  0
ARC
  5
2BB
100
AcDbEntity
  8
0
100
AcDbCircle
 62
7
  6
CONTINUOUS
 10
41.4750068978
 20
63.4090480658
 40
3.4996330478
100
AcDbArc
 50
33.5097531558
 51
90.0000000008
  0
ARC
  5
2BC
100
AcDbEntity
  8
0
100
AcDbCircle
 62
7
  6
CONTINUOUS
 10
41.4978405859
 20
63.4095911962
 40
2.75
100
AcDbArc
 50
355.7368005418
 51
184.2741264704
  0
ARC
  5
2BD
100
AcDbEntity
  8
0
100
AcDbCircle
 62
7
  6
CONTINUOUS
 10
41.4978405859
 20
63.4095911962
 40
2.25
100
AcDbArc
 50
354.7556545442
 51
185.2443454589
  0
ARC
  5
2BE
100
AcDbEntity
  8
0
100
AcDbCircle
 62
7
  6
CONTINUOUS
 10
50.4765733152
 20
80.8629316962
 40
1.0096889125
100
AcDbArc
 50
17.0863568072
 51
25.2109282692
  0
ARC
  5
2BF
100
AcDbEntity
  8
0
100
AcDbCircle
 62
7
  6
CONTINUOUS
 10
84.3778405859
 20
54.1595911962
 40
4.0
100
AcDbArc
 50
156.1402290305
 51
205.1506634124
  0
ARC
  5
2C0
100
AcDbEntity
  8
0
100
AcDbCircle
 62
7
  6
CONTINUOUS
 10
82.6478405859
 20
56.6095911962
 40
2.1
100
AcDbArc
 50
93.6515840875
 51
203.3402936934
  0
ARC
  5
2C1
100
AcDbEntity
  8
0
100
AcDbCircle
 62
7
  6
CONTINUOUS
 10
83.4978405859
 20
56.4095911962
 40
2.0
100
AcDbArc
 50
90.0
 51
180.0
  0
ARC
  5
2C2
100
AcDbEntity
  8
0
100
AcDbCircle
 62
7
  6
CONTINUOUS
 10
77.6478405859
 20
53.6095911962
 40
1.5
100
AcDbArc
 50
120.0000000025
 51
180.0
  0
ARC
  5
2C3
100
AcDbEntity
  8
0
100
AcDbCircle
 62
7
  6
CONTINUOUS
 10
80.5478405859
 20
58.4129282415
 40
1.5
100
AcDbArc
 50
86.1774462704
 51
170.0000000004
  0
ARC
  5
2C4
100
AcDbEntity
  8
0
100
AcDbCircle
 62
7
  6
CONTINUOUS
 10
81.7570671879
 20
49.6095911962
 40
1.0
100
AcDbArc
 50
180.0
 51
270.0
  0
ARC
  5
2C5
100
AcDbEntity
  8
0
100
AcDbCircle
 62
7
  6
CONTINUOUS
 10
87.7978405859
 20
42.9095911962
 40
1.0
100
AcDbArc
 50
270.0
 51
360.0
  0
ARC
  5
2C6
100
AcDbEntity
  8
0
100
AcDbCircle
 62
7
  6
CONTINUOUS
 10
86.5263498985
 20
41.9095911962
 40
1.0
100
AcDbArc
 50
180.0
 51
360.0
  0
ARC
  5
2C7
100
AcDbEntity
  8
0
100
AcDbCircle
 62
7
  6
CONTINUOUS
 10
79.7570671879
 20
48.1095911962
 40
1.0
100
AcDbArc
 50
180.0
 51
270.0
  0
ARC
  5
2C8
100
AcDbEntity
  8
0
100
AcDbCircle
 62
7
  6
CONTINUOUS
 10
77.7570671879
 20
49.5095911962
 40
1.0
100
AcDbArc
 50
0.0
 51
90.0
  0
ARC
  5
2C9
100
AcDbEntity
  8
0
100
AcDbCircle
 62
7
  6
CONTINUOUS
 10
86.5263498985
 20
43.9095911962
 40
0.9
100
AcDbArc
 50
180.0
 51
19.6022608922
  0
ARC
  5
2CA
100
AcDbEntity
  8
0
100
AcDbCircle
 62
7
  6
CONTINUOUS
 10
83.2489599515
 20
60.2095911962
 40
0.8
100
AcDbArc
 50
120.7107914392
 51
202.024312837
  0
ARC
  5
2CB
100
AcDbEntity
  8
0
100
AcDbCircle
 62
7
  6
CONTINUOUS
 10
86.3263498985
 20
46.7095911962
 40
0.7
100
AcDbArc
 50
90.0000000276
 51
180.0
  0
ARC
  5
2CC
100
AcDbEntity
  8
0
100
AcDbCircle
 62
7
  6
CONTINUOUS
 10
84.8302499547
 20
42.6095911962
 40
0.7
100
AcDbArc
 50
196.9999999984
 51
270.0
  0
ARC
  5
2CD
100
AcDbEntity
  8
0
100
AcDbCircle
 62
7
  6
CONTINUOUS
 10
86.3263498985
 20
48.0095911962
 40
0.6
100
AcDbArc
 50
71.5279001782
 51
90.0000000046
  0
ARC
  5
2CE
100
AcDbEntity
  8
0
100
AcDbCircle
 62
7
  6
CONTINUOUS
 10
86.3263498985
 20
48.0095911962
 40
0.6
100
AcDbArc
 50
269.9999999678
 51
288.4720998413
  0
ARC
  5
2CF
100
AcDbEntity
  8
0
100
AcDbCircle
 62
7
  6
CONTINUOUS
 10
83.2489599515
 20
60.2095911962
 40
0.3
100
AcDbArc
 50
120.7107914404
 51
270.0
  0
ARC
  5
2D0
100
AcDbEntity
  8
0
100
AcDbCircle
 62
7
  6
CONTINUOUS
 10
85.4978405859
 20
63.5095911962
 40
12.0
100
AcDbArc
 50
359.9863497271
 51
16.619988183
  0
ARC
  5
2D1
100
AcDbEntity
  8
0
100
AcDbCircle
 62
7
  6
CONTINUOUS
 10
83.597108966
 20
66.87206532
 40
5.0
100
AcDbArc
 50
312.8959549619
 51
326.5243102443
  0
ARC
  5
2D2
100
AcDbEntity
  8
0
100
AcDbCircle
 62
7
  6
CONTINUOUS
 10
83.597108966
 20
66.87206532
 40
4.5
100
AcDbArc
 50
308.44708331
 51
326.5243102441
  0
ARC
  5
2D3
100
AcDbEntity
  8
0
100
AcDbCircle
 62
7
  6
CONTINUOUS
 10
91.4978405859
 20
63.4095911962
 40
4.0
100
AcDbArc
 50
90.0
 51
146.5243102438
  0
ARC
  5
2D4
100
AcDbEntity
  8
0
100
AcDbCircle
 62
7
  6
CONTINUOUS
 10
91.4978405859
 20
63.4095911962
 40
3.5
100
AcDbArc
 50
89.9999999996
 51
146.5243102437
  0
ARC
  5
2D5
100
AcDbEntity
  8
0
100
AcDbCircle
 62
7
  6
CONTINUOUS
 10
91.4978405859
 20
63.4095911962
 40
2.75
100
AcDbArc
 50
355.7368005418
 51
184.2741264704
  0
ARC
  5
2D6
100
AcDbEntity
  8
0
100
AcDbCircle
 62
7
  6
CONTINUOUS
 10
91.4978405859
 20
63.4095911962
 40
2.25
100
AcDbArc
 50
354.7556545442
 51
185.2443454589
  0
ARC
  5
2D7
100
AcDbEntity
  8
0
100
AcDbCircle
 62
7
  6
CONTINUOUS
 10
105.2368785901
 20
241.214424523
 40
165.6636152637
100
AcDbArc
 50
265.4279694061
 51
266.2213514549
  0
ARC
  5
2D8
100
AcDbEntity
  8
0
100
AcDbCircle
 62
7
  6
CONTINUOUS
 10
66.4978405859
 20
88.4095911962
 40
32.500189563
100
AcDbArc
 50
232.0196995067
 51
239.2892366653
  0
ARC
  5
2D9
100
AcDbEntity
  8
0
100
AcDbCircle
 62
7
  6
CONTINUOUS
 10
66.4978405859
 20
88.4095911962
 40
32.5
100
AcDbArc
 50
300.7107914386
 51
307.9798724449
  0
ARC
  5
2DA
100
AcDbEntity
  8
0
100
AcDbCircle
 62
7
  6
CONTINUOUS
 10
66.4978405859
 20
88.4095911962
 40
32.000189563
100
AcDbArc
 50
231.4270809572
 51
239.2892366653
  0
ARC
  5
2DB
100
AcDbEntity
  8
0
100
AcDbCircle
 62
7
  6
CONTINUOUS
 10
66.4978405859
 20
88.4095911962
 40
32.0
100
AcDbArc
 50
300.7107914386
 51
308.4470833097
  0
ARC
  5
2DC
100
AcDbEntity
  8
0
100
AcDbCircle
 62
7
  6
CONTINUOUS
 10
66.4978405859
 20
88.4095911962
 40
30.5
100
AcDbArc
 50
335.807780531
 51
162.3453643818
  0
ARC
  5
2DD
100
AcDbEntity
  8
0
100
AcDbCircle
 62
7
  6
CONTINUOUS
 10
66.4978405859
 20
88.4095911962
 40
30.5
100
AcDbArc
 50
197.6546356182
 51
204.1933241439
  0
ARC
  5
2DE
100
AcDbEntity
  8
0
100
AcDbCircle
 62
7
  6
CONTINUOUS
 10
66.4978405859
 20
88.4095911962
 40
28.3554930795
100
AcDbArc
 50
199.0392290647
 51
205.7891634601
  0
ARC
  5
2DF
100
AcDbEntity
  8
0
100
AcDbCircle
 62
7
  6
CONTINUOUS
 10
66.4978405859
 20
88.4095911962
 40
28.3554930795
100
AcDbArc
 50
334.2214699342
 51
160.9607709353
  0
ARC
  5
2E0
100
AcDbEntity
  8
0
100
AcDbCircle
 62
7
  6
CONTINUOUS
 10
66.4978405859
 20
88.4095911962
 40
16.8445069205
100
AcDbArc
 50
212.1290178752
 51
147.8709821247
  0
ARC
  5
2E1
100
AcDbEntity
  8
0
100
AcDbCircle
 62
7
  6
CONTINUOUS
 10
66.4978405859
 20
88.4095911962
 40
16.7
100
AcDbArc
 50
154.7769949243
 51
205.2230049788
  0
CIRCLE
  5
2E2
100
AcDbEntity
  8
0
100
AcDbCircle
 62
7
  6
CONTINUOUS
 10
66.4978405859
 20
88.4095911962
 40
14.7
  0
ARC
  5
2E3
100
AcDbEntity
  8
0
100
AcDbCircle
 62
7
  6
CONTINUOUS
 10
35.2149315233
 20
105.1914147139
 40
5.0
100
AcDbArc
 50
273.2599750965
 51
331.7885143859
  0
ARC
  5
2E4
100
AcDbEntity
  8
0
100
AcDbCircle
 62
7
  6
CONTINUOUS
 10
27.5343325389
 20
94.7377288174
 40
5.0
100
AcDbArc
 50
93.2599750963
 51
145.2640837242
  0
ARC
  5
2E5
100
AcDbEntity
  8
0
100
AcDbCircle
 62
7
  6
CONTINUOUS
 10
50.4765734063
 20
95.9562506761
 40
1.0096888207
100
AcDbArc
 50
334.7890721672
 51
342.9136398509
  0
ARC
  5
2E6
100
AcDbEntity
  8
0
100
AcDbCircle
 62
7
  6
CONTINUOUS
 10
309.7399207002
 20
-567.0774569885
 40
697.9461938637
100
AcDbArc
 50
111.5607657584
 51
111.7253146194
  0
ARC
  5
2E7
100
AcDbEntity
  8
0
100
AcDbCircle
 62
7
  6
CONTINUOUS
 10
309.7311968599
 20
743.8746452279
 40
697.9225327653
100
AcDbArc
 50
248.2746823335
 51
248.4392367731
  0
SPLINE
  5
2E8
100
AcDbEntity
  8
0
100
AcDbSpline
 62
7
  6
CONTINUOUS
 70
0
 71
3
 72
13
 73
9
 74
0
 42
0.0000001
 43
0.0000001
 44
0.0000000001
 40
0.0
 40
0.0
 40
0.0
 40
0.0
 40
0.3370548143
 40
0.6131012977
 40
0.7274665717
 40
0.8277355649
 40
0.9170095044
 40
1.0
 40
1.0
 40
1.0
 40
1.0
 10
65.9909036386
 20
52.5095911962
 30
0.0
 10
65.8558664167
 20
52.5347709348
 30
0.0
 10
65.6131173201
 20
52.5987637488
 30
0.0
 10
65.3436543951
 20
52.7304614383
 30
0.0
 10
65.1882279907
 20
52.8577196755
 30
0.0
 10
65.1083347904
 20
52.953624544
 30
0.0
 10
65.0591963027
 20
53.0546397499
 30
0.0
 10
65.0478410539
 20
53.1252304646
 30
0.0
 10
65.0478407578
 20
53.1590527599
 30
0.0
  0
SPLINE
  5
2E9
100
AcDbEntity
  8
0
100
AcDbSpline
 62
7
  6
CONTINUOUS
 70
0
 71
3
 72
27
 73
23
 74
0
 42
0.0000001
 43
0.0000001
 44
0.0000000001
 40
0.0
 40
0.0
 40
0.0
 40
0.0
 40
0.0003184531
 40
0.0012708229
 40
0.0028526652
 40
0.0050595794
 40
0.0078872095
 40
0.011331244
 40
0.0200514832
 40
0.0311867467
 40
0.044702782
 40
0.0605537613
 40
0.0786874973
 40
0.121592691
 40
0.1729811762
 40
0.2322746658
 40
0.2988177957
 40
0.3719209867
 40
0.4508014218
 40
0.6226998712
 40
0.8081145116
 40
1.0
 40
1.0
 40
1.0
 40
1.0
 10
51.9778967476
 20
97.6595911962
 30
0.0
 10
51.9776769237
 20
97.6595911962
 30
0.0
 10
51.9777788753
 20
97.6582475177
 30
0.0
 10
51.9768292595
 20
97.656859559
 30
0.0
 10
51.9760592701
 20
97.6534564786
 30
0.0
 10
51.9746339401
 20
97.6492115007
 30
0.0
 10
51.9729825348
 20
97.6435596689
 30
0.0
 10
51.9700335874
 20
97.633657516
 30
0.0
 10
51.9656074254
 20
97.6181833774
 30
0.0
 10
51.9594640481
 20
97.5959863682
 30
0.0
 10
51.952291844
 20
97.5689615888
 30
0.0
 10
51.9440912695
 20
97.537214999
 30
0.0
 10
51.9310251571
 20
97.485772004
 30
0.0
 10
51.9121848673
 20
97.41048654
 30
0.0
 10
51.8864612169
 20
97.3076353954
 30
0.0
 10
51.8566816947
 20
97.1889791505
 30
0.0
 10
51.8230867613
 20
97.0558263319
 30
0.0
 10
51.7859325741
 20
96.9096273259
 30
0.0
 10
51.7303022728
 20
96.6930875346
 30
0.0
 10
51.653935649
 20
96.40182999
 30
0.0
 10
51.5537696749
 20
96.0361887626
 30
0.0
 10
51.4806185319
 20
95.786199807
 30
0.0
 10
51.4416975784
 20
95.6595911962
 30
0.0
  0
SPLINE
  5
2EA
100
AcDbEntity
  8
0
100
AcDbSpline
 62
7
  6
CONTINUOUS
 70
0
 71
3
 72
9
 73
5
 74
0
 42
0.0000001
 43
0.0000001
 44
0.0000000001
 40
0.0
 40
0.0
 40
0.0
 40
0.0
 40
0.5000828802
 40
1.0
 40
1.0
 40
1.0
 40
1.0
 10
40.9665242202
 20
76.0732273715
 30
0.0
 10
40.5995934263
 20
76.0438686511
 30
0.0
 10
39.8656021608
 20
75.9883562388
 30
0.0
 10
39.1314428534
 20
75.9350468266
 30
0.0
 10
38.7642747776
 20
75.9105941452
 30
0.0
  0
SPLINE
  5
2EB
100
AcDbEntity
  8
0
100
AcDbSpline
 62
7
  6
CONTINUOUS
 70
0
 71
3
 72
27
 73
23
 74
0
 42
0.0000001
 43
0.0000001
 44
0.0000000001
 40
0.0
 40
0.0
 40
0.0
 40
0.0
 40
0.1918829906
 40
0.3772995105
 40
0.5492058302
 40
0.6280894756
 40
0.7011958577
 40
0.7677411444
 40
0.8270347714
 40
0.8784237082
 40
0.9213247521
 40
0.9394552421
 40
0.9553032737
 40
0.968817426
 40
0.9799513315
 40
0.9886703787
 40
0.9921139209
 40
0.9949411418
 40
0.9971477367
 40
0.9987293529
 40
0.9996815898
 40
1.0
 40
1.0
 40
1.0
 40
1.0
 10
51.4416975924
 20
81.1595911468
 30
0.0
 10
51.4806180466
 20
81.0329841346
 30
0.0
 10
51.5537687023
 20
80.7829953841
 30
0.0
 10
51.6539369039
 20
80.4173494278
 30
0.0
 10
51.730304806
 20
80.1260828517
 30
0.0
 10
51.7859379413
 20
79.9095335316
 30
0.0
 10
51.82309365
 20
79.7633287587
 30
0.0
 10
51.8566898697
 20
79.6301723067
 30
0.0
 10
51.8864715764
 20
79.5115146115
 30
0.0
 10
51.9121992542
 20
79.4086669625
 30
0.0
 10
51.9310364885
 20
79.3333856571
 30
0.0
 10
51.9440936237
 20
79.2819477283
 30
0.0
 10
51.9522866434
 20
79.2502049465
 30
0.0
 10
51.9594470264
 20
79.2231814408
 30
0.0
 10
51.96558588
 20
79.2009863166
 30
0.0
 10
51.970015039
 20
79.1855151958
 30
0.0
 10
51.9729686157
 20
79.1756159089
 30
0.0
 10
51.9746237288
 20
79.1699660768
 30
0.0
 10
51.9760524631
 20
79.165722811
 30
0.0
 10
51.976826005
 20
79.1623213625
 30
0.0
 10
51.9777770376
 20
79.1609340835
 30
0.0
 10
51.9776769798
 20
79.1595911962
 30
0.0
 10
51.9778967741
 20
79.1595911962
 30
0.0
  0
SPLINE
  5
2EC
100
AcDbEntity
  8
0
100
AcDbSpline
 62
7
  6
CONTINUOUS
 70
0
 71
3
 72
13
 73
9
 74
0
 42
0.0000001
 43
0.0000001
 44
0.0000000001
 40
0.0
 40
0.0
 40
0.0
 40
0.0
 40
0.0829997538
 40
0.1722516585
 40
0.2725105121
 40
0.3868940189
 40
0.6629533614
 40
1.0
 40
1.0
 40
1.0
 40
1.0
 10
68.047771809
 20
53.1590531073
 30
0.0
 10
68.0477159839
 20
53.1252281598
 30
0.0
 10
68.03636724
 20
53.0546633899
 30
0.0
 10
67.9873393891
 20
52.9536047086
 30
0.0
 10
67.9074562662
 20
52.8576938546
 30
0.0
 10
67.7520088523
 20
52.7304605758
 30
0.0
 10
67.4825543296
 20
52.5987530066
 30
0.0
 10
67.2398071885
 20
52.5347695239
 30
0.0
 10
67.1047775332
 20
52.5095911962
 30
0.0
  0
ELLIPSE
  5
2ED
100
AcDbEntity
  8
0
100
AcDbEllipse
 62
7
  6
CONTINUOUS
 10
93.4998935549
 20
67.4095911962
 30
0.0
 11
1.128345263
 21
-0.0817604423
 31
0.0
 40
0.4371622344
 41
-1.4065377986
 42
0.1642585282
  0
ENDSEC
  0
SECTION
  2
OBJECTS
  0
DICTIONARY
  5
C
100
AcDbDictionary
280
0
281
1
  3
ACAD_GROUP
350
D
  3
ACAD_MLINESTYLE
350
17
  3
ACAD_LAYOUT
350
1A
  3
ACAD_PLOTSETTINGS
350
19
  3
ACAD_PLOTSTYLENAME
350
E
  0
DICTIONARY
  5
D
102
{ACAD_REACTORS
330
C
102
}
100
AcDbDictionary
280
0
281
1
  0
ACDBDICTIONARYWDFLT
  5
E
102
{ACAD_REACTORS
330
C
102
}
100
AcDbDictionary
281
1
  3
Normal
350
F
100
AcDbDictionaryWithDefault
340
F
  0
DICTIONARY
  5
17
102
{ACAD_REACTORS
330
C
102
}
100
AcDbDictionary
280
0
281
1
  3
Standard
350
18
  0
DICTIONARY
  5
19
102
{ACAD_REACTORS
330
C
102
}
100
AcDbDictionary
281
1
  0
DICTIONARY
  5
1A
102
{ACAD_REACTORS
330
C
102
}
100
AcDbDictionary
281
1
  3
Model
350
2EE
  3
Layout1
350
2EF
  0
ACDBPLACEHOLDER
  5
F
102
{ACAD_REACTORS
330
E
102
}
  0
MLINESTYLE
  5
18
102
{ACAD_REACTORS
330
17
102
}
100
AcDbMlineStyle
  2
STANDARD
 70
0
  3

 62
256
 51
90.0
 52
90.0
 71
2
 49
0.5
 62
256
  6
BYLAYER
 49
-0.5
 62
256
  6
BYLAYER
  0
LAYOUT
  5
2EE
102
{ACAD_REACTORS
330
1A
102
}
100
AcDbPlotSettings
  1

  2
none_device
  4

  6

 40
0.0
 41
0.0
 42
0.0
 43
0.0
 44
210.0
 45
297.0
 46
0.0
 47
0.0
 48
0.0
 49
0.0
140
0.0
141
0.0
142
1.0
143
1.0
 70
1024
 72
1
 73
0
 74
0
  7

 75
0
147
1.0
148
0.0
149
0.0
100
AcDbLayout
  1
Model
 70
0
 71
0
 10
0.0
 20
0.0
 11
210.0
 21
297.0
 12
0.0
 22
0.0
 32
0.0
 14
0.0
 24
0.0
 34
0.0
 15
0.0
 25
0.0
 35
0.0
146
0.0
 13
0.0
 23
0.0
 33
0.0
 16
1.0
 26
0.0
 36
0.0
 17
0.0
 27
1.0
 37
0.0
 76
0
330
210
345
0
346
0
  0
LAYOUT
  5
2EF
102
{ACAD_REACTORS
330
1A
102
}
100
AcDbPlotSettings
  1

  2
none_device
  4

  6

 40
0.0
 41
0.0
 42
0.0
 43
0.0
 44
210.0
 45
297.0
 46
0.0
 47
0.0
 48
0.0
 49
0.0
140
0.0
141
0.0
142
1.0
143
1.0
 70
0
 72
1
 73
0
 74
0
  7

 75
0
147
1.0
148
0.0
149
0.0
100
AcDbLayout
  1
Layout1
 70
0
 71
1
 10
0.0
 20
0.0
 11
210.0
 21
297.0
 12
0.0
 22
0.0
 32
0.0
 14
0.0
 24
0.0
 34
0.0
 15
0.0
 25
0.0
 35
0.0
146
0.0
 13
0.0
 23
0.0
 33
0.0
 16
1.0
 26
0.0
 36
0.0
 17
0.0
 27
1.0
 37
0.0
 76
0
330
211
345
0
346
0
  0
ENDSEC
  0
EOF
