999
DXF file: C:\Users\sesa63760\Dev\_Creo\CAD\MCADPD0004723_3D-CAD\drw0001_4.dxf
999
Pro/ENGINEER 2019471 by Parametric Technology Corporation
  0
SECTION
  2
HEADER
  9
$ACADVER
  1
AC1024
  9
$DWGCODEPAGE
  3
ANSI_1252
  9
$EXTMAX
 10
149.1985353164
 20
211.0093570904
 30
0.0
  9
$EXTMIN
 10
0.0
 20
0.0
 30
0.0
  9
$LIMMIN
 10
0.0
 20
0.0
  9
$LIMMAX
 10
149.1985353164
 20
211.0093570904
  9
$VIEWCTR
 10
74.5992676582
 20
105.5046785452
  9
$VIEWSIZE
 40
211.0093570904
  9
$CLAYER
  8
0
  9
$LTSCALE
 40
13.7546840177
  9
$CELTYPE
  6
BYLAYER
  9
$DIMSCALE
 40
1.0
  9
$DIMASZ
 40
1.7761730395
  9
$DIMEXO
 40
1.0
  9
$DIMDLI
 40
9.5032362304
  9
$DIMEXE
 40
1.0
  9
$DIMCEN
 40
2.2507664756
  9
$DIMLFAC
 40
1.0
  9
$DIMBLK
  1
_FILLED
  9
$DIMALT
 70
0
  9
$DIMALTF
 40
0.0393700787
  9
$DIMTXT
 40
2.4866422553
  9
$DIMTOL
 70
1
  9
$DIMLIM
 70
0
  9
$DIMTFAC
 40
1.0
  9
$DIMTP
 40
0.01
  9
$DIMTM
 40
0.01
  9
$DIMGAP
 40
0.625
  9
$DIMDSEP
 70
46
  9
$AUNITS
 70
0
  9
$PDMODE
 70
3
  9
$PDSIZE
 40
0.3125
  9
$HANDSEED
  5
39B
  9
$TILEMODE
 70
1
  9
$MEASUREMENT
 70
1
  9
$INSUNITS
 70
4
  0
ENDSEC
  0
SECTION
  2
CLASSES
  0
CLASS
  1
ACDBDICTIONARYWDFLT
  2
AcDbDictionaryWithDefault
  3
AutoCAD 2000
 90
0
 91
1
280
0
281
0
  0
CLASS
  1
ACDBPLACEHOLDER
  2
AcDbPlaceHolder
  3
AutoCAD 2000
 90
0
 91
1
280
0
281
0
  0
CLASS
  1
LAYOUT
  2
AcDbLayout
  3
AutoCAD 2000
 90
0
 91
0
280
0
281
0
  0
ENDSEC
  0
SECTION
  2
TABLES
  0
TABLE
  2
VPORT
  5
8
100
AcDbSymbolTable
 70
2
  0
VPORT
  5
1F4
100
AcDbSymbolTableRecord
100
AcDbViewportTableRecord
  2
*ACTIVE
 70
0
 10
0.0
 20
0.0
 11
1.0
 21
1.0
 12
74.5992676582
 22
105.5046785452
 13
0.0
 23
0.0
 14
1.0
 24
1.0
 15
0.0
 25
0.0
 16
0.0
 26
0.0
 36
1.0
 17
0.0
 27
0.0
 37
0.0
 40
211.0093570904
 41
0.7070707071
 42
50.0
 43
0.0
 44
0.0
 50
0.0
 51
0.0
 71
0
 72
100
 73
1
 74
1
 75
0
 76
0
 77
0
 78
0
  0
ENDTAB
  0
TABLE
  2
LTYPE
  5
5
100
AcDbSymbolTable
 70
6
  0
LTYPE
  5
14
100
AcDbSymbolTableRecord
100
AcDbLinetypeTableRecord
  2
BYBLOCK
 70
0
  3

 72
65
 73
0
 40
0.0
  0
LTYPE
  5
15
100
AcDbSymbolTableRecord
100
AcDbLinetypeTableRecord
  2
BYLAYER
 70
0
  3

 72
65
 73
0
 40
0.0
  0
LTYPE
  5
16
100
AcDbSymbolTableRecord
100
AcDbLinetypeTableRecord
  2
CONTINUOUS
 70
64
  3
Solid line
 72
65
 73
0
 40
0.0
  0
LTYPE
  5
1F5
100
AcDbSymbolTableRecord
100
AcDbLinetypeTableRecord
  2
CENTER
 70
64
  3
____ _ ____ _ ____ _ ____ _ ____ _ ____ _ ____
 72
65
 73
4
 40
0.6
 49
0.375
 74
0
 49
-0.075
 74
0
 49
0.075
 74
0
 49
-0.075
 74
0
  0
LTYPE
  5
1F6
100
AcDbSymbolTableRecord
100
AcDbLinetypeTableRecord
  2
HIDDEN
 70
64
  3
- - - - - - - - - - - - - - - - - - - -
 72
65
 73
2
 40
0.2
 49
0.1
 74
0
 49
-0.1
 74
0
  0
LTYPE
  5
1F7
100
AcDbSymbolTableRecord
100
AcDbLinetypeTableRecord
  2
PHANTOM
 70
64
  3
_____ _ _ _____ _ _ _____ _ _ _____
 72
65
 73
6
 40
0.8
 49
0.45
 74
0
 49
-0.05
 74
0
 49
0.1
 74
0
 49
-0.05
 74
0
 49
0.1
 74
0
 49
-0.05
 74
0
  0
LTYPE
  5
1F8
100
AcDbSymbolTableRecord
100
AcDbLinetypeTableRecord
  2
DOT
 70
64
  3
. . . . . . . . . . . . . . . . . . . .
 72
65
 73
2
 40
0.2
 49
0.1
 74
0
 49
-0.1
 74
0
  0
LTYPE
  5
1F9
100
AcDbSymbolTableRecord
100
AcDbLinetypeTableRecord
  2
DASHED
 70
64
  3
- - - - - - - - - - - - - - - - - - - -
 72
65
 73
2
 40
0.2
 49
0.1
 74
0
 49
-0.1
 74
0
  0
ENDTAB
  0
TABLE
  2
LAYER
  5
2
100
AcDbSymbolTable
 70
36
  0
LAYER
  5
10
100
AcDbSymbolTableRecord
100
AcDbLayerTableRecord
  2
0
 70
0
 62
7
  6
CONTINUOUS
370
-3
390
F
  0
LAYER
  5
1FA
100
AcDbSymbolTableRecord
100
AcDbLayerTableRecord
  2
DEFAULT_1
 70
0
 62
7
  6
CENTER
370
-3
390
F
  0
LAYER
  5
1FB
100
AcDbSymbolTableRecord
100
AcDbLayerTableRecord
  2
DEFAULT_2
 70
0
 62
7
  6
HIDDEN
370
-3
390
F
  0
LAYER
  5
1FC
100
AcDbSymbolTableRecord
100
AcDbLayerTableRecord
  2
DEFAULT_3
 70
0
 62
7
  6
PHANTOM
370
-3
390
F
  0
LAYER
  5
1FD
100
AcDbSymbolTableRecord
100
AcDbLayerTableRecord
  2
00_COMPONENTS
 70
0
 62
7
  6
CONTINUOUS
370
-3
390
F
  0
LAYER
  5
1FE
100
AcDbSymbolTableRecord
100
AcDbLayerTableRecord
  2
01_1_DEFAULT_DATUMS
 70
0
 62
7
  6
CONTINUOUS
370
-3
390
F
  0
LAYER
  5
1FF
100
AcDbSymbolTableRecord
100
AcDbLayerTableRecord
  2
01_PLANES
 70
0
 62
7
  6
CONTINUOUS
370
-3
390
F
  0
LAYER
  5
200
100
AcDbSymbolTableRecord
100
AcDbLayerTableRecord
  2
02_COORD_SYS
 70
0
 62
7
  6
CONTINUOUS
370
-3
390
F
  0
LAYER
  5
201
100
AcDbSymbolTableRecord
100
AcDbLayerTableRecord
  2
03_AXES
 70
0
 62
7
  6
CONTINUOUS
370
-3
390
F
  0
LAYER
  5
202
100
AcDbSymbolTableRecord
100
AcDbLayerTableRecord
  2
04_POINTS
 70
0
 62
7
  6
CONTINUOUS
370
-3
390
F
  0
LAYER
  5
203
100
AcDbSymbolTableRecord
100
AcDbLayerTableRecord
  2
05_CURVES
 70
0
 62
7
  6
CONTINUOUS
370
-3
390
F
  0
LAYER
  5
204
100
AcDbSymbolTableRecord
100
AcDbLayerTableRecord
  2
06_SURFS
 70
0
 62
7
  6
CONTINUOUS
370
-3
390
F
  0
LAYER
  5
205
100
AcDbSymbolTableRecord
100
AcDbLayerTableRecord
  2
07_COSMETICS
 70
0
 62
7
  6
CONTINUOUS
370
-3
390
F
  0
LAYER
  5
206
100
AcDbSymbolTableRecord
100
AcDbLayerTableRecord
  2
10_NOTES
 70
0
 62
7
  6
CONTINUOUS
370
-3
390
F
  0
LAYER
  5
207
100
AcDbSymbolTableRecord
100
AcDbLayerTableRecord
  2
11_NOTES_PUB
 70
0
 62
7
  6
CONTINUOUS
370
-3
390
F
  0
LAYER
  5
208
100
AcDbSymbolTableRecord
100
AcDbLayerTableRecord
  2
13_REF_GTOL
 70
0
 62
7
  6
CONTINUOUS
370
-3
390
F
  0
LAYER
  5
209
100
AcDbSymbolTableRecord
100
AcDbLayerTableRecord
  2
16_MISC
 70
0
 62
7
  6
CONTINUOUS
370
-3
390
F
  0
LAYER
  5
20A
100
AcDbSymbolTableRecord
100
AcDbLayerTableRecord
  2
17_NO_PRINT
 70
0
 62
7
  6
CONTINUOUS
370
-3
390
F
  0
LAYER
  5
20B
100
AcDbSymbolTableRecord
100
AcDbLayerTableRecord
  2
18_DATUM_CAMS_JOINTS
 70
0
 62
7
  6
CONTINUOUS
370
-3
390
F
  0
LAYER
  5
20C
100
AcDbSymbolTableRecord
100
AcDbLayerTableRecord
  2
19_DATUM_FUNCTIONAL
 70
0
 62
7
  6
CONTINUOUS
370
-3
390
F
  0
LAYER
  5
20D
100
AcDbSymbolTableRecord
100
AcDbLayerTableRecord
  2
20_DATUM_KINEMATIC_SCHEME
 70
0
 62
7
  6
CONTINUOUS
370
-3
390
F
  0
ENDTAB
  0
TABLE
  2
STYLE
  5
3
100
AcDbSymbolTable
 70
1
  0
STYLE
  5
11
100
AcDbSymbolTableRecord
100
AcDbTextStyleTableRecord
  2
STANDARD
 70
0
 40
0.0
 41
1.0
 50
0.0
 71
0
 42
0.2
  3
ARIAL.TTF
  4

  0
STYLE
  5
20E
100
AcDbSymbolTableRecord
100
AcDbTextStyleTableRecord
  2
TEXTSTYLE_1
 70
0
 40
0.0
 41
0.8
 50
0.0
 71
0
 42
0.2
  3
gdt
  4

  0
ENDTAB
  0
TABLE
  2
VIEW
  5
6
100
AcDbSymbolTable
 70
0
  0
ENDTAB
  0
TABLE
  2
UCS
  5
7
100
AcDbSymbolTable
 70
0
  0
ENDTAB
  0
TABLE
  2
APPID
  5
9
100
AcDbSymbolTable
 70
1
  0
APPID
  5
20F
100
AcDbSymbolTableRecord
100
AcDbRegAppTableRecord
  2
ACAD
 70
0
  0
ENDTAB
  0
TABLE
  2
BLOCK_RECORD
  5
1
100
AcDbSymbolTable
 70
0
  0
BLOCK_RECORD
  5
210
100
AcDbSymbolTableRecord
100
AcDbBlockTableRecord
  2
*Model_Space
  0
BLOCK_RECORD
  5
211
100
AcDbSymbolTableRecord
100
AcDbBlockTableRecord
  2
*Paper_Space
  0
BLOCK_RECORD
  5
212
100
AcDbSymbolTableRecord
100
AcDbBlockTableRecord
  2
_FILLED
  0
ENDTAB
  0
TABLE
  2
DIMSTYLE
  5
A
100
AcDbSymbolTable
 70
1
100
AcDbDimStyleTable
 71
0
  0
DIMSTYLE
105
213
100
AcDbSymbolTableRecord
100
AcDbDimStyleTableRecord
  2
STANDARD
 70
0
  3

  4

 40
1.0
 41
1.7761730395
 42
1.0
 43
0.38
 44
1.0
 45
0.0
 46
0.0
 47
0.01
 48
0.01
140
2.4866422553
141
0.09
142
0.0
143
25.4
144
1.0
145
0.0
146
1.0
147
0.625
 71
1
 72
0
 73
0
 74
0
 75
0
 76
0
 77
1
 78
8
 79
2
170
0
171
1
172
0
173
0
174
0
175
0
176
0
177
0
178
0
270
2
179
2
271
2
272
2
273
2
274
2
275
0
280
0
281
0
282
0
283
1
284
8
285
0
286
0
287
3
288
0
340
11
278
46
341
212
342
212
343
212
344
212
  0
ENDTAB
  0
ENDSEC
  0
SECTION
  2
BLOCKS
  0
BLOCK
  5
20
100
AcDbEntity
  8
0
100
AcDbBlockBegin
  2
*Model_Space
 70
0
 10
0.0
 20
0.0
 30
0.0
  3
*Model_Space
  1

  0
ENDBLK
  5
21
100
AcDbEntity
  8
0
100
AcDbBlockEnd
  0
BLOCK
  5
1C
100
AcDbEntity
  8
0
100
AcDbBlockBegin
  2
*Paper_Space
 70
0
 10
0.0
 20
0.0
 30
0.0
  3
*Paper_Space
  1

  0
ENDBLK
  5
1D
100
AcDbEntity
  8
0
100
AcDbBlockEnd
  0
BLOCK
  5
214
100
AcDbEntity
  8
0
100
AcDbBlockBegin
  2
_FILLED
 70
64
 10
0.0
 20
0.0
  3
_FILLED
  1

  0
SOLID
  5
215
100
AcDbEntity
  8
0
  6
BYBLOCK
 62
0
100
AcDbTrace
 10
0.0
 20
0.0
 11
-1.0
 21
0.25
 12
-1.0
 22
-0.25
 13
-1.0
 23
-0.25
  0
ENDBLK
  5
216
100
AcDbEntity
  8
0
  6
BYBLOCK
 62
0
100
AcDbBlockEnd
  0
ENDSEC
  0
SECTION
  2
ENTITIES
  0
LINE
  5
217
100
AcDbEntity
  8
0
100
AcDbLine
 62
7
  6
BYLAYER
 10
66.7363914078
 20
15.1089931332
 11
56.3358867851
 21
15.1089931332
  0
LINE
  5
218
100
AcDbEntity
  8
0
100
AcDbLine
 62
7
  6
BYLAYER
 10
54.1363180599
 20
28.1089931332
 11
98.6363180599
 21
28.1089931332
  0
LINE
  5
219
100
AcDbEntity
  8
0
100
AcDbLine
 62
7
  6
BYLAYER
 10
62.4477964213
 20
32.1089949945
 11
63.9477964213
 21
32.1089949945
  0
LINE
  5
21A
100
AcDbEntity
  8
0
100
AcDbLine
 62
7
  6
BYLAYER
 10
75.6330427473
 20
32.1089949945
 11
77.1330427473
 21
32.1089949945
  0
LINE
  5
21B
100
AcDbEntity
  8
0
100
AcDbLine
 62
7
  6
BYLAYER
 10
89.4614512613
 20
32.1089949945
 11
90.9614512613
 21
32.1089949945
  0
LINE
  5
21C
100
AcDbEntity
  8
0
100
AcDbLine
 62
7
  6
BYLAYER
 10
60.1977964213
 20
34.3589949945
 11
62.4477964213
 21
34.3589949945
  0
LINE
  5
21D
100
AcDbEntity
  8
0
100
AcDbLine
 62
7
  6
BYLAYER
 10
63.9477964213
 20
34.3589949945
 11
66.1977964213
 21
34.3589949945
  0
LINE
  5
21E
100
AcDbEntity
  8
0
100
AcDbLine
 62
7
  6
BYLAYER
 10
73.3830427473
 20
34.3589949945
 11
75.6330427473
 21
34.3589949945
  0
LINE
  5
21F
100
AcDbEntity
  8
0
100
AcDbLine
 62
7
  6
BYLAYER
 10
77.1330427473
 20
34.3589949945
 11
79.3830427473
 21
34.3589949945
  0
LINE
  5
220
100
AcDbEntity
  8
0
100
AcDbLine
 62
7
  6
BYLAYER
 10
87.2114512613
 20
34.3589949945
 11
89.4614512613
 21
34.3589949945
  0
LINE
  5
221
100
AcDbEntity
  8
0
100
AcDbLine
 62
7
  6
BYLAYER
 10
90.9614512613
 20
34.3589949945
 11
93.2114512613
 21
34.3589949945
  0
LINE
  5
222
100
AcDbEntity
  8
0
100
AcDbLine
 62
7
  6
BYLAYER
 10
93.2114512613
 20
35.8589949945
 11
90.9614512613
 21
35.8589949945
  0
LINE
  5
223
100
AcDbEntity
  8
0
100
AcDbLine
 62
7
  6
BYLAYER
 10
89.4614512613
 20
35.8589949945
 11
87.2114512613
 21
35.8589949945
  0
LINE
  5
224
100
AcDbEntity
  8
0
100
AcDbLine
 62
7
  6
BYLAYER
 10
79.3830427473
 20
35.8589949945
 11
77.1330427473
 21
35.8589949945
  0
LINE
  5
225
100
AcDbEntity
  8
0
100
AcDbLine
 62
7
  6
BYLAYER
 10
75.6330427473
 20
35.8589949945
 11
73.3830427473
 21
35.8589949945
  0
LINE
  5
226
100
AcDbEntity
  8
0
100
AcDbLine
 62
7
  6
BYLAYER
 10
66.1977964213
 20
35.8589949945
 11
63.9477964213
 21
35.8589949945
  0
LINE
  5
227
100
AcDbEntity
  8
0
100
AcDbLine
 62
7
  6
BYLAYER
 10
62.4477964213
 20
35.8589949945
 11
60.1977964213
 21
35.8589949945
  0
LINE
  5
228
100
AcDbEntity
  8
0
100
AcDbLine
 62
7
  6
BYLAYER
 10
62.7729778413
 20
37.7660386504
 11
65.7728768296
 21
37.7660386504
  0
LINE
  5
229
100
AcDbEntity
  8
0
100
AcDbLine
 62
7
  6
BYLAYER
 10
54.2363180599
 20
37.9630935805
 11
62.7729778413
 21
37.9630935805
  0
LINE
  5
22A
100
AcDbEntity
  8
0
100
AcDbLine
 62
7
  6
BYLAYER
 10
65.7728768296
 20
37.9630935805
 11
98.5363180599
 21
37.9630935805
  0
LINE
  5
22B
100
AcDbEntity
  8
0
100
AcDbLine
 62
7
  6
BYLAYER
 10
54.1363180599
 20
40.5089998926
 11
54.2363180599
 21
40.5089998926
  0
LINE
  5
22C
100
AcDbEntity
  8
0
100
AcDbLine
 62
7
  6
BYLAYER
 10
98.5363180599
 20
40.5089998926
 11
98.6363180599
 21
40.5089998926
  0
LINE
  5
22D
100
AcDbEntity
  8
0
100
AcDbLine
 62
7
  6
BYLAYER
 10
58.8245335293
 20
43.9322463558
 11
59.8245335293
 21
43.9322463558
  0
LINE
  5
22E
100
AcDbEntity
  8
0
100
AcDbLine
 62
7
  6
BYLAYER
 10
69.0020546117
 20
43.9322463558
 11
70.0020546117
 21
43.9322463558
  0
LINE
  5
22F
100
AcDbEntity
  8
0
100
AcDbLine
 62
7
  6
BYLAYER
 10
77.198654573
 20
43.9322463558
 11
78.198654573
 21
43.9322463558
  0
LINE
  5
230
100
AcDbEntity
  8
0
100
AcDbLine
 62
7
  6
BYLAYER
 10
85.4149699825
 20
43.9322463558
 11
86.4149699825
 21
43.9322463558
  0
LINE
  5
231
100
AcDbEntity
  8
0
100
AcDbLine
 62
7
  6
BYLAYER
 10
93.6346338445
 20
43.9322463558
 11
94.6346338445
 21
43.9322463558
  0
LINE
  5
232
100
AcDbEntity
  8
0
100
AcDbLine
 62
7
  6
BYLAYER
 10
57.3245335293
 20
45.4322463558
 11
58.8245335293
 21
45.4322463558
  0
LINE
  5
233
100
AcDbEntity
  8
0
100
AcDbLine
 62
7
  6
BYLAYER
 10
59.8245335293
 20
45.4322463558
 11
61.3245335293
 21
45.4322463558
  0
LINE
  5
234
100
AcDbEntity
  8
0
100
AcDbLine
 62
7
  6
BYLAYER
 10
67.5020546117
 20
45.4322463558
 11
69.0020546117
 21
45.4322463558
  0
LINE
  5
235
100
AcDbEntity
  8
0
100
AcDbLine
 62
7
  6
BYLAYER
 10
70.0020546117
 20
45.4322463558
 11
71.5020546117
 21
45.4322463558
  0
LINE
  5
236
100
AcDbEntity
  8
0
100
AcDbLine
 62
7
  6
BYLAYER
 10
75.698654573
 20
45.4322463558
 11
77.198654573
 21
45.4322463558
  0
LINE
  5
237
100
AcDbEntity
  8
0
100
AcDbLine
 62
7
  6
BYLAYER
 10
78.198654573
 20
45.4322463558
 11
79.698654573
 21
45.4322463558
  0
LINE
  5
238
100
AcDbEntity
  8
0
100
AcDbLine
 62
7
  6
BYLAYER
 10
83.9149699825
 20
45.4322463558
 11
85.4149699825
 21
45.4322463558
  0
LINE
  5
239
100
AcDbEntity
  8
0
100
AcDbLine
 62
7
  6
BYLAYER
 10
86.4149699825
 20
45.4322463558
 11
87.9149699825
 21
45.4322463558
  0
LINE
  5
23A
100
AcDbEntity
  8
0
100
AcDbLine
 62
7
  6
BYLAYER
 10
92.1346338445
 20
45.4322463558
 11
93.6346338445
 21
45.4322463558
  0
LINE
  5
23B
100
AcDbEntity
  8
0
100
AcDbLine
 62
7
  6
BYLAYER
 10
94.6346338445
 20
45.4322463558
 11
96.1346338445
 21
45.4322463558
  0
LINE
  5
23C
100
AcDbEntity
  8
0
100
AcDbLine
 62
7
  6
BYLAYER
 10
96.1346338445
 20
46.4322463558
 11
94.6346338445
 21
46.4322463558
  0
LINE
  5
23D
100
AcDbEntity
  8
0
100
AcDbLine
 62
7
  6
BYLAYER
 10
93.6346338445
 20
46.4322463558
 11
92.1346338445
 21
46.4322463558
  0
LINE
  5
23E
100
AcDbEntity
  8
0
100
AcDbLine
 62
7
  6
BYLAYER
 10
87.9149699825
 20
46.4322463558
 11
86.4149699825
 21
46.4322463558
  0
LINE
  5
23F
100
AcDbEntity
  8
0
100
AcDbLine
 62
7
  6
BYLAYER
 10
85.4149699825
 20
46.4322463558
 11
83.9149699825
 21
46.4322463558
  0
LINE
  5
240
100
AcDbEntity
  8
0
100
AcDbLine
 62
7
  6
BYLAYER
 10
79.698654573
 20
46.4322463558
 11
78.198654573
 21
46.4322463558
  0
LINE
  5
241
100
AcDbEntity
  8
0
100
AcDbLine
 62
7
  6
BYLAYER
 10
77.198654573
 20
46.4322463558
 11
75.698654573
 21
46.4322463558
  0
LINE
  5
242
100
AcDbEntity
  8
0
100
AcDbLine
 62
7
  6
BYLAYER
 10
71.5020546117
 20
46.4322463558
 11
70.0020546117
 21
46.4322463558
  0
LINE
  5
243
100
AcDbEntity
  8
0
100
AcDbLine
 62
7
  6
BYLAYER
 10
69.0020546117
 20
46.4322463558
 11
67.5020546117
 21
46.4322463558
  0
LINE
  5
244
100
AcDbEntity
  8
0
100
AcDbLine
 62
7
  6
BYLAYER
 10
61.3245335293
 20
46.4322463558
 11
59.8245335293
 21
46.4322463558
  0
LINE
  5
245
100
AcDbEntity
  8
0
100
AcDbLine
 62
7
  6
BYLAYER
 10
58.8245335293
 20
46.4322463558
 11
57.3245335293
 21
46.4322463558
  0
LINE
  5
246
100
AcDbEntity
  8
0
100
AcDbLine
 62
7
  6
BYLAYER
 10
94.6346338445
 20
47.9322463558
 11
93.6346338445
 21
47.9322463558
  0
LINE
  5
247
100
AcDbEntity
  8
0
100
AcDbLine
 62
7
  6
BYLAYER
 10
86.4149699825
 20
47.9322463558
 11
85.4149699825
 21
47.9322463558
  0
LINE
  5
248
100
AcDbEntity
  8
0
100
AcDbLine
 62
7
  6
BYLAYER
 10
78.198654573
 20
47.9322463558
 11
77.198654573
 21
47.9322463558
  0
LINE
  5
249
100
AcDbEntity
  8
0
100
AcDbLine
 62
7
  6
BYLAYER
 10
70.0020546117
 20
47.9322463558
 11
69.0020546117
 21
47.9322463558
  0
LINE
  5
24A
100
AcDbEntity
  8
0
100
AcDbLine
 62
7
  6
BYLAYER
 10
59.8245335293
 20
47.9322463558
 11
58.8245335293
 21
47.9322463558
  0
LINE
  5
24B
100
AcDbEntity
  8
0
100
AcDbLine
 62
7
  6
BYLAYER
 10
54.1363180599
 20
49.1135611508
 11
61.402404299
 21
49.1135633403
  0
LINE
  5
24C
100
AcDbEntity
  8
0
100
AcDbLine
 62
7
  6
BYLAYER
 10
66.8852117476
 20
49.1135633403
 11
98.6363180599
 21
49.1135611508
  0
LINE
  5
24D
100
AcDbEntity
  8
0
100
AcDbLine
 62
7
  6
BYLAYER
 10
58.637013956
 20
55.0821914101
 11
59.637013956
 21
55.0821914101
  0
LINE
  5
24E
100
AcDbEntity
  8
0
100
AcDbLine
 62
7
  6
BYLAYER
 10
68.5442003886
 20
55.0821914101
 11
69.5442003886
 21
55.0821914101
  0
LINE
  5
24F
100
AcDbEntity
  8
0
100
AcDbLine
 62
7
  6
BYLAYER
 10
84.9442860135
 20
55.0821914101
 11
85.9442860135
 21
55.0821914101
  0
LINE
  5
250
100
AcDbEntity
  8
0
100
AcDbLine
 62
7
  6
BYLAYER
 10
93.1490843616
 20
55.0821914101
 11
94.1490843616
 21
55.0821914101
  0
LINE
  5
251
100
AcDbEntity
  8
0
100
AcDbLine
 62
7
  6
BYLAYER
 10
76.721388467
 20
55.1422181378
 11
77.721388467
 21
55.1422181378
  0
LINE
  5
252
100
AcDbEntity
  8
0
100
AcDbLine
 62
7
  6
BYLAYER
 10
57.137013956
 20
56.5821914101
 11
58.637013956
 21
56.5821914101
  0
LINE
  5
253
100
AcDbEntity
  8
0
100
AcDbLine
 62
7
  6
BYLAYER
 10
59.637013956
 20
56.5821914101
 11
61.137013956
 21
56.5821914101
  0
LINE
  5
254
100
AcDbEntity
  8
0
100
AcDbLine
 62
7
  6
BYLAYER
 10
67.0442003886
 20
56.5821914101
 11
68.5442003886
 21
56.5821914101
  0
LINE
  5
255
100
AcDbEntity
  8
0
100
AcDbLine
 62
7
  6
BYLAYER
 10
69.5442003886
 20
56.5821914101
 11
71.0442003886
 21
56.5821914101
  0
LINE
  5
256
100
AcDbEntity
  8
0
100
AcDbLine
 62
7
  6
BYLAYER
 10
83.4442860135
 20
56.5821914101
 11
84.9442860135
 21
56.5821914101
  0
LINE
  5
257
100
AcDbEntity
  8
0
100
AcDbLine
 62
7
  6
BYLAYER
 10
85.9442860135
 20
56.5821914101
 11
87.4442860135
 21
56.5821914101
  0
LINE
  5
258
100
AcDbEntity
  8
0
100
AcDbLine
 62
7
  6
BYLAYER
 10
91.6490843616
 20
56.5821914101
 11
93.1490843616
 21
56.5821914101
  0
LINE
  5
259
100
AcDbEntity
  8
0
100
AcDbLine
 62
7
  6
BYLAYER
 10
94.1490843616
 20
56.5821914101
 11
95.6490843616
 21
56.5821914101
  0
LINE
  5
25A
100
AcDbEntity
  8
0
100
AcDbLine
 62
7
  6
BYLAYER
 10
75.221388467
 20
56.6422181378
 11
76.721388467
 21
56.6422181378
  0
LINE
  5
25B
100
AcDbEntity
  8
0
100
AcDbLine
 62
7
  6
BYLAYER
 10
77.721388467
 20
56.6422181378
 11
79.221388467
 21
56.6422181378
  0
LINE
  5
25C
100
AcDbEntity
  8
0
100
AcDbLine
 62
7
  6
BYLAYER
 10
95.6490843616
 20
57.5821914101
 11
94.1490843616
 21
57.5821914101
  0
LINE
  5
25D
100
AcDbEntity
  8
0
100
AcDbLine
 62
7
  6
BYLAYER
 10
93.1490843616
 20
57.5821914101
 11
91.6490843616
 21
57.5821914101
  0
LINE
  5
25E
100
AcDbEntity
  8
0
100
AcDbLine
 62
7
  6
BYLAYER
 10
87.4442860135
 20
57.5821914101
 11
85.9442860135
 21
57.5821914101
  0
LINE
  5
25F
100
AcDbEntity
  8
0
100
AcDbLine
 62
7
  6
BYLAYER
 10
84.9442860135
 20
57.5821914101
 11
83.4442860135
 21
57.5821914101
  0
LINE
  5
260
100
AcDbEntity
  8
0
100
AcDbLine
 62
7
  6
BYLAYER
 10
71.0442003886
 20
57.5821914101
 11
69.5442003886
 21
57.5821914101
  0
LINE
  5
261
100
AcDbEntity
  8
0
100
AcDbLine
 62
7
  6
BYLAYER
 10
68.5442003886
 20
57.5821914101
 11
67.0442003886
 21
57.5821914101
  0
LINE
  5
262
100
AcDbEntity
  8
0
100
AcDbLine
 62
7
  6
BYLAYER
 10
61.137013956
 20
57.5821914101
 11
59.637013956
 21
57.5821914101
  0
LINE
  5
263
100
AcDbEntity
  8
0
100
AcDbLine
 62
7
  6
BYLAYER
 10
58.637013956
 20
57.5821914101
 11
57.137013956
 21
57.5821914101
  0
LINE
  5
264
100
AcDbEntity
  8
0
100
AcDbLine
 62
7
  6
BYLAYER
 10
79.221388467
 20
57.6422181378
 11
77.721388467
 21
57.6422181378
  0
LINE
  5
265
100
AcDbEntity
  8
0
100
AcDbLine
 62
7
  6
BYLAYER
 10
76.721388467
 20
57.6422181378
 11
75.221388467
 21
57.6422181378
  0
LINE
  5
266
100
AcDbEntity
  8
0
100
AcDbLine
 62
7
  6
BYLAYER
 10
94.1490843616
 20
59.0821914101
 11
93.1490843616
 21
59.0821914101
  0
LINE
  5
267
100
AcDbEntity
  8
0
100
AcDbLine
 62
7
  6
BYLAYER
 10
85.9442860135
 20
59.0821914101
 11
84.9442860135
 21
59.0821914101
  0
LINE
  5
268
100
AcDbEntity
  8
0
100
AcDbLine
 62
7
  6
BYLAYER
 10
69.5442003886
 20
59.0821914101
 11
68.5442003886
 21
59.0821914101
  0
LINE
  5
269
100
AcDbEntity
  8
0
100
AcDbLine
 62
7
  6
BYLAYER
 10
59.637013956
 20
59.0821914101
 11
58.637013956
 21
59.0821914101
  0
LINE
  5
26A
100
AcDbEntity
  8
0
100
AcDbLine
 62
7
  6
BYLAYER
 10
77.721388467
 20
59.1422181378
 11
76.721388467
 21
59.1422181378
  0
LINE
  5
26B
100
AcDbEntity
  8
0
100
AcDbLine
 62
7
  6
BYLAYER
 10
54.2363180599
 20
69.8520155285
 11
98.5363180599
 21
69.8520155285
  0
LINE
  5
26C
100
AcDbEntity
  8
0
100
AcDbLine
 62
7
  6
BYLAYER
 10
58.9363180599
 20
73.8976635522
 11
59.9363180599
 21
73.8976635522
  0
LINE
  5
26D
100
AcDbEntity
  8
0
100
AcDbLine
 62
7
  6
BYLAYER
 10
69.5219656315
 20
73.8976635522
 11
70.5219656315
 21
73.8976635522
  0
LINE
  5
26E
100
AcDbEntity
  8
0
100
AcDbLine
 62
7
  6
BYLAYER
 10
82.8375412921
 20
73.8976635522
 11
83.8375412921
 21
73.8976635522
  0
LINE
  5
26F
100
AcDbEntity
  8
0
100
AcDbLine
 62
7
  6
BYLAYER
 10
93.4397080038
 20
73.8976635522
 11
94.4397080038
 21
73.8976635522
  0
LINE
  5
270
100
AcDbEntity
  8
0
100
AcDbLine
 62
7
  6
BYLAYER
 10
57.4363180599
 20
75.3976635522
 11
58.9363180599
 21
75.3976635522
  0
LINE
  5
271
100
AcDbEntity
  8
0
100
AcDbLine
 62
7
  6
BYLAYER
 10
59.9363180599
 20
75.3976635522
 11
61.4363180599
 21
75.3976635522
  0
LINE
  5
272
100
AcDbEntity
  8
0
100
AcDbLine
 62
7
  6
BYLAYER
 10
68.0219656315
 20
75.3976635522
 11
69.5219656315
 21
75.3976635522
  0
LINE
  5
273
100
AcDbEntity
  8
0
100
AcDbLine
 62
7
  6
BYLAYER
 10
70.5219656315
 20
75.3976635522
 11
72.0219656315
 21
75.3976635522
  0
LINE
  5
274
100
AcDbEntity
  8
0
100
AcDbLine
 62
7
  6
BYLAYER
 10
81.3375412921
 20
75.3976635522
 11
82.8375412921
 21
75.3976635522
  0
LINE
  5
275
100
AcDbEntity
  8
0
100
AcDbLine
 62
7
  6
BYLAYER
 10
83.8375412921
 20
75.3976635522
 11
85.3375412921
 21
75.3976635522
  0
LINE
  5
276
100
AcDbEntity
  8
0
100
AcDbLine
 62
7
  6
BYLAYER
 10
91.9397080038
 20
75.3976635522
 11
93.4397080038
 21
75.3976635522
  0
LINE
  5
277
100
AcDbEntity
  8
0
100
AcDbLine
 62
7
  6
BYLAYER
 10
94.4397080038
 20
75.3976635522
 11
95.9397080038
 21
75.3976635522
  0
LINE
  5
278
100
AcDbEntity
  8
0
100
AcDbLine
 62
7
  6
BYLAYER
 10
95.9397080038
 20
76.3976635522
 11
94.4397080038
 21
76.3976635522
  0
LINE
  5
279
100
AcDbEntity
  8
0
100
AcDbLine
 62
7
  6
BYLAYER
 10
93.4397080038
 20
76.3976635522
 11
91.9397080038
 21
76.3976635522
  0
LINE
  5
27A
100
AcDbEntity
  8
0
100
AcDbLine
 62
7
  6
BYLAYER
 10
85.3375412921
 20
76.3976635522
 11
83.8375412921
 21
76.3976635522
  0
LINE
  5
27B
100
AcDbEntity
  8
0
100
AcDbLine
 62
7
  6
BYLAYER
 10
82.8375412921
 20
76.3976635522
 11
81.3375412921
 21
76.3976635522
  0
LINE
  5
27C
100
AcDbEntity
  8
0
100
AcDbLine
 62
7
  6
BYLAYER
 10
72.0219656315
 20
76.3976635522
 11
70.5219656315
 21
76.3976635522
  0
LINE
  5
27D
100
AcDbEntity
  8
0
100
AcDbLine
 62
7
  6
BYLAYER
 10
69.5219656315
 20
76.3976635522
 11
68.0219656315
 21
76.3976635522
  0
LINE
  5
27E
100
AcDbEntity
  8
0
100
AcDbLine
 62
7
  6
BYLAYER
 10
61.4363180599
 20
76.3976635522
 11
59.9363180599
 21
76.3976635522
  0
LINE
  5
27F
100
AcDbEntity
  8
0
100
AcDbLine
 62
7
  6
BYLAYER
 10
58.9363180599
 20
76.3976635522
 11
57.4363180599
 21
76.3976635522
  0
LINE
  5
280
100
AcDbEntity
  8
0
100
AcDbLine
 62
7
  6
BYLAYER
 10
94.4397080038
 20
77.8976635522
 11
93.4397080038
 21
77.8976635522
  0
LINE
  5
281
100
AcDbEntity
  8
0
100
AcDbLine
 62
7
  6
BYLAYER
 10
83.8375412921
 20
77.8976635522
 11
82.8375412921
 21
77.8976635522
  0
LINE
  5
282
100
AcDbEntity
  8
0
100
AcDbLine
 62
7
  6
BYLAYER
 10
70.5219656315
 20
77.8976635522
 11
69.5219656315
 21
77.8976635522
  0
LINE
  5
283
100
AcDbEntity
  8
0
100
AcDbLine
 62
7
  6
BYLAYER
 10
59.9363180599
 20
77.8976635522
 11
58.9363180599
 21
77.8976635522
  0
LINE
  5
284
100
AcDbEntity
  8
0
100
AcDbLine
 62
7
  6
BYLAYER
 10
54.1363180599
 20
182.1089970228
 11
54.1363180599
 21
28.1089931332
  0
LINE
  5
285
100
AcDbEntity
  8
0
100
AcDbLine
 62
7
  6
BYLAYER
 10
54.2063180599
 20
136.2125687996
 11
54.2063180599
 21
86.4089970227
  0
LINE
  5
286
100
AcDbEntity
  8
0
100
AcDbLine
 62
7
  6
BYLAYER
 10
54.2363180599
 20
37.9630935805
 11
54.2363180599
 21
86.4089970227
  0
LINE
  5
287
100
AcDbEntity
  8
0
100
AcDbLine
 62
7
  6
BYLAYER
 10
55.3263180599
 20
129.0154262213
 11
55.3263180599
 21
82.852010388
  0
LINE
  5
288
100
AcDbEntity
  8
0
100
AcDbLine
 62
7
  6
BYLAYER
 10
55.8565166645
 20
98.3796227491
 11
55.8565166645
 21
128.3830464144
  0
LINE
  5
289
100
AcDbEntity
  8
0
100
AcDbLine
 62
7
  6
BYLAYER
 10
56.3358867851
 20
28.1089931332
 11
56.3358867851
 21
15.1089931332
  0
LINE
  5
28A
100
AcDbEntity
  8
0
100
AcDbLine
 62
7
  6
BYLAYER
 10
57.137013956
 20
57.5821914101
 11
57.137013956
 21
56.5821914101
  0
LINE
  5
28B
100
AcDbEntity
  8
0
100
AcDbLine
 62
7
  6
BYLAYER
 10
57.3245335293
 20
46.4322463558
 11
57.3245335293
 21
45.4322463558
  0
LINE
  5
28C
100
AcDbEntity
  8
0
100
AcDbLine
 62
7
  6
BYLAYER
 10
57.4363180599
 20
76.3976635522
 11
57.4363180599
 21
75.3976635522
  0
LINE
  5
28D
100
AcDbEntity
  8
0
100
AcDbLine
 62
7
  6
BYLAYER
 10
58.637013956
 20
59.0821914101
 11
58.637013956
 21
57.5821914101
  0
LINE
  5
28E
100
AcDbEntity
  8
0
100
AcDbLine
 62
7
  6
BYLAYER
 10
58.637013956
 20
56.5821914101
 11
58.637013956
 21
55.0821914101
  0
LINE
  5
28F
100
AcDbEntity
  8
0
100
AcDbLine
 62
7
  6
BYLAYER
 10
58.8245335293
 20
47.9322463558
 11
58.8245335293
 21
46.4322463558
  0
LINE
  5
290
100
AcDbEntity
  8
0
100
AcDbLine
 62
7
  6
BYLAYER
 10
58.8245335293
 20
45.4322463558
 11
58.8245335293
 21
43.9322463558
  0
LINE
  5
291
100
AcDbEntity
  8
0
100
AcDbLine
 62
7
  6
BYLAYER
 10
55.3418226937
 20
136.2147119064
 11
55.3263180599
 21
129.0154262213
  0
LINE
  5
292
100
AcDbEntity
  8
0
100
AcDbLine
 62
7
  6
BYLAYER
 10
54.2363180599
 20
82.8520134723
 11
98.5363180599
 21
82.8520134723
  0
LINE
  5
293
100
AcDbEntity
  8
0
100
AcDbLine
 62
7
  6
BYLAYER
 10
62.8463280599
 20
83.0378365299
 11
72.8461680599
 21
83.0378365299
  0
LINE
  5
294
100
AcDbEntity
  8
0
100
AcDbLine
 62
7
  6
BYLAYER
 10
63.3965083078
 20
83.1807333861
 11
67.2964875489
 21
83.1807333861
  0
LINE
  5
295
100
AcDbEntity
  8
0
100
AcDbLine
 62
7
  6
BYLAYER
 10
68.3960078604
 20
83.1807357494
 11
72.2959871015
 21
83.1807357494
  0
LINE
  5
296
100
AcDbEntity
  8
0
100
AcDbLine
 62
7
  6
BYLAYER
 10
67.2964875489
 20
84.5557888767
 11
63.3965083078
 21
84.5557888767
  0
LINE
  5
297
100
AcDbEntity
  8
0
100
AcDbLine
 62
7
  6
BYLAYER
 10
72.2959871015
 20
84.55579124
 11
68.3960078604
 21
84.55579124
  0
LINE
  5
298
100
AcDbEntity
  8
0
100
AcDbLine
 62
7
  6
BYLAYER
 10
91.659407365
 20
85.2226952801
 11
87.1596897698
 21
85.2226952801
  0
LINE
  5
299
100
AcDbEntity
  8
0
100
AcDbLine
 62
7
  6
BYLAYER
 10
81.15894635
 20
85.2226952801
 11
76.8056121226
 21
85.2226952801
  0
LINE
  5
29A
100
AcDbEntity
  8
0
100
AcDbLine
 62
7
  6
BYLAYER
 10
85.6595041779
 20
85.7031697074
 11
82.6591329191
 21
85.7031703613
  0
LINE
  5
29B
100
AcDbEntity
  8
0
100
AcDbLine
 62
7
  6
BYLAYER
 10
54.2063180599
 20
86.4089970227
 11
55.3263180599
 21
86.4089970227
  0
LINE
  5
29C
100
AcDbEntity
  8
0
100
AcDbLine
 62
7
  6
BYLAYER
 10
97.2863180599
 20
86.4089970227
 11
98.4063180599
 21
86.4089970227
  0
LINE
  5
29D
100
AcDbEntity
  8
0
100
AcDbLine
 62
7
  6
BYLAYER
 10
72.2959871015
 20
86.4929789637
 11
68.3960078604
 21
86.4929789637
  0
LINE
  5
29E
100
AcDbEntity
  8
0
100
AcDbLine
 62
7
  6
BYLAYER
 10
67.2964875489
 20
86.4929789212
 11
63.3965083078
 21
86.4929789212
  0
LINE
  5
29F
100
AcDbEntity
  8
0
100
AcDbLine
 62
7
  6
BYLAYER
 10
55.3263180599
 20
86.770898418
 11
54.2063180599
 21
86.770898418
  0
LINE
  5
2A0
100
AcDbEntity
  8
0
100
AcDbLine
 62
7
  6
BYLAYER
 10
97.2863180599
 20
86.770898418
 11
98.4063180599
 21
86.770898418
  0
LINE
  5
2A1
100
AcDbEntity
  8
0
100
AcDbLine
 62
7
  6
BYLAYER
 10
62.8463280599
 20
86.9268961651
 11
72.8461680599
 21
86.9268961651
  0
LINE
  5
2A2
100
AcDbEntity
  8
0
100
AcDbLine
 62
7
  6
BYLAYER
 10
58.9363180599
 20
77.8976635522
 11
58.9363180599
 21
76.3976635522
  0
LINE
  5
2A3
100
AcDbEntity
  8
0
100
AcDbLine
 62
7
  6
BYLAYER
 10
58.9363180599
 20
75.3976635522
 11
58.9363180599
 21
73.8976635522
  0
LINE
  5
2A4
100
AcDbEntity
  8
0
100
AcDbLine
 62
7
  6
BYLAYER
 10
59.4362148873
 20
20.1091669227
 11
59.4362148873
 21
22.6089167012
  0
LINE
  5
2A5
100
AcDbEntity
  8
0
100
AcDbLine
 62
7
  6
BYLAYER
 10
59.637013956
 20
55.0821914101
 11
59.637013956
 21
56.5821914101
  0
LINE
  5
2A6
100
AcDbEntity
  8
0
100
AcDbLine
 62
7
  6
BYLAYER
 10
59.637013956
 20
57.5821914101
 11
59.637013956
 21
59.0821914101
  0
LINE
  5
2A7
100
AcDbEntity
  8
0
100
AcDbLine
 62
7
  6
BYLAYER
 10
59.8245335293
 20
43.9322463558
 11
59.8245335293
 21
45.4322463558
  0
LINE
  5
2A8
100
AcDbEntity
  8
0
100
AcDbLine
 62
7
  6
BYLAYER
 10
59.8245335293
 20
46.4322463558
 11
59.8245335293
 21
47.9322463558
  0
LINE
  5
2A9
100
AcDbEntity
  8
0
100
AcDbLine
 62
7
  6
BYLAYER
 10
59.9363180599
 20
73.8976635522
 11
59.9363180599
 21
75.3976635522
  0
LINE
  5
2AA
100
AcDbEntity
  8
0
100
AcDbLine
 62
7
  6
BYLAYER
 10
59.9363180599
 20
76.3976635522
 11
59.9363180599
 21
77.8976635522
  0
LINE
  5
2AB
100
AcDbEntity
  8
0
100
AcDbLine
 62
7
  6
BYLAYER
 10
60.0659488393
 20
124.6089970227
 11
60.0659488393
 21
110.1086003743
  0
LINE
  5
2AC
100
AcDbEntity
  8
0
100
AcDbLine
 62
7
  6
BYLAYER
 10
60.1977964213
 20
175.858999051
 11
60.1977964213
 21
174.358999051
  0
LINE
  5
2AD
100
AcDbEntity
  8
0
100
AcDbLine
 62
7
  6
BYLAYER
 10
60.1977964213
 20
35.8589949945
 11
60.1977964213
 21
34.3589949945
  0
LINE
  5
2AE
100
AcDbEntity
  8
0
100
AcDbLine
 62
7
  6
BYLAYER
 10
61.137013956
 20
56.5821914101
 11
61.137013956
 21
57.5821914101
  0
LINE
  5
2AF
100
AcDbEntity
  8
0
100
AcDbLine
 62
7
  6
BYLAYER
 10
61.3245335293
 20
45.4322463558
 11
61.3245335293
 21
46.4322463558
  0
LINE
  5
2B0
100
AcDbEntity
  8
0
100
AcDbLine
 62
7
  6
BYLAYER
 10
61.4363180599
 20
75.3976635522
 11
61.4363180599
 21
76.3976635522
  0
LINE
  5
2B1
100
AcDbEntity
  8
0
100
AcDbLine
 62
7
  6
BYLAYER
 10
62.4477964213
 20
178.108999051
 11
62.4477964213
 21
175.858999051
  0
LINE
  5
2B2
100
AcDbEntity
  8
0
100
AcDbLine
 62
7
  6
BYLAYER
 10
62.4477964213
 20
174.358999051
 11
62.4477964213
 21
172.108999051
  0
LINE
  5
2B3
100
AcDbEntity
  8
0
100
AcDbLine
 62
7
  6
BYLAYER
 10
62.4477964213
 20
37.9630935805
 11
62.4477964213
 21
35.8589949945
  0
LINE
  5
2B4
100
AcDbEntity
  8
0
100
AcDbLine
 62
7
  6
BYLAYER
 10
62.4477964213
 20
34.3589949945
 11
62.4477964213
 21
32.1089949945
  0
LINE
  5
2B5
100
AcDbEntity
  8
0
100
AcDbLine
 62
7
  6
BYLAYER
 10
62.7729778413
 20
46.6772002615
 11
62.7729778413
 21
37.7660386504
  0
LINE
  5
2B6
100
AcDbEntity
  8
0
100
AcDbLine
 62
7
  6
BYLAYER
 10
62.8463280599
 20
98.3819799962
 11
62.8463280599
 21
83.0378365299
  0
LINE
  5
2B7
100
AcDbEntity
  8
0
100
AcDbLine
 62
7
  6
BYLAYER
 10
63.3965083078
 20
86.4929789212
 11
63.3965083078
 21
83.1807333861
  0
LINE
  5
2B8
100
AcDbEntity
  8
0
100
AcDbLine
 62
7
  6
BYLAYER
 10
63.5000685123
 20
136.2154262213
 11
63.5000685123
 21
131.2154262213
  0
LINE
  5
2B9
100
AcDbEntity
  8
0
100
AcDbLine
 62
7
  6
BYLAYER
 10
63.561405451
 20
133.2131877324
 11
63.561405451
 21
131.6881877324
  0
LINE
  5
2BA
100
AcDbEntity
  8
0
100
AcDbLine
 62
7
  6
BYLAYER
 10
63.6360633055
 20
22.6089167012
 11
63.6360633055
 21
20.1091669227
  0
LINE
  5
2BB
100
AcDbEntity
  8
0
100
AcDbLine
 62
7
  6
BYLAYER
 10
63.9477964213
 20
32.1089949945
 11
63.9477964213
 21
34.3589949945
  0
LINE
  5
2BC
100
AcDbEntity
  8
0
100
AcDbLine
 62
7
  6
BYLAYER
 10
63.9477964213
 20
35.8589949945
 11
63.9477964213
 21
37.7660386504
  0
LINE
  5
2BD
100
AcDbEntity
  8
0
100
AcDbLine
 62
7
  6
BYLAYER
 10
63.9477964213
 20
172.108999051
 11
63.9477964213
 21
174.358999051
  0
LINE
  5
2BE
100
AcDbEntity
  8
0
100
AcDbLine
 62
7
  6
BYLAYER
 10
63.9477964213
 20
175.858999051
 11
63.9477964213
 21
178.108999051
  0
LINE
  5
2BF
100
AcDbEntity
  8
0
100
AcDbLine
 62
7
  6
BYLAYER
 10
64.0304128196
 20
131.6881877324
 11
64.0304128196
 21
133.2131877324
  0
LINE
  5
2C0
100
AcDbEntity
  8
0
100
AcDbLine
 62
7
  6
BYLAYER
 10
62.8463280599
 20
87.3158167892
 11
72.8461680599
 21
87.3158167892
  0
LINE
  5
2C1
100
AcDbEntity
  8
0
100
AcDbLine
 62
7
  6
BYLAYER
 10
85.6595053315
 20
88.4028204686
 11
82.6591322189
 21
88.4028214494
  0
LINE
  5
2C2
100
AcDbEntity
  8
0
100
AcDbLine
 62
7
  6
BYLAYER
 10
87.1596897698
 20
89.2033116108
 11
81.15894635
 21
89.2033116108
  0
LINE
  5
2C3
100
AcDbEntity
  8
0
100
AcDbLine
 62
7
  6
BYLAYER
 10
76.8056121226
 20
90.2028970227
 11
91.659407365
 21
90.2028970227
  0
LINE
  5
2C4
100
AcDbEntity
  8
0
100
AcDbLine
 62
7
  6
BYLAYER
 10
62.8463280599
 20
92.3187149333
 11
72.8461680599
 21
92.3187149333
  0
LINE
  5
2C5
100
AcDbEntity
  8
0
100
AcDbLine
 62
7
  6
BYLAYER
 10
62.8463280599
 20
93.2905064882
 11
72.8461680599
 21
93.2905064882
  0
LINE
  5
2C6
100
AcDbEntity
  8
0
100
AcDbLine
 62
7
  6
BYLAYER
 10
65.7728768296
 20
37.7660386504
 11
65.7728768296
 21
46.9149068404
  0
LINE
  5
2C7
100
AcDbEntity
  8
0
100
AcDbLine
 62
7
  6
BYLAYER
 10
66.1977964213
 20
34.3589949945
 11
66.1977964213
 21
35.8589949945
  0
LINE
  5
2C8
100
AcDbEntity
  8
0
100
AcDbLine
 62
7
  6
BYLAYER
 10
66.1977964213
 20
174.358999051
 11
66.1977964213
 21
175.858999051
  0
LINE
  5
2C9
100
AcDbEntity
  8
0
100
AcDbLine
 62
7
  6
BYLAYER
 10
66.7363914078
 20
28.1089931332
 11
66.7363914078
 21
15.1089931332
  0
LINE
  5
2CA
100
AcDbEntity
  8
0
100
AcDbLine
 62
7
  6
BYLAYER
 10
67.0442003886
 20
57.5821914101
 11
67.0442003886
 21
56.5821914101
  0
LINE
  5
2CB
100
AcDbEntity
  8
0
100
AcDbLine
 62
7
  6
BYLAYER
 10
67.2964875489
 20
83.1807333861
 11
67.2964875489
 21
86.4929789212
  0
LINE
  5
2CC
100
AcDbEntity
  8
0
100
AcDbLine
 62
7
  6
BYLAYER
 10
67.5020546117
 20
46.4322463558
 11
67.5020546117
 21
45.4322463558
  0
LINE
  5
2CD
100
AcDbEntity
  8
0
100
AcDbLine
 62
7
  6
BYLAYER
 10
68.0219656315
 20
76.3976635522
 11
68.0219656315
 21
75.3976635522
  0
LINE
  5
2CE
100
AcDbEntity
  8
0
100
AcDbLine
 62
7
  6
BYLAYER
 10
68.3960078604
 20
86.4929789637
 11
68.3960078604
 21
83.1807357494
  0
LINE
  5
2CF
100
AcDbEntity
  8
0
100
AcDbLine
 62
7
  6
BYLAYER
 10
68.5442003886
 20
59.0821914101
 11
68.5442003886
 21
57.5821914101
  0
LINE
  5
2D0
100
AcDbEntity
  8
0
100
AcDbLine
 62
7
  6
BYLAYER
 10
68.5442003886
 20
56.5821914101
 11
68.5442003886
 21
55.0821914101
  0
LINE
  5
2D1
100
AcDbEntity
  8
0
100
AcDbLine
 62
7
  6
BYLAYER
 10
68.7200058688
 20
133.2131877324
 11
68.7200058688
 21
131.6881877324
  0
LINE
  5
2D2
100
AcDbEntity
  8
0
100
AcDbLine
 62
7
  6
BYLAYER
 10
68.9931693774
 20
131.2154262213
 11
68.9931693774
 21
136.2154262213
  0
LINE
  5
2D3
100
AcDbEntity
  8
0
100
AcDbLine
 62
7
  6
BYLAYER
 10
69.0020546117
 20
47.9322463558
 11
69.0020546117
 21
46.4322463558
  0
LINE
  5
2D4
100
AcDbEntity
  8
0
100
AcDbLine
 62
7
  6
BYLAYER
 10
69.0020546117
 20
45.4322463558
 11
69.0020546117
 21
43.9322463558
  0
LINE
  5
2D5
100
AcDbEntity
  8
0
100
AcDbLine
 62
7
  6
BYLAYER
 10
69.5219656315
 20
77.8976635522
 11
69.5219656315
 21
76.3976635522
  0
LINE
  5
2D6
100
AcDbEntity
  8
0
100
AcDbLine
 62
7
  6
BYLAYER
 10
69.5219656315
 20
75.3976635522
 11
69.5219656315
 21
73.8976635522
  0
LINE
  5
2D7
100
AcDbEntity
  8
0
100
AcDbLine
 62
7
  6
BYLAYER
 10
69.5442003886
 20
55.0821914101
 11
69.5442003886
 21
56.5821914101
  0
LINE
  5
2D8
100
AcDbEntity
  8
0
100
AcDbLine
 62
7
  6
BYLAYER
 10
69.5442003886
 20
57.5821914101
 11
69.5442003886
 21
59.0821914101
  0
LINE
  5
2D9
100
AcDbEntity
  8
0
100
AcDbLine
 62
7
  6
BYLAYER
 10
69.7363180599
 20
26.7517970227
 11
69.7363180599
 21
28.1089931332
  0
LINE
  5
2DA
100
AcDbEntity
  8
0
100
AcDbLine
 62
7
  6
BYLAYER
 10
70.0020546117
 20
43.9322463558
 11
70.0020546117
 21
45.4322463558
  0
LINE
  5
2DB
100
AcDbEntity
  8
0
100
AcDbLine
 62
7
  6
BYLAYER
 10
70.0020546117
 20
46.4322463558
 11
70.0020546117
 21
47.9322463558
  0
LINE
  5
2DC
100
AcDbEntity
  8
0
100
AcDbLine
 62
7
  6
BYLAYER
 10
70.5219656315
 20
73.8976635522
 11
70.5219656315
 21
75.3976635522
  0
LINE
  5
2DD
100
AcDbEntity
  8
0
100
AcDbLine
 62
7
  6
BYLAYER
 10
70.5219656315
 20
76.3976635522
 11
70.5219656315
 21
77.8976635522
  0
LINE
  5
2DE
100
AcDbEntity
  8
0
100
AcDbLine
 62
7
  6
BYLAYER
 10
71.0442003886
 20
56.5821914101
 11
71.0442003886
 21
57.5821914101
  0
LINE
  5
2DF
100
AcDbEntity
  8
0
100
AcDbLine
 62
7
  6
BYLAYER
 10
62.8463280599
 20
93.9977609618
 11
72.8461680599
 21
93.9977609618
  0
LINE
  5
2E0
100
AcDbEntity
  8
0
100
AcDbLine
 62
7
  6
BYLAYER
 10
55.3263180599
 20
94.7868904772
 11
54.2063180599
 21
94.7868904772
  0
LINE
  5
2E1
100
AcDbEntity
  8
0
100
AcDbLine
 62
7
  6
BYLAYER
 10
97.2863180599
 20
94.7868904772
 11
98.4063180599
 21
94.7868904772
  0
LINE
  5
2E2
100
AcDbEntity
  8
0
100
AcDbLine
 62
7
  6
BYLAYER
 10
76.8056121226
 20
95.2027970227
 11
91.659407365
 21
95.2027970227
  0
LINE
  5
2E3
100
AcDbEntity
  8
0
100
AcDbLine
 62
7
  6
BYLAYER
 10
76.8056121226
 20
96.7029809311
 11
91.659407365
 21
96.7029809311
  0
LINE
  5
2E4
100
AcDbEntity
  8
0
100
AcDbLine
 62
7
  6
BYLAYER
 10
55.3263180599
 20
97.8154121358
 11
62.8463280599
 21
97.8154121358
  0
LINE
  5
2E5
100
AcDbEntity
  8
0
100
AcDbLine
 62
7
  6
BYLAYER
 10
72.8461680599
 20
97.8154121358
 11
97.2863180599
 21
97.8154121358
  0
LINE
  5
2E6
100
AcDbEntity
  8
0
100
AcDbLine
 62
7
  6
BYLAYER
 10
96.4538970082
 20
98.3796227491
 11
72.8461680599
 21
98.3796227491
  0
LINE
  5
2E7
100
AcDbEntity
  8
0
100
AcDbLine
 62
7
  6
BYLAYER
 10
62.8463280599
 20
98.3796227491
 11
55.8565166645
 21
98.3796227491
  0
LINE
  5
2E8
100
AcDbEntity
  8
0
100
AcDbLine
 62
7
  6
BYLAYER
 10
62.8463280599
 20
98.3819799962
 11
72.8461680599
 21
98.3819799962
  0
LINE
  5
2E9
100
AcDbEntity
  8
0
100
AcDbLine
 62
7
  6
BYLAYER
 10
71.5020546117
 20
45.4322463558
 11
71.5020546117
 21
46.4322463558
  0
LINE
  5
2EA
100
AcDbEntity
  8
0
100
AcDbLine
 62
7
  6
BYLAYER
 10
72.0219656315
 20
75.3976635522
 11
72.0219656315
 21
76.3976635522
  0
LINE
  5
2EB
100
AcDbEntity
  8
0
100
AcDbLine
 62
7
  6
BYLAYER
 10
72.2959871015
 20
83.1807357494
 11
72.2959871015
 21
86.4929789637
  0
LINE
  5
2EC
100
AcDbEntity
  8
0
100
AcDbLine
 62
7
  6
BYLAYER
 10
72.8461680599
 20
83.0378365299
 11
72.8461680599
 21
98.3819799962
  0
LINE
  5
2ED
100
AcDbEntity
  8
0
100
AcDbLine
 62
7
  6
BYLAYER
 10
73.3830427473
 20
175.858999051
 11
73.3830427473
 21
174.358999051
  0
LINE
  5
2EE
100
AcDbEntity
  8
0
100
AcDbLine
 62
7
  6
BYLAYER
 10
73.3830427473
 20
35.8589949945
 11
73.3830427473
 21
34.3589949945
  0
LINE
  5
2EF
100
AcDbEntity
  8
0
100
AcDbLine
 62
7
  6
BYLAYER
 10
75.221388467
 20
57.6422181378
 11
75.221388467
 21
56.6422181378
  0
LINE
  5
2F0
100
AcDbEntity
  8
0
100
AcDbLine
 62
7
  6
BYLAYER
 10
75.6330427473
 20
178.108999051
 11
75.6330427473
 21
175.858999051
  0
LINE
  5
2F1
100
AcDbEntity
  8
0
100
AcDbLine
 62
7
  6
BYLAYER
 10
75.6330427473
 20
174.358999051
 11
75.6330427473
 21
172.108999051
  0
LINE
  5
2F2
100
AcDbEntity
  8
0
100
AcDbLine
 62
7
  6
BYLAYER
 10
75.6330427473
 20
37.9630935805
 11
75.6330427473
 21
35.8589949945
  0
LINE
  5
2F3
100
AcDbEntity
  8
0
100
AcDbLine
 62
7
  6
BYLAYER
 10
75.6330427473
 20
34.3589949945
 11
75.6330427473
 21
32.1089949945
  0
LINE
  5
2F4
100
AcDbEntity
  8
0
100
AcDbLine
 62
7
  6
BYLAYER
 10
75.698654573
 20
46.4322463558
 11
75.698654573
 21
45.4322463558
  0
LINE
  5
2F5
100
AcDbEntity
  8
0
100
AcDbLine
 62
7
  6
BYLAYER
 10
76.721388467
 20
59.1422181378
 11
76.721388467
 21
57.6422181378
  0
LINE
  5
2F6
100
AcDbEntity
  8
0
100
AcDbLine
 62
7
  6
BYLAYER
 10
76.721388467
 20
56.6422181378
 11
76.721388467
 21
55.1422181378
  0
LINE
  5
2F7
100
AcDbEntity
  8
0
100
AcDbLine
 62
7
  6
BYLAYER
 10
76.8056121226
 20
85.2226952801
 11
76.8056121226
 21
96.7029809311
  0
LINE
  5
2F8
100
AcDbEntity
  8
0
100
AcDbLine
 62
7
  6
BYLAYER
 10
77.1330427473
 20
32.1089949945
 11
77.1330427473
 21
34.3589949945
  0
LINE
  5
2F9
100
AcDbEntity
  8
0
100
AcDbLine
 62
7
  6
BYLAYER
 10
77.1330427473
 20
35.8589949945
 11
77.1330427473
 21
37.9630935805
  0
LINE
  5
2FA
100
AcDbEntity
  8
0
100
AcDbLine
 62
7
  6
BYLAYER
 10
77.1330427473
 20
172.108999051
 11
77.1330427473
 21
174.358999051
  0
LINE
  5
2FB
100
AcDbEntity
  8
0
100
AcDbLine
 62
7
  6
BYLAYER
 10
77.1330427473
 20
175.858999051
 11
77.1330427473
 21
178.108999051
  0
LINE
  5
2FC
100
AcDbEntity
  8
0
100
AcDbLine
 62
7
  6
BYLAYER
 10
77.198654573
 20
47.9322463558
 11
77.198654573
 21
46.4322463558
  0
LINE
  5
2FD
100
AcDbEntity
  8
0
100
AcDbLine
 62
7
  6
BYLAYER
 10
77.198654573
 20
45.4322463558
 11
77.198654573
 21
43.9322463558
  0
LINE
  5
2FE
100
AcDbEntity
  8
0
100
AcDbLine
 62
7
  6
BYLAYER
 10
77.721388467
 20
55.1422181378
 11
77.721388467
 21
56.6422181378
  0
LINE
  5
2FF
100
AcDbEntity
  8
0
100
AcDbLine
 62
7
  6
BYLAYER
 10
77.721388467
 20
57.6422181378
 11
77.721388467
 21
59.1422181378
  0
LINE
  5
300
100
AcDbEntity
  8
0
100
AcDbLine
 62
7
  6
BYLAYER
 10
78.198654573
 20
43.9322463558
 11
78.198654573
 21
45.4322463558
  0
LINE
  5
301
100
AcDbEntity
  8
0
100
AcDbLine
 62
7
  6
BYLAYER
 10
78.198654573
 20
46.4322463558
 11
78.198654573
 21
47.9322463558
  0
LINE
  5
302
100
AcDbEntity
  8
0
100
AcDbLine
 62
7
  6
BYLAYER
 10
79.221388467
 20
56.6422181378
 11
79.221388467
 21
57.6422181378
  0
LINE
  5
303
100
AcDbEntity
  8
0
100
AcDbLine
 62
7
  6
BYLAYER
 10
79.3830427473
 20
34.3589949945
 11
79.3830427473
 21
35.8589949945
  0
LINE
  5
304
100
AcDbEntity
  8
0
100
AcDbLine
 62
7
  6
BYLAYER
 10
79.3830427473
 20
174.358999051
 11
79.3830427473
 21
175.858999051
  0
LINE
  5
305
100
AcDbEntity
  8
0
100
AcDbLine
 62
7
  6
BYLAYER
 10
79.698654573
 20
45.4322463558
 11
79.698654573
 21
46.4322463558
  0
LINE
  5
306
100
AcDbEntity
  8
0
100
AcDbLine
 62
7
  6
BYLAYER
 10
80.9363180599
 20
172.2089970228
 11
80.9363180599
 21
164.2089970228
  0
LINE
  5
307
100
AcDbEntity
  8
0
100
AcDbLine
 62
7
  6
BYLAYER
 10
81.15894635
 20
89.2033116108
 11
81.15894635
 21
85.2226952801
  0
LINE
  5
308
100
AcDbEntity
  8
0
100
AcDbLine
 62
7
  6
BYLAYER
 10
81.3375412921
 20
76.3976635522
 11
81.3375412921
 21
75.3976635522
  0
LINE
  5
309
100
AcDbEntity
  8
0
100
AcDbLine
 62
7
  6
BYLAYER
 10
82.6591329191
 20
85.7031703613
 11
82.6591322189
 21
88.4028212859
  0
LINE
  5
30A
100
AcDbEntity
  8
0
100
AcDbLine
 62
7
  6
BYLAYER
 10
82.8375412921
 20
77.8976635522
 11
82.8375412921
 21
76.3976635522
  0
LINE
  5
30B
100
AcDbEntity
  8
0
100
AcDbLine
 62
7
  6
BYLAYER
 10
82.8375412921
 20
75.3976635522
 11
82.8375412921
 21
73.8976635522
  0
LINE
  5
30C
100
AcDbEntity
  8
0
100
AcDbLine
 62
7
  6
BYLAYER
 10
83.3363180599
 20
28.1089931332
 11
83.3363180599
 21
26.7517970227
  0
LINE
  5
30D
100
AcDbEntity
  8
0
100
AcDbLine
 62
7
  6
BYLAYER
 10
83.4442860135
 20
57.5821914101
 11
83.4442860135
 21
56.5821914101
  0
LINE
  5
30E
100
AcDbEntity
  8
0
100
AcDbLine
 62
7
  6
BYLAYER
 10
60.0659488393
 20
110.1086003743
 11
93.3066771699
 21
110.1086003743
  0
LINE
  5
30F
100
AcDbEntity
  8
0
100
AcDbLine
 62
7
  6
BYLAYER
 10
83.8375412921
 20
73.8976635522
 11
83.8375412921
 21
75.3976635522
  0
LINE
  5
310
100
AcDbEntity
  8
0
100
AcDbLine
 62
7
  6
BYLAYER
 10
83.8375412921
 20
76.3976635522
 11
83.8375412921
 21
77.8976635522
  0
LINE
  5
311
100
AcDbEntity
  8
0
100
AcDbLine
 62
7
  6
BYLAYER
 10
83.9149699825
 20
46.4322463558
 11
83.9149699825
 21
45.4322463558
  0
LINE
  5
312
100
AcDbEntity
  8
0
100
AcDbLine
 62
7
  6
BYLAYER
 10
84.9442860135
 20
59.0821914101
 11
84.9442860135
 21
57.5821914101
  0
LINE
  5
313
100
AcDbEntity
  8
0
100
AcDbLine
 62
7
  6
BYLAYER
 10
84.9442860135
 20
56.5821914101
 11
84.9442860135
 21
55.0821914101
  0
LINE
  5
314
100
AcDbEntity
  8
0
100
AcDbLine
 62
7
  6
BYLAYER
 10
85.3375412921
 20
75.3976635522
 11
85.3375412921
 21
76.3976635522
  0
LINE
  5
315
100
AcDbEntity
  8
0
100
AcDbLine
 62
7
  6
BYLAYER
 10
85.4149699825
 20
47.9322463558
 11
85.4149699825
 21
46.4322463558
  0
LINE
  5
316
100
AcDbEntity
  8
0
100
AcDbLine
 62
7
  6
BYLAYER
 10
85.4149699825
 20
45.4322463558
 11
85.4149699825
 21
43.9322463558
  0
LINE
  5
317
100
AcDbEntity
  8
0
100
AcDbLine
 62
7
  6
BYLAYER
 10
85.6595053315
 20
88.4028206321
 11
85.6595041779
 21
85.7031697074
  0
LINE
  5
318
100
AcDbEntity
  8
0
100
AcDbLine
 62
7
  6
BYLAYER
 10
85.9442860135
 20
55.0821914101
 11
85.9442860135
 21
56.5821914101
  0
LINE
  5
319
100
AcDbEntity
  8
0
100
AcDbLine
 62
7
  6
BYLAYER
 10
85.9442860135
 20
57.5821914101
 11
85.9442860135
 21
59.0821914101
  0
LINE
  5
31A
100
AcDbEntity
  8
0
100
AcDbLine
 62
7
  6
BYLAYER
 10
86.3362438552
 20
182.1089970228
 11
86.3362438552
 21
194.6089970228
  0
LINE
  5
31B
100
AcDbEntity
  8
0
100
AcDbLine
 62
7
  6
BYLAYER
 10
86.4149699825
 20
43.9322463558
 11
86.4149699825
 21
45.4322463558
  0
LINE
  5
31C
100
AcDbEntity
  8
0
100
AcDbLine
 62
7
  6
BYLAYER
 10
86.4149699825
 20
46.4322463558
 11
86.4149699825
 21
47.9322463558
  0
LINE
  5
31D
100
AcDbEntity
  8
0
100
AcDbLine
 62
7
  6
BYLAYER
 10
87.1596897698
 20
85.2226952801
 11
87.1596897698
 21
89.2033116108
  0
LINE
  5
31E
100
AcDbEntity
  8
0
100
AcDbLine
 62
7
  6
BYLAYER
 10
87.2114512613
 20
175.858999051
 11
87.2114512613
 21
174.358999051
  0
LINE
  5
31F
100
AcDbEntity
  8
0
100
AcDbLine
 62
7
  6
BYLAYER
 10
87.2114512613
 20
35.8589949945
 11
87.2114512613
 21
34.3589949945
  0
LINE
  5
320
100
AcDbEntity
  8
0
100
AcDbLine
 62
7
  6
BYLAYER
 10
87.4442860135
 20
56.5821914101
 11
87.4442860135
 21
57.5821914101
  0
LINE
  5
321
100
AcDbEntity
  8
0
100
AcDbLine
 62
7
  6
BYLAYER
 10
87.9149699825
 20
45.4322463558
 11
87.9149699825
 21
46.4322463558
  0
LINE
  5
322
100
AcDbEntity
  8
0
100
AcDbLine
 62
7
  6
BYLAYER
 10
89.4365719575
 20
187.1091669227
 11
89.4365719575
 21
189.6089167012
  0
LINE
  5
323
100
AcDbEntity
  8
0
100
AcDbLine
 62
7
  6
BYLAYER
 10
89.4614512613
 20
178.108999051
 11
89.4614512613
 21
175.858999051
  0
LINE
  5
324
100
AcDbEntity
  8
0
100
AcDbLine
 62
7
  6
BYLAYER
 10
89.4614512613
 20
174.358999051
 11
89.4614512613
 21
172.2089970228
  0
LINE
  5
325
100
AcDbEntity
  8
0
100
AcDbLine
 62
7
  6
BYLAYER
 10
89.4614512613
 20
37.9630935805
 11
89.4614512613
 21
35.8589949945
  0
LINE
  5
326
100
AcDbEntity
  8
0
100
AcDbLine
 62
7
  6
BYLAYER
 10
89.4614512613
 20
34.3589949945
 11
89.4614512613
 21
32.1089949945
  0
LINE
  5
327
100
AcDbEntity
  8
0
100
AcDbLine
 62
7
  6
BYLAYER
 10
98.5363180599
 20
116.1114970227
 11
98.4063180599
 21
116.1114970227
  0
LINE
  5
328
100
AcDbEntity
  8
0
100
AcDbLine
 62
7
  6
BYLAYER
 10
90.9614512613
 20
32.1089949945
 11
90.9614512613
 21
34.3589949945
  0
LINE
  5
329
100
AcDbEntity
  8
0
100
AcDbLine
 62
7
  6
BYLAYER
 10
90.9614512613
 20
35.8589949945
 11
90.9614512613
 21
37.9630935805
  0
LINE
  5
32A
100
AcDbEntity
  8
0
100
AcDbLine
 62
7
  6
BYLAYER
 10
90.9614512613
 20
172.2089970228
 11
90.9614512613
 21
174.358999051
  0
LINE
  5
32B
100
AcDbEntity
  8
0
100
AcDbLine
 62
7
  6
BYLAYER
 10
90.9614512613
 20
175.858999051
 11
90.9614512613
 21
178.108999051
  0
LINE
  5
32C
100
AcDbEntity
  8
0
100
AcDbLine
 62
7
  6
BYLAYER
 10
91.6490843616
 20
57.5821914101
 11
91.6490843616
 21
56.5821914101
  0
LINE
  5
32D
100
AcDbEntity
  8
0
100
AcDbLine
 62
7
  6
BYLAYER
 10
91.659407365
 20
85.2226952801
 11
91.659407365
 21
96.7029809311
  0
LINE
  5
32E
100
AcDbEntity
  8
0
100
AcDbLine
 62
7
  6
BYLAYER
 10
91.9397080038
 20
76.3976635522
 11
91.9397080038
 21
75.3976635522
  0
LINE
  5
32F
100
AcDbEntity
  8
0
100
AcDbLine
 62
7
  6
BYLAYER
 10
92.1346338445
 20
46.4322463558
 11
92.1346338445
 21
45.4322463558
  0
LINE
  5
330
100
AcDbEntity
  8
0
100
AcDbLine
 62
7
  6
BYLAYER
 10
93.1490843616
 20
59.0821914101
 11
93.1490843616
 21
57.5821914101
  0
LINE
  5
331
100
AcDbEntity
  8
0
100
AcDbLine
 62
7
  6
BYLAYER
 10
93.1490843616
 20
56.5821914101
 11
93.1490843616
 21
55.0821914101
  0
LINE
  5
332
100
AcDbEntity
  8
0
100
AcDbLine
 62
7
  6
BYLAYER
 10
93.2114512613
 20
34.3589949945
 11
93.2114512613
 21
35.8589949945
  0
LINE
  5
333
100
AcDbEntity
  8
0
100
AcDbLine
 62
7
  6
BYLAYER
 10
93.2114512613
 20
174.358999051
 11
93.2114512613
 21
175.858999051
  0
LINE
  5
334
100
AcDbEntity
  8
0
100
AcDbLine
 62
7
  6
BYLAYER
 10
93.3066771699
 20
110.1086003743
 11
93.3066771699
 21
124.6089970227
  0
LINE
  5
335
100
AcDbEntity
  8
0
100
AcDbLine
 62
7
  6
BYLAYER
 10
93.4397080038
 20
77.8976635522
 11
93.4397080038
 21
76.3976635522
  0
LINE
  5
336
100
AcDbEntity
  8
0
100
AcDbLine
 62
7
  6
BYLAYER
 10
93.4397080038
 20
75.3976635522
 11
93.4397080038
 21
73.8976635522
  0
LINE
  5
337
100
AcDbEntity
  8
0
100
AcDbLine
 62
7
  6
BYLAYER
 10
93.6346338445
 20
47.9322463558
 11
93.6346338445
 21
46.4322463558
  0
LINE
  5
338
100
AcDbEntity
  8
0
100
AcDbLine
 62
7
  6
BYLAYER
 10
93.6346338445
 20
45.4322463558
 11
93.6346338445
 21
43.9322463558
  0
LINE
  5
339
100
AcDbEntity
  8
0
100
AcDbLine
 62
7
  6
BYLAYER
 10
93.6364203756
 20
189.6089167012
 11
93.6364203756
 21
187.1091669227
  0
LINE
  5
33A
100
AcDbEntity
  8
0
100
AcDbLine
 62
7
  6
BYLAYER
 10
94.1490843616
 20
55.0821914101
 11
94.1490843616
 21
56.5821914101
  0
LINE
  5
33B
100
AcDbEntity
  8
0
100
AcDbLine
 62
7
  6
BYLAYER
 10
94.1490843616
 20
57.5821914101
 11
94.1490843616
 21
59.0821914101
  0
LINE
  5
33C
100
AcDbEntity
  8
0
100
AcDbLine
 62
7
  6
BYLAYER
 10
94.4397080038
 20
73.8976635522
 11
94.4397080038
 21
75.3976635522
  0
LINE
  5
33D
100
AcDbEntity
  8
0
100
AcDbLine
 62
7
  6
BYLAYER
 10
94.4397080038
 20
76.3976635522
 11
94.4397080038
 21
77.8976635522
  0
LINE
  5
33E
100
AcDbEntity
  8
0
100
AcDbLine
 62
7
  6
BYLAYER
 10
94.6346338445
 20
43.9322463558
 11
94.6346338445
 21
45.4322463558
  0
LINE
  5
33F
100
AcDbEntity
  8
0
100
AcDbLine
 62
7
  6
BYLAYER
 10
94.6346338445
 20
46.4322463558
 11
94.6346338445
 21
47.9322463558
  0
LINE
  5
340
100
AcDbEntity
  8
0
100
AcDbLine
 62
7
  6
BYLAYER
 10
95.6490843616
 20
56.5821914101
 11
95.6490843616
 21
57.5821914101
  0
LINE
  5
341
100
AcDbEntity
  8
0
100
AcDbLine
 62
7
  6
BYLAYER
 10
97.270855853
 20
136.2147119064
 11
97.2863180599
 21
129.0154262213
  0
LINE
  5
342
100
AcDbEntity
  8
0
100
AcDbLine
 62
7
  6
BYLAYER
 10
95.9397080038
 20
75.3976635522
 11
95.9397080038
 21
76.3976635522
  0
LINE
  5
343
100
AcDbEntity
  8
0
100
AcDbLine
 62
7
  6
BYLAYER
 10
96.1346338445
 20
45.4322463558
 11
96.1346338445
 21
46.4322463558
  0
LINE
  5
344
100
AcDbEntity
  8
0
100
AcDbLine
 62
7
  6
BYLAYER
 10
96.4538970082
 20
128.3830464144
 11
96.4538970082
 21
98.3796227491
  0
LINE
  5
345
100
AcDbEntity
  8
0
100
AcDbLine
 62
7
  6
BYLAYER
 10
96.7367484779
 20
182.1089970228
 11
96.7367484779
 21
194.6089970228
  0
LINE
  5
346
100
AcDbEntity
  8
0
100
AcDbLine
 62
7
  6
BYLAYER
 10
97.2863180599
 20
129.0154262213
 11
97.2863180599
 21
82.852010388
  0
LINE
  5
347
100
AcDbEntity
  8
0
100
AcDbLine
 62
7
  6
BYLAYER
 10
98.4063180599
 20
86.4089970227
 11
98.4063180599
 21
136.2125686074
  0
LINE
  5
348
100
AcDbEntity
  8
0
100
AcDbLine
 62
7
  6
BYLAYER
 10
98.5363180599
 20
37.9630935805
 11
98.5363180599
 21
134.6383673735
  0
LINE
  5
349
100
AcDbEntity
  8
0
100
AcDbLine
 62
7
  6
BYLAYER
 10
98.6363180599
 20
182.1089970228
 11
98.6363180599
 21
172.2089970228
  0
LINE
  5
34A
100
AcDbEntity
  8
0
100
AcDbLine
 62
7
  6
BYLAYER
 10
98.6363180599
 20
164.2089970228
 11
98.6363180599
 21
28.1089931332
  0
LINE
  5
34B
100
AcDbEntity
  8
0
100
AcDbLine
 62
7
  6
BYLAYER
 10
98.9363180599
 20
172.2089970228
 11
98.9363180599
 21
164.2089970228
  0
LINE
  5
34C
100
AcDbEntity
  8
0
100
AcDbLine
 62
7
  6
BYLAYER
 10
93.3066771699
 20
124.6089970227
 11
60.0659488393
 21
124.6089970227
  0
LINE
  5
34D
100
AcDbEntity
  8
0
100
AcDbLine
 62
7
  6
BYLAYER
 10
55.8565166645
 20
128.3830464144
 11
96.4538970082
 21
128.3830464144
  0
LINE
  5
34E
100
AcDbEntity
  8
0
100
AcDbLine
 62
7
  6
BYLAYER
 10
54.2063180599
 20
129.015426413
 11
98.4063180599
 21
129.0154262213
  0
LINE
  5
34F
100
AcDbEntity
  8
0
100
AcDbLine
 62
7
  6
BYLAYER
 10
68.9931693774
 20
131.2154262213
 11
63.5000685123
 21
131.2154262213
  0
LINE
  5
350
100
AcDbEntity
  8
0
100
AcDbLine
 62
7
  6
BYLAYER
 10
63.561405451
 20
131.6881877324
 11
68.9931693774
 21
131.6881877324
  0
LINE
  5
351
100
AcDbEntity
  8
0
100
AcDbLine
 62
7
  6
BYLAYER
 10
68.9931693774
 20
133.2131877324
 11
63.561405451
 21
133.2131877324
  0
LINE
  5
352
100
AcDbEntity
  8
0
100
AcDbLine
 62
7
  6
BYLAYER
 10
54.1363180599
 20
134.6383673735
 11
54.2063180599
 21
134.6383673735
  0
LINE
  5
353
100
AcDbEntity
  8
0
100
AcDbLine
 62
7
  6
BYLAYER
 10
63.5000685123
 20
134.6383673735
 11
68.9931693774
 21
134.6383673735
  0
LINE
  5
354
100
AcDbEntity
  8
0
100
AcDbLine
 62
7
  6
BYLAYER
 10
98.4063180599
 20
134.6383673735
 11
98.6363180599
 21
134.6383673735
  0
LINE
  5
355
100
AcDbEntity
  8
0
100
AcDbLine
 62
7
  6
BYLAYER
 10
97.2709535444
 20
136.2154262213
 11
68.9931693774
 21
136.2154262213
  0
LINE
  5
356
100
AcDbEntity
  8
0
100
AcDbLine
 62
7
  6
BYLAYER
 10
63.5000685123
 20
136.2154262213
 11
54.2063180599
 21
136.2154262213
  0
LINE
  5
357
100
AcDbEntity
  8
0
100
AcDbLine
 62
7
  6
BYLAYER
 10
83.8280035659
 20
154.2699271071
 11
59.2217882044
 21
154.5687355247
  0
LINE
  5
358
100
AcDbEntity
  8
0
100
AcDbLine
 62
7
  6
BYLAYER
 10
98.9363180599
 20
164.2089970228
 11
80.9363180599
 21
164.2089970228
  0
LINE
  5
359
100
AcDbEntity
  8
0
100
AcDbLine
 62
7
  6
BYLAYER
 10
59.3118825763
 20
162.0225732774
 11
83.9181234862
 21
161.7266602378
  0
LINE
  5
35A
100
AcDbEntity
  8
0
100
AcDbLine
 62
7
  6
BYLAYER
 10
54.1363180599
 20
169.7089970228
 11
80.9363180599
 21
169.7089970228
  0
LINE
  5
35B
100
AcDbEntity
  8
0
100
AcDbLine
 62
7
  6
BYLAYER
 10
62.4477964213
 20
172.108999051
 11
63.9477964213
 21
172.108999051
  0
LINE
  5
35C
100
AcDbEntity
  8
0
100
AcDbLine
 62
7
  6
BYLAYER
 10
75.6330427473
 20
172.108999051
 11
77.1330427473
 21
172.108999051
  0
LINE
  5
35D
100
AcDbEntity
  8
0
100
AcDbLine
 62
7
  6
BYLAYER
 10
98.9363180599
 20
172.2089970228
 11
80.9363180599
 21
172.2089970228
  0
LINE
  5
35E
100
AcDbEntity
  8
0
100
AcDbLine
 62
7
  6
BYLAYER
 10
60.1977964213
 20
174.358999051
 11
62.4477964213
 21
174.358999051
  0
LINE
  5
35F
100
AcDbEntity
  8
0
100
AcDbLine
 62
7
  6
BYLAYER
 10
63.9477964213
 20
174.358999051
 11
66.1977964213
 21
174.358999051
  0
LINE
  5
360
100
AcDbEntity
  8
0
100
AcDbLine
 62
7
  6
BYLAYER
 10
73.3830427473
 20
174.358999051
 11
75.6330427473
 21
174.358999051
  0
LINE
  5
361
100
AcDbEntity
  8
0
100
AcDbLine
 62
7
  6
BYLAYER
 10
77.1330427473
 20
174.358999051
 11
79.3830427473
 21
174.358999051
  0
LINE
  5
362
100
AcDbEntity
  8
0
100
AcDbLine
 62
7
  6
BYLAYER
 10
87.2114512613
 20
174.358999051
 11
89.4614512613
 21
174.358999051
  0
LINE
  5
363
100
AcDbEntity
  8
0
100
AcDbLine
 62
7
  6
BYLAYER
 10
90.9614512613
 20
174.358999051
 11
93.2114512613
 21
174.358999051
  0
LINE
  5
364
100
AcDbEntity
  8
0
100
AcDbLine
 62
7
  6
BYLAYER
 10
93.2114512613
 20
175.858999051
 11
90.9614512613
 21
175.858999051
  0
LINE
  5
365
100
AcDbEntity
  8
0
100
AcDbLine
 62
7
  6
BYLAYER
 10
89.4614512613
 20
175.858999051
 11
87.2114512613
 21
175.858999051
  0
LINE
  5
366
100
AcDbEntity
  8
0
100
AcDbLine
 62
7
  6
BYLAYER
 10
79.3830427473
 20
175.858999051
 11
77.1330427473
 21
175.858999051
  0
LINE
  5
367
100
AcDbEntity
  8
0
100
AcDbLine
 62
7
  6
BYLAYER
 10
75.6330427473
 20
175.858999051
 11
73.3830427473
 21
175.858999051
  0
LINE
  5
368
100
AcDbEntity
  8
0
100
AcDbLine
 62
7
  6
BYLAYER
 10
66.1977964213
 20
175.858999051
 11
63.9477964213
 21
175.858999051
  0
LINE
  5
369
100
AcDbEntity
  8
0
100
AcDbLine
 62
7
  6
BYLAYER
 10
62.4477964213
 20
175.858999051
 11
60.1977964213
 21
175.858999051
  0
LINE
  5
36A
100
AcDbEntity
  8
0
100
AcDbLine
 62
7
  6
BYLAYER
 10
90.9614512613
 20
178.108999051
 11
89.4614512613
 21
178.108999051
  0
LINE
  5
36B
100
AcDbEntity
  8
0
100
AcDbLine
 62
7
  6
BYLAYER
 10
77.1330427473
 20
178.108999051
 11
75.6330427473
 21
178.108999051
  0
LINE
  5
36C
100
AcDbEntity
  8
0
100
AcDbLine
 62
7
  6
BYLAYER
 10
63.9477964213
 20
178.108999051
 11
62.4477964213
 21
178.108999051
  0
LINE
  5
36D
100
AcDbEntity
  8
0
100
AcDbLine
 62
7
  6
BYLAYER
 10
54.1363180599
 20
182.1089970228
 11
98.6363180599
 21
182.1089970228
  0
LINE
  5
36E
100
AcDbEntity
  8
0
100
AcDbLine
 62
7
  6
BYLAYER
 10
86.3362438552
 20
194.6089970228
 11
96.7367484779
 21
194.6089970228
  0
ARC
  5
36F
100
AcDbEntity
  8
0
100
AcDbCircle
 62
7
  6
BYLAYER
 10
76.5363180599
 20
50.8092283071
 40
25.0
100
AcDbArc
 50
254.2166867709
 51
285.7833132291
  0
ARC
  5
370
100
AcDbEntity
  8
0
100
AcDbCircle
 62
7
  6
BYLAYER
 10
76.4036180599
 20
35.1464970227
 40
3.94305
100
AcDbArc
 50
130.6895237219
 51
49.1392973992
  0
ARC
  5
371
100
AcDbEntity
  8
0
100
AcDbCircle
 62
7
  6
BYLAYER
 10
63.2511703423
 20
35.1464970227
 40
3.94305
100
AcDbArc
 50
130.6895237219
 51
48.2796814996
  0
CIRCLE
  5
372
100
AcDbEntity
  8
0
100
AcDbCircle
 62
7
  6
BYLAYER
 10
59.3245335293
 20
45.9322463558
 40
2.7217234316
  0
CIRCLE
  5
373
100
AcDbEntity
  8
0
100
AcDbCircle
 62
7
  6
BYLAYER
 10
69.5020546117
 20
45.9322463558
 40
2.7217234316
  0
CIRCLE
  5
374
100
AcDbEntity
  8
0
100
AcDbCircle
 62
7
  6
BYLAYER
 10
69.1242003886
 20
57.0821914101
 40
2.7217234316
  0
CIRCLE
  5
375
100
AcDbEntity
  8
0
100
AcDbCircle
 62
7
  6
BYLAYER
 10
59.217013956
 20
57.0821914101
 40
2.7217234316
  0
CIRCLE
  5
376
100
AcDbEntity
  8
0
100
AcDbCircle
 62
7
  6
BYLAYER
 10
70.0219656315
 20
75.8976635522
 40
2.7217234316
  0
CIRCLE
  5
377
100
AcDbEntity
  8
0
100
AcDbCircle
 62
7
  6
BYLAYER
 10
59.4363180599
 20
75.8976635522
 40
2.7217234316
  0
CIRCLE
  5
378
100
AcDbEntity
  8
0
100
AcDbCircle
 62
7
  6
BYLAYER
 10
72.1320848972
 20
104.4094060708
 40
2.6753000415
  0
CIRCLE
  5
379
100
AcDbEntity
  8
0
100
AcDbCircle
 62
7
  6
BYLAYER
 10
63.0477144145
 20
104.4094060708
 40
2.6753000415
  0
ARC
  5
37A
100
AcDbEntity
  8
0
100
AcDbCircle
 62
7
  6
BYLAYER
 10
61.5361390964
 20
22.6089167012
 40
2.0999242091
100
AcDbArc
 50
0.0000000003
 51
179.9999999997
  0
ARC
  5
37B
100
AcDbEntity
  8
0
100
AcDbCircle
 62
7
  6
BYLAYER
 10
61.5361390964
 20
20.1091669227
 40
2.0999242091
100
AcDbArc
 50
180.0000000003
 51
359.9999999997
  0
ARC
  5
37C
100
AcDbEntity
  8
0
100
AcDbCircle
 62
7
  6
BYLAYER
 10
65.9756180599
 20
158.2145970228
 40
18.283
100
AcDbArc
 50
347.5401065434
 51
11.075040435
  0
ARC
  5
37D
100
AcDbEntity
  8
0
100
AcDbCircle
 62
7
  6
BYLAYER
 10
66.4363180599
 20
158.2089970228
 40
8.2972614142
100
AcDbArc
 50
26.0072223213
 51
332.6082760177
  0
ARC
  5
37E
100
AcDbEntity
  8
0
100
AcDbCircle
 62
7
  6
BYLAYER
 10
66.4363180599
 20
158.2089970228
 40
8.0809
100
AcDbArc
 50
151.8406947557
 51
206.7743070521
  0
CIRCLE
  5
37F
100
AcDbEntity
  8
0
100
AcDbCircle
 62
7
  6
BYLAYER
 10
63.2511703423
 20
175.1487970228
 40
3.94305
  0
CIRCLE
  5
380
100
AcDbEntity
  8
0
100
AcDbCircle
 62
7
  6
BYLAYER
 10
76.4153180599
 20
175.1487970228
 40
3.94305
  0
ARC
  5
381
100
AcDbEntity
  8
0
100
AcDbCircle
 62
7
  6
BYLAYER
 10
90.184778825
 20
35.1464970227
 40
3.94305
100
AcDbArc
 50
130.6895237219
 51
49.1392973992
  0
CIRCLE
  5
382
100
AcDbEntity
  8
0
100
AcDbCircle
 62
7
  6
BYLAYER
 10
77.698654573
 20
45.9322463558
 40
2.7217234316
  0
CIRCLE
  5
383
100
AcDbEntity
  8
0
100
AcDbCircle
 62
7
  6
BYLAYER
 10
85.9149699825
 20
45.9322463558
 40
2.7217234316
  0
CIRCLE
  5
384
100
AcDbEntity
  8
0
100
AcDbCircle
 62
7
  6
BYLAYER
 10
94.1346338445
 20
45.9322463558
 40
2.7217234316
  0
CIRCLE
  5
385
100
AcDbEntity
  8
0
100
AcDbCircle
 62
7
  6
BYLAYER
 10
93.7290843616
 20
57.0821914101
 40
2.7217234316
  0
CIRCLE
  5
386
100
AcDbEntity
  8
0
100
AcDbCircle
 62
7
  6
BYLAYER
 10
85.5242860135
 20
57.0821914101
 40
2.7217234316
  0
CIRCLE
  5
387
100
AcDbEntity
  8
0
100
AcDbCircle
 62
7
  6
BYLAYER
 10
77.3223795148
 20
57.0821914101
 40
2.7217234316
  0
CIRCLE
  5
388
100
AcDbEntity
  8
0
100
AcDbCircle
 62
7
  6
BYLAYER
 10
93.9397080038
 20
75.8976635522
 40
2.7217234316
  0
CIRCLE
  5
389
100
AcDbEntity
  8
0
100
AcDbCircle
 62
7
  6
BYLAYER
 10
83.3375412921
 20
75.8976635522
 40
2.7217234316
  0
CIRCLE
  5
38A
100
AcDbEntity
  8
0
100
AcDbCircle
 62
7
  6
BYLAYER
 10
90.3291292571
 20
104.4094060708
 40
2.6753000415
  0
CIRCLE
  5
38B
100
AcDbEntity
  8
0
100
AcDbCircle
 62
7
  6
BYLAYER
 10
81.2378835976
 20
104.4094060708
 40
2.6753000415
  0
ARC
  5
38C
100
AcDbEntity
  8
0
100
AcDbCircle
 62
7
  6
BYLAYER
 10
90.184778825
 20
175.1487970228
 40
3.94305
100
AcDbArc
 50
309.0174960025
 51
230.8130749822
  0
ARC
  5
38D
100
AcDbEntity
  8
0
100
AcDbCircle
 62
7
  6
BYLAYER
 10
91.5364961666
 20
189.6089167012
 40
2.0999242091
100
AcDbArc
 50
0.0000000003
 51
179.9999999998
  0
ARC
  5
38E
100
AcDbEntity
  8
0
100
AcDbCircle
 62
7
  6
BYLAYER
 10
91.5364961666
 20
187.1091669227
 40
2.0999242091
100
AcDbArc
 50
180.0000000003
 51
359.9999999998
  0
SPLINE
  5
38F
100
AcDbEntity
  8
0
100
AcDbSpline
 62
7
  6
BYLAYER
 70
0
 71
3
 72
9
 73
5
 74
0
 42
0.0000001
 43
0.0000001
 44
0.0000000001
 40
0.0
 40
0.0
 40
0.0
 40
0.0
 40
0.5
 40
1.0
 40
1.0
 40
1.0
 40
1.0
 10
67.0500080233
 20
50.5845591511
 30
0.0
 10
67.0500080151
 20
49.8639210784
 30
0.0
 10
66.8147572041
 20
48.4233962048
 30
0.0
 10
66.1642628622
 20
47.3188601144
 30
0.0
 10
65.7728768296
 20
46.9149068404
 30
0.0
  0
SPLINE
  5
390
100
AcDbEntity
  8
0
100
AcDbSpline
 62
7
  6
BYLAYER
 70
0
 71
3
 72
15
 73
11
 74
0
 42
0.0000001
 43
0.0000001
 44
0.0000000001
 40
0.0
 40
0.0
 40
0.0
 40
0.0
 40
0.125
 40
0.25
 40
0.375
 40
0.5
 40
0.625
 40
0.75
 40
0.875
 40
1.0
 40
1.0
 40
1.0
 40
1.0
 10
61.2376080233
 20
50.5845591254
 30
0.0
 10
61.2376080145
 20
51.1646149465
 30
0.0
 10
61.3889283956
 20
52.3244561847
 30
0.0
 10
62.0353144282
 20
53.7995464212
 30
0.0
 10
63.0026995054
 20
54.7851269321
 30
0.0
 10
64.1438080147
 20
55.131225374
 30
0.0
 10
65.2849165253
 20
54.7851269422
 30
0.0
 10
66.2523016062
 20
53.7995464398
 30
0.0
 10
66.8986876445
 20
52.3244562091
 30
0.0
 10
67.05000803
 20
51.1646149722
 30
0.0
 10
67.0500080233
 20
50.5845591511
 30
0.0
  0
SPLINE
  5
391
100
AcDbEntity
  8
0
100
AcDbSpline
 62
7
  6
BYLAYER
 70
0
 71
3
 72
9
 73
5
 74
0
 42
0.0000001
 43
0.0000001
 44
0.0000000001
 40
0.0
 40
0.0
 40
0.0
 40
0.0
 40
0.5
 40
1.0
 40
1.0
 40
1.0
 40
1.0
 10
62.7729778413
 20
46.6772002615
 30
0.0
 10
62.3118891416
 20
47.0532940268
 30
0.0
 10
61.5269061783
 20
48.1938407335
 30
0.0
 10
61.2376080355
 20
49.7872293647
 30
0.0
 10
61.2376080233
 20
50.5845591254
 30
0.0
  0
SPLINE
  5
392
100
AcDbEntity
  8
0
100
AcDbSpline
 62
7
  6
BYLAYER
 70
0
 71
3
 72
19
 73
15
 74
0
 42
0.0000001
 43
0.0000001
 44
0.0000000001
 40
0.0
 40
0.0
 40
0.0
 40
0.0
 40
0.0516895633
 40
0.1053507103
 40
0.162259376
 40
0.2232187081
 40
0.3564672638
 40
0.4999879647
 40
0.6435089547
 40
0.7767649405
 40
0.8377297025
 40
0.8946444291
 40
0.9483096058
 40
1.0
 40
1.0
 40
1.0
 40
1.0
 10
63.3462496597
 20
95.6244137397
 30
0.0
 10
63.3462496597
 20
95.5316352784
 30
0.0
 10
63.3733842902
 20
95.3416169031
 30
0.0
 10
63.4910308524
 20
95.0718490849
 30
0.0
 10
63.6803078375
 20
94.8255549235
 30
0.0
 10
64.0259933762
 20
94.5320999142
 30
0.0
 10
64.5894842961
 20
94.2773729931
 30
0.0
 10
65.3460806574
 20
94.1755111861
 30
0.0
 10
66.102693901
 20
94.2773439834
 30
0.0
 10
66.6662187889
 20
94.5320531661
 30
0.0
 10
67.0119460373
 20
94.8255119195
 30
0.0
 10
67.2012499107
 20
95.0718218707
 30
0.0
 10
67.3189066397
 20
95.3416070731
 30
0.0
 10
67.3460457272
 20
95.5316337869
 30
0.0
 10
67.3460457272
 20
95.6244137397
 30
0.0
  0
SPLINE
  5
393
100
AcDbEntity
  8
0
100
AcDbSpline
 62
7
  6
BYLAYER
 70
0
 71
3
 72
19
 73
15
 74
0
 42
0.0000001
 43
0.0000001
 44
0.0000000001
 40
0.0
 40
0.0
 40
0.0
 40
0.0
 40
0.0516895633
 40
0.1053507103
 40
0.162259376
 40
0.2232187081
 40
0.3564672638
 40
0.4999879647
 40
0.6435089547
 40
0.7767649405
 40
0.8377297025
 40
0.8946444291
 40
0.9483096058
 40
1.0
 40
1.0
 40
1.0
 40
1.0
 10
68.346449619
 20
95.6243612416
 30
0.0
 10
68.346449619
 20
95.5315793361
 30
0.0
 10
68.3735852569
 20
95.3415539068
 30
0.0
 10
68.4912361865
 20
95.071776074
 30
0.0
 10
68.6805201981
 20
94.8254727694
 30
0.0
 10
69.0262185697
 20
94.5320068661
 30
0.0
 10
69.5897304082
 20
94.2772704888
 30
0.0
 10
70.3463548566
 20
94.1754049003
 30
0.0
 10
71.102996188
 20
94.277241478
 30
0.0
 10
71.6665419956
 20
94.5319601163
 30
0.0
 10
72.0122820785
 20
94.8254297638
 30
0.0
 10
72.2015929794
 20
95.0717488588
 30
0.0
 10
72.3192540762
 20
95.3415440764
 30
0.0
 10
72.3463941712
 20
95.5315778446
 30
0.0
 10
72.3463941712
 20
95.6243612416
 30
0.0
  0
SPLINE
  5
394
100
AcDbEntity
  8
0
100
AcDbSpline
 62
7
  6
BYLAYER
 70
0
 71
3
 72
10
 73
6
 74
0
 42
0.0000001
 43
0.0000001
 44
0.0000000001
 40
0.0
 40
0.0
 40
0.0
 40
0.0
 40
0.5000014624
 40
0.7500003356
 40
1.0
 40
1.0
 40
1.0
 40
1.0
 10
97.270855853
 20
136.2147119064
 30
0.0
 10
97.4601019694
 20
136.2147119064
 30
0.0
 10
97.7439692225
 20
136.2165507054
 30
0.0
 10
98.1224602055
 20
136.215046104
 30
0.0
 10
98.3116954055
 20
136.2125686074
 30
0.0
 10
98.4063180599
 20
136.2125686074
 30
0.0
  0
SPLINE
  5
395
100
AcDbEntity
  8
0
100
AcDbSpline
 62
7
  6
BYLAYER
 70
0
 71
3
 72
11
 73
7
 74
0
 42
0.0000001
 43
0.0000001
 44
0.0000000001
 40
0.0
 40
0.0
 40
0.0
 40
0.0
 40
0.2432809417
 40
0.4999868649
 40
0.7566998595
 40
1.0
 40
1.0
 40
1.0
 40
1.0
 10
64.1132812863
 20
94.6165313129
 30
0.0
 10
64.2946828414
 20
94.7170204836
 30
0.0
 10
64.6995548715
 20
94.8681014608
 30
0.0
 10
65.3458177497
 20
94.9423943775
 30
0.0
 10
65.9921139355
 20
94.8682497177
 30
0.0
 10
66.397044338
 20
94.7172659834
 30
0.0
 10
66.5784895186
 20
94.6168218103
 30
0.0
  0
SPLINE
  5
396
100
AcDbEntity
  8
0
100
AcDbSpline
 62
7
  6
BYLAYER
 70
0
 71
3
 72
11
 73
7
 74
0
 42
0.0000001
 43
0.0000001
 44
0.0000000001
 40
0.0
 40
0.0
 40
0.0
 40
0.0
 40
0.2432799714
 40
0.4999868773
 40
0.7567008479
 40
1.0
 40
1.0
 40
1.0
 40
1.0
 10
69.1134313622
 20
94.6164767397
 30
0.0
 10
69.2948471832
 20
94.7169841467
 30
0.0
 10
69.6997593539
 20
94.8680927667
 30
0.0
 10
70.3460922717
 20
94.9423989695
 30
0.0
 10
70.992458469
 20
94.8682408898
 30
0.0
 10
71.3974289644
 20
94.7172294253
 30
0.0
 10
71.5788883749
 20
94.6167669741
 30
0.0
  0
SPLINE
  5
397
100
AcDbEntity
  8
0
100
AcDbSpline
 62
7
  6
BYLAYER
 70
0
 71
3
 72
19
 73
15
 74
0
 42
0.0000001
 43
0.0000001
 44
0.0000000001
 40
0.0
 40
0.0
 40
0.0
 40
0.0
 40
0.0516895633
 40
0.1053507103
 40
0.162259376
 40
0.2232187081
 40
0.3564672638
 40
0.4999879647
 40
0.6435089547
 40
0.7767649405
 40
0.8377297025
 40
0.8946444291
 40
0.9483096058
 40
1.0
 40
1.0
 40
1.0
 40
1.0
 10
67.3460457272
 20
95.6244137397
 30
0.0
 10
67.3460457272
 20
95.7171922009
 30
0.0
 10
67.3189110967
 20
95.9072105762
 30
0.0
 10
67.2012645344
 20
96.1769783944
 30
0.0
 10
67.0119875494
 20
96.4232725558
 30
0.0
 10
66.6663020107
 20
96.7167275652
 30
0.0
 10
66.1028110907
 20
96.9714544862
 30
0.0
 10
65.3462147295
 20
97.0733162932
 30
0.0
 10
64.5896014859
 20
96.9714834959
 30
0.0
 10
64.026076598
 20
96.7167743132
 30
0.0
 10
63.6803493496
 20
96.4233155598
 30
0.0
 10
63.4910454762
 20
96.1770056086
 30
0.0
 10
63.3733887472
 20
95.9072204062
 30
0.0
 10
63.3462496597
 20
95.7171936924
 30
0.0
 10
63.3462496597
 20
95.6244137397
 30
0.0
  0
SPLINE
  5
398
100
AcDbEntity
  8
0
100
AcDbSpline
 62
7
  6
BYLAYER
 70
0
 71
3
 72
19
 73
15
 74
0
 42
0.0000001
 43
0.0000001
 44
0.0000000001
 40
0.0
 40
0.0
 40
0.0
 40
0.0
 40
0.0516665896
 40
0.105346439
 40
0.1622666659
 40
0.2232113673
 40
0.3564523377
 40
0.4999716496
 40
0.6434933882
 40
0.7767699787
 40
0.8377301451
 40
0.8946558629
 40
0.9483349305
 40
1.0
 40
1.0
 40
1.0
 40
1.0
 10
72.3463941712
 20
95.6243612416
 30
0.0
 10
72.3463941712
 20
95.7171007257
 30
0.0
 10
72.3191417838
 20
95.9070894619
 30
0.0
 10
72.2016587795
 20
96.1769426392
 30
0.0
 10
72.0122884352
 20
96.4232284811
 30
0.0
 10
71.6666623835
 20
96.7167200066
 30
0.0
 10
71.1031674836
 20
96.9714276036
 30
0.0
 10
70.3465736484
 20
97.0732159557
 30
0.0
 10
69.5898965847
 20
96.9715155145
 30
0.0
 10
69.0263033729
 20
96.7167870636
 30
0.0
 10
68.6805700845
 20
96.4232616556
 30
0.0
 10
68.4911852793
 20
96.1769397294
 30
0.0
 10
68.3736946049
 20
95.907083919
 30
0.0
 10
68.346449619
 20
95.7170979973
 30
0.0
 10
68.346449619
 20
95.6243612416
 30
0.0
  0
ENDSEC
  0
SECTION
  2
OBJECTS
  0
DICTIONARY
  5
C
100
AcDbDictionary
280
0
281
1
  3
ACAD_GROUP
350
D
  3
ACAD_MLINESTYLE
350
17
  3
ACAD_LAYOUT
350
1A
  3
ACAD_PLOTSETTINGS
350
19
  3
ACAD_PLOTSTYLENAME
350
E
  0
DICTIONARY
  5
D
102
{ACAD_REACTORS
330
C
102
}
100
AcDbDictionary
280
0
281
1
  0
ACDBDICTIONARYWDFLT
  5
E
102
{ACAD_REACTORS
330
C
102
}
100
AcDbDictionary
281
1
  3
Normal
350
F
100
AcDbDictionaryWithDefault
340
F
  0
DICTIONARY
  5
17
102
{ACAD_REACTORS
330
C
102
}
100
AcDbDictionary
280
0
281
1
  3
Standard
350
18
  0
DICTIONARY
  5
19
102
{ACAD_REACTORS
330
C
102
}
100
AcDbDictionary
281
1
  0
DICTIONARY
  5
1A
102
{ACAD_REACTORS
330
C
102
}
100
AcDbDictionary
281
1
  3
Model
350
399
  3
Layout1
350
39A
  0
ACDBPLACEHOLDER
  5
F
102
{ACAD_REACTORS
330
E
102
}
  0
MLINESTYLE
  5
18
102
{ACAD_REACTORS
330
17
102
}
100
AcDbMlineStyle
  2
STANDARD
 70
0
  3

 62
256
 51
90.0
 52
90.0
 71
2
 49
0.5
 62
256
  6
BYLAYER
 49
-0.5
 62
256
  6
BYLAYER
  0
LAYOUT
  5
399
102
{ACAD_REACTORS
330
1A
102
}
100
AcDbPlotSettings
  1

  2
none_device
  4

  6

 40
0.0
 41
0.0
 42
0.0
 43
0.0
 44
210.0
 45
297.0
 46
0.0
 47
0.0
 48
0.0
 49
0.0
140
0.0
141
0.0
142
1.0
143
1.0
 70
1024
 72
1
 73
0
 74
0
  7

 75
0
147
1.0
148
0.0
149
0.0
100
AcDbLayout
  1
Model
 70
0
 71
0
 10
0.0
 20
0.0
 11
210.0
 21
297.0
 12
0.0
 22
0.0
 32
0.0
 14
0.0
 24
0.0
 34
0.0
 15
0.0
 25
0.0
 35
0.0
146
0.0
 13
0.0
 23
0.0
 33
0.0
 16
1.0
 26
0.0
 36
0.0
 17
0.0
 27
1.0
 37
0.0
 76
0
330
210
345
0
346
0
  0
LAYOUT
  5
39A
102
{ACAD_REACTORS
330
1A
102
}
100
AcDbPlotSettings
  1

  2
none_device
  4

  6

 40
0.0
 41
0.0
 42
0.0
 43
0.0
 44
210.0
 45
297.0
 46
0.0
 47
0.0
 48
0.0
 49
0.0
140
0.0
141
0.0
142
1.0
143
1.0
 70
0
 72
1
 73
0
 74
0
  7

 75
0
147
1.0
148
0.0
149
0.0
100
AcDbLayout
  1
Layout1
 70
0
 71
1
 10
0.0
 20
0.0
 11
210.0
 21
297.0
 12
0.0
 22
0.0
 32
0.0
 14
0.0
 24
0.0
 34
0.0
 15
0.0
 25
0.0
 35
0.0
146
0.0
 13
0.0
 23
0.0
 33
0.0
 16
1.0
 26
0.0
 36
0.0
 17
0.0
 27
1.0
 37
0.0
 76
0
330
211
345
0
346
0
  0
ENDSEC
  0
EOF
