999
DXF file: C:\Users\sesa63760\Dev\_Creo\CAD\MCADPP0003049_3D-CAD\drw0001_4.dxf
999
Pro/ENGINEER 2019471 by Parametric Technology Corporation
  0
SECTION
  2
HEADER
  9
$ACADVER
  1
AC1024
  9
$DWGCODEPAGE
  3
ANSI_1252
  9
$EXTMAX
 10
268.484046828
 20
379.7131519424
 30
0.0
  9
$EXTMIN
 10
0.0
 20
0.0
 30
0.0
  9
$LIMMIN
 10
0.0
 20
0.0
  9
$LIMMAX
 10
268.484046828
 20
379.7131519424
  9
$VIEWCTR
 10
134.242023414
 20
189.8565759712
  9
$VIEWSIZE
 40
379.7131519424
  9
$CLAYER
  8
0
  9
$LTSCALE
 40
24.7516721266
  9
$CELTYPE
  6
BYLAYER
  9
$DIMSCALE
 40
1.0
  9
$DIMASZ
 40
3.1962386527
  9
$DIMEXO
 40
1.0
  9
$DIMDLI
 40
17.1011552875
  9
$DIMEXE
 40
1.0
  9
$DIMCEN
 40
4.0502736207
  9
$DIMLFAC
 40
1.0
  9
$DIMBLK
  1
_FILLED
  9
$DIMALT
 70
0
  9
$DIMALTF
 40
0.0393700787
  9
$DIMTXT
 40
4.4747341138
  9
$DIMTOL
 70
1
  9
$DIMLIM
 70
0
  9
$DIMTFAC
 40
1.0
  9
$DIMTP
 40
0.01
  9
$DIMTM
 40
0.01
  9
$DIMGAP
 40
0.625
  9
$DIMDSEP
 70
46
  9
$AUNITS
 70
0
  9
$PDMODE
 70
3
  9
$PDSIZE
 40
0.3125
  9
$HANDSEED
  5
370
  9
$TILEMODE
 70
1
  9
$MEASUREMENT
 70
1
  9
$INSUNITS
 70
4
  0
ENDSEC
  0
SECTION
  2
CLASSES
  0
CLASS
  1
ACDBDICTIONARYWDFLT
  2
AcDbDictionaryWithDefault
  3
AutoCAD 2000
 90
0
 91
1
280
0
281
0
  0
CLASS
  1
ACDBPLACEHOLDER
  2
AcDbPlaceHolder
  3
AutoCAD 2000
 90
0
 91
1
280
0
281
0
  0
CLASS
  1
LAYOUT
  2
AcDbLayout
  3
AutoCAD 2000
 90
0
 91
0
280
0
281
0
  0
ENDSEC
  0
SECTION
  2
TABLES
  0
TABLE
  2
VPORT
  5
8
100
AcDbSymbolTable
 70
2
  0
VPORT
  5
1F4
100
AcDbSymbolTableRecord
100
AcDbViewportTableRecord
  2
*ACTIVE
 70
0
 10
0.0
 20
0.0
 11
1.0
 21
1.0
 12
134.242023414
 22
189.8565759712
 13
0.0
 23
0.0
 14
1.0
 24
1.0
 15
0.0
 25
0.0
 16
0.0
 26
0.0
 36
1.0
 17
0.0
 27
0.0
 37
0.0
 40
379.7131519424
 41
0.7070707071
 42
50.0
 43
0.0
 44
0.0
 50
0.0
 51
0.0
 71
0
 72
100
 73
1
 74
1
 75
0
 76
0
 77
0
 78
0
  0
ENDTAB
  0
TABLE
  2
LTYPE
  5
5
100
AcDbSymbolTable
 70
6
  0
LTYPE
  5
14
100
AcDbSymbolTableRecord
100
AcDbLinetypeTableRecord
  2
BYBLOCK
 70
0
  3

 72
65
 73
0
 40
0.0
  0
LTYPE
  5
15
100
AcDbSymbolTableRecord
100
AcDbLinetypeTableRecord
  2
BYLAYER
 70
0
  3

 72
65
 73
0
 40
0.0
  0
LTYPE
  5
16
100
AcDbSymbolTableRecord
100
AcDbLinetypeTableRecord
  2
CONTINUOUS
 70
64
  3
Solid line
 72
65
 73
0
 40
0.0
  0
LTYPE
  5
1F5
100
AcDbSymbolTableRecord
100
AcDbLinetypeTableRecord
  2
CENTER
 70
64
  3
____ _ ____ _ ____ _ ____ _ ____ _ ____ _ ____
 72
65
 73
4
 40
0.6
 49
0.375
 74
0
 49
-0.075
 74
0
 49
0.075
 74
0
 49
-0.075
 74
0
  0
LTYPE
  5
1F6
100
AcDbSymbolTableRecord
100
AcDbLinetypeTableRecord
  2
HIDDEN
 70
64
  3
- - - - - - - - - - - - - - - - - - - -
 72
65
 73
2
 40
0.2
 49
0.1
 74
0
 49
-0.1
 74
0
  0
LTYPE
  5
1F7
100
AcDbSymbolTableRecord
100
AcDbLinetypeTableRecord
  2
PHANTOM
 70
64
  3
_____ _ _ _____ _ _ _____ _ _ _____
 72
65
 73
6
 40
0.8
 49
0.45
 74
0
 49
-0.05
 74
0
 49
0.1
 74
0
 49
-0.05
 74
0
 49
0.1
 74
0
 49
-0.05
 74
0
  0
LTYPE
  5
1F8
100
AcDbSymbolTableRecord
100
AcDbLinetypeTableRecord
  2
DOT
 70
64
  3
. . . . . . . . . . . . . . . . . . . .
 72
65
 73
2
 40
0.2
 49
0.1
 74
0
 49
-0.1
 74
0
  0
LTYPE
  5
1F9
100
AcDbSymbolTableRecord
100
AcDbLinetypeTableRecord
  2
DASHED
 70
64
  3
- - - - - - - - - - - - - - - - - - - -
 72
65
 73
2
 40
0.2
 49
0.1
 74
0
 49
-0.1
 74
0
  0
ENDTAB
  0
TABLE
  2
LAYER
  5
2
100
AcDbSymbolTable
 70
36
  0
LAYER
  5
10
100
AcDbSymbolTableRecord
100
AcDbLayerTableRecord
  2
0
 70
0
 62
7
  6
CONTINUOUS
370
-3
390
F
  0
LAYER
  5
1FA
100
AcDbSymbolTableRecord
100
AcDbLayerTableRecord
  2
DEFAULT_1
 70
0
 62
7
  6
CENTER
370
-3
390
F
  0
LAYER
  5
1FB
100
AcDbSymbolTableRecord
100
AcDbLayerTableRecord
  2
DEFAULT_2
 70
0
 62
8
  6
HIDDEN
370
-3
390
F
  0
LAYER
  5
1FC
100
AcDbSymbolTableRecord
100
AcDbLayerTableRecord
  2
DEFAULT_3
 70
0
 62
7
  6
PHANTOM
370
-3
390
F
  0
LAYER
  5
1FD
100
AcDbSymbolTableRecord
100
AcDbLayerTableRecord
  2
00_COMPONENTS
 70
0
 62
7
  6
CONTINUOUS
370
-3
390
F
  0
LAYER
  5
1FE
100
AcDbSymbolTableRecord
100
AcDbLayerTableRecord
  2
01_1_DEFAULT_DATUMS
 70
0
 62
7
  6
CONTINUOUS
370
-3
390
F
  0
LAYER
  5
1FF
100
AcDbSymbolTableRecord
100
AcDbLayerTableRecord
  2
01_PLANES
 70
0
 62
7
  6
CONTINUOUS
370
-3
390
F
  0
LAYER
  5
200
100
AcDbSymbolTableRecord
100
AcDbLayerTableRecord
  2
02_COORD_SYS
 70
0
 62
7
  6
CONTINUOUS
370
-3
390
F
  0
LAYER
  5
201
100
AcDbSymbolTableRecord
100
AcDbLayerTableRecord
  2
03_AXES
 70
0
 62
7
  6
CONTINUOUS
370
-3
390
F
  0
LAYER
  5
202
100
AcDbSymbolTableRecord
100
AcDbLayerTableRecord
  2
04_POINTS
 70
0
 62
7
  6
CONTINUOUS
370
-3
390
F
  0
LAYER
  5
203
100
AcDbSymbolTableRecord
100
AcDbLayerTableRecord
  2
05_CURVES
 70
0
 62
7
  6
CONTINUOUS
370
-3
390
F
  0
LAYER
  5
204
100
AcDbSymbolTableRecord
100
AcDbLayerTableRecord
  2
06_SURFS
 70
0
 62
7
  6
CONTINUOUS
370
-3
390
F
  0
LAYER
  5
205
100
AcDbSymbolTableRecord
100
AcDbLayerTableRecord
  2
07_COSMETICS
 70
0
 62
7
  6
CONTINUOUS
370
-3
390
F
  0
LAYER
  5
206
100
AcDbSymbolTableRecord
100
AcDbLayerTableRecord
  2
10_NOTES
 70
0
 62
7
  6
CONTINUOUS
370
-3
390
F
  0
LAYER
  5
207
100
AcDbSymbolTableRecord
100
AcDbLayerTableRecord
  2
11_NOTES_PUB
 70
0
 62
7
  6
CONTINUOUS
370
-3
390
F
  0
LAYER
  5
208
100
AcDbSymbolTableRecord
100
AcDbLayerTableRecord
  2
13_REF_GTOL
 70
0
 62
7
  6
CONTINUOUS
370
-3
390
F
  0
LAYER
  5
209
100
AcDbSymbolTableRecord
100
AcDbLayerTableRecord
  2
16_MISC
 70
0
 62
7
  6
CONTINUOUS
370
-3
390
F
  0
LAYER
  5
20A
100
AcDbSymbolTableRecord
100
AcDbLayerTableRecord
  2
17_NO_PRINT
 70
0
 62
7
  6
CONTINUOUS
370
-3
390
F
  0
LAYER
  5
20B
100
AcDbSymbolTableRecord
100
AcDbLayerTableRecord
  2
18_DATUM_CAMS_JOINTS
 70
0
 62
7
  6
CONTINUOUS
370
-3
390
F
  0
LAYER
  5
20C
100
AcDbSymbolTableRecord
100
AcDbLayerTableRecord
  2
19_DATUM_FUNCTIONAL
 70
0
 62
7
  6
CONTINUOUS
370
-3
390
F
  0
LAYER
  5
20D
100
AcDbSymbolTableRecord
100
AcDbLayerTableRecord
  2
20_DATUM_KINEMATIC_SCHEME
 70
0
 62
7
  6
CONTINUOUS
370
-3
390
F
  0
ENDTAB
  0
TABLE
  2
STYLE
  5
3
100
AcDbSymbolTable
 70
1
  0
STYLE
  5
11
100
AcDbSymbolTableRecord
100
AcDbTextStyleTableRecord
  2
STANDARD
 70
0
 40
0.0
 41
0.8
 50
0.0
 71
0
 42
0.2
  3
txt
  4

  0
STYLE
  5
20E
100
AcDbSymbolTableRecord
100
AcDbTextStyleTableRecord
  2
TEXTSTYLE_1
 70
0
 40
0.0
 41
0.8
 50
0.0
 71
0
 42
0.2
  3
gdt
  4

  0
ENDTAB
  0
TABLE
  2
VIEW
  5
6
100
AcDbSymbolTable
 70
0
  0
ENDTAB
  0
TABLE
  2
UCS
  5
7
100
AcDbSymbolTable
 70
0
  0
ENDTAB
  0
TABLE
  2
APPID
  5
9
100
AcDbSymbolTable
 70
1
  0
APPID
  5
20F
100
AcDbSymbolTableRecord
100
AcDbRegAppTableRecord
  2
ACAD
 70
0
  0
ENDTAB
  0
TABLE
  2
BLOCK_RECORD
  5
1
100
AcDbSymbolTable
 70
0
  0
BLOCK_RECORD
  5
210
100
AcDbSymbolTableRecord
100
AcDbBlockTableRecord
  2
*Model_Space
  0
BLOCK_RECORD
  5
211
100
AcDbSymbolTableRecord
100
AcDbBlockTableRecord
  2
*Paper_Space
  0
BLOCK_RECORD
  5
212
100
AcDbSymbolTableRecord
100
AcDbBlockTableRecord
  2
_FILLED
  0
ENDTAB
  0
TABLE
  2
DIMSTYLE
  5
A
100
AcDbSymbolTable
 70
1
100
AcDbDimStyleTable
 71
0
  0
DIMSTYLE
105
213
100
AcDbSymbolTableRecord
100
AcDbDimStyleTableRecord
  2
STANDARD
 70
0
  3

  4

 40
1.0
 41
3.1962386527
 42
1.0
 43
0.38
 44
1.0
 45
0.0
 46
0.0
 47
0.01
 48
0.01
140
4.4747341138
141
0.09
142
0.0
143
25.4
144
1.0
145
0.0
146
1.0
147
0.625
 71
1
 72
0
 73
0
 74
0
 75
0
 76
0
 77
1
 78
8
 79
2
170
0
171
1
172
0
173
0
174
0
175
0
176
0
177
0
178
0
270
2
179
2
271
2
272
2
273
2
274
2
275
0
280
0
281
0
282
0
283
1
284
8
285
0
286
0
287
3
288
0
340
11
278
46
341
212
342
212
343
212
344
212
  0
ENDTAB
  0
ENDSEC
  0
SECTION
  2
BLOCKS
  0
BLOCK
  5
20
100
AcDbEntity
  8
0
100
AcDbBlockBegin
  2
*Model_Space
 70
0
 10
0.0
 20
0.0
 30
0.0
  3
*Model_Space
  1

  0
ENDBLK
  5
21
100
AcDbEntity
  8
0
100
AcDbBlockEnd
  0
BLOCK
  5
1C
100
AcDbEntity
  8
0
100
AcDbBlockBegin
  2
*Paper_Space
 70
0
 10
0.0
 20
0.0
 30
0.0
  3
*Paper_Space
  1

  0
ENDBLK
  5
1D
100
AcDbEntity
  8
0
100
AcDbBlockEnd
  0
BLOCK
  5
214
100
AcDbEntity
  8
0
100
AcDbBlockBegin
  2
_FILLED
 70
64
 10
0.0
 20
0.0
  3
_FILLED
  1

  0
SOLID
  5
215
100
AcDbEntity
  8
0
  6
BYBLOCK
 62
0
100
AcDbTrace
 10
0.0
 20
0.0
 11
-1.0
 21
0.25
 12
-1.0
 22
-0.25
 13
-1.0
 23
-0.25
  0
ENDBLK
  5
216
100
AcDbEntity
  8
0
  6
BYBLOCK
 62
0
100
AcDbBlockEnd
  0
ENDSEC
  0
SECTION
  2
ENTITIES
  0
LINE
  5
217
100
AcDbEntity
  8
0
100
AcDbLine
 62
7
  6
CONTINUOUS
 10
40.8899917895
 20
45.942160522
 11
39.7494475539
 21
47.482926298
  0
LINE
  5
218
100
AcDbEntity
  8
0
100
AcDbLine
 62
7
  6
CONTINUOUS
 10
225.8276417383
 20
27.1887630216
 11
49.6278417626
 21
27.1887630216
  0
LINE
  5
219
100
AcDbEntity
  8
0
100
AcDbLine
 62
7
  6
CONTINUOUS
 10
139.2517417545
 20
28.3571630216
 11
136.2037417545
 21
28.3571630216
  0
LINE
  5
21A
100
AcDbEntity
  8
0
100
AcDbLine
 62
7
  6
CONTINUOUS
 10
49.6278417545
 20
28.7635630216
 11
136.2037417545
 21
28.7635630216
  0
LINE
  5
21B
100
AcDbEntity
  8
0
100
AcDbLine
 62
7
  6
CONTINUOUS
 10
139.2517417545
 20
28.7635630216
 11
225.8276417545
 21
28.7635630216
  0
LINE
  5
21C
100
AcDbEntity
  8
0
100
AcDbLine
 62
7
  6
CONTINUOUS
 10
136.2037417545
 20
29.5103230216
 11
139.2517417545
 21
29.5103230216
  0
LINE
  5
21D
100
AcDbEntity
  8
0
100
AcDbLine
 62
7
  6
CONTINUOUS
 10
139.2517417545
 20
30.1453230216
 11
136.2037417545
 21
30.1453230216
  0
LINE
  5
21E
100
AcDbEntity
  8
0
100
AcDbLine
 62
7
  6
CONTINUOUS
 10
137.7709217545
 20
30.6482430216
 11
139.4727217545
 21
30.6482430216
  0
LINE
  5
21F
100
AcDbEntity
  8
0
100
AcDbLine
 62
7
  6
CONTINUOUS
 10
137.7709217545
 20
31.6642430216
 11
136.2037417545
 21
31.6642430216
  0
LINE
  5
220
100
AcDbEntity
  8
0
100
AcDbLine
 62
7
  6
CONTINUOUS
 10
136.2037417545
 20
34.1534430216
 11
137.7709217545
 21
34.1534430216
  0
LINE
  5
221
100
AcDbEntity
  8
0
100
AcDbLine
 62
7
  6
CONTINUOUS
 10
38.9344417545
 20
37.8821630216
 11
40.5092417545
 21
37.8821630216
  0
LINE
  5
222
100
AcDbEntity
  8
0
100
AcDbLine
 62
7
  6
CONTINUOUS
 10
234.9462417545
 20
37.8821630216
 11
236.5210417545
 21
37.8821630216
  0
LINE
  5
223
100
AcDbEntity
  8
0
100
AcDbLine
 62
7
  6
CONTINUOUS
 10
225.9644062332
 20
37.9065566947
 11
167.7505417548
 21
37.9065566918
  0
LINE
  5
224
100
AcDbEntity
  8
0
100
AcDbLine
 62
7
  6
CONTINUOUS
 10
107.7049417539
 20
37.9065566919
 11
49.4910772773
 21
37.9065566941
  0
LINE
  5
225
100
AcDbEntity
  8
0
100
AcDbLine
 62
7
  6
CONTINUOUS
 10
236.0746832262
 20
48.2023357948
 11
236.5210417545
 21
48.2027720401
  0
LINE
  5
226
100
AcDbEntity
  8
0
100
AcDbLine
 62
7
  6
CONTINUOUS
 10
144.5967248845
 20
39.1648630216
 11
146.7591586245
 21
39.1648630216
  0
LINE
  5
227
100
AcDbEntity
  8
0
100
AcDbLine
 62
7
  6
CONTINUOUS
 10
49.4910772912
 20
39.378627651
 11
107.7049417546
 21
39.3786276512
  0
LINE
  5
228
100
AcDbEntity
  8
0
100
AcDbLine
 62
7
  6
CONTINUOUS
 10
167.7505417544
 20
39.3786276512
 11
225.9644062226
 21
39.3786276508
  0
LINE
  5
229
100
AcDbEntity
  8
0
100
AcDbLine
 62
7
  6
CONTINUOUS
 10
164.4485417545
 20
41.3250386392
 11
165.9725417545
 21
41.3250386392
  0
LINE
  5
22A
100
AcDbEntity
  8
0
100
AcDbLine
 62
7
  6
CONTINUOUS
 10
111.0069417545
 20
41.3250386375
 11
109.4829417545
 21
41.3250373422
  0
LINE
  5
22B
100
AcDbEntity
  8
0
100
AcDbLine
 62
7
  6
CONTINUOUS
 10
136.2037417545
 20
42.2509630216
 11
137.7709217545
 21
42.2509630216
  0
LINE
  5
22C
100
AcDbEntity
  8
0
100
AcDbLine
 62
7
  6
CONTINUOUS
 10
164.4485417545
 20
42.4287630216
 11
139.4727217545
 21
42.4287630216
  0
LINE
  5
22D
100
AcDbEntity
  8
0
100
AcDbLine
 62
7
  6
CONTINUOUS
 10
137.7709217545
 20
42.4287630216
 11
111.0069417545
 21
42.4287630216
  0
LINE
  5
22E
100
AcDbEntity
  8
0
100
AcDbLine
 62
7
  6
CONTINUOUS
 10
137.7709217545
 20
42.5354430216
 11
139.4727217545
 21
42.5354430216
  0
LINE
  5
22F
100
AcDbEntity
  8
0
100
AcDbLine
 62
7
  6
CONTINUOUS
 10
38.9344417545
 20
43.6978679871
 11
40.5092417545
 21
43.6978679871
  0
LINE
  5
230
100
AcDbEntity
  8
0
100
AcDbLine
 62
7
  6
CONTINUOUS
 10
235.3526417549
 20
43.6979062131
 11
234.9462417545
 21
43.697911733
  0
LINE
  5
231
100
AcDbEntity
  8
0
100
AcDbLine
 62
7
  6
CONTINUOUS
 10
236.5210417545
 20
43.6978650382
 11
235.3526417549
 21
43.6979062131
  0
LINE
  5
232
100
AcDbEntity
  8
0
100
AcDbLine
 62
7
  6
CONTINUOUS
 10
165.4645417545
 20
43.9527630216
 11
109.9909417545
 21
43.9527630216
  0
LINE
  5
233
100
AcDbEntity
  8
0
100
AcDbLine
 62
7
  6
CONTINUOUS
 10
109.9909417545
 20
43.9700727018
 11
165.4645417545
 21
43.9700727018
  0
LINE
  5
234
100
AcDbEntity
  8
0
100
AcDbLine
 62
7
  6
CONTINUOUS
 10
234.7674736077
 20
47.4829265605
 11
235.7060352532
 21
47.4829261739
  0
LINE
  5
235
100
AcDbEntity
  8
0
100
AcDbLine
 62
7
  6
CONTINUOUS
 10
39.7494475539
 20
47.482926298
 11
40.6879976154
 21
47.4829302809
  0
LINE
  5
236
100
AcDbEntity
  8
0
100
AcDbLine
 62
7
  6
CONTINUOUS
 10
234.7321596955
 20
48.1896613301
 11
235.8289143286
 21
48.1896613089
  0
LINE
  5
237
100
AcDbEntity
  8
0
100
AcDbLine
 62
7
  6
CONTINUOUS
 10
39.6265691771
 20
48.1896613088
 11
40.7233233939
 21
48.1896613563
  0
LINE
  5
238
100
AcDbEntity
  8
0
100
AcDbLine
 62
7
  6
CONTINUOUS
 10
39.3808095553
 20
48.2022430283
 11
38.9344417545
 21
48.2022430283
  0
LINE
  5
239
100
AcDbEntity
  8
0
100
AcDbLine
 62
7
  6
CONTINUOUS
 10
40.7168467612
 20
48.5456827443
 11
41.1574167466
 21
48.5456827443
  0
LINE
  5
23A
100
AcDbEntity
  8
0
100
AcDbLine
 62
7
  6
CONTINUOUS
 10
234.2980667624
 20
48.545682731
 11
234.7386367477
 21
48.545682731
  0
LINE
  5
23B
100
AcDbEntity
  8
0
100
AcDbLine
 62
7
  6
CONTINUOUS
 10
165.9502685312
 20
59.9232087224
 11
167.6502291724
 21
60.004879943
  0
LINE
  5
23C
100
AcDbEntity
  8
0
100
AcDbLine
 62
7
  6
CONTINUOUS
 10
221.632926368
 20
52.6445352986
 11
167.6502289716
 21
52.6445352976
  0
LINE
  5
23D
100
AcDbEntity
  8
0
100
AcDbLine
 62
7
  6
CONTINUOUS
 10
107.8052545375
 20
52.6445352967
 11
53.822557141
 21
52.6445352986
  0
LINE
  5
23E
100
AcDbEntity
  8
0
100
AcDbLine
 62
7
  6
CONTINUOUS
 10
165.4645417545
 20
53.8139416274
 11
109.9909417545
 21
53.8139416264
  0
LINE
  5
23F
100
AcDbEntity
  8
0
100
AcDbLine
 62
7
  6
CONTINUOUS
 10
53.8225571342
 20
60.0048900948
 11
107.8052545374
 21
60.0048900986
  0
LINE
  5
240
100
AcDbEntity
  8
0
100
AcDbLine
 62
7
  6
CONTINUOUS
 10
167.6502289714
 20
60.0048901024
 11
221.6329263749
 21
60.0048900948
  0
LINE
  5
241
100
AcDbEntity
  8
0
100
AcDbLine
 62
7
  6
CONTINUOUS
 10
222.6298012978
 20
61.0329973751
 11
230.2208048972
 21
61.0329973751
  0
LINE
  5
242
100
AcDbEntity
  8
0
100
AcDbLine
 62
7
  6
CONTINUOUS
 10
45.2346786117
 20
61.0330037302
 11
52.8256822112
 21
61.0330037302
  0
LINE
  5
243
100
AcDbEntity
  8
0
100
AcDbLine
 62
7
  6
CONTINUOUS
 10
107.8356802854
 20
61.1742964245
 11
167.6198032235
 21
61.1742956016
  0
LINE
  5
244
100
AcDbEntity
  8
0
100
AcDbLine
 62
7
  6
CONTINUOUS
 10
109.5052277055
 20
59.9232205875
 11
107.8052542227
 21
60.0048835478
  0
LINE
  5
245
100
AcDbEntity
  8
0
100
AcDbLine
 62
7
  6
CONTINUOUS
 10
111.0069417545
 20
42.4287630216
 11
109.4829417552
 21
43.4447630433
  0
LINE
  5
246
100
AcDbEntity
  8
0
100
AcDbLine
 62
7
  6
CONTINUOUS
 10
40.2175446757
 20
45.4443658739
 11
39.6053133373
 21
47.5103719099
  0
LINE
  5
247
100
AcDbEntity
  8
0
100
AcDbLine
 62
7
  6
CONTINUOUS
 10
235.2379275418
 20
45.316325573
 11
234.0731246516
 21
45.6501656599
  0
LINE
  5
248
100
AcDbEntity
  8
0
100
AcDbLine
 62
7
  6
CONTINUOUS
 10
110.2499533852
 20
43.5644830886
 11
109.9909417545
 21
43.9527630216
  0
LINE
  5
249
100
AcDbEntity
  8
0
100
AcDbLine
 62
7
  6
CONTINUOUS
 10
111.0069417545
 20
42.4287630216
 11
109.9909417332
 21
43.9527630182
  0
LINE
  5
24A
100
AcDbEntity
  8
0
100
AcDbLine
 62
7
  6
CONTINUOUS
 10
38.9344417545
 20
37.8821630352
 11
38.9344417545
 21
337.9069630216
  0
LINE
  5
24B
100
AcDbEntity
  8
0
100
AcDbLine
 62
7
  6
CONTINUOUS
 10
39.38081102
 20
337.9069630205
 11
39.3808080901
 21
48.1526053928
  0
LINE
  5
24C
100
AcDbEntity
  8
0
100
AcDbLine
 62
7
  6
CONTINUOUS
 10
40.217554851
 20
45.3163381529
 11
40.2175548378
 21
45.4443737485
  0
LINE
  5
24D
100
AcDbEntity
  8
0
100
AcDbLine
 62
7
  6
CONTINUOUS
 10
40.5092417545
 20
37.8821630216
 11
40.5092310667
 21
43.6978807396
  0
LINE
  5
24E
100
AcDbEntity
  8
0
100
AcDbLine
 62
7
  6
CONTINUOUS
 10
40.7168467612
 20
48.5456827443
 11
40.7168467612
 21
337.7266256185
  0
LINE
  5
24F
100
AcDbEntity
  8
0
100
AcDbLine
 62
7
  6
CONTINUOUS
 10
41.1574167466
 20
337.7266256167
 11
41.1574167466
 21
48.5456827441
  0
LINE
  5
250
100
AcDbEntity
  8
0
100
AcDbLine
 62
7
  6
CONTINUOUS
 10
45.2346786117
 20
61.033003732
 11
45.2346786117
 21
333.6493637475
  0
LINE
  5
251
100
AcDbEntity
  8
0
100
AcDbLine
 62
7
  6
CONTINUOUS
 10
49.4910812154
 20
39.3786276511
 11
49.4910812154
 21
37.906556693
  0
LINE
  5
252
100
AcDbEntity
  8
0
100
AcDbLine
 62
7
  6
CONTINUOUS
 10
49.5219541675
 20
348.1533823443
 11
49.5219541676
 21
346.7672663866
  0
LINE
  5
253
100
AcDbEntity
  8
0
100
AcDbLine
 62
7
  6
CONTINUOUS
 10
49.6278417545
 20
348.6003630216
 11
49.6278417545
 21
348.1539937561
  0
LINE
  5
254
100
AcDbEntity
  8
0
100
AcDbLine
 62
7
  6
CONTINUOUS
 10
49.6278417545
 20
28.7635630216
 11
49.6278417545
 21
27.1887630216
  0
LINE
  5
255
100
AcDbEntity
  8
0
100
AcDbLine
 62
7
  6
CONTINUOUS
 10
49.7605541593
 20
346.7703330148
 11
49.7605541593
 21
346.3297630295
  0
LINE
  5
256
100
AcDbEntity
  8
0
100
AcDbLine
 62
7
  6
CONTINUOUS
 10
52.8256822112
 20
333.6493637516
 11
52.8256822112
 21
61.0330037302
  0
LINE
  5
257
100
AcDbEntity
  8
0
100
AcDbLine
 62
7
  6
CONTINUOUS
 10
53.8225496461
 20
60.0048900967
 11
53.8225496461
 21
52.6445352985
  0
LINE
  5
258
100
AcDbEntity
  8
0
100
AcDbLine
 62
7
  6
CONTINUOUS
 10
53.8378160244
 20
342.2525011643
 11
53.8378160244
 21
334.6614975649
  0
LINE
  5
259
100
AcDbEntity
  8
0
100
AcDbLine
 62
7
  6
CONTINUOUS
 10
78.4695417545
 20
349.9465630216
 11
78.4695417545
 21
348.6003630216
  0
LINE
  5
25A
100
AcDbEntity
  8
0
100
AcDbLine
 62
7
  6
CONTINUOUS
 10
82.6859417545
 20
349.9465630216
 11
82.6859417545
 21
348.6003630216
  0
LINE
  5
25B
100
AcDbEntity
  8
0
100
AcDbLine
 62
7
  6
CONTINUOUS
 10
225.6949293496
 20
346.3297630295
 11
221.6176674801
 21
342.2525011643
  0
LINE
  5
25C
100
AcDbEntity
  8
0
100
AcDbLine
 62
7
  6
CONTINUOUS
 10
161.9593417545
 20
135.3165630216
 11
113.4961417545
 21
135.3165630216
  0
LINE
  5
25D
100
AcDbEntity
  8
0
100
AcDbLine
 62
7
  6
CONTINUOUS
 10
138.4897417545
 20
135.8884861982
 11
136.9657417545
 21
135.8884861982
  0
LINE
  5
25E
100
AcDbEntity
  8
0
100
AcDbLine
 62
7
  6
CONTINUOUS
 10
234.5654919173
 20
45.9421288018
 11
235.2379380265
 21
45.4443644997
  0
LINE
  5
25F
100
AcDbEntity
  8
0
100
AcDbLine
 62
7
  6
CONTINUOUS
 10
45.2346786117
 20
61.033003732
 11
41.1574167466
 21
48.5456827441
  0
LINE
  5
260
100
AcDbEntity
  8
0
100
AcDbLine
 62
7
  6
CONTINUOUS
 10
49.4910772912
 20
39.378627651
 11
53.822557141
 21
52.6445352986
  0
LINE
  5
261
100
AcDbEntity
  8
0
100
AcDbLine
 62
7
  6
CONTINUOUS
 10
230.2208048972
 20
333.6493637475
 11
234.2980667624
 21
337.7266256167
  0
LINE
  5
262
100
AcDbEntity
  8
0
100
AcDbLine
 62
7
  6
CONTINUOUS
 10
107.7049417545
 20
37.906556693
 11
107.7049417545
 21
41.7273469025
  0
LINE
  5
263
100
AcDbEntity
  8
0
100
AcDbLine
 62
7
  6
CONTINUOUS
 10
107.8356802854
 20
42.4980017426
 11
107.8356802854
 21
52.341870669
  0
LINE
  5
264
100
AcDbEntity
  8
0
100
AcDbLine
 62
7
  6
CONTINUOUS
 10
107.8356802854
 20
61.1742964245
 11
107.8356802854
 21
293.2029630216
  0
LINE
  5
265
100
AcDbEntity
  8
0
100
AcDbLine
 62
7
  6
CONTINUOUS
 10
109.4829417545
 20
41.3250386392
 11
109.4829417545
 21
43.4447630216
  0
LINE
  5
266
100
AcDbEntity
  8
0
100
AcDbLine
 62
7
  6
CONTINUOUS
 10
109.4964207829
 20
274.6661551254
 11
109.4964207829
 21
268.3057709178
  0
LINE
  5
267
100
AcDbEntity
  8
0
100
AcDbLine
 62
7
  6
CONTINUOUS
 10
109.4964207829
 20
238.5981551254
 11
109.4964207829
 21
232.2377709178
  0
LINE
  5
268
100
AcDbEntity
  8
0
100
AcDbLine
 62
7
  6
CONTINUOUS
 10
109.5119947614
 20
293.2029630216
 11
109.5119947614
 21
274.658552465
  0
LINE
  5
269
100
AcDbEntity
  8
0
100
AcDbLine
 62
7
  6
CONTINUOUS
 10
109.5119947614
 20
268.3133735782
 11
109.5119947614
 21
238.590552465
  0
LINE
  5
26A
100
AcDbEntity
  8
0
100
AcDbLine
 62
7
  6
CONTINUOUS
 10
109.5119947614
 20
232.2453735782
 11
109.5119947614
 21
61.1742964245
  0
LINE
  5
26B
100
AcDbEntity
  8
0
100
AcDbLine
 62
7
  6
CONTINUOUS
 10
109.5119949397
 20
53.4868153747
 11
109.5119949397
 21
43.6429463093
  0
LINE
  5
26C
100
AcDbEntity
  8
0
100
AcDbLine
 62
7
  6
CONTINUOUS
 10
109.9909417545
 20
295.3582244906
 11
109.9909417545
 21
274.3744164937
  0
LINE
  5
26D
100
AcDbEntity
  8
0
100
AcDbLine
 62
7
  6
CONTINUOUS
 10
109.9909417545
 20
268.5975095495
 11
109.9909417545
 21
238.3064164937
  0
LINE
  5
26E
100
AcDbEntity
  8
0
100
AcDbLine
 62
7
  6
CONTINUOUS
 10
109.9909417545
 20
232.5295095495
 11
109.9909417545
 21
43.9527630216
  0
LINE
  5
26F
100
AcDbEntity
  8
0
100
AcDbLine
 62
7
  6
CONTINUOUS
 10
111.0069417545
 20
42.4287630216
 11
111.0069417545
 21
41.3250386392
  0
LINE
  5
270
100
AcDbEntity
  8
0
100
AcDbLine
 62
7
  6
CONTINUOUS
 10
111.4641417545
 20
137.3485630216
 11
111.4641417545
 21
159.7005630216
  0
LINE
  5
271
100
AcDbEntity
  8
0
100
AcDbLine
 62
7
  6
CONTINUOUS
 10
113.0389417545
 20
284.9479630216
 11
113.0389417545
 21
289.7739630216
  0
LINE
  5
272
100
AcDbEntity
  8
0
100
AcDbLine
 62
7
  6
CONTINUOUS
 10
157.6413417545
 20
161.1606398449
 11
156.1173417545
 21
161.1606398449
  0
LINE
  5
273
100
AcDbEntity
  8
0
100
AcDbLine
 62
7
  6
CONTINUOUS
 10
117.8141417545
 20
161.1606398449
 11
119.3381417545
 21
161.1606398449
  0
LINE
  5
274
100
AcDbEntity
  8
0
100
AcDbLine
 62
7
  6
CONTINUOUS
 10
113.4961417545
 20
161.7325630216
 11
161.9593417545
 21
161.7325630216
  0
LINE
  5
275
100
AcDbEntity
  8
0
100
AcDbLine
 62
7
  6
CONTINUOUS
 10
117.8141417545
 20
161.1606398449
 11
117.8141417545
 21
161.7325630216
  0
LINE
  5
276
100
AcDbEntity
  8
0
100
AcDbLine
 62
7
  6
CONTINUOUS
 10
119.3381417545
 20
161.1606398449
 11
119.3381417545
 21
161.7325630216
  0
LINE
  5
277
100
AcDbEntity
  8
0
100
AcDbLine
 62
7
  6
CONTINUOUS
 10
119.3889417545
 20
284.7578861982
 11
119.3889417545
 21
284.1859630216
  0
LINE
  5
278
100
AcDbEntity
  8
0
100
AcDbLine
 62
7
  6
CONTINUOUS
 10
120.9129417545
 20
284.7578861982
 11
120.9129417545
 21
284.1859630216
  0
LINE
  5
279
100
AcDbEntity
  8
0
100
AcDbLine
 62
7
  6
CONTINUOUS
 10
136.2037417545
 20
27.1887630216
 11
136.2037417545
 21
42.2509630216
  0
LINE
  5
27A
100
AcDbEntity
  8
0
100
AcDbLine
 62
7
  6
CONTINUOUS
 10
136.9657417545
 20
290.5359630216
 11
136.9657417545
 21
289.9640398449
  0
LINE
  5
27B
100
AcDbEntity
  8
0
100
AcDbLine
 62
7
  6
CONTINUOUS
 10
136.9657417545
 20
135.8884861982
 11
136.9657417545
 21
135.3165630216
  0
LINE
  5
27C
100
AcDbEntity
  8
0
100
AcDbLine
 62
7
  6
CONTINUOUS
 10
136.9715529561
 20
29.5103230216
 11
136.9715529561
 21
30.1453230216
  0
LINE
  5
27D
100
AcDbEntity
  8
0
100
AcDbLine
 62
7
  6
CONTINUOUS
 10
137.7709217545
 20
42.5354430216
 11
137.7709217545
 21
30.6482430216
  0
LINE
  5
27E
100
AcDbEntity
  8
0
100
AcDbLine
 62
7
  6
CONTINUOUS
 10
138.4897417545
 20
290.5359630216
 11
138.4897417545
 21
289.9640398449
  0
LINE
  5
27F
100
AcDbEntity
  8
0
100
AcDbLine
 62
7
  6
CONTINUOUS
 10
138.4897417545
 20
135.8884861982
 11
138.4897417545
 21
135.3165630216
  0
LINE
  5
280
100
AcDbEntity
  8
0
100
AcDbLine
 62
7
  6
CONTINUOUS
 10
139.2517417545
 20
30.6482430216
 11
139.2517417545
 21
27.1887630216
  0
LINE
  5
281
100
AcDbEntity
  8
0
100
AcDbLine
 62
7
  6
CONTINUOUS
 10
139.4727217545
 20
30.6482430216
 11
139.4727217545
 21
42.5354430216
  0
LINE
  5
282
100
AcDbEntity
  8
0
100
AcDbLine
 62
7
  6
CONTINUOUS
 10
154.5425417545
 20
284.7578861982
 11
154.5425417545
 21
284.1859630216
  0
LINE
  5
283
100
AcDbEntity
  8
0
100
AcDbLine
 62
7
  6
CONTINUOUS
 10
156.0665417545
 20
284.7578861982
 11
156.0665417545
 21
284.1859630216
  0
LINE
  5
284
100
AcDbEntity
  8
0
100
AcDbLine
 62
7
  6
CONTINUOUS
 10
156.1173417545
 20
161.1606398449
 11
156.1173417545
 21
161.7325630216
  0
LINE
  5
285
100
AcDbEntity
  8
0
100
AcDbLine
 62
7
  6
CONTINUOUS
 10
157.6413417545
 20
161.1606398449
 11
157.6413417545
 21
161.7325630216
  0
LINE
  5
286
100
AcDbEntity
  8
0
100
AcDbLine
 62
7
  6
CONTINUOUS
 10
162.4165417545
 20
289.7739630216
 11
162.4165417545
 21
284.9479630216
  0
LINE
  5
287
100
AcDbEntity
  8
0
100
AcDbLine
 62
7
  6
CONTINUOUS
 10
163.9913417545
 20
159.7005630216
 11
163.9913417545
 21
137.3485630216
  0
LINE
  5
288
100
AcDbEntity
  8
0
100
AcDbLine
 62
7
  6
CONTINUOUS
 10
164.4485417545
 20
41.3250386387
 11
164.4485417545
 21
42.4287630216
  0
LINE
  5
289
100
AcDbEntity
  8
0
100
AcDbLine
 62
7
  6
CONTINUOUS
 10
165.4645417545
 20
43.9527630216
 11
165.4645417545
 21
232.5295095495
  0
LINE
  5
28A
100
AcDbEntity
  8
0
100
AcDbLine
 62
7
  6
CONTINUOUS
 10
165.4645417545
 20
238.3064164937
 11
165.4645417545
 21
268.5975095495
  0
LINE
  5
28B
100
AcDbEntity
  8
0
100
AcDbLine
 62
7
  6
CONTINUOUS
 10
165.4645417545
 20
274.3744164937
 11
165.4645417545
 21
295.3582244906
  0
LINE
  5
28C
100
AcDbEntity
  8
0
100
AcDbLine
 62
7
  6
CONTINUOUS
 10
165.943488571
 20
43.642962806
 11
165.943488571
 21
53.4868152307
  0
LINE
  5
28D
100
AcDbEntity
  8
0
100
AcDbLine
 62
7
  6
CONTINUOUS
 10
165.9434887476
 20
61.1742956016
 11
165.9434887476
 21
232.2453735782
  0
LINE
  5
28E
100
AcDbEntity
  8
0
100
AcDbLine
 62
7
  6
CONTINUOUS
 10
165.9434887476
 20
238.590552465
 11
165.9434887476
 21
268.3133735782
  0
LINE
  5
28F
100
AcDbEntity
  8
0
100
AcDbLine
 62
7
  6
CONTINUOUS
 10
165.9434887476
 20
274.658552465
 11
165.9434887476
 21
293.2029630216
  0
LINE
  5
290
100
AcDbEntity
  8
0
100
AcDbLine
 62
7
  6
CONTINUOUS
 10
165.959062726
 20
232.2377709178
 11
165.959062726
 21
238.5981551254
  0
LINE
  5
291
100
AcDbEntity
  8
0
100
AcDbLine
 62
7
  6
CONTINUOUS
 10
165.959062726
 20
268.3057709178
 11
165.959062726
 21
274.6661551254
  0
LINE
  5
292
100
AcDbEntity
  8
0
100
AcDbLine
 62
7
  6
CONTINUOUS
 10
165.9725417545
 20
43.4447630216
 11
165.9725417545
 21
41.3250386394
  0
LINE
  5
293
100
AcDbEntity
  8
0
100
AcDbLine
 62
7
  6
CONTINUOUS
 10
167.6198032235
 20
293.2029630217
 11
167.6198032235
 21
61.1742964245
  0
LINE
  5
294
100
AcDbEntity
  8
0
100
AcDbLine
 62
7
  6
CONTINUOUS
 10
167.6198032235
 20
52.341870669
 11
167.6198032235
 21
42.4980017426
  0
LINE
  5
295
100
AcDbEntity
  8
0
100
AcDbLine
 62
7
  6
CONTINUOUS
 10
167.7505417543
 20
41.7273469024
 11
167.7505365442
 21
37.9065566932
  0
LINE
  5
296
100
AcDbEntity
  8
0
100
AcDbLine
 62
7
  6
CONTINUOUS
 10
41.1574167466
 20
337.7266256167
 11
45.2346786117
 21
333.6493637475
  0
LINE
  5
297
100
AcDbEntity
  8
0
100
AcDbLine
 62
7
  6
CONTINUOUS
 10
221.632926368
 20
52.6445352986
 11
225.9644062226
 21
39.3786276508
  0
LINE
  5
298
100
AcDbEntity
  8
0
100
AcDbLine
 62
7
  6
CONTINUOUS
 10
53.8378160288
 20
342.2525011643
 11
49.7605541593
 21
346.3297630295
  0
LINE
  5
299
100
AcDbEntity
  8
0
100
AcDbLine
 62
7
  6
CONTINUOUS
 10
234.2980667624
 20
48.5456827443
 11
230.2208048972
 21
61.0330037322
  0
LINE
  5
29A
100
AcDbEntity
  8
0
100
AcDbLine
 62
7
  6
CONTINUOUS
 10
192.7695417545
 20
349.9465630216
 11
192.7695417545
 21
348.6003630216
  0
LINE
  5
29B
100
AcDbEntity
  8
0
100
AcDbLine
 62
7
  6
CONTINUOUS
 10
196.9859417545
 20
349.9465630216
 11
196.9859417545
 21
348.6003630216
  0
LINE
  5
29C
100
AcDbEntity
  8
0
100
AcDbLine
 62
7
  6
CONTINUOUS
 10
40.2175446757
 20
45.4443658739
 11
40.8899981001
 21
45.9421355909
  0
LINE
  5
29D
100
AcDbEntity
  8
0
100
AcDbLine
 62
7
  6
CONTINUOUS
 10
221.617670189
 20
334.6614975649
 11
221.617670189
 21
342.2525011643
  0
LINE
  5
29E
100
AcDbEntity
  8
0
100
AcDbLine
 62
7
  6
CONTINUOUS
 10
221.6329263658
 20
52.6445352985
 11
221.6329263658
 21
60.0048900986
  0
LINE
  5
29F
100
AcDbEntity
  8
0
100
AcDbLine
 62
7
  6
CONTINUOUS
 10
222.6298012978
 20
61.0330037302
 11
222.6298012978
 21
333.6493637516
  0
LINE
  5
2A0
100
AcDbEntity
  8
0
100
AcDbLine
 62
7
  6
CONTINUOUS
 10
225.694929289
 20
346.3297630295
 11
225.694929289
 21
346.7703330148
  0
LINE
  5
2A1
100
AcDbEntity
  8
0
100
AcDbLine
 62
7
  6
CONTINUOUS
 10
225.8276417545
 20
27.1887630216
 11
225.8276417545
 21
28.7635630216
  0
LINE
  5
2A2
100
AcDbEntity
  8
0
100
AcDbLine
 62
7
  6
CONTINUOUS
 10
225.8276417549
 20
348.1539937561
 11
225.8276417549
 21
348.6003630216
  0
LINE
  5
2A3
100
AcDbEntity
  8
0
100
AcDbLine
 62
7
  6
CONTINUOUS
 10
225.933529341
 20
346.7672663864
 11
225.9335293417
 21
348.1533823445
  0
LINE
  5
2A4
100
AcDbEntity
  8
0
100
AcDbLine
 62
7
  6
CONTINUOUS
 10
225.9644062349
 20
37.9065566932
 11
225.9644062349
 21
39.3786276511
  0
LINE
  5
2A5
100
AcDbEntity
  8
0
100
AcDbLine
 62
7
  6
CONTINUOUS
 10
230.2208048972
 20
333.6493637475
 11
230.2208048972
 21
61.0330037322
  0
LINE
  5
2A6
100
AcDbEntity
  8
0
100
AcDbLine
 62
7
  6
CONTINUOUS
 10
234.2980667624
 20
48.5456827443
 11
234.2980667624
 21
337.7266256167
  0
LINE
  5
2A7
100
AcDbEntity
  8
0
100
AcDbLine
 62
7
  6
CONTINUOUS
 10
234.7386367477
 20
337.7266256167
 11
234.7386367477
 21
48.5456827439
  0
LINE
  5
2A8
100
AcDbEntity
  8
0
100
AcDbLine
 62
7
  6
CONTINUOUS
 10
234.9462525446
 20
43.6978970467
 11
234.9462417545
 21
37.8821630216
  0
LINE
  5
2A9
100
AcDbEntity
  8
0
100
AcDbLine
 62
7
  6
CONTINUOUS
 10
235.2379275408
 20
45.4443722855
 11
235.2379275418
 21
45.316325573
  0
LINE
  5
2AA
100
AcDbEntity
  8
0
100
AcDbLine
 62
7
  6
CONTINUOUS
 10
236.0746939636
 20
48.2023568508
 11
236.074672489
 21
337.9069630216
  0
LINE
  5
2AB
100
AcDbEntity
  8
0
100
AcDbLine
 62
7
  6
CONTINUOUS
 10
236.5210417545
 20
37.8821630284
 11
236.5210417545
 21
337.9069630216
  0
LINE
  5
2AC
100
AcDbEntity
  8
0
100
AcDbLine
 62
7
  6
CONTINUOUS
 10
113.8009417545
 20
284.1859630216
 11
161.6545417545
 21
284.1859630216
  0
LINE
  5
2AD
100
AcDbEntity
  8
0
100
AcDbLine
 62
7
  6
CONTINUOUS
 10
156.0665417545
 20
284.7578861982
 11
154.5425417545
 21
284.7578861982
  0
LINE
  5
2AE
100
AcDbEntity
  8
0
100
AcDbLine
 62
7
  6
CONTINUOUS
 10
119.3889417545
 20
284.7578861982
 11
120.9129417545
 21
284.7578861982
  0
LINE
  5
2AF
100
AcDbEntity
  8
0
100
AcDbLine
 62
7
  6
CONTINUOUS
 10
138.4897417545
 20
289.9640398449
 11
136.9657417545
 21
289.9640398449
  0
LINE
  5
2B0
100
AcDbEntity
  8
0
100
AcDbLine
 62
7
  6
CONTINUOUS
 10
113.8009417545
 20
290.5359630216
 11
161.6545417545
 21
290.5359630216
  0
LINE
  5
2B1
100
AcDbEntity
  8
0
100
AcDbLine
 62
7
  6
CONTINUOUS
 10
164.4485417545
 20
42.4287630216
 11
165.4645417762
 21
43.9527630209
  0
LINE
  5
2B2
100
AcDbEntity
  8
0
100
AcDbLine
 62
7
  6
CONTINUOUS
 10
41.3823552361
 20
45.650167168
 11
40.217554851
 21
45.3163381529
  0
LINE
  5
2B3
100
AcDbEntity
  8
0
100
AcDbLine
 62
7
  6
CONTINUOUS
 10
167.6198032235
 20
293.2029630216
 11
107.8356802854
 21
293.2029630216
  0
LINE
  5
2B4
100
AcDbEntity
  8
0
100
AcDbLine
 62
7
  6
CONTINUOUS
 10
165.4645417545
 20
293.6819100147
 11
109.9909417545
 21
293.6819100147
  0
LINE
  5
2B5
100
AcDbEntity
  8
0
100
AcDbLine
 62
7
  6
CONTINUOUS
 10
109.9909417544
 20
295.3582244906
 11
165.4645417546
 21
295.3582244906
  0
LINE
  5
2B6
100
AcDbEntity
  8
0
100
AcDbLine
 62
7
  6
CONTINUOUS
 10
136.2037417545
 20
39.0346850355
 11
137.7648484142
 21
40.1688954145
  0
LINE
  5
2B7
100
AcDbEntity
  8
0
100
AcDbLine
 62
7
  6
CONTINUOUS
 10
235.8501441082
 20
47.5103235549
 11
235.4634662775
 21
46.2052954346
  0
LINE
  5
2B8
100
AcDbEntity
  8
0
100
AcDbLine
 62
7
  6
CONTINUOUS
 10
235.4634662775
 20
46.2052954346
 11
235.2379380265
 21
45.4443644997
  0
LINE
  5
2B9
100
AcDbEntity
  8
0
100
AcDbLine
 62
7
  6
CONTINUOUS
 10
165.0872592587
 20
42.8543963471
 11
165.9725417545
 21
43.4447630216
  0
LINE
  5
2BA
100
AcDbEntity
  8
0
100
AcDbLine
 62
7
  6
CONTINUOUS
 10
164.4485417545
 20
42.4287630216
 11
165.9725417511
 21
43.4447630428
  0
LINE
  5
2BB
100
AcDbEntity
  8
0
100
AcDbLine
 62
7
  6
CONTINUOUS
 10
230.2208048972
 20
333.6493637516
 11
222.6298012978
 21
333.6493637516
  0
LINE
  5
2BC
100
AcDbEntity
  8
0
100
AcDbLine
 62
7
  6
CONTINUOUS
 10
52.8256822112
 20
333.6493662537
 11
45.2346786117
 21
333.6493662537
  0
LINE
  5
2BD
100
AcDbEntity
  8
0
100
AcDbLine
 62
7
  6
CONTINUOUS
 10
221.6176674845
 20
334.6614975649
 11
53.8378160244
 21
334.6614975649
  0
LINE
  5
2BE
100
AcDbEntity
  8
0
100
AcDbLine
 62
7
  6
CONTINUOUS
 10
234.7386367477
 20
337.7266256167
 11
234.2980667624
 21
337.7266256167
  0
LINE
  5
2BF
100
AcDbEntity
  8
0
100
AcDbLine
 62
7
  6
CONTINUOUS
 10
41.1574167466
 20
337.7266256265
 11
40.7168467612
 21
337.7266256265
  0
LINE
  5
2C0
100
AcDbEntity
  8
0
100
AcDbLine
 62
7
  6
CONTINUOUS
 10
236.5210417545
 20
337.9069630216
 11
236.0746832262
 21
337.9069630216
  0
LINE
  5
2C1
100
AcDbEntity
  8
0
100
AcDbLine
 62
7
  6
CONTINUOUS
 10
39.3808095553
 20
337.9069630195
 11
38.9344417545
 21
337.9069630195
  0
LINE
  5
2C2
100
AcDbEntity
  8
0
100
AcDbLine
 62
7
  6
CONTINUOUS
 10
236.0744873859
 20
337.9652256086
 11
234.7355701195
 21
337.9652256085
  0
LINE
  5
2C3
100
AcDbEntity
  8
0
100
AcDbLine
 62
7
  6
CONTINUOUS
 10
40.7199133896
 20
337.9652256081
 11
39.3809961228
 21
337.9652256088
  0
LINE
  5
2C4
100
AcDbEntity
  8
0
100
AcDbLine
 62
7
  6
CONTINUOUS
 10
235.7060352532
 20
47.4829261739
 11
234.5655045797
 21
45.942164444
  0
LINE
  5
2C5
100
AcDbEntity
  8
0
100
AcDbLine
 62
7
  6
CONTINUOUS
 10
53.8378160288
 20
342.2525011643
 11
221.6176674801
 21
342.2525011643
  0
LINE
  5
2C6
100
AcDbEntity
  8
0
100
AcDbLine
 62
7
  6
CONTINUOUS
 10
225.6949293496
 20
346.3297630295
 11
49.7605541593
 21
346.3297630295
  0
LINE
  5
2C7
100
AcDbEntity
  8
0
100
AcDbLine
 62
7
  6
CONTINUOUS
 10
49.7605541593
 20
346.7703330148
 11
225.6949293497
 21
346.7703330148
  0
LINE
  5
2C8
100
AcDbEntity
  8
0
100
AcDbLine
 62
7
  6
CONTINUOUS
 10
225.8276417545
 20
348.1539937561
 11
49.6278417545
 21
348.1539937561
  0
LINE
  5
2C9
100
AcDbEntity
  8
0
100
AcDbLine
 62
7
  6
CONTINUOUS
 10
49.6278417545
 20
348.6003630216
 11
225.8276417545
 21
348.6003630216
  0
LINE
  5
2CA
100
AcDbEntity
  8
0
100
AcDbLine
 62
7
  6
CONTINUOUS
 10
196.9859417545
 20
349.9465630216
 11
192.7695417545
 21
349.9465630216
  0
LINE
  5
2CB
100
AcDbEntity
  8
0
100
AcDbLine
 62
7
  6
CONTINUOUS
 10
82.6859417545
 20
349.9465630216
 11
78.4695417545
 21
349.9465630216
  0
LINE
  5
2CC
100
AcDbEntity
  8
0
100
AcDbLine
 62
7
  6
CONTINUOUS
 10
196.7319417545
 20
350.2005630216
 11
193.0235417545
 21
350.2005630216
  0
LINE
  5
2CD
100
AcDbEntity
  8
0
100
AcDbLine
 62
7
  6
CONTINUOUS
 10
82.4319417545
 20
350.2005630216
 11
78.7235417545
 21
350.2005630216
  0
ARC
  5
2CE
100
AcDbEntity
  8
0
100
AcDbCircle
 62
7
  6
CONTINUOUS
 10
-12.4023035219
 20
61.2076029195
 40
121.9143028329
100
AcDbArc
 50
359.396367313
 51
359.9843470243
  0
ARC
  5
2CF
100
AcDbEntity
  8
0
100
AcDbCircle
 62
7
  6
CONTINUOUS
 10
40.4901341878
 20
72.128338289
 40
26.8133881043
100
AcDbArc
 50
269.1436955691
 51
269.4175323761
  0
ARC
  5
2D0
100
AcDbEntity
  8
0
100
AcDbCircle
 62
7
  6
CONTINUOUS
 10
52.4626719482
 20
48.2208873769
 40
11.794893901
100
AcDbArc
 50
189.6330071643
 51
191.1393608033
  0
ARC
  5
2D1
100
AcDbEntity
  8
0
100
AcDbCircle
 62
7
  6
CONTINUOUS
 10
49.6278417545
 20
37.8821630216
 40
10.6934
100
AcDbArc
 50
180.0
 51
270.0000000217
  0
ARC
  5
2D2
100
AcDbEntity
  8
0
100
AcDbCircle
 62
7
  6
CONTINUOUS
 10
40.4902821206
 20
55.8246991031
 40
10.3839162981
100
AcDbArc
 50
267.8300185362
 51
268.4949831614
  0
ARC
  5
2D3
100
AcDbEntity
  8
0
100
AcDbCircle
 62
7
  6
CONTINUOUS
 10
51.5557612182
 20
47.4774539134
 40
10.3362394877
100
AcDbArc
 50
188.6737049636
 51
190.1827017928
  0
ARC
  5
2D4
100
AcDbEntity
  8
0
100
AcDbCircle
 62
7
  6
CONTINUOUS
 10
50.4556427232
 20
48.5447783512
 40
9.7387960039
100
AcDbArc
 50
179.9946792284
 51
182.0897056145
  0
ARC
  5
2D5
100
AcDbEntity
  8
0
100
AcDbCircle
 62
7
  6
CONTINUOUS
 10
49.6278417545
 20
37.8821630216
 40
9.1186
100
AcDbArc
 50
179.9999999999
 51
270.0
  0
ARC
  5
2D6
100
AcDbEntity
  8
0
100
AcDbCircle
 62
7
  6
CONTINUOUS
 10
49.4790378947
 20
48.5132293393
 40
8.3216842246
100
AcDbArc
 50
179.7765540534
 51
181.8828218542
  0
ARC
  5
2D7
100
AcDbEntity
  8
0
100
AcDbCircle
 62
7
  6
CONTINUOUS
 10
109.9883622073
 20
41.7277839684
 40
2.2834204946
100
AcDbArc
 50
160.7558362284
 51
180.0109668952
  0
ARC
  5
2D8
100
AcDbEntity
  8
0
100
AcDbCircle
 62
7
  6
CONTINUOUS
 10
113.4961417545
 20
159.7005630216
 40
2.032
100
AcDbArc
 50
90.0
 51
180.0
  0
ARC
  5
2D9
100
AcDbEntity
  8
0
100
AcDbCircle
 62
7
  6
CONTINUOUS
 10
113.4961417545
 20
137.3485630216
 40
2.032
100
AcDbArc
 50
180.0
 51
270.0
  0
ARC
  5
2DA
100
AcDbEntity
  8
0
100
AcDbCircle
 62
7
  6
CONTINUOUS
 10
108.0236013815
 20
44.1891330701
 40
1.5851239846
100
AcDbArc
 50
333.7281304796
 51
339.8486455097
  0
ARC
  5
2DB
100
AcDbEntity
  8
0
100
AcDbCircle
 62
7
  6
CONTINUOUS
 10
109.9909417545
 20
43.4447630216
 40
0.508
100
AcDbArc
 50
89.9999999998
 51
180.0
  0
ARC
  5
2DC
100
AcDbEntity
  8
0
100
AcDbCircle
 62
7
  6
CONTINUOUS
 10
49.6278417545
 20
337.9069630216
 40
10.6934
100
AcDbArc
 50
90.0
 51
180.0
  0
ARC
  5
2DD
100
AcDbEntity
  8
0
100
AcDbCircle
 62
7
  6
CONTINUOUS
 10
49.6279111472
 20
337.9070003007
 40
10.2469726326
100
AcDbArc
 50
90.592494888
 51
179.6744322208
  0
ARC
  5
2DE
100
AcDbEntity
  8
0
100
AcDbCircle
 62
7
  6
CONTINUOUS
 10
49.9942781646
 20
337.7267062765
 40
9.2774314037
100
AcDbArc
 50
178.5267843645
 51
180.0004981291
  0
ARC
  5
2DF
100
AcDbEntity
  8
0
100
AcDbCircle
 62
7
  6
CONTINUOUS
 10
49.7604134547
 20
337.4975727549
 40
9.272760261
100
AcDbArc
 50
89.9991305952
 51
91.4735867963
  0
ARC
  5
2E0
100
AcDbEntity
  8
0
100
AcDbCircle
 62
7
  6
CONTINUOUS
 10
49.627853163
 20
338.9830198145
 40
9.1709738895
100
AcDbArc
 50
90.0000712749
 51
90.6616200542
  0
ARC
  5
2E1
100
AcDbEntity
  8
0
100
AcDbCircle
 62
7
  6
CONTINUOUS
 10
48.5462088401
 20
337.9069616586
 40
9.1653978834
100
AcDbArc
 50
179.6357713054
 51
179.9999914867
  0
ARC
  5
2E2
100
AcDbEntity
  8
0
100
AcDbCircle
 62
7
  6
CONTINUOUS
 10
48.9291593382
 20
337.7370226533
 40
7.771749493
100
AcDbArc
 50
178.5856157245
 51
180.076650249
  0
ARC
  5
2E3
100
AcDbEntity
  8
0
100
AcDbCircle
 62
7
  6
CONTINUOUS
 10
49.7500410006
 20
338.5642169963
 40
7.7655527076
100
AcDbArc
 50
89.9224318687
 51
91.5470893206
  0
ARC
  5
2E4
100
AcDbEntity
  8
0
100
AcDbCircle
 62
7
  6
CONTINUOUS
 10
107.9536071787
 20
271.4859630216
 40
3.5346705128
100
AcDbArc
 50
295.8795171729
 51
64.1204828271
  0
ARC
  5
2E5
100
AcDbEntity
  8
0
100
AcDbCircle
 62
7
  6
CONTINUOUS
 10
107.9536071787
 20
235.4179630216
 40
3.5346705128
100
AcDbArc
 50
295.8795171729
 51
64.1204828271
  0
ARC
  5
2E6
100
AcDbEntity
  8
0
100
AcDbCircle
 62
7
  6
CONTINUOUS
 10
109.9909417545
 20
293.2029630216
 40
2.1552614691
100
AcDbArc
 50
90.0000000017
 51
179.9999999983
  0
ARC
  5
2E7
100
AcDbEntity
  8
0
100
AcDbCircle
 62
7
  6
CONTINUOUS
 10
113.8009417545
 20
289.7739630216
 40
0.762
100
AcDbArc
 50
90.0
 51
180.0
  0
ARC
  5
2E8
100
AcDbEntity
  8
0
100
AcDbCircle
 62
7
  6
CONTINUOUS
 10
113.8009417545
 20
284.9479630216
 40
0.762
100
AcDbArc
 50
180.0
 51
270.0
  0
ARC
  5
2E9
100
AcDbEntity
  8
0
100
AcDbCircle
 62
7
  6
CONTINUOUS
 10
109.9909417545
 20
293.2029630216
 40
0.4789469931
100
AcDbArc
 50
90.0000000001
 51
179.9999999998
  0
ARC
  5
2EA
100
AcDbEntity
  8
0
100
AcDbCircle
 62
7
  6
CONTINUOUS
 10
78.7235417545
 20
349.9465630216
 40
0.254
100
AcDbArc
 50
90.0
 51
180.0
  0
ARC
  5
2EB
100
AcDbEntity
  8
0
100
AcDbCircle
 62
7
  6
CONTINUOUS
 10
82.4319417545
 20
349.9465630216
 40
0.254
100
AcDbArc
 50
0.0
 51
90.0
  0
ARC
  5
2EC
100
AcDbEntity
  8
0
100
AcDbCircle
 62
7
  6
CONTINUOUS
 10
287.857302297
 20
61.2076003002
 40
121.9138180983
100
AcDbArc
 50
180.0156518069
 51
180.6036338561
  0
ARC
  5
2ED
100
AcDbEntity
  8
0
100
AcDbCircle
 62
7
  6
CONTINUOUS
 10
234.9658676426
 20
72.0855118006
 40
26.770561487
100
AcDbArc
 50
270.582287737
 51
270.8762289625
  0
ARC
  5
2EE
100
AcDbEntity
  8
0
100
AcDbCircle
 62
7
  6
CONTINUOUS
 10
223.0081489462
 20
48.2176181126
 40
11.7792257232
100
AcDbArc
 50
348.8618595231
 51
350.3701990229
  0
ARC
  5
2EF
100
AcDbEntity
  8
0
100
AcDbCircle
 62
7
  6
CONTINUOUS
 10
225.8276417545
 20
37.8821630216
 40
10.6934
100
AcDbArc
 50
269.9999999566
 51
360.0
  0
ARC
  5
2F0
100
AcDbEntity
  8
0
100
AcDbCircle
 62
7
  6
CONTINUOUS
 10
234.9663651344
 20
55.787575981
 40
10.346775997
100
AcDbArc
 50
271.5039583041
 51
272.3020509141
  0
ARC
  5
2F1
100
AcDbEntity
  8
0
100
AcDbCircle
 62
7
  6
CONTINUOUS
 10
223.9087199979
 20
47.4760925684
 40
10.3271419699
100
AcDbArc
 50
349.8159017787
 51
351.3262510429
  0
ARC
  5
2F2
100
AcDbEntity
  8
0
100
AcDbCircle
 62
7
  6
CONTINUOUS
 10
225.0052146779
 20
48.5446793905
 40
9.7334210615
100
AcDbArc
 50
357.9097229289
 51
0.0059062391
  0
ARC
  5
2F3
100
AcDbEntity
  8
0
100
AcDbCircle
 62
7
  6
CONTINUOUS
 10
225.8276417545
 20
37.8821630216
 40
9.1186
100
AcDbArc
 50
270.0
 51
360.0
  0
ARC
  5
2F4
100
AcDbEntity
  8
0
100
AcDbCircle
 62
7
  6
CONTINUOUS
 10
225.9780754941
 20
48.5131658064
 40
8.3200548108
100
AcDbArc
 50
358.1172421638
 51
0.2239273829
  0
ARC
  5
2F5
100
AcDbEntity
  8
0
100
AcDbCircle
 62
7
  6
CONTINUOUS
 10
146.5847217545
 20
38.8016430216
 40
3.0861
100
AcDbArc
 50
197.9858793781
 51
276.5817208018
  0
ARC
  5
2F6
100
AcDbEntity
  8
0
100
AcDbCircle
 62
7
  6
CONTINUOUS
 10
165.4772246748
 20
41.7294957771
 40
2.2733180951
100
AcDbArc
 50
359.9458406325
 51
19.2873599692
  0
ARC
  5
2F7
100
AcDbEntity
  8
0
100
AcDbCircle
 62
7
  6
CONTINUOUS
 10
233.8909011061
 20
48.4797428194
 40
2.1859517467
100
AcDbArc
 50
333.6740524674
 51
351.5333724997
  0
ARC
  5
2F8
100
AcDbEntity
  8
0
100
AcDbCircle
 62
7
  6
CONTINUOUS
 10
145.6779417545
 20
37.3995630216
 40
2.0701
100
AcDbArc
 50
121.4867759274
 51
58.5132240726
  0
ARC
  5
2F9
100
AcDbEntity
  8
0
100
AcDbCircle
 62
7
  6
CONTINUOUS
 10
161.9593417545
 20
137.3485630216
 40
2.032
100
AcDbArc
 50
270.0
 51
360.0
  0
ARC
  5
2FA
100
AcDbEntity
  8
0
100
AcDbCircle
 62
7
  6
CONTINUOUS
 10
161.9593417545
 20
159.7005630216
 40
2.032
100
AcDbArc
 50
0.0
 51
90.0
  0
ARC
  5
2FB
100
AcDbEntity
  8
0
100
AcDbCircle
 62
7
  6
CONTINUOUS
 10
146.5847217545
 20
38.8016430216
 40
1.89865
100
AcDbArc
 50
168.6547162983
 51
307.2759038396
  0
ARC
  5
2FC
100
AcDbEntity
  8
0
100
AcDbCircle
 62
7
  6
CONTINUOUS
 10
167.4321069399
 20
44.1892332664
 40
1.5853661353
100
AcDbArc
 50
200.1516181889
 51
206.2899080732
  0
ARC
  5
2FD
100
AcDbEntity
  8
0
100
AcDbCircle
 62
7
  6
CONTINUOUS
 10
167.4721607612
 20
43.6452077215
 40
1.528673891
100
AcDbArc
 50
180.0814737927
 51
180.7062860971
  0
ARC
  5
2FE
100
AcDbEntity
  8
0
100
AcDbCircle
 62
7
  6
CONTINUOUS
 10
165.4645417545
 20
43.4447630216
 40
0.508
100
AcDbArc
 50
0.0
 51
89.9999999993
  0
ARC
  5
2FF
100
AcDbEntity
  8
0
100
AcDbCircle
 62
7
  6
CONTINUOUS
 10
225.8276417545
 20
337.9069630216
 40
10.6934
100
AcDbArc
 50
0.0
 51
90.0
  0
ARC
  5
300
100
AcDbEntity
  8
0
100
AcDbCircle
 62
7
  6
CONTINUOUS
 10
225.8277499361
 20
337.906840509
 40
10.2469471997
100
AcDbArc
 50
0.326478473
 51
89.4085281266
  0
ARC
  5
301
100
AcDbEntity
  8
0
100
AcDbCircle
 62
7
  6
CONTINUOUS
 10
225.6949730786
 20
337.490028196
 40
9.280304819
100
AcDbArc
 50
88.5270125271
 51
90.0002699787
  0
ARC
  5
302
100
AcDbEntity
  8
0
100
AcDbCircle
 62
7
  6
CONTINUOUS
 10
225.4639887258
 20
337.7267420591
 40
9.2746480227
100
AcDbArc
 50
359.9992806568
 51
1.4734367304
  0
ARC
  5
303
100
AcDbEntity
  8
0
100
AcDbCircle
 62
7
  6
CONTINUOUS
 10
226.9035926327
 20
337.9069592025
 40
9.1710797836
100
AcDbArc
 50
0.0000238596
 51
0.3640183762
  0
ARC
  5
304
100
AcDbEntity
  8
0
100
AcDbCircle
 62
7
  6
CONTINUOUS
 10
225.8276764214
 20
338.9904635493
 40
9.1635301773
100
AcDbArc
 50
89.3381305754
 51
90.0002167578
  0
ARC
  5
305
100
AcDbEntity
  8
0
100
AcDbCircle
 62
7
  6
CONTINUOUS
 10
225.7053146509
 20
338.5563690505
 40
7.7734006109
100
AcDbArc
 50
88.5858168782
 51
90.0765474233
  0
ARC
  5
306
100
AcDbEntity
  8
0
100
AcDbCircle
 62
7
  6
CONTINUOUS
 10
226.5312514112
 20
337.7371209055
 40
7.7668220918
100
AcDbArc
 50
359.9225763468
 51
1.5464975854
  0
ARC
  5
307
100
AcDbEntity
  8
0
100
AcDbCircle
 62
7
  6
CONTINUOUS
 10
167.5018763303
 20
235.4179630216
 40
3.5346705128
100
AcDbArc
 50
115.8795171729
 51
244.1204828271
  0
ARC
  5
308
100
AcDbEntity
  8
0
100
AcDbCircle
 62
7
  6
CONTINUOUS
 10
167.5018763303
 20
271.4859630216
 40
3.5346705128
100
AcDbArc
 50
115.8795171729
 51
244.1204828271
  0
ARC
  5
309
100
AcDbEntity
  8
0
100
AcDbCircle
 62
7
  6
CONTINUOUS
 10
165.4645417545
 20
293.2029630216
 40
2.1552614691
100
AcDbArc
 50
0.0000000023
 51
89.9999999979
  0
ARC
  5
30A
100
AcDbEntity
  8
0
100
AcDbCircle
 62
7
  6
CONTINUOUS
 10
161.6545417545
 20
284.9479630216
 40
0.762
100
AcDbArc
 50
270.0
 51
360.0
  0
ARC
  5
30B
100
AcDbEntity
  8
0
100
AcDbCircle
 62
7
  6
CONTINUOUS
 10
161.6545417545
 20
289.7739630216
 40
0.762
100
AcDbArc
 50
0.0
 51
90.0
  0
ARC
  5
30C
100
AcDbEntity
  8
0
100
AcDbCircle
 62
7
  6
CONTINUOUS
 10
165.4645417545
 20
293.2029630216
 40
0.4789469931
100
AcDbArc
 50
0.0
 51
90.0
  0
ARC
  5
30D
100
AcDbEntity
  8
0
100
AcDbCircle
 62
7
  6
CONTINUOUS
 10
193.0235417545
 20
349.9465630216
 40
0.254
100
AcDbArc
 50
90.0
 51
180.0
  0
ARC
  5
30E
100
AcDbEntity
  8
0
100
AcDbCircle
 62
7
  6
CONTINUOUS
 10
196.7319417545
 20
349.9465630216
 40
0.254
100
AcDbArc
 50
0.0
 51
90.0
  0
SPLINE
  5
30F
100
AcDbEntity
  8
0
100
AcDbSpline
 62
7
  6
CONTINUOUS
 70
0
 71
3
 72
8
 73
4
 74
0
 42
0.0000001
 43
0.0000001
 44
0.0000000001
 40
0.0
 40
0.0
 40
0.0
 40
0.0
 40
1.0
 40
1.0
 40
1.0
 40
1.0
 10
235.8289143286
 20
48.1896613089
 30
0.0
 10
235.9043671033
 20
48.1896694394
 30
0.0
 10
235.9806935528
 20
48.1793477119
 30
0.0
 10
236.0530327959
 20
48.1578964838
 30
0.0
  0
SPLINE
  5
310
100
AcDbEntity
  8
0
100
AcDbSpline
 62
7
  6
CONTINUOUS
 70
0
 71
3
 72
11
 73
7
 74
0
 42
0.0000001
 43
0.0000001
 44
0.0000000001
 40
0.0
 40
0.0
 40
0.0
 40
0.0
 40
0.2501606472
 40
0.5001824759
 40
0.7501062246
 40
1.0
 40
1.0
 40
1.0
 40
1.0
 10
164.4485417545
 20
41.3250386387
 30
0.0
 10
164.4484275603
 20
40.8877018632
 30
0.0
 10
164.6136954799
 20
40.0043437509
 30
0.0
 10
165.3323985774
 20
38.870064384
 30
0.0
 10
166.4294305224
 20
38.0915570165
 30
0.0
 10
167.3136715377
 20
37.9066940917
 30
0.0
 10
167.7505417548
 20
37.9065566918
 30
0.0
  0
SPLINE
  5
311
100
AcDbEntity
  8
0
100
AcDbSpline
 62
7
  6
CONTINUOUS
 70
0
 71
3
 72
11
 73
7
 74
0
 42
0.0000001
 43
0.0000001
 44
0.0000000001
 40
0.0
 40
0.0
 40
0.0
 40
0.0
 40
0.2500079163
 40
0.4999627169
 40
0.7499402196
 40
1.0
 40
1.0
 40
1.0
 40
1.0
 10
225.9644062332
 20
37.9065566947
 30
0.0
 10
226.9019052882
 20
37.906856515
 30
0.0
 10
228.7879382879
 20
38.1775357813
 30
0.0
 10
231.3760227986
 20
39.3715826263
 30
0.0
 10
233.5209330945
 20
41.2471752624
 30
0.0
 10
234.550219154
 20
42.8479400969
 30
0.0
 10
234.9462525446
 20
43.6978970467
 30
0.0
  0
SPLINE
  5
312
100
AcDbEntity
  8
0
100
AcDbSpline
 62
7
  6
CONTINUOUS
 70
0
 71
3
 72
9
 73
5
 74
0
 42
0.0000001
 43
0.0000001
 44
0.0000000001
 40
0.0
 40
0.0
 40
0.0
 40
0.0
 40
0.2671154751
 40
1.0
 40
1.0
 40
1.0
 40
1.0
 10
235.706034117
 20
47.4829183623
 30
0.0
 10
235.7183820621
 20
47.4872799677
 30
0.0
 10
235.765047501
 20
47.5021497587
 30
0.0
 10
235.8142216655
 20
47.5106377533
 30
0.0
 10
235.8501509367
 20
47.5103464973
 30
0.0
  0
SPLINE
  5
313
100
AcDbEntity
  8
0
100
AcDbSpline
 62
7
  6
CONTINUOUS
 70
0
 71
3
 72
10
 73
6
 74
0
 42
0.0000001
 43
0.0000001
 44
0.0000000001
 40
0.0
 40
0.0
 40
0.0
 40
0.0
 40
0.1040657769
 40
0.2935030602
 40
1.0
 40
1.0
 40
1.0
 40
1.0
 10
236.5210698597
 20
45.6602934545
 30
0.0
 10
236.5210686762
 20
45.6463981195
 30
0.0
 10
236.4923679074
 20
45.6119913221
 30
0.0
 10
236.3710396425
 20
45.5602071928
 30
0.0
 10
236.2515855429
 20
45.5357006186
 30
0.0
 10
236.158558881
 20
45.5200458456
 30
0.0
  0
SPLINE
  5
314
100
AcDbEntity
  8
0
100
AcDbSpline
 62
7
  6
CONTINUOUS
 70
0
 71
3
 72
9
 73
5
 74
0
 42
0.0000001
 43
0.0000001
 44
0.0000000001
 40
0.0
 40
0.0
 40
0.0
 40
0.0
 40
0.2181929763
 40
1.0
 40
1.0
 40
1.0
 40
1.0
 10
236.158558881
 20
45.5200458456
 30
0.0
 10
236.1026073718
 20
45.5106301776
 30
0.0
 10
235.8449890042
 20
45.4746294314
 30
0.0
 10
235.5851041182
 20
45.4573250817
 30
0.0
 10
235.3819698684
 20
45.4491502673
 30
0.0
  0
SPLINE
  5
315
100
AcDbEntity
  8
0
100
AcDbSpline
 62
7
  6
CONTINUOUS
 70
0
 71
3
 72
8
 73
4
 74
0
 42
0.0000001
 43
0.0000001
 44
0.0000000001
 40
0.0
 40
0.0
 40
0.0
 40
0.0
 40
1.0
 40
1.0
 40
1.0
 40
1.0
 10
236.0530327959
 20
48.1578964838
 30
0.0
 10
236.0688359281
 20
48.1532027584
 30
0.0
 10
236.0746987659
 20
48.1858714019
 30
0.0
 10
236.0746939636
 20
48.2023568508
 30
0.0
  0
SPLINE
  5
316
100
AcDbEntity
  8
0
100
AcDbSpline
 62
7
  6
CONTINUOUS
 70
0
 71
3
 72
10
 73
6
 74
0
 42
0.0000001
 43
0.0000001
 44
0.0000000001
 40
0.0
 40
0.0
 40
0.0
 40
0.0
 40
0.2095894779
 40
0.438593028
 40
1.0
 40
1.0
 40
1.0
 40
1.0
 10
236.5210898672
 20
48.2027721066
 30
0.0
 10
236.521109273
 20
48.1315001912
 30
0.0
 10
236.4871740852
 20
47.9808983419
 30
0.0
 10
236.283729758
 20
47.6993213907
 30
0.0
 10
236.0287854825
 20
47.5778914636
 30
0.0
 10
235.8502714653
 20
47.5102227562
 30
0.0
  0
SPLINE
  5
317
100
AcDbEntity
  8
0
100
AcDbSpline
 62
7
  6
CONTINUOUS
 70
0
 71
3
 72
11
 73
7
 74
0
 42
0.0000001
 43
0.0000001
 44
0.0000000001
 40
0.0
 40
0.0
 40
0.0
 40
0.0
 40
0.2557699953
 40
0.507829576
 40
0.7557076424
 40
1.0
 40
1.0
 40
1.0
 40
1.0
 10
109.4829382481
 20
41.3250430556
 30
0.0
 10
109.4830187746
 20
41.077273149
 30
0.0
 10
109.3943155088
 20
40.581562587
 30
0.0
 10
109.0161477542
 20
39.9346371017
 30
0.0
 10
108.4225621008
 20
39.4927723876
 30
0.0
 10
107.9415930381
 20
39.3786521478
 30
0.0
 10
107.7049417563
 20
39.3786190753
 30
0.0
  0
SPLINE
  5
318
100
AcDbEntity
  8
0
100
AcDbSpline
 62
7
  6
CONTINUOUS
 70
0
 71
3
 72
11
 73
7
 74
0
 42
0.0000001
 43
0.0000001
 44
0.0000000001
 40
0.0
 40
0.0
 40
0.0
 40
0.0
 40
0.2362262373
 40
0.4943423077
 40
0.7560357811
 40
1.0
 40
1.0
 40
1.0
 40
1.0
 10
109.4829415157
 20
43.4447627131
 30
0.0
 10
109.4829414993
 20
43.2299693113
 30
0.0
 10
109.3933466972
 20
42.7758785046
 30
0.0
 10
108.993719957
 20
42.192611516
 30
0.0
 10
108.3907700409
 20
41.811906526
 30
0.0
 10
107.9267710699
 20
41.7273453777
 30
0.0
 10
107.7049417545
 20
41.7273452518
 30
0.0
  0
SPLINE
  5
319
100
AcDbEntity
  8
0
100
AcDbSpline
 62
7
  6
CONTINUOUS
 70
0
 71
3
 72
9
 73
5
 74
0
 42
0.0000001
 43
0.0000001
 44
0.0000000001
 40
0.0
 40
0.0
 40
0.0
 40
0.0
 40
0.2341685286
 40
1.0
 40
1.0
 40
1.0
 40
1.0
 10
39.6053185372
 20
47.5103545523
 30
0.0
 10
39.6168062973
 20
47.5104489618
 30
0.0
 10
39.6658954974
 20
47.5079500807
 30
0.0
 10
39.7140373244
 20
47.4954334234
 30
0.0
 10
39.749463496
 20
47.4829202663
 30
0.0
  0
SPLINE
  5
31A
100
AcDbEntity
  8
0
100
AcDbSpline
 62
7
  6
CONTINUOUS
 70
0
 71
3
 72
9
 73
5
 74
0
 42
0.0000001
 43
0.0000001
 44
0.0000000001
 40
0.0
 40
0.0
 40
0.0
 40
0.0
 40
0.2540118862
 40
1.0
 40
1.0
 40
1.0
 40
1.0
 10
39.6265698031
 20
48.1896613325
 30
0.0
 10
39.6265698527
 20
48.1287536159
 30
0.0
 10
39.6373642953
 20
47.8891804577
 30
0.0
 10
39.6873610956
 20
47.6506801407
 30
0.0
 10
39.749449373
 20
47.4829261809
 30
0.0
  0
SPLINE
  5
31B
100
AcDbEntity
  8
0
100
AcDbSpline
 62
7
  6
CONTINUOUS
 70
0
 71
3
 72
8
 73
4
 74
0
 42
0.0000001
 43
0.0000001
 44
0.0000000001
 40
0.0
 40
0.0
 40
0.0
 40
0.0
 40
1.0
 40
1.0
 40
1.0
 40
1.0
 10
39.3808080901
 20
48.1526053928
 30
0.0
 10
39.4602358035
 20
48.1761586373
 30
0.0
 10
39.5437228316
 20
48.1896629617
 30
0.0
 10
39.6265691771
 20
48.1896613088
 30
0.0
  0
SPLINE
  5
31C
100
AcDbEntity
  8
0
100
AcDbSpline
 62
7
  6
CONTINUOUS
 70
0
 71
3
 72
9
 73
5
 74
0
 42
0.0000001
 43
0.0000001
 44
0.0000000001
 40
0.0
 40
0.0
 40
0.0
 40
0.0
 40
0.5602785792
 40
1.0
 40
1.0
 40
1.0
 40
1.0
 10
40.889993983
 20
45.9421316852
 30
0.0
 10
40.9955173997
 20
45.9161323933
 30
0.0
 10
41.1794736282
 20
45.849889115
 30
0.0
 10
41.3370236413
 20
45.7224122041
 30
0.0
 10
41.3823208106
 20
45.6501399657
 30
0.0
  0
SPLINE
  5
31D
100
AcDbEntity
  8
0
100
AcDbSpline
 62
7
  6
CONTINUOUS
 70
0
 71
3
 72
9
 73
5
 74
0
 42
0.0000001
 43
0.0000001
 44
0.0000000001
 40
0.0
 40
0.0
 40
0.0
 40
0.0
 40
0.2455052277
 40
1.0
 40
1.0
 40
1.0
 40
1.0
 10
39.3990339663
 20
48.1864481146
 30
0.0
 10
39.4084729773
 20
48.1284592409
 30
0.0
 10
39.4571274016
 20
47.8940636642
 30
0.0
 10
39.5426935088
 20
47.6670756198
 30
0.0
 10
39.6273829907
 20
47.5076103887
 30
0.0
  0
SPLINE
  5
31E
100
AcDbEntity
  8
0
100
AcDbSpline
 62
7
  6
CONTINUOUS
 70
0
 71
3
 72
11
 73
7
 74
0
 42
0.0000001
 43
0.0000001
 44
0.0000000001
 40
0.0
 40
0.0
 40
0.0
 40
0.0
 40
0.3011219956
 40
0.5629435452
 40
0.787732789
 40
1.0
 40
1.0
 40
1.0
 40
1.0
 10
39.6273829907
 20
47.5076103887
 30
0.0
 10
39.5275710195
 20
47.5450278951
 30
0.0
 10
39.3397914082
 20
47.6153573687
 30
0.0
 10
39.1115008873
 20
47.7820222437
 30
0.0
 10
38.9615521264
 20
47.9859419541
 30
0.0
 10
38.9322934452
 20
48.1442479703
 30
0.0
 10
38.9346631171
 20
48.2193516648
 30
0.0
  0
SPLINE
  5
31F
100
AcDbEntity
  8
0
100
AcDbSpline
 62
7
  6
CONTINUOUS
 70
0
 71
3
 72
9
 73
5
 74
0
 42
0.0000001
 43
0.0000001
 44
0.0000000001
 40
0.0
 40
0.0
 40
0.0
 40
0.0
 40
0.2543940897
 40
1.0
 40
1.0
 40
1.0
 40
1.0
 10
235.2379063798
 20
45.3163302805
 30
0.0
 10
235.2180067072
 20
45.1782909983
 30
0.0
 10
235.1345703719
 20
44.6364263761
 30
0.0
 10
235.0317700981
 20
44.0976143045
 30
0.0
 10
234.9462592865
 20
43.6978956047
 30
0.0
  0
SPLINE
  5
320
100
AcDbEntity
  8
0
100
AcDbSpline
 62
7
  6
CONTINUOUS
 70
0
 71
3
 72
8
 73
4
 74
0
 42
0.0000001
 43
0.0000001
 44
0.0000000001
 40
0.0
 40
0.0
 40
0.0
 40
0.0
 40
1.0
 40
1.0
 40
1.0
 40
1.0
 10
167.6229561007
 20
42.4803869152
 30
0.0
 10
167.6209876406
 20
42.486019545
 30
0.0
 10
167.6197716121
 20
42.4920350563
 30
0.0
 10
167.6197733311
 20
42.4980017431
 30
0.0
  0
SPLINE
  5
321
100
AcDbEntity
  8
0
100
AcDbSpline
 62
7
  6
CONTINUOUS
 70
0
 71
3
 72
8
 73
4
 74
0
 42
0.0000001
 43
0.0000001
 44
0.0000000001
 40
0.0
 40
0.0
 40
0.0
 40
0.0
 40
1.0
 40
1.0
 40
1.0
 40
1.0
 10
167.6198121128
 20
52.3418706692
 30
0.0
 10
167.6197819738
 20
52.4432678832
 30
0.0
 10
167.6317129585
 20
52.5448478861
 30
0.0
 10
167.6502571177
 20
52.6445349469
 30
0.0
  0
SPLINE
  5
322
100
AcDbEntity
  8
0
100
AcDbSpline
 62
7
  6
CONTINUOUS
 70
0
 71
3
 72
11
 73
7
 74
0
 42
0.0000001
 43
0.0000001
 44
0.0000000001
 40
0.0
 40
0.0
 40
0.0
 40
0.0
 40
0.2442944133
 40
0.4921713761
 40
0.7442316628
 40
1.0
 40
1.0
 40
1.0
 40
1.0
 10
167.7505417534
 20
39.3786168712
 30
0.0
 10
167.5138879248
 20
39.3786338382
 30
0.0
 10
167.0329066576
 20
39.4927458632
 30
0.0
 10
166.4393391774
 20
39.9346405681
 30
0.0
 10
166.0611753308
 20
40.5815631064
 30
0.0
 10
165.9724657815
 20
41.077273152
 30
0.0
 10
165.9725448718
 20
41.3250420326
 30
0.0
  0
SPLINE
  5
323
100
AcDbEntity
  8
0
100
AcDbSpline
 62
7
  6
CONTINUOUS
 70
0
 71
3
 72
11
 73
7
 74
0
 42
0.0000001
 43
0.0000001
 44
0.0000000001
 40
0.0
 40
0.0
 40
0.0
 40
0.0
 40
0.236223532
 40
0.4943385198
 40
0.7560333666
 40
1.0
 40
1.0
 40
1.0
 40
1.0
 10
165.972538323
 20
43.4447624288
 30
0.0
 10
165.9725381914
 20
43.2299745879
 30
0.0
 10
166.0621343294
 20
42.775893494
 30
0.0
 10
166.4617657165
 20
42.1926438884
 30
0.0
 10
167.064717057
 20
41.8119562038
 30
0.0
 10
167.5287134457
 20
41.7274024402
 30
0.0
 10
167.7505417539
 20
41.7274044398
 30
0.0
  0
SPLINE
  5
324
100
AcDbEntity
  8
0
100
AcDbSpline
 62
7
  6
CONTINUOUS
 70
0
 71
3
 72
9
 73
5
 74
0
 42
0.0000001
 43
0.0000001
 44
0.0000000001
 40
0.0
 40
0.0
 40
0.0
 40
0.0
 40
0.2453659248
 40
1.0
 40
1.0
 40
1.0
 40
1.0
 10
40.5092243084
 20
43.6978792941
 30
0.0
 10
40.4810845282
 20
43.8294206858
 30
0.0
 10
40.3703213031
 20
44.3663462697
 30
0.0
 10
40.2766068443
 20
44.9068604853
 30
0.0
 10
40.2175739898
 20
45.3163421448
 30
0.0
  0
SPLINE
  5
325
100
AcDbEntity
  8
0
100
AcDbSpline
 62
7
  6
CONTINUOUS
 70
0
 71
3
 72
11
 73
7
 74
0
 42
0.0000001
 43
0.0000001
 44
0.0000000001
 40
0.0
 40
0.0
 40
0.0
 40
0.0
 40
0.0702291942
 40
0.2568874376
 40
0.5702513099
 40
1.0
 40
1.0
 40
1.0
 40
1.0
 10
38.9344403246
 20
45.3999294732
 30
0.0
 10
38.9344403195
 20
45.391283105
 30
0.0
 10
38.9764499191
 20
45.3806786966
 30
0.0
 10
39.0348028922
 20
45.3683973496
 30
0.0
 10
39.1548709454
 20
45.355971193
 30
0.0
 10
39.2440840495
 20
45.3490829312
 30
0.0
 10
39.2968809508
 20
45.3456386567
 30
0.0
  0
SPLINE
  5
326
100
AcDbEntity
  8
0
100
AcDbSpline
 62
7
  6
CONTINUOUS
 70
0
 71
3
 72
9
 73
5
 74
0
 42
0.0000001
 43
0.0000001
 44
0.0000000001
 40
0.0
 40
0.0
 40
0.0
 40
0.0
 40
0.2195390053
 40
1.0
 40
1.0
 40
1.0
 40
1.0
 10
39.2968809508
 20
45.3456386567
 30
0.0
 10
39.3547939857
 20
45.3418606245
 30
0.0
 10
39.618782089
 20
45.3276776357
 30
0.0
 10
39.8831187907
 20
45.3210309848
 30
0.0
 10
40.0894141261
 20
45.3179446876
 30
0.0
  0
SPLINE
  5
327
100
AcDbEntity
  8
0
100
AcDbSpline
 62
7
  6
CONTINUOUS
 70
0
 71
3
 72
9
 73
5
 74
0
 42
0.0000001
 43
0.0000001
 44
0.0000000001
 40
0.0
 40
0.0
 40
0.0
 40
0.0
 40
0.5576861393
 40
1.0
 40
1.0
 40
1.0
 40
1.0
 10
40.8340822523
 20
46.2472019137
 30
0.0
 10
40.943554683
 20
46.2163499308
 30
0.0
 10
41.1343821275
 20
46.1392465157
 30
0.0
 10
41.2936300357
 20
45.9973256627
 30
0.0
 10
41.3377407277
 20
45.9186389202
 30
0.0
  0
SPLINE
  5
328
100
AcDbEntity
  8
0
100
AcDbSpline
 62
7
  6
CONTINUOUS
 70
0
 71
3
 72
10
 73
6
 74
0
 42
0.0000001
 43
0.0000001
 44
0.0000000001
 40
0.0
 40
0.0
 40
0.0
 40
0.0
 40
0.1040647036
 40
0.2934996294
 40
1.0
 40
1.0
 40
1.0
 40
1.0
 10
38.9344402434
 20
45.6602977482
 30
0.0
 10
38.9344399412
 20
45.64640291
 30
0.0
 10
38.9631370652
 20
45.6119944637
 30
0.0
 10
39.084462323
 20
45.5602099763
 30
0.0
 10
39.2039129166
 20
45.5357028245
 30
0.0
 10
39.2969375742
 20
45.5200478474
 30
0.0
  0
SPLINE
  5
329
100
AcDbEntity
  8
0
100
AcDbSpline
 62
7
  6
CONTINUOUS
 70
0
 71
3
 72
9
 73
5
 74
0
 42
0.0000001
 43
0.0000001
 44
0.0000000001
 40
0.0
 40
0.0
 40
0.0
 40
0.0
 40
0.218067239
 40
1.0
 40
1.0
 40
1.0
 40
1.0
 10
39.2969375742
 20
45.5200478474
 30
0.0
 10
39.3545472381
 20
45.5103528053
 30
0.0
 10
39.6199856308
 20
45.4734640556
 30
0.0
 10
39.8877750341
 20
45.4561664168
 30
0.0
 10
40.0971027339
 20
45.4482291997
 30
0.0
  0
SPLINE
  5
32A
100
AcDbEntity
  8
0
100
AcDbSpline
 62
7
  6
CONTINUOUS
 70
0
 71
3
 72
10
 73
6
 74
0
 42
0.0000001
 43
0.0000001
 44
0.0000000001
 40
0.0
 40
0.0
 40
0.0
 40
0.0
 40
0.7041998004
 40
0.9079157101
 40
1.0
 40
1.0
 40
1.0
 40
1.0
 10
49.521954169
 20
348.1533822657
 30
0.0
 10
49.5195468588
 20
348.2576065626
 30
0.0
 10
49.517454523
 20
348.3922345714
 30
0.0
 10
49.509301891
 20
348.5397221429
 30
0.0
 10
49.508187762
 20
348.5837925751
 30
0.0
 10
49.5053823223
 20
348.5971332515
 30
0.0
  0
SPLINE
  5
32B
100
AcDbEntity
  8
0
100
AcDbSpline
 62
7
  6
CONTINUOUS
 70
0
 71
3
 72
9
 73
5
 74
0
 42
0.0000001
 43
0.0000001
 44
0.0000000001
 40
0.0
 40
0.0
 40
0.0
 40
0.0
 40
0.7090354374
 40
1.0
 40
1.0
 40
1.0
 40
1.0
 10
49.5053823223
 20
348.5971332515
 30
0.0
 10
49.5052478091
 20
348.5977729007
 30
0.0
 10
49.5050694076
 20
348.5985129811
 30
0.0
 10
49.5046233385
 20
348.5996528988
 30
0.0
 10
49.5043551244
 20
348.5996497967
 30
0.0
  0
SPLINE
  5
32C
100
AcDbEntity
  8
0
100
AcDbSpline
 62
7
  6
CONTINUOUS
 70
0
 71
3
 72
8
 73
4
 74
0
 42
0.0000001
 43
0.0000001
 44
0.0000000001
 40
0.0
 40
0.0
 40
0.0
 40
0.0
 40
1.0
 40
1.0
 40
1.0
 40
1.0
 10
107.8052264073
 20
52.6445349461
 30
0.0
 10
107.8237705415
 20
52.5448478815
 30
0.0
 10
107.8357015271
 20
52.4432678824
 30
0.0
 10
107.8356713956
 20
52.3418706691
 30
0.0
  0
SPLINE
  5
32D
100
AcDbEntity
  8
0
100
AcDbSpline
 62
7
  6
CONTINUOUS
 70
0
 71
3
 72
8
 73
4
 74
0
 42
0.0000001
 43
0.0000001
 44
0.0000000001
 40
0.0
 40
0.0
 40
0.0
 40
0.0
 40
1.0
 40
1.0
 40
1.0
 40
1.0
 10
107.835710096
 20
42.4980017431
 30
0.0
 10
107.835711814
 20
42.492035054
 30
0.0
 10
107.8344958508
 20
42.4860195338
 30
0.0
 10
107.8325274212
 20
42.4803868908
 30
0.0
  0
SPLINE
  5
32E
100
AcDbEntity
  8
0
100
AcDbSpline
 62
7
  6
CONTINUOUS
 70
0
 71
3
 72
9
 73
5
 74
0
 42
0.0000001
 43
0.0000001
 44
0.0000000001
 40
0.0
 40
0.0
 40
0.0
 40
0.0
 40
0.254411971
 40
1.0
 40
1.0
 40
1.0
 40
1.0
 10
41.3375017927
 20
45.9187610401
 30
0.0
 10
41.3235033728
 20
46.0106928273
 30
0.0
 10
41.2732994566
 20
46.372770088
 30
0.0
 10
41.2415438118
 20
46.7373278906
 30
0.0
 10
41.2268588489
 20
47.0094557242
 30
0.0
  0
SPLINE
  5
32F
100
AcDbEntity
  8
0
100
AcDbSpline
 62
7
  6
CONTINUOUS
 70
0
 71
3
 72
9
 73
5
 74
0
 42
0.0000001
 43
0.0000001
 44
0.0000000001
 40
0.0
 40
0.0
 40
0.0
 40
0.0
 40
0.2241366266
 40
1.0
 40
1.0
 40
1.0
 40
1.0
 10
41.2268463118
 20
47.0094651539
 30
0.0
 10
41.2218926699
 20
47.1013825051
 30
0.0
 10
41.1975578969
 20
47.5113422691
 30
0.0
 10
41.1723514239
 20
47.9213496824
 30
0.0
 10
41.1618449353
 20
48.2398159739
 30
0.0
  0
SPLINE
  5
330
100
AcDbEntity
  8
0
100
AcDbSpline
 62
7
  6
CONTINUOUS
 70
0
 71
3
 72
11
 73
7
 74
0
 42
0.0000001
 43
0.0000001
 44
0.0000000001
 40
0.0
 40
0.0
 40
0.0
 40
0.0
 40
0.2467431808
 40
0.496191339
 40
0.7478535429
 40
1.0
 40
1.0
 40
1.0
 40
1.0
 10
45.2346821081
 20
61.0330144393
 30
0.0
 10
45.2567899776
 20
59.949824745
 30
0.0
 10
45.7434970108
 20
57.757854002
 30
0.0
 10
47.6672874754
 20
54.9999950597
 30
0.0
 10
50.4902760219
 20
53.1340104063
 30
0.0
 10
52.7156239843
 20
52.665984002
 30
0.0
 10
53.8225564851
 20
52.6445333109
 30
0.0
  0
SPLINE
  5
331
100
AcDbEntity
  8
0
100
AcDbSpline
 62
7
  6
CONTINUOUS
 70
0
 71
3
 72
11
 73
7
 74
0
 42
0.0000001
 43
0.0000001
 44
0.0000000001
 40
0.0
 40
0.0
 40
0.0
 40
0.0
 40
0.2495921056
 40
0.4991213583
 40
0.7491802788
 40
1.0
 40
1.0
 40
1.0
 40
1.0
 10
49.4910767
 20
39.378784086
 30
0.0
 10
48.5781995923
 20
39.3755239887
 30
0.0
 10
46.736476519
 20
39.6745705651
 30
0.0
 10
44.2860179294
 20
41.0088887972
 30
0.0
 10
42.3980399581
 20
43.0655561166
 30
0.0
 10
41.6298702142
 20
44.7667963228
 30
0.0
 10
41.3823910891
 20
45.6501576185
 30
0.0
  0
SPLINE
  5
332
100
AcDbEntity
  8
0
100
AcDbSpline
 62
7
  6
CONTINUOUS
 70
0
 71
3
 72
9
 73
5
 74
0
 42
0.0000001
 43
0.0000001
 44
0.0000000001
 40
0.0
 40
0.0
 40
0.0
 40
0.0
 40
0.21434522
 40
1.0
 40
1.0
 40
1.0
 40
1.0
 10
41.2268458981
 20
47.0094742396
 30
0.0
 10
41.2094590554
 20
47.0586295817
 30
0.0
 10
41.0881363388
 20
47.2735925875
 30
0.0
 10
40.8653271878
 20
47.4116749963
 30
0.0
 10
40.6879975092
 20
47.4829333685
 30
0.0
  0
SPLINE
  5
333
100
AcDbEntity
  8
0
100
AcDbSpline
 62
7
  6
CONTINUOUS
 70
0
 71
3
 72
11
 73
7
 74
0
 42
0.0000001
 43
0.0000001
 44
0.0000000001
 40
0.0
 40
0.0
 40
0.0
 40
0.0
 40
0.1116552135
 40
0.3224730879
 40
0.6221710084
 40
1.0
 40
1.0
 40
1.0
 40
1.0
 10
41.1618475327
 20
48.2397768554
 30
0.0
 10
41.1466948369
 20
48.2333897211
 30
0.0
 10
41.0990126399
 20
48.2265283965
 30
0.0
 10
41.0087331577
 20
48.2138481156
 30
0.0
 10
40.8782029794
 20
48.2017750337
 30
0.0
 10
40.7788184828
 20
48.1937223177
 30
0.0
 10
40.7233226515
 20
48.1896625267
 30
0.0
  0
SPLINE
  5
334
100
AcDbEntity
  8
0
100
AcDbSpline
 62
7
  6
CONTINUOUS
 70
0
 71
3
 72
11
 73
7
 74
0
 42
0.0000001
 43
0.0000001
 44
0.0000000001
 40
0.0
 40
0.0
 40
0.0
 40
0.0
 40
0.2499914936
 40
0.4999998563
 40
0.7500081597
 40
1.0
 40
1.0
 40
1.0
 40
1.0
 10
49.5219541577
 20
346.7672319463
 30
0.0
 10
48.3858826171
 20
346.7335546386
 30
0.0
 10
46.1030209689
 20
346.2322216203
 30
0.0
 10
43.2166733586
 20
344.2705346208
 30
0.0
 10
41.2550598384
 20
341.3841383927
 30
0.0
 10
40.7537295404
 20
339.1012933354
 30
0.0
 10
40.7200061219
 20
337.9652215855
 30
0.0
  0
SPLINE
  5
335
100
AcDbEntity
  8
0
100
AcDbSpline
 62
7
  6
CONTINUOUS
 70
0
 71
3
 72
14
 73
10
 74
0
 42
0.0000001
 43
0.0000001
 44
0.0000000001
 40
0.0
 40
0.0
 40
0.0
 40
0.0
 40
0.4205675241
 40
0.5946574842
 40
0.7399569933
 40
0.8535421047
 40
0.9347746551
 40
0.9835941218
 40
1.0
 40
1.0
 40
1.0
 40
1.0
 10
39.3809950746
 20
337.9652206753
 30
0.0
 10
39.3184092449
 20
337.9660166187
 30
0.0
 10
39.2298071316
 20
337.9671509942
 30
0.0
 10
39.1199497708
 20
337.9691810521
 30
0.0
 10
39.0549843068
 20
337.9700238348
 30
0.0
 10
39.0057861577
 20
337.9722705979
 30
0.0
 10
38.9663546108
 20
337.9709724181
 30
0.0
 10
38.9501826076
 20
337.9761227856
 30
0.0
 10
38.9346701202
 20
337.9724716055
 30
0.0
 10
38.9346891302
 20
337.9749131336
 30
0.0
  0
SPLINE
  5
336
100
AcDbEntity
  8
0
100
AcDbSpline
 62
7
  6
CONTINUOUS
 70
0
 71
3
 72
10
 73
6
 74
0
 42
0.0000001
 43
0.0000001
 44
0.0000000001
 40
0.0
 40
0.0
 40
0.0
 40
0.0
 40
0.1640722596
 40
0.3958077648
 40
1.0
 40
1.0
 40
1.0
 40
1.0
 10
109.5052285942
 20
53.8861971343
 30
0.0
 10
109.4963778569
 20
54.2162544631
 30
0.0
 10
109.4903430522
 20
55.0128276323
 30
0.0
 10
109.4881307786
 20
57.0251552075
 30
0.0
 10
109.4928459604
 20
58.7074175948
 30
0.0
 10
109.5052288571
 20
59.9232198026
 30
0.0
  0
SPLINE
  5
337
100
AcDbEntity
  8
0
100
AcDbSpline
 62
7
  6
CONTINUOUS
 70
0
 71
3
 72
9
 73
5
 74
0
 42
0.0000001
 43
0.0000001
 44
0.0000000001
 40
0.0
 40
0.0
 40
0.0
 40
0.0
 40
0.5046734147
 40
1.0
 40
1.0
 40
1.0
 40
1.0
 10
109.9909417545
 20
53.8139416282
 30
0.0
 10
109.8886704464
 20
53.8139416282
 30
0.0
 10
109.6808733166
 20
53.7525156552
 30
0.0
 10
109.5464970158
 20
53.5810765025
 30
0.0
 10
109.5119949397
 20
53.4868152356
 30
0.0
  0
SPLINE
  5
338
100
AcDbEntity
  8
0
100
AcDbSpline
 62
7
  6
CONTINUOUS
 70
0
 71
3
 72
10
 73
6
 74
0
 42
0.0000001
 43
0.0000001
 44
0.0000000001
 40
0.0
 40
0.0
 40
0.0
 40
0.0
 40
0.6041919499
 40
0.8359276084
 40
1.0
 40
1.0
 40
1.0
 40
1.0
 10
165.9502542342
 20
59.9232199551
 30
0.0
 10
165.9626372063
 20
58.7074185471
 30
0.0
 10
165.9673525347
 20
57.0251567363
 30
0.0
 10
165.9651402118
 20
55.0128295345
 30
0.0
 10
165.9591053343
 20
54.2162559377
 30
0.0
 10
165.9502545021
 20
53.8861984071
 30
0.0
  0
SPLINE
  5
339
100
AcDbEntity
  8
0
100
AcDbSpline
 62
7
  6
CONTINUOUS
 70
0
 71
3
 72
9
 73
5
 74
0
 42
0.0000001
 43
0.0000001
 44
0.0000000001
 40
0.0
 40
0.0
 40
0.0
 40
0.0
 40
0.4953265853
 40
1.0
 40
1.0
 40
1.0
 40
1.0
 10
165.9434885711
 20
53.4868152306
 30
0.0
 10
165.9089864952
 20
53.5810764985
 30
0.0
 10
165.7746101954
 20
53.7525156543
 30
0.0
 10
165.5668130634
 20
53.8139416281
 30
0.0
 10
165.4645417545
 20
53.8139416281
 30
0.0
  0
SPLINE
  5
33A
100
AcDbEntity
  8
0
100
AcDbSpline
 62
7
  6
CONTINUOUS
 70
0
 71
3
 72
9
 73
5
 74
0
 42
0.0000001
 43
0.0000001
 44
0.0000000001
 40
0.0
 40
0.0
 40
0.0
 40
0.0
 40
0.5052845178
 40
1.0
 40
1.0
 40
1.0
 40
1.0
 10
222.629754597
 20
61.03300374
 30
0.0
 10
222.6296996222
 20
60.771709235
 30
0.0
 10
222.4273677922
 20
60.2295116918
 30
0.0
 10
221.8887553727
 20
60.0049929213
 30
0.0
 10
221.6329263646
 20
60.0049386932
 30
0.0
  0
SPLINE
  5
33B
100
AcDbEntity
  8
0
100
AcDbSpline
 62
7
  6
CONTINUOUS
 70
0
 71
3
 72
9
 73
5
 74
0
 42
0.0000001
 43
0.0000001
 44
0.0000000001
 40
0.0
 40
0.0
 40
0.0
 40
0.0
 40
0.5000004533
 40
1.0
 40
1.0
 40
1.0
 40
1.0
 10
221.6176674741
 20
334.6614480339
 30
0.0
 10
221.8759579975
 20
334.661393497
 30
0.0
 10
222.4147534931
 20
334.4464472954
 30
0.0
 10
222.6296949454
 20
333.907653795
 30
0.0
 10
222.6297530867
 20
333.6493637408
 30
0.0
  0
SPLINE
  5
33C
100
AcDbEntity
  8
0
100
AcDbSpline
 62
7
  6
CONTINUOUS
 70
0
 71
3
 72
9
 73
5
 74
0
 42
0.0000001
 43
0.0000001
 44
0.0000000001
 40
0.0
 40
0.0
 40
0.0
 40
0.0
 40
0.4999995458
 40
1.0
 40
1.0
 40
1.0
 40
1.0
 10
52.8257304177
 20
333.6493637408
 30
0.0
 10
52.8257885532
 20
333.9076537958
 30
0.0
 10
53.0407300145
 20
334.4464473019
 30
0.0
 10
53.5795255098
 20
334.6613934957
 30
0.0
 10
53.8378160349
 20
334.6614480389
 30
0.0
  0
SPLINE
  5
33D
100
AcDbEntity
  8
0
100
AcDbSpline
 62
7
  6
CONTINUOUS
 70
0
 71
3
 72
9
 73
5
 74
0
 42
0.0000001
 43
0.0000001
 44
0.0000000001
 40
0.0
 40
0.0
 40
0.0
 40
0.0
 40
0.4947154715
 40
1.0
 40
1.0
 40
1.0
 40
1.0
 10
53.8225571446
 20
60.0049392528
 30
0.0
 10
53.5667282831
 20
60.0049934628
 30
0.0
 10
53.0281161539
 20
60.2295121362
 30
0.0
 10
52.8257844603
 20
60.7717093737
 30
0.0
 10
52.8257294704
 20
61.0330037402
 30
0.0
  0
SPLINE
  5
33E
100
AcDbEntity
  8
0
100
AcDbSpline
 62
7
  6
CONTINUOUS
 70
0
 71
3
 72
8
 73
4
 74
0
 42
0.0000001
 43
0.0000001
 44
0.0000000001
 40
0.0
 40
0.0
 40
0.0
 40
0.0
 40
1.0
 40
1.0
 40
1.0
 40
1.0
 10
107.8356568933
 20
61.1742964222
 30
0.0
 10
107.8356952446
 20
60.7843627588
 30
0.0
 10
107.8239757436
 20
60.3943740908
 30
0.0
 10
107.805233597
 20
60.0048911063
 30
0.0
  0
SPLINE
  5
33F
100
AcDbEntity
  8
0
100
AcDbSpline
 62
7
  6
CONTINUOUS
 70
0
 71
3
 72
8
 73
4
 74
0
 42
0.0000001
 43
0.0000001
 44
0.0000000001
 40
0.0
 40
0.0
 40
0.0
 40
0.0
 40
1.0
 40
1.0
 40
1.0
 40
1.0
 10
167.6502499048
 20
60.0048911098
 30
0.0
 10
167.6315077782
 20
60.3943740941
 30
0.0
 10
167.619788271
 20
60.78436276
 30
0.0
 10
167.6198266153
 20
61.1742964222
 30
0.0
  0
SPLINE
  5
340
100
AcDbEntity
  8
0
100
AcDbSpline
 62
7
  6
CONTINUOUS
 70
0
 71
3
 72
10
 73
6
 74
0
 42
0.0000001
 43
0.0000001
 44
0.0000000001
 40
0.0
 40
0.0
 40
0.0
 40
0.0
 40
0.7042668585
 40
0.9079661053
 40
1.0
 40
1.0
 40
1.0
 40
1.0
 10
225.9335236618
 20
348.153346556
 30
0.0
 10
225.9359321944
 20
348.2575843085
 30
0.0
 10
225.9380201182
 20
348.3922260245
 30
0.0
 10
225.94618685
 20
348.5397156104
 30
0.0
 10
225.9472952267
 20
348.5837797393
 30
0.0
 10
225.9501062124
 20
348.5971120981
 30
0.0
  0
SPLINE
  5
341
100
AcDbEntity
  8
0
100
AcDbSpline
 62
7
  6
CONTINUOUS
 70
0
 71
3
 72
9
 73
5
 74
0
 42
0.0000001
 43
0.0000001
 44
0.0000000001
 40
0.0
 40
0.0
 40
0.0
 40
0.0
 40
0.7089044098
 40
1.0
 40
1.0
 40
1.0
 40
1.0
 10
225.9501062124
 20
348.5971120981
 30
0.0
 10
225.9502405504
 20
348.5977492563
 30
0.0
 10
225.9504183
 20
348.5984870519
 30
0.0
 10
225.9508647523
 20
348.5996216722
 30
0.0
 10
225.9511321186
 20
348.5996183683
 30
0.0
  0
SPLINE
  5
342
100
AcDbEntity
  8
0
100
AcDbSpline
 62
7
  6
CONTINUOUS
 70
0
 71
3
 72
11
 73
7
 74
0
 42
0.0000001
 43
0.0000001
 44
0.0000000001
 40
0.0
 40
0.0
 40
0.0
 40
0.0
 40
0.2499914944
 40
0.4999998567
 40
0.7500081596
 40
1.0
 40
1.0
 40
1.0
 40
1.0
 10
234.7355358137
 20
337.9652256183
 30
0.0
 10
234.701858493
 20
339.1012971917
 30
0.0
 10
234.200525555
 20
341.3841589014
 30
0.0
 10
232.238838624
 20
344.2705066904
 30
0.0
 10
229.3524422669
 20
346.232120222
 30
0.0
 10
227.0695971082
 20
346.7334503896
 30
0.0
 10
225.933525326
 20
346.7671737178
 30
0.0
  0
SPLINE
  5
343
100
AcDbEntity
  8
0
100
AcDbSpline
 62
7
  6
CONTINUOUS
 70
0
 71
3
 72
10
 73
6
 74
0
 42
0.0000001
 43
0.0000001
 44
0.0000000001
 40
0.0
 40
0.0
 40
0.0
 40
0.0
 40
0.6813531791
 40
0.8914950115
 40
1.0
 40
1.0
 40
1.0
 40
1.0
 10
234.7356289933
 20
337.9652355112
 30
0.0
 10
234.6354511107
 20
337.9600778361
 30
0.0
 10
234.5040293339
 20
337.953665377
 30
0.0
 10
234.3580060374
 20
337.9389310012
 30
0.0
 10
234.3108620221
 20
337.9344584987
 30
0.0
 10
234.2956247909
 20
337.9296618637
 30
0.0
  0
SPLINE
  5
344
100
AcDbEntity
  8
0
100
AcDbSpline
 62
7
  6
CONTINUOUS
 70
0
 71
3
 72
10
 73
6
 74
0
 42
0.0000001
 43
0.0000001
 44
0.0000000001
 40
0.0
 40
0.0
 40
0.0
 40
0.0
 40
0.6814925207
 40
0.8915883609
 40
1.0
 40
1.0
 40
1.0
 40
1.0
 10
225.9335293528
 20
346.76726714
 30
0.0
 10
225.9283725145
 20
346.6670958277
 30
0.0
 10
225.9219669564
 20
346.535693735
 30
0.0
 10
225.9072279355
 20
346.389713454
 30
0.0
 10
225.9027643632
 20
346.3425997729
 30
0.0
 10
225.897965657
 20
346.3273821265
 30
0.0
  0
SPLINE
  5
345
100
AcDbEntity
  8
0
100
AcDbSpline
 62
7
  6
CONTINUOUS
 70
0
 71
3
 72
11
 73
7
 74
0
 42
0.0000001
 43
0.0000001
 44
0.0000000001
 40
0.0
 40
0.0
 40
0.0
 40
0.0
 40
0.2498208022
 40
0.5000000225
 40
0.7501792251
 40
1.0
 40
1.0
 40
1.0
 40
1.0
 10
230.2208042713
 20
333.6493631237
 30
0.0
 10
230.213226055
 20
334.7652664218
 30
0.0
 10
229.7533105954
 20
337.0195343027
 30
0.0
 10
227.836618214
 20
339.8683155286
 30
0.0
 10
224.9878382871
 20
341.7850020064
 30
0.0
 10
222.7335707173
 20
342.2449312679
 30
0.0
 10
221.6176674845
 20
342.2525011643
 30
0.0
  0
SPLINE
  5
346
100
AcDbEntity
  8
0
100
AcDbSpline
 62
7
  6
CONTINUOUS
 70
0
 71
3
 72
11
 73
7
 74
0
 42
0.0000001
 43
0.0000001
 44
0.0000000001
 40
0.0
 40
0.0
 40
0.0
 40
0.0
 40
0.2500154481
 40
0.5000048742
 40
0.7499914029
 40
1.0
 40
1.0
 40
1.0
 40
1.0
 10
225.8971593943
 20
346.3274026879
 30
0.0
 10
226.9811197381
 20
346.300396824
 30
0.0
 10
229.1608472369
 20
345.8290154329
 30
0.0
 10
231.9187987146
 20
343.9632440849
 30
0.0
 10
233.7894767704
 20
341.2093074515
 30
0.0
 10
234.2671219991
 20
339.0306377685
 30
0.0
 10
234.2952548188
 20
337.9467358105
 30
0.0
  0
SPLINE
  5
347
100
AcDbEntity
  8
0
100
AcDbSpline
 62
7
  6
CONTINUOUS
 70
0
 71
3
 72
10
 73
6
 74
0
 42
0.0000001
 43
0.0000001
 44
0.0000000001
 40
0.0
 40
0.0
 40
0.0
 40
0.0
 40
0.6813529442
 40
0.8914948236
 40
1.0
 40
1.0
 40
1.0
 40
1.0
 10
49.5219442048
 20
346.7673256644
 30
0.0
 10
49.5271018819
 20
346.6671479415
 30
0.0
 10
49.5335143575
 20
346.5357263601
 30
0.0
 10
49.5482487239
 20
346.3897032415
 30
0.0
 10
49.5527212518
 20
346.342559257
 30
0.0
 10
49.5575178811
 20
346.3273220158
 30
0.0
  0
SPLINE
  5
348
100
AcDbEntity
  8
0
100
AcDbSpline
 62
7
  6
CONTINUOUS
 70
0
 71
3
 72
11
 73
7
 74
0
 42
0.0000001
 43
0.0000001
 44
0.0000000001
 40
0.0
 40
0.0
 40
0.0
 40
0.0
 40
0.2498207935
 40
0.5000000038
 40
0.7501792182
 40
1.0
 40
1.0
 40
1.0
 40
1.0
 10
53.8378168833
 20
342.2525003055
 30
0.0
 10
52.7219135715
 20
342.2449305866
 30
0.0
 10
50.4676458671
 20
341.7850014109
 30
0.0
 10
47.6188655611
 20
339.8683154637
 30
0.0
 10
45.7021726615
 20
337.0195346563
 30
0.0
 10
45.2422570025
 20
334.7652669505
 30
0.0
 10
45.2346786117
 20
333.6493637496
 30
0.0
  0
SPLINE
  5
349
100
AcDbEntity
  8
0
100
AcDbSpline
 62
7
  6
CONTINUOUS
 70
0
 71
3
 72
11
 73
7
 74
0
 42
0.0000001
 43
0.0000001
 44
0.0000000001
 40
0.0
 40
0.0
 40
0.0
 40
0.0
 40
0.2500154605
 40
0.5000048933
 40
0.749991414
 40
1.0
 40
1.0
 40
1.0
 40
1.0
 10
41.1597770457
 20
337.9288539226
 30
0.0
 10
41.1867817955
 20
339.012809244
 30
0.0
 10
41.6581598653
 20
341.1925261538
 30
0.0
 10
43.523913282
 20
343.9504708034
 30
0.0
 10
46.277828263
 20
345.8211479996
 30
0.0
 10
48.4564834087
 20
346.2988148236
 30
0.0
 10
49.5403801691
 20
346.3269494073
 30
0.0
  0
SPLINE
  5
34A
100
AcDbEntity
  8
0
100
AcDbSpline
 62
7
  6
CONTINUOUS
 70
0
 71
3
 72
10
 73
6
 74
0
 42
0.0000001
 43
0.0000001
 44
0.0000000001
 40
0.0
 40
0.0
 40
0.0
 40
0.0
 40
0.6814925361
 40
0.8915883743
 40
1.0
 40
1.0
 40
1.0
 40
1.0
 10
40.7199126877
 20
337.9652256017
 30
0.0
 10
40.820083978
 20
337.9600687721
 30
0.0
 10
40.9514860391
 20
337.9536632259
 30
0.0
 10
41.0974662892
 20
337.9389242383
 30
0.0
 10
41.1445799555
 20
337.934460679
 30
0.0
 10
41.1597975997
 20
337.9296619855
 30
0.0
  0
SPLINE
  5
34B
100
AcDbEntity
  8
0
100
AcDbSpline
 62
7
  6
CONTINUOUS
 70
0
 71
3
 72
9
 73
5
 74
0
 42
0.0000001
 43
0.0000001
 44
0.0000000001
 40
0.0
 40
0.0
 40
0.0
 40
0.0
 40
0.24563781
 40
1.0
 40
1.0
 40
1.0
 40
1.0
 10
40.6879976154
 20
47.4829302809
 30
0.0
 10
40.6950676095
 20
47.3812652826
 30
0.0
 10
40.7283990936
 20
46.9677189349
 30
0.0
 10
40.7817746054
 20
46.5557359409
 30
0.0
 10
40.8340884019
 20
46.2471683389
 30
0.0
  0
SPLINE
  5
34C
100
AcDbEntity
  8
0
100
AcDbSpline
 62
7
  6
CONTINUOUS
 70
0
 71
3
 72
13
 73
9
 74
0
 42
0.0000001
 43
0.0000001
 44
0.0000000001
 40
0.0
 40
0.0
 40
0.0
 40
0.0
 40
0.332731878
 40
0.6300842292
 40
0.7554422254
 40
0.8606028728
 40
0.9428348852
 40
1.0
 40
1.0
 40
1.0
 40
1.0
 10
107.8052545373
 20
60.0048900967
 30
0.0
 10
107.7751967242
 20
59.1888010094
 30
0.0
 10
107.7437440244
 20
57.6424992915
 30
0.0
 10
107.7321988703
 20
55.7883678916
 30
0.0
 10
107.7358828599
 20
54.4928244044
 30
0.0
 10
107.744648423
 20
53.7251569976
 30
0.0
 10
107.7629889812
 20
53.1253934561
 30
0.0
 10
107.7854915059
 20
52.7834399583
 30
0.0
 10
107.8052545375
 20
52.6445352985
 30
0.0
  0
SPLINE
  5
34D
100
AcDbEntity
  8
0
100
AcDbSpline
 62
7
  6
CONTINUOUS
 70
0
 71
3
 72
10
 73
6
 74
0
 42
0.0000001
 43
0.0000001
 44
0.0000000001
 40
0.0
 40
0.0
 40
0.0
 40
0.0
 40
0.4874211851
 40
0.7475927679
 40
1.0
 40
1.0
 40
1.0
 40
1.0
 10
109.5052136799
 20
53.8861535863
 30
0.0
 10
109.3976992055
 20
53.5409341241
 30
0.0
 10
109.0447516962
 20
53.0507802353
 30
0.0
 10
108.3735678147
 20
52.7163293131
 30
0.0
 10
107.9924778702
 20
52.6469641891
 30
0.0
 10
107.8052540234
 20
52.6446366176
 30
0.0
  0
SPLINE
  5
34E
100
AcDbEntity
  8
0
100
AcDbSpline
 62
7
  6
CONTINUOUS
 70
0
 71
3
 72
9
 73
5
 74
0
 42
0.0000001
 43
0.0000001
 44
0.0000000001
 40
0.0
 40
0.0
 40
0.0
 40
0.0
 40
0.4971707446
 40
1.0
 40
1.0
 40
1.0
 40
1.0
 10
109.5119927258
 20
53.4868166982
 30
0.0
 10
109.3907902277
 20
53.1556843172
 30
0.0
 10
108.9192951464
 20
52.5560300788
 30
0.0
 10
108.192310498
 20
52.3418707319
 30
0.0
 10
107.8356802854
 20
52.3418700155
 30
0.0
  0
SPLINE
  5
34F
100
AcDbEntity
  8
0
100
AcDbSpline
 62
7
  6
CONTINUOUS
 70
0
 71
3
 72
9
 73
5
 74
0
 42
0.0000001
 43
0.0000001
 44
0.0000000001
 40
0.0
 40
0.0
 40
0.0
 40
0.0
 40
0.2846412759
 40
1.0
 40
1.0
 40
1.0
 40
1.0
 10
109.5052334841
 20
53.8861462253
 30
0.0
 10
109.5062528783
 20
53.8482652672
 30
0.0
 10
109.5096053039
 20
53.7151783544
 30
0.0
 10
109.5120097207
 20
53.582051406
 30
0.0
 10
109.5119947614
 20
53.4868147484
 30
0.0
  0
SPLINE
  5
350
100
AcDbEntity
  8
0
100
AcDbSpline
 62
7
  6
CONTINUOUS
 70
0
 71
3
 72
9
 73
5
 74
0
 42
0.0000001
 43
0.0000001
 44
0.0000000001
 40
0.0
 40
0.0
 40
0.0
 40
0.0
 40
0.4994976559
 40
1.0
 40
1.0
 40
1.0
 40
1.0
 10
109.4449881719
 20
43.4875080717
 30
0.0
 10
109.3004055921
 20
43.1939481428
 30
0.0
 10
108.8331368031
 20
42.6782677698
 30
0.0
 10
108.1635716625
 20
42.4979906385
 30
0.0
 10
107.8356802865
 20
42.497993829
 30
0.0
  0
SPLINE
  5
351
100
AcDbEntity
  8
0
100
AcDbSpline
 62
7
  6
CONTINUOUS
 70
0
 71
3
 72
9
 73
5
 74
0
 42
0.0000001
 43
0.0000001
 44
0.0000000001
 40
0.0
 40
0.0
 40
0.0
 40
0.0
 40
0.4945853407
 40
1.0
 40
1.0
 40
1.0
 40
1.0
 10
109.5113205971
 20
43.6120962487
 30
0.0
 10
109.3956678674
 20
43.2806165079
 30
0.0
 10
108.9264682912
 20
42.6736281092
 30
0.0
 10
108.19119857
 20
42.4720048124
 30
0.0
 10
107.8325334101
 20
42.48038702
 30
0.0
  0
SPLINE
  5
352
100
AcDbEntity
  8
0
100
AcDbSpline
 62
7
  6
CONTINUOUS
 70
0
 71
3
 72
9
 73
5
 74
0
 42
0.0000001
 43
0.0000001
 44
0.0000000001
 40
0.0
 40
0.0
 40
0.0
 40
0.0
 40
0.4144484646
 40
1.0
 40
1.0
 40
1.0
 40
1.0
 10
109.511995097
 20
43.6430339932
 30
0.0
 10
109.5119844564
 20
43.6387596744
 30
0.0
 10
109.5114011235
 20
43.6285620961
 30
0.0
 10
109.5132847553
 20
43.6178071207
 30
0.0
 10
109.5112954355
 20
43.6121052121
 30
0.0
  0
SPLINE
  5
353
100
AcDbEntity
  8
0
100
AcDbSpline
 62
7
  6
CONTINUOUS
 70
0
 71
3
 72
9
 73
5
 74
0
 42
0.0000001
 43
0.0000001
 44
0.0000000001
 40
0.0
 40
0.0
 40
0.0
 40
0.0
 40
0.7447115555
 40
1.0
 40
1.0
 40
1.0
 40
1.0
 10
109.5119949397
 20
43.6430334963
 30
0.0
 10
109.546506505
 20
43.737265067
 30
0.0
 10
109.6375653312
 20
43.8520087606
 30
0.0
 10
109.7565713719
 20
43.9160472552
 30
0.0
 10
109.7882995345
 20
43.9293421811
 30
0.0
  0
SPLINE
  5
354
100
AcDbEntity
  8
0
100
AcDbSpline
 62
7
  6
CONTINUOUS
 70
0
 71
3
 72
8
 73
4
 74
0
 42
0.0000001
 43
0.0000001
 44
0.0000000001
 40
0.0
 40
0.0
 40
0.0
 40
0.0
 40
1.0
 40
1.0
 40
1.0
 40
1.0
 10
109.7882995345
 20
43.9293421811
 30
0.0
 10
109.8518446558
 20
43.9559692406
 30
0.0
 10
109.9220434037
 20
43.9700727018
 30
0.0
 10
109.9909417545
 20
43.9700727018
 30
0.0
  0
SPLINE
  5
355
100
AcDbEntity
  8
0
100
AcDbSpline
 62
7
  6
CONTINUOUS
 70
0
 71
3
 72
14
 73
10
 74
0
 42
0.0000001
 43
0.0000001
 44
0.0000000001
 40
0.0
 40
0.0
 40
0.0
 40
0.0
 40
0.4205632922
 40
0.5946523557
 40
0.7399516645
 40
0.8535372018
 40
0.9347708085
 40
0.9835919672
 40
1.0
 40
1.0
 40
1.0
 40
1.0
 10
236.0744873232
 20
337.965225603
 30
0.0
 10
236.1370770229
 20
337.9660210122
 30
0.0
 10
236.2256845906
 20
337.9671544707
 30
0.0
 10
236.3355494223
 20
337.9691831339
 30
0.0
 10
236.4005187212
 20
337.9700245899
 30
0.0
 10
236.4497225654
 20
337.9722708434
 30
0.0
 10
236.4891530828
 20
337.9709701216
 30
0.0
 10
236.505334531
 20
337.9761221064
 30
0.0
 10
236.5208412862
 20
337.9724670896
 30
0.0
 10
236.5208256939
 20
337.9749091378
 30
0.0
  0
SPLINE
  5
356
100
AcDbEntity
  8
0
100
AcDbSpline
 62
7
  6
CONTINUOUS
 70
0
 71
3
 72
9
 73
5
 74
0
 42
0.0000001
 43
0.0000001
 44
0.0000000001
 40
0.0
 40
0.0
 40
0.0
 40
0.0
 40
0.5047364826
 40
1.0
 40
1.0
 40
1.0
 40
1.0
 10
165.4645417545
 20
43.9700727018
 30
0.0
 10
165.5668137428
 20
43.9700727018
 30
0.0
 10
165.7745717558
 20
43.9086335304
 30
0.0
 10
165.9089770206
 20
43.7372650212
 30
0.0
 10
165.9434885711
 20
43.6430334776
 30
0.0
  0
SPLINE
  5
357
100
AcDbEntity
  8
0
100
AcDbSpline
 62
7
  6
CONTINUOUS
 70
0
 71
3
 72
10
 73
6
 74
0
 42
0.0000001
 43
0.0000001
 44
0.0000000001
 40
0.0
 40
0.0
 40
0.0
 40
0.0
 40
0.4786201402
 40
0.7401451157
 40
1.0
 40
1.0
 40
1.0
 40
1.0
 10
165.9442555883
 20
43.6121153241
 30
0.0
 10
166.0568551387
 20
43.289362665
 30
0.0
 10
166.4052233701
 20
42.8319930241
 30
0.0
 10
167.0619336247
 20
42.5306374455
 30
0.0
 10
167.4374006106
 20
42.4758301403
 30
0.0
 10
167.6229390765
 20
42.4801278692
 30
0.0
  0
SPLINE
  5
358
100
AcDbEntity
  8
0
100
AcDbSpline
 62
7
  6
CONTINUOUS
 70
0
 71
3
 72
9
 73
5
 74
0
 42
0.0000001
 43
0.0000001
 44
0.0000000001
 40
0.0
 40
0.0
 40
0.0
 40
0.0
 40
0.4995072736
 40
1.0
 40
1.0
 40
1.0
 40
1.0
 10
166.0107240104
 20
43.4870535527
 30
0.0
 10
166.155363982
 20
43.1936067878
 30
0.0
 10
166.6226130212
 20
42.6781765545
 30
0.0
 10
167.2920007573
 20
42.4979949621
 30
0.0
 10
167.6198032235
 20
42.4979968083
 30
0.0
  0
SPLINE
  5
359
100
AcDbEntity
  8
0
100
AcDbSpline
 62
7
  6
CONTINUOUS
 70
0
 71
3
 72
9
 73
5
 74
0
 42
0.0000001
 43
0.0000001
 44
0.0000000001
 40
0.0
 40
0.0
 40
0.0
 40
0.0
 40
0.2905773219
 40
1.0
 40
1.0
 40
1.0
 40
1.0
 10
165.9441880733
 20
43.6121052123
 30
0.0
 10
165.9437325692
 20
43.6134108059
 30
0.0
 10
165.9440214726
 20
43.6183098064
 30
0.0
 10
165.943649318
 20
43.6229885918
 30
0.0
 10
165.9436030138
 20
43.6263642084
 30
0.0
  0
SPLINE
  5
35A
100
AcDbEntity
  8
0
100
AcDbSpline
 62
7
  6
CONTINUOUS
 70
0
 71
3
 72
9
 73
5
 74
0
 42
0.0000001
 43
0.0000001
 44
0.0000000001
 40
0.0
 40
0.0
 40
0.0
 40
0.0
 40
0.4971707451
 40
1.0
 40
1.0
 40
1.0
 40
1.0
 10
165.9434907885
 20
53.4868165415
 30
0.0
 10
166.0646932856
 20
53.155684162
 30
0.0
 10
166.5361883682
 20
52.5560299288
 30
0.0
 10
167.2631730134
 20
52.3418705877
 30
0.0
 10
167.6198032235
 20
52.3418698734
 30
0.0
  0
SPLINE
  5
35B
100
AcDbEntity
  8
0
100
AcDbSpline
 62
7
  6
CONTINUOUS
 70
0
 71
3
 72
9
 73
5
 74
0
 42
0.0000001
 43
0.0000001
 44
0.0000000001
 40
0.0
 40
0.0
 40
0.0
 40
0.0
 40
0.4958163748
 40
1.0
 40
1.0
 40
1.0
 40
1.0
 10
165.9502598492
 20
53.8861445834
 30
0.0
 10
166.058971448
 20
53.5370176826
 30
0.0
 10
166.5247111973
 20
52.8918198989
 30
0.0
 10
167.2784267592
 20
52.6491647456
 30
0.0
 10
167.6502295379
 20
52.6445383479
 30
0.0
  0
SPLINE
  5
35C
100
AcDbEntity
  8
0
100
AcDbSpline
 62
7
  6
CONTINUOUS
 70
0
 71
3
 72
9
 73
5
 74
0
 42
0.0000001
 43
0.0000001
 44
0.0000000001
 40
0.0
 40
0.0
 40
0.0
 40
0.0
 40
0.2150470036
 40
1.0
 40
1.0
 40
1.0
 40
1.0
 10
165.9434887476
 20
53.4868147484
 30
0.0
 10
165.9434842407
 20
53.5154444032
 30
0.0
 10
165.9442777293
 20
53.6485767434
 30
0.0
 10
165.9474388879
 20
53.7816816156
 30
0.0
 10
165.9502500249
 20
53.886146225
 30
0.0
  0
SPLINE
  5
35D
100
AcDbEntity
  8
0
100
AcDbSpline
 62
7
  6
CONTINUOUS
 70
0
 71
3
 72
13
 73
9
 74
0
 42
0.0000001
 43
0.0000001
 44
0.0000000001
 40
0.0
 40
0.0
 40
0.0
 40
0.0
 40
0.0571647406
 40
0.1393960315
 40
0.244555792
 40
0.3699131788
 40
0.6672654745
 40
1.0
 40
1.0
 40
1.0
 40
1.0
 10
167.6502289716
 20
52.6445352985
 30
0.0
 10
167.6699918562
 20
52.7834390515
 30
0.0
 10
167.6924945246
 20
53.1253898274
 30
0.0
 10
167.7108353082
 20
53.7251485113
 30
0.0
 10
167.719599743
 20
54.492810483
 30
0.0
 10
167.7232856105
 20
55.7883501545
 30
0.0
 10
167.7117381513
 20
57.6424864117
 30
0.0
 10
167.6802870261
 20
59.1887945179
 30
0.0
 10
167.6502289715
 20
60.0048900986
 30
0.0
  0
SPLINE
  5
35E
100
AcDbEntity
  8
0
100
AcDbSpline
 62
7
  6
CONTINUOUS
 70
0
 71
3
 72
9
 73
5
 74
0
 42
0.0000001
 43
0.0000001
 44
0.0000000001
 40
0.0
 40
0.0
 40
0.0
 40
0.0
 40
0.2540113793
 40
1.0
 40
1.0
 40
1.0
 40
1.0
 10
235.8289197724
 20
48.1896613194
 30
0.0
 10
235.8289189473
 20
48.128753633
 30
0.0
 10
235.8181215587
 20
47.8891802426
 30
0.0
 10
235.7681221848
 20
47.6506802156
 30
0.0
 10
235.7060325127
 20
47.4829263564
 30
0.0
  0
SPLINE
  5
35F
100
AcDbEntity
  8
0
100
AcDbSpline
 62
7
  6
CONTINUOUS
 70
0
 71
3
 72
9
 73
5
 74
0
 42
0.0000001
 43
0.0000001
 44
0.0000000001
 40
0.0
 40
0.0
 40
0.0
 40
0.0
 40
0.2275922788
 40
1.0
 40
1.0
 40
1.0
 40
1.0
 10
234.7674798051
 20
47.4829307378
 30
0.0
 10
234.7553591526
 20
47.5353482374
 30
0.0
 10
234.716560363
 20
47.7689682619
 30
0.0
 10
234.718838232
 20
48.0075581808
 30
0.0
 10
234.7321596812
 20
48.1896612431
 30
0.0
  0
SPLINE
  5
360
100
AcDbEntity
  8
0
100
AcDbSpline
 62
7
  6
CONTINUOUS
 70
0
 71
3
 72
9
 73
5
 74
0
 42
0.0000001
 43
0.0000001
 44
0.0000000001
 40
0.0
 40
0.0
 40
0.0
 40
0.0
 40
0.2546021356
 40
1.0
 40
1.0
 40
1.0
 40
1.0
 10
234.6213955206
 20
46.2471707934
 30
0.0
 10
234.6390544604
 20
46.3513150429
 30
0.0
 10
234.7031681599
 20
46.7612410791
 30
0.0
 10
234.7462704043
 20
47.1743993703
 30
0.0
 10
234.7674736077
 20
47.4829265605
 30
0.0
  0
SPLINE
  5
361
100
AcDbEntity
  8
0
100
AcDbSpline
 62
7
  6
CONTINUOUS
 70
0
 71
3
 72
9
 73
5
 74
0
 42
0.0000001
 43
0.0000001
 44
0.0000000001
 40
0.0
 40
0.0
 40
0.0
 40
0.0
 40
0.5589579772
 40
1.0
 40
1.0
 40
1.0
 40
1.0
 10
234.6213189745
 20
46.2471970197
 30
0.0
 10
234.5116273787
 20
46.216232307
 30
0.0
 10
234.3208400326
 20
46.1389969012
 30
0.0
 10
234.1618567491
 20
45.9969013705
 30
0.0
 10
234.1179160559
 20
45.9184328437
 30
0.0
  0
SPLINE
  5
362
100
AcDbEntity
  8
0
100
AcDbSpline
 62
7
  6
CONTINUOUS
 70
0
 71
3
 72
9
 73
5
 74
0
 42
0.0000001
 43
0.0000001
 44
0.0000000001
 40
0.0
 40
0.0
 40
0.0
 40
0.0
 40
0.2143473027
 40
1.0
 40
1.0
 40
1.0
 40
1.0
 10
234.2286225782
 20
47.0094739045
 30
0.0
 10
234.2460103823
 20
47.0586295394
 30
0.0
 10
234.3673378508
 20
47.2735905759
 30
0.0
 10
234.5901503431
 20
47.4116679565
 30
0.0
 10
234.7674811465
 20
47.4829230555
 30
0.0
  0
SPLINE
  5
363
100
AcDbEntity
  8
0
100
AcDbSpline
 62
7
  6
CONTINUOUS
 70
0
 71
3
 72
11
 73
7
 74
0
 42
0.0000001
 43
0.0000001
 44
0.0000000001
 40
0.0
 40
0.0
 40
0.0
 40
0.0
 40
0.1118335403
 40
0.322856365
 40
0.6225679161
 40
1.0
 40
1.0
 40
1.0
 40
1.0
 10
234.2936377592
 20
48.2397739614
 30
0.0
 10
234.3088145774
 20
48.2333768113
 30
0.0
 10
234.3565549025
 20
48.2265149133
 30
0.0
 10
234.4468912666
 20
48.213830852
 30
0.0
 10
234.5773946314
 20
48.2017647891
 30
0.0
 10
234.6767220643
 20
48.1937170346
 30
0.0
 10
234.732159117
 20
48.1896616059
 30
0.0
  0
SPLINE
  5
364
100
AcDbEntity
  8
0
100
AcDbSpline
 62
7
  6
CONTINUOUS
 70
0
 71
3
 72
11
 73
7
 74
0
 42
0.0000001
 43
0.0000001
 44
0.0000000001
 40
0.0
 40
0.0
 40
0.0
 40
0.0
 40
0.2521464612
 40
0.5038086016
 40
0.753256733
 40
1.0
 40
1.0
 40
1.0
 40
1.0
 10
221.6329289463
 20
52.6445274233
 30
0.0
 10
222.7398616099
 20
52.6659773122
 30
0.0
 10
224.9652104157
 20
53.1339995126
 30
0.0
 10
227.7882003255
 20
54.9999831233
 30
0.0
 10
229.7119910317
 20
57.7578425989
 30
0.0
 10
230.1986969204
 20
59.9498141286
 30
0.0
 10
230.2208047018
 20
61.0330043298
 30
0.0
  0
SPLINE
  5
365
100
AcDbEntity
  8
0
100
AcDbSpline
 62
7
  6
CONTINUOUS
 70
0
 71
3
 72
11
 73
7
 74
0
 42
0.0000001
 43
0.0000001
 44
0.0000000001
 40
0.0
 40
0.0
 40
0.0
 40
0.0
 40
0.2507909501
 40
0.5008238527
 40
0.7503472566
 40
1.0
 40
1.0
 40
1.0
 40
1.0
 10
234.0730910509
 20
45.6501577965
 30
0.0
 10
233.8256520274
 20
44.7668952593
 30
0.0
 10
233.0576256821
 20
43.0658163619
 30
0.0
 10
231.1698714199
 20
41.0092706122
 30
0.0
 10
228.7194398884
 20
39.6746849636
 30
0.0
 10
226.8775050972
 20
39.3755821618
 30
0.0
 10
225.9644067504
 20
39.3788037303
 30
0.0
  0
SPLINE
  5
366
100
AcDbEntity
  8
0
100
AcDbSpline
 62
7
  6
CONTINUOUS
 70
0
 71
3
 72
9
 73
5
 74
0
 42
0.0000001
 43
0.0000001
 44
0.0000000001
 40
0.0
 40
0.0
 40
0.0
 40
0.0
 40
0.2458281054
 40
1.0
 40
1.0
 40
1.0
 40
1.0
 10
234.2286068442
 20
47.0092113241
 30
0.0
 10
234.2237634969
 20
46.9195116412
 30
0.0
 10
234.2001430688
 20
46.5548550014
 30
0.0
 10
234.1595253737
 20
46.1912256872
 30
0.0
 10
234.1180231671
 20
45.9187796089
 30
0.0
  0
SPLINE
  5
367
100
AcDbEntity
  8
0
100
AcDbSpline
 62
7
  6
CONTINUOUS
 70
0
 71
3
 72
9
 73
5
 74
0
 42
0.0000001
 43
0.0000001
 44
0.0000000001
 40
0.0
 40
0.0
 40
0.0
 40
0.0
 40
0.2698055405
 40
1.0
 40
1.0
 40
1.0
 40
1.0
 10
234.293638708
 20
48.239815316
 30
0.0
 10
234.2899854074
 20
48.1290442744
 30
0.0
 10
234.2727004271
 20
47.7186007529
 30
0.0
 10
234.2447704519
 20
47.3087308945
 30
0.0
 10
234.2286217663
 20
47.0092151479
 30
0.0
  0
SPLINE
  5
368
100
AcDbEntity
  8
0
100
AcDbSpline
 62
7
  6
CONTINUOUS
 70
0
 71
3
 72
9
 73
5
 74
0
 42
0.0000001
 43
0.0000001
 44
0.0000000001
 40
0.0
 40
0.0
 40
0.0
 40
0.0
 40
0.4397213436
 40
1.0
 40
1.0
 40
1.0
 40
1.0
 10
234.0731613874
 20
45.6501427802
 30
0.0
 10
234.1184576537
 20
45.7224149131
 30
0.0
 10
234.2760061267
 20
45.8498918611
 30
0.0
 10
234.4599608466
 20
45.9161354432
 30
0.0
 10
234.565483466
 20
45.9421350834
 30
0.0
  0
SPLINE
  5
369
100
AcDbEntity
  8
0
100
AcDbSpline
 62
7
  6
CONTINUOUS
 70
0
 71
3
 72
11
 73
7
 74
0
 42
0.0000001
 43
0.0000001
 44
0.0000000001
 40
0.0
 40
0.0
 40
0.0
 40
0.0
 40
0.0702276885
 40
0.256887311
 40
0.5702529479
 40
1.0
 40
1.0
 40
1.0
 40
1.0
 10
236.5210430503
 20
45.3999259343
 30
0.0
 10
236.5210430818
 20
45.3912781773
 30
0.0
 10
236.479024435
 20
45.3806739256
 30
0.0
 10
236.4206615874
 20
45.3683906813
 30
0.0
 10
236.3005706763
 20
45.3559642204
 30
0.0
 10
236.2113414483
 20
45.3490754278
 30
0.0
 10
236.1585351027
 20
45.345631046
 30
0.0
  0
SPLINE
  5
36A
100
AcDbEntity
  8
0
100
AcDbSpline
 62
7
  6
CONTINUOUS
 70
0
 71
3
 72
9
 73
5
 74
0
 42
0.0000001
 43
0.0000001
 44
0.0000000001
 40
0.0
 40
0.0
 40
0.0
 40
0.0
 40
0.2195693665
 40
1.0
 40
1.0
 40
1.0
 40
1.0
 10
236.1585351027
 20
45.345631046
 30
0.0
 10
236.1012899312
 20
45.3418971343
 30
0.0
 10
235.8403843019
 20
45.3278497738
 30
0.0
 10
235.5791349963
 20
45.3212024327
 30
0.0
 10
235.3752560334
 20
45.3180807794
 30
0.0
  0
SPLINE
  5
36B
100
AcDbEntity
  8
0
100
AcDbSpline
 62
7
  6
CONTINUOUS
 70
0
 71
3
 72
11
 73
7
 74
0
 42
0.0000001
 43
0.0000001
 44
0.0000000001
 40
0.0
 40
0.0
 40
0.0
 40
0.0
 40
0.2500560548
 40
0.50003511
 40
0.7499968696
 40
1.0
 40
1.0
 40
1.0
 40
1.0
 10
40.5092310667
 20
43.6978807396
 30
0.0
 10
40.9052647825
 20
42.8479369449
 30
0.0
 10
41.9345423485
 20
41.2471418719
 30
0.0
 10
44.0795834238
 20
39.3717443532
 30
0.0
 10
46.6674542739
 20
38.1771295743
 30
0.0
 10
48.5535939726
 20
37.9068127836
 30
0.0
 10
49.4910772773
 20
37.9065566941
 30
0.0
  0
SPLINE
  5
36C
100
AcDbEntity
  8
0
100
AcDbSpline
 62
7
  6
CONTINUOUS
 70
0
 71
3
 72
9
 73
5
 74
0
 42
0.0000001
 43
0.0000001
 44
0.0000000001
 40
0.0
 40
0.0
 40
0.0
 40
0.0
 40
0.2679460322
 40
1.0
 40
1.0
 40
1.0
 40
1.0
 10
40.7233222729
 20
48.1896610901
 30
0.0
 10
40.7279412031
 20
48.1265208018
 30
0.0
 10
40.7388911158
 20
47.8908031087
 30
0.0
 10
40.7269681097
 20
47.6514439756
 30
0.0
 10
40.6879997991
 20
47.4829245945
 30
0.0
  0
SPLINE
  5
36D
100
AcDbEntity
  8
0
100
AcDbSpline
 62
7
  6
CONTINUOUS
 70
0
 71
3
 72
11
 73
7
 74
0
 42
0.0000001
 43
0.0000001
 44
0.0000000001
 40
0.0
 40
0.0
 40
0.0
 40
0.0
 40
0.2499200251
 40
0.4998188325
 40
0.7498217011
 40
1.0
 40
1.0
 40
1.0
 40
1.0
 10
107.7049417539
 20
37.9065566919
 30
0.0
 10
108.1418577847
 20
37.9067260098
 30
0.0
 10
109.026102631
 20
38.0915542733
 30
0.0
 10
110.1231002846
 20
38.8700753155
 30
0.0
 10
110.8417349151
 20
40.00432401
 30
0.0
 10
111.0070575224
 20
40.8876710706
 30
0.0
 10
111.0069417545
 20
41.3250386392
 30
0.0
  0
ENDSEC
  0
SECTION
  2
OBJECTS
  0
DICTIONARY
  5
C
100
AcDbDictionary
280
0
281
1
  3
ACAD_GROUP
350
D
  3
ACAD_MLINESTYLE
350
17
  3
ACAD_LAYOUT
350
1A
  3
ACAD_PLOTSETTINGS
350
19
  3
ACAD_PLOTSTYLENAME
350
E
  0
DICTIONARY
  5
D
102
{ACAD_REACTORS
330
C
102
}
100
AcDbDictionary
280
0
281
1
  0
ACDBDICTIONARYWDFLT
  5
E
102
{ACAD_REACTORS
330
C
102
}
100
AcDbDictionary
281
1
  3
Normal
350
F
100
AcDbDictionaryWithDefault
340
F
  0
DICTIONARY
  5
17
102
{ACAD_REACTORS
330
C
102
}
100
AcDbDictionary
280
0
281
1
  3
Standard
350
18
  0
DICTIONARY
  5
19
102
{ACAD_REACTORS
330
C
102
}
100
AcDbDictionary
281
1
  0
DICTIONARY
  5
1A
102
{ACAD_REACTORS
330
C
102
}
100
AcDbDictionary
281
1
  3
Model
350
36E
  3
Layout1
350
36F
  0
ACDBPLACEHOLDER
  5
F
102
{ACAD_REACTORS
330
E
102
}
  0
MLINESTYLE
  5
18
102
{ACAD_REACTORS
330
17
102
}
100
AcDbMlineStyle
  2
STANDARD
 70
0
  3

 62
256
 51
90.0
 52
90.0
 71
2
 49
0.5
 62
256
  6
BYLAYER
 49
-0.5
 62
256
  6
BYLAYER
  0
LAYOUT
  5
36E
102
{ACAD_REACTORS
330
1A
102
}
100
AcDbPlotSettings
  1

  2
none_device
  4

  6

 40
0.0
 41
0.0
 42
0.0
 43
0.0
 44
210.0
 45
297.0
 46
0.0
 47
0.0
 48
0.0
 49
0.0
140
0.0
141
0.0
142
1.0
143
1.0
 70
1024
 72
1
 73
0
 74
0
  7

 75
0
147
1.0
148
0.0
149
0.0
100
AcDbLayout
  1
Model
 70
0
 71
0
 10
0.0
 20
0.0
 11
210.0
 21
297.0
 12
0.0
 22
0.0
 32
0.0
 14
0.0
 24
0.0
 34
0.0
 15
0.0
 25
0.0
 35
0.0
146
0.0
 13
0.0
 23
0.0
 33
0.0
 16
1.0
 26
0.0
 36
0.0
 17
0.0
 27
1.0
 37
0.0
 76
0
330
210
345
0
346
0
  0
LAYOUT
  5
36F
102
{ACAD_REACTORS
330
1A
102
}
100
AcDbPlotSettings
  1

  2
none_device
  4

  6

 40
0.0
 41
0.0
 42
0.0
 43
0.0
 44
210.0
 45
297.0
 46
0.0
 47
0.0
 48
0.0
 49
0.0
140
0.0
141
0.0
142
1.0
143
1.0
 70
0
 72
1
 73
0
 74
0
  7

 75
0
147
1.0
148
0.0
149
0.0
100
AcDbLayout
  1
Layout1
 70
0
 71
1
 10
0.0
 20
0.0
 11
210.0
 21
297.0
 12
0.0
 22
0.0
 32
0.0
 14
0.0
 24
0.0
 34
0.0
 15
0.0
 25
0.0
 35
0.0
146
0.0
 13
0.0
 23
0.0
 33
0.0
 16
1.0
 26
0.0
 36
0.0
 17
0.0
 27
1.0
 37
0.0
 76
0
330
211
345
0
346
0
  0
ENDSEC
  0
EOF
