999
DXF file: C:\Users\sesa63760\Dev\_Creo\CAD\MCADPP0002971_3D-CAD\drw0001_7.dxf
999
Pro/ENGINEER 2019471 by Parametric Technology Corporation
  0
SECTION
  2
HEADER
  9
$ACADVER
  1
AC1024
  9
$DWGCODEPAGE
  3
ANSI_1252
  9
$EXTMAX
 10
115.4513035212
 20
163.2811292657
 30
0.0
  9
$EXTMIN
 10
0.0
 20
0.0
 30
0.0
  9
$LIMMIN
 10
0.0
 20
0.0
  9
$LIMMAX
 10
115.4513035212
 20
163.2811292657
  9
$VIEWCTR
 10
57.7256517606
 20
81.6405646328
  9
$VIEWSIZE
 40
163.2811292657
  9
$CLAYER
  8
0
  9
$LTSCALE
 40
10.6435106484
  9
$CELTYPE
  6
BYLAYER
  9
$DIMSCALE
 40
1.0
  9
$DIMASZ
 40
1.37442028
  9
$DIMEXO
 40
1.0
  9
$DIMDLI
 40
7.3536982662
  9
$DIMEXE
 40
1.0
  9
$DIMCEN
 40
1.7416653788
  9
$DIMLFAC
 40
1.0
  9
$DIMBLK
  1
_FILLED
  9
$DIMALT
 70
0
  9
$DIMALTF
 40
0.0393700787
  9
$DIMTXT
 40
1.924188392
  9
$DIMTOL
 70
1
  9
$DIMLIM
 70
0
  9
$DIMTFAC
 40
1.0
  9
$DIMTP
 40
0.01
  9
$DIMTM
 40
0.01
  9
$DIMGAP
 40
0.625
  9
$DIMDSEP
 70
46
  9
$AUNITS
 70
0
  9
$PDMODE
 70
3
  9
$PDSIZE
 40
0.3125
  9
$HANDSEED
  5
324
  9
$TILEMODE
 70
1
  9
$MEASUREMENT
 70
1
  9
$INSUNITS
 70
4
  0
ENDSEC
  0
SECTION
  2
CLASSES
  0
CLASS
  1
ACDBDICTIONARYWDFLT
  2
AcDbDictionaryWithDefault
  3
AutoCAD 2000
 90
0
 91
1
280
0
281
0
  0
CLASS
  1
ACDBPLACEHOLDER
  2
AcDbPlaceHolder
  3
AutoCAD 2000
 90
0
 91
1
280
0
281
0
  0
CLASS
  1
LAYOUT
  2
AcDbLayout
  3
AutoCAD 2000
 90
0
 91
0
280
0
281
0
  0
ENDSEC
  0
SECTION
  2
TABLES
  0
TABLE
  2
VPORT
  5
8
100
AcDbSymbolTable
 70
2
  0
VPORT
  5
1F4
100
AcDbSymbolTableRecord
100
AcDbViewportTableRecord
  2
*ACTIVE
 70
0
 10
0.0
 20
0.0
 11
1.0
 21
1.0
 12
57.7256517606
 22
81.6405646328
 13
0.0
 23
0.0
 14
1.0
 24
1.0
 15
0.0
 25
0.0
 16
0.0
 26
0.0
 36
1.0
 17
0.0
 27
0.0
 37
0.0
 40
163.2811292657
 41
0.7070707071
 42
50.0
 43
0.0
 44
0.0
 50
0.0
 51
0.0
 71
0
 72
100
 73
1
 74
1
 75
0
 76
0
 77
0
 78
0
  0
ENDTAB
  0
TABLE
  2
LTYPE
  5
5
100
AcDbSymbolTable
 70
6
  0
LTYPE
  5
14
100
AcDbSymbolTableRecord
100
AcDbLinetypeTableRecord
  2
BYBLOCK
 70
0
  3

 72
65
 73
0
 40
0.0
  0
LTYPE
  5
15
100
AcDbSymbolTableRecord
100
AcDbLinetypeTableRecord
  2
BYLAYER
 70
0
  3

 72
65
 73
0
 40
0.0
  0
LTYPE
  5
16
100
AcDbSymbolTableRecord
100
AcDbLinetypeTableRecord
  2
CONTINUOUS
 70
64
  3
Solid line
 72
65
 73
0
 40
0.0
  0
LTYPE
  5
1F5
100
AcDbSymbolTableRecord
100
AcDbLinetypeTableRecord
  2
CENTER
 70
64
  3
____ _ ____ _ ____ _ ____ _ ____ _ ____ _ ____
 72
65
 73
4
 40
0.6
 49
0.375
 74
0
 49
-0.075
 74
0
 49
0.075
 74
0
 49
-0.075
 74
0
  0
LTYPE
  5
1F6
100
AcDbSymbolTableRecord
100
AcDbLinetypeTableRecord
  2
HIDDEN
 70
64
  3
- - - - - - - - - - - - - - - - - - - -
 72
65
 73
2
 40
0.2
 49
0.1
 74
0
 49
-0.1
 74
0
  0
LTYPE
  5
1F7
100
AcDbSymbolTableRecord
100
AcDbLinetypeTableRecord
  2
PHANTOM
 70
64
  3
_____ _ _ _____ _ _ _____ _ _ _____
 72
65
 73
6
 40
0.8
 49
0.45
 74
0
 49
-0.05
 74
0
 49
0.1
 74
0
 49
-0.05
 74
0
 49
0.1
 74
0
 49
-0.05
 74
0
  0
LTYPE
  5
1F8
100
AcDbSymbolTableRecord
100
AcDbLinetypeTableRecord
  2
DOT
 70
64
  3
. . . . . . . . . . . . . . . . . . . .
 72
65
 73
2
 40
0.2
 49
0.1
 74
0
 49
-0.1
 74
0
  0
LTYPE
  5
1F9
100
AcDbSymbolTableRecord
100
AcDbLinetypeTableRecord
  2
DASHED
 70
64
  3
- - - - - - - - - - - - - - - - - - - -
 72
65
 73
2
 40
0.2
 49
0.1
 74
0
 49
-0.1
 74
0
  0
ENDTAB
  0
TABLE
  2
LAYER
  5
2
100
AcDbSymbolTable
 70
36
  0
LAYER
  5
10
100
AcDbSymbolTableRecord
100
AcDbLayerTableRecord
  2
0
 70
0
 62
7
  6
CONTINUOUS
370
-3
390
F
  0
LAYER
  5
1FA
100
AcDbSymbolTableRecord
100
AcDbLayerTableRecord
  2
DEFAULT_1
 70
0
 62
7
  6
CENTER
370
-3
390
F
  0
LAYER
  5
1FB
100
AcDbSymbolTableRecord
100
AcDbLayerTableRecord
  2
DEFAULT_2
 70
0
 62
8
  6
HIDDEN
370
-3
390
F
  0
LAYER
  5
1FC
100
AcDbSymbolTableRecord
100
AcDbLayerTableRecord
  2
DEFAULT_3
 70
0
 62
7
  6
PHANTOM
370
-3
390
F
  0
LAYER
  5
1FD
100
AcDbSymbolTableRecord
100
AcDbLayerTableRecord
  2
00_COMPONENTS
 70
0
 62
7
  6
CONTINUOUS
370
-3
390
F
  0
LAYER
  5
1FE
100
AcDbSymbolTableRecord
100
AcDbLayerTableRecord
  2
01_1_DEFAULT_DATUMS
 70
0
 62
7
  6
CONTINUOUS
370
-3
390
F
  0
LAYER
  5
1FF
100
AcDbSymbolTableRecord
100
AcDbLayerTableRecord
  2
01_PLANES
 70
0
 62
7
  6
CONTINUOUS
370
-3
390
F
  0
LAYER
  5
200
100
AcDbSymbolTableRecord
100
AcDbLayerTableRecord
  2
02_COORD_SYS
 70
0
 62
7
  6
CONTINUOUS
370
-3
390
F
  0
LAYER
  5
201
100
AcDbSymbolTableRecord
100
AcDbLayerTableRecord
  2
03_AXES
 70
0
 62
7
  6
CONTINUOUS
370
-3
390
F
  0
LAYER
  5
202
100
AcDbSymbolTableRecord
100
AcDbLayerTableRecord
  2
04_POINTS
 70
0
 62
7
  6
CONTINUOUS
370
-3
390
F
  0
LAYER
  5
203
100
AcDbSymbolTableRecord
100
AcDbLayerTableRecord
  2
05_CURVES
 70
0
 62
7
  6
CONTINUOUS
370
-3
390
F
  0
LAYER
  5
204
100
AcDbSymbolTableRecord
100
AcDbLayerTableRecord
  2
06_SURFS
 70
0
 62
7
  6
CONTINUOUS
370
-3
390
F
  0
LAYER
  5
205
100
AcDbSymbolTableRecord
100
AcDbLayerTableRecord
  2
07_COSMETICS
 70
0
 62
7
  6
CONTINUOUS
370
-3
390
F
  0
LAYER
  5
206
100
AcDbSymbolTableRecord
100
AcDbLayerTableRecord
  2
10_NOTES
 70
0
 62
7
  6
CONTINUOUS
370
-3
390
F
  0
LAYER
  5
207
100
AcDbSymbolTableRecord
100
AcDbLayerTableRecord
  2
11_NOTES_PUB
 70
0
 62
7
  6
CONTINUOUS
370
-3
390
F
  0
LAYER
  5
208
100
AcDbSymbolTableRecord
100
AcDbLayerTableRecord
  2
13_REF_GTOL
 70
0
 62
7
  6
CONTINUOUS
370
-3
390
F
  0
LAYER
  5
209
100
AcDbSymbolTableRecord
100
AcDbLayerTableRecord
  2
16_MISC
 70
0
 62
7
  6
CONTINUOUS
370
-3
390
F
  0
LAYER
  5
20A
100
AcDbSymbolTableRecord
100
AcDbLayerTableRecord
  2
17_NO_PRINT
 70
0
 62
7
  6
CONTINUOUS
370
-3
390
F
  0
LAYER
  5
20B
100
AcDbSymbolTableRecord
100
AcDbLayerTableRecord
  2
18_DATUM_CAMS_JOINTS
 70
0
 62
7
  6
CONTINUOUS
370
-3
390
F
  0
LAYER
  5
20C
100
AcDbSymbolTableRecord
100
AcDbLayerTableRecord
  2
19_DATUM_FUNCTIONAL
 70
0
 62
7
  6
CONTINUOUS
370
-3
390
F
  0
LAYER
  5
20D
100
AcDbSymbolTableRecord
100
AcDbLayerTableRecord
  2
20_DATUM_KINEMATIC_SCHEME
 70
0
 62
7
  6
CONTINUOUS
370
-3
390
F
  0
ENDTAB
  0
TABLE
  2
STYLE
  5
3
100
AcDbSymbolTable
 70
1
  0
STYLE
  5
11
100
AcDbSymbolTableRecord
100
AcDbTextStyleTableRecord
  2
STANDARD
 70
0
 40
0.0
 41
0.8
 50
0.0
 71
0
 42
0.2
  3
txt
  4

  0
STYLE
  5
20E
100
AcDbSymbolTableRecord
100
AcDbTextStyleTableRecord
  2
TEXTSTYLE_1
 70
0
 40
0.0
 41
0.8
 50
0.0
 71
0
 42
0.2
  3
gdt
  4

  0
ENDTAB
  0
TABLE
  2
VIEW
  5
6
100
AcDbSymbolTable
 70
0
  0
ENDTAB
  0
TABLE
  2
UCS
  5
7
100
AcDbSymbolTable
 70
0
  0
ENDTAB
  0
TABLE
  2
APPID
  5
9
100
AcDbSymbolTable
 70
1
  0
APPID
  5
20F
100
AcDbSymbolTableRecord
100
AcDbRegAppTableRecord
  2
ACAD
 70
0
  0
ENDTAB
  0
TABLE
  2
BLOCK_RECORD
  5
1
100
AcDbSymbolTable
 70
0
  0
BLOCK_RECORD
  5
210
100
AcDbSymbolTableRecord
100
AcDbBlockTableRecord
  2
*Model_Space
  0
BLOCK_RECORD
  5
211
100
AcDbSymbolTableRecord
100
AcDbBlockTableRecord
  2
*Paper_Space
  0
BLOCK_RECORD
  5
212
100
AcDbSymbolTableRecord
100
AcDbBlockTableRecord
  2
_FILLED
  0
ENDTAB
  0
TABLE
  2
DIMSTYLE
  5
A
100
AcDbSymbolTable
 70
1
100
AcDbDimStyleTable
 71
0
  0
DIMSTYLE
105
213
100
AcDbSymbolTableRecord
100
AcDbDimStyleTableRecord
  2
STANDARD
 70
0
  3

  4

 40
1.0
 41
1.37442028
 42
1.0
 43
0.38
 44
1.0
 45
0.0
 46
0.0
 47
0.01
 48
0.01
140
1.924188392
141
0.09
142
0.0
143
25.4
144
1.0
145
0.0
146
1.0
147
0.625
 71
1
 72
0
 73
0
 74
0
 75
0
 76
0
 77
1
 78
8
 79
2
170
0
171
1
172
0
173
0
174
0
175
0
176
0
177
0
178
0
270
2
179
2
271
2
272
2
273
2
274
2
275
0
280
0
281
0
282
0
283
1
284
8
285
0
286
0
287
3
288
0
340
11
278
46
341
212
342
212
343
212
344
212
  0
ENDTAB
  0
ENDSEC
  0
SECTION
  2
BLOCKS
  0
BLOCK
  5
20
100
AcDbEntity
  8
0
100
AcDbBlockBegin
  2
*Model_Space
 70
0
 10
0.0
 20
0.0
 30
0.0
  3
*Model_Space
  1

  0
ENDBLK
  5
21
100
AcDbEntity
  8
0
100
AcDbBlockEnd
  0
BLOCK
  5
1C
100
AcDbEntity
  8
0
100
AcDbBlockBegin
  2
*Paper_Space
 70
0
 10
0.0
 20
0.0
 30
0.0
  3
*Paper_Space
  1

  0
ENDBLK
  5
1D
100
AcDbEntity
  8
0
100
AcDbBlockEnd
  0
BLOCK
  5
214
100
AcDbEntity
  8
0
100
AcDbBlockBegin
  2
_FILLED
 70
64
 10
0.0
 20
0.0
  3
_FILLED
  1

  0
SOLID
  5
215
100
AcDbEntity
  8
0
  6
BYBLOCK
 62
0
100
AcDbTrace
 10
0.0
 20
0.0
 11
-1.0
 21
0.25
 12
-1.0
 22
-0.25
 13
-1.0
 23
-0.25
  0
ENDBLK
  5
216
100
AcDbEntity
  8
0
  6
BYBLOCK
 62
0
100
AcDbBlockEnd
  0
ENDSEC
  0
SECTION
  2
ENTITIES
  0
LINE
  5
217
100
AcDbEntity
  8
0
100
AcDbLine
 62
7
  6
CONTINUOUS
 10
12.2587522405
 20
67.7102736396
 11
12.2587522405
 21
76.9102736396
  0
LINE
  5
218
100
AcDbEntity
  8
0
100
AcDbLine
 62
7
  6
CONTINUOUS
 10
13.0387522405
 20
81.9602736396
 11
13.0631466518
 21
82.5189975171
  0
LINE
  5
219
100
AcDbEntity
  8
0
100
AcDbLine
 62
7
  6
CONTINUOUS
 10
12.5587522405
 20
77.1102736396
 11
13.3792723249
 21
81.7636742772
  0
LINE
  5
21A
100
AcDbEntity
  8
0
100
AcDbLine
 62
7
  6
CONTINUOUS
 10
21.2887522405
 20
82.1102736396
 11
21.2887522405
 21
79.8102736398
  0
LINE
  5
21B
100
AcDbEntity
  8
0
100
AcDbLine
 62
7
  6
CONTINUOUS
 10
21.2887522405
 20
68.9102736396
 11
21.2887522405
 21
67.7102736396
  0
LINE
  5
21C
100
AcDbEntity
  8
0
100
AcDbLine
 62
7
  6
CONTINUOUS
 10
21.6587522405
 20
78.5730315174
 11
21.6587522405
 21
75.2212990434
  0
LINE
  5
21D
100
AcDbEntity
  8
0
100
AcDbLine
 62
7
  6
CONTINUOUS
 10
22.1287522405
 20
79.3902736396
 11
22.1287522405
 21
80.3402736396
  0
LINE
  5
21E
100
AcDbEntity
  8
0
100
AcDbLine
 62
7
  6
CONTINUOUS
 10
22.1287522405
 20
92.8902736396
 11
22.1287522405
 21
93.8902736397
  0
LINE
  5
21F
100
AcDbEntity
  8
0
100
AcDbLine
 62
7
  6
CONTINUOUS
 10
22.1587522405
 20
67.7902736396
 11
22.1587522405
 21
75.9902736396
  0
LINE
  5
220
100
AcDbEntity
  8
0
100
AcDbLine
 62
7
  6
CONTINUOUS
 10
23.5587602875
 20
92.8902736396
 11
23.5587602875
 21
80.3402736396
  0
LINE
  5
221
100
AcDbEntity
  8
0
100
AcDbLine
 62
7
  6
CONTINUOUS
 10
21.6587522405
 20
75.2212990434
 11
22.1435967959
 21
74.3815236396
  0
LINE
  5
222
100
AcDbEntity
  8
0
100
AcDbLine
 62
7
  6
CONTINUOUS
 10
21.2887522405
 20
79.8102736398
 11
21.6587522405
 21
78.5730315174
  0
LINE
  5
223
100
AcDbEntity
  8
0
100
AcDbLine
 62
7
  6
CONTINUOUS
 10
21.6587372
 20
78.5730651336
 11
21.6906795799
 21
78.4316296662
  0
LINE
  5
224
100
AcDbEntity
  8
0
100
AcDbLine
 62
7
  6
CONTINUOUS
 10
26.8444192156
 20
92.8902736396
 11
26.8444192194
 21
93.8902736397
  0
LINE
  5
225
100
AcDbEntity
  8
0
100
AcDbLine
 62
7
  6
CONTINUOUS
 10
26.9663700464
 20
94.8902736397
 11
26.8444192194
 21
93.8902736397
  0
LINE
  5
226
100
AcDbEntity
  8
0
100
AcDbLine
 62
7
  6
CONTINUOUS
 10
22.8587522405
 20
74.3902736396
 11
22.1587522405
 21
75.0902736396
  0
LINE
  5
227
100
AcDbEntity
  8
0
100
AcDbLine
 62
7
  6
CONTINUOUS
 10
28.5922602875
 20
78.3902736396
 11
28.5922602875
 21
76.6902736396
  0
LINE
  5
228
100
AcDbEntity
  8
0
100
AcDbLine
 62
7
  6
CONTINUOUS
 10
28.5922602875
 20
59.7902736396
 11
28.5922602875
 21
61.3621899779
  0
LINE
  5
229
100
AcDbEntity
  8
0
100
AcDbLine
 62
7
  6
CONTINUOUS
 10
28.5922602875
 20
61.3761248847
 11
28.5922602875
 21
67.7902736396
  0
LINE
  5
22A
100
AcDbEntity
  8
0
100
AcDbLine
 62
7
  6
CONTINUOUS
 10
28.5922602875
 20
94.8902736396
 11
28.5922602875
 21
102.7075443967
  0
LINE
  5
22B
100
AcDbEntity
  8
0
100
AcDbLine
 62
7
  6
CONTINUOUS
 10
28.5922602875
 20
102.7183573013
 11
28.5922602875
 21
104.2902736396
  0
LINE
  5
22C
100
AcDbEntity
  8
0
100
AcDbLine
 62
7
  6
CONTINUOUS
 10
23.1287522405
 20
78.3902736396
 11
22.1287522405
 21
79.3902736396
  0
LINE
  5
22D
100
AcDbEntity
  8
0
100
AcDbLine
 62
7
  6
CONTINUOUS
 10
35.0936842247
 20
93.8902736391
 11
35.2156350299
 21
94.8902736386
  0
LINE
  5
22E
100
AcDbEntity
  8
0
100
AcDbLine
 62
7
  6
CONTINUOUS
 10
22.1287522407
 20
93.8902736397
 11
24.2732591611
 21
94.8902736397
  0
LINE
  5
22F
100
AcDbEntity
  8
0
100
AcDbLine
 62
7
  6
CONTINUOUS
 10
25.7140124922
 20
77.3507296842
 11
26.4285789558
 21
76.6902736396
  0
LINE
  5
230
100
AcDbEntity
  8
0
100
AcDbLine
 62
7
  6
CONTINUOUS
 10
35.0922602875
 20
76.6902736396
 11
35.0922602875
 21
78.3902736396
  0
LINE
  5
231
100
AcDbEntity
  8
0
100
AcDbLine
 62
7
  6
CONTINUOUS
 10
35.0936842497
 20
92.8902736396
 11
35.0936842247
 21
93.8902736391
  0
LINE
  5
232
100
AcDbEntity
  8
0
100
AcDbLine
 62
7
  6
CONTINUOUS
 10
35.1337614067
 20
78.3902736396
 11
35.1337614067
 21
76.6902736396
  0
LINE
  5
233
100
AcDbEntity
  8
0
100
AcDbLine
 62
7
  6
CONTINUOUS
 10
36.5587602875
 20
92.8902736396
 11
36.5587602875
 21
80.3402736396
  0
LINE
  5
234
100
AcDbEntity
  8
0
100
AcDbLine
 62
7
  6
CONTINUOUS
 10
36.5587602875
 20
78.3902736396
 11
36.5587602875
 21
76.6902736396
  0
LINE
  5
235
100
AcDbEntity
  8
0
100
AcDbLine
 62
7
  6
CONTINUOUS
 10
37.0287522405
 20
75.3902824854
 11
37.0287522405
 21
92.8902736396
  0
LINE
  5
236
100
AcDbEntity
  8
0
100
AcDbLine
 62
7
  6
CONTINUOUS
 10
22.1587522405
 20
75.9902736396
 11
22.8587522405
 21
76.6902736396
  0
LINE
  5
237
100
AcDbEntity
  8
0
100
AcDbLine
 62
7
  6
CONTINUOUS
 10
103.5922602875
 20
59.7902736396
 11
86.0922602875
 21
59.7902736396
  0
LINE
  5
238
100
AcDbEntity
  8
0
100
AcDbLine
 62
7
  6
CONTINUOUS
 10
28.5922602875
 20
59.7902736396
 11
46.0922602875
 21
59.7902736396
  0
LINE
  5
239
100
AcDbEntity
  8
0
100
AcDbLine
 62
7
  6
CONTINUOUS
 10
103.5922602875
 20
60.2902736396
 11
86.0922602875
 21
60.2902736396
  0
LINE
  5
23A
100
AcDbEntity
  8
0
100
AcDbLine
 62
7
  6
CONTINUOUS
 10
28.5922602875
 20
60.2902736396
 11
46.0922602875
 21
60.2902736396
  0
LINE
  5
23B
100
AcDbEntity
  8
0
100
AcDbLine
 62
7
  6
CONTINUOUS
 10
103.5922602875
 20
61.3621899779
 11
86.0922602875
 21
61.3621899779
  0
LINE
  5
23C
100
AcDbEntity
  8
0
100
AcDbLine
 62
7
  6
CONTINUOUS
 10
46.0922602875
 20
61.3621899779
 11
28.5922602875
 21
61.3621899779
  0
LINE
  5
23D
100
AcDbEntity
  8
0
100
AcDbLine
 62
7
  6
CONTINUOUS
 10
28.5922602875
 20
61.661764327
 11
46.0922602875
 21
61.661764327
  0
LINE
  5
23E
100
AcDbEntity
  8
0
100
AcDbLine
 62
7
  6
CONTINUOUS
 10
86.0922602875
 20
61.661764327
 11
103.5922602875
 21
61.661764327
  0
LINE
  5
23F
100
AcDbEntity
  8
0
100
AcDbLine
 62
7
  6
CONTINUOUS
 10
13.3792723249
 20
81.7636742772
 11
13.0387522405
 21
81.9602736396
  0
LINE
  5
240
100
AcDbEntity
  8
0
100
AcDbLine
 62
7
  6
CONTINUOUS
 10
39.2153947548
 20
96.1801443583
 11
39.2153947548
 21
94.8902736396
  0
LINE
  5
241
100
AcDbEntity
  8
0
100
AcDbLine
 62
7
  6
CONTINUOUS
 10
39.2153947585
 20
92.8902736396
 11
39.2153947585
 21
93.8902736396
  0
LINE
  5
242
100
AcDbEntity
  8
0
100
AcDbLine
 62
7
  6
CONTINUOUS
 10
46.7936154779
 20
96.0460182272
 11
46.8038746687
 21
96.0555266989
  0
LINE
  5
243
100
AcDbEntity
  8
0
100
AcDbLine
 62
7
  6
CONTINUOUS
 10
47.6440030267
 20
96.6421331501
 11
47.1485728333
 21
96.2362486941
  0
LINE
  5
244
100
AcDbEntity
  8
0
100
AcDbLine
 62
7
  6
CONTINUOUS
 10
43.5576668232
 20
93.9384692624
 11
43.490605256
 21
93.8902736401
  0
LINE
  5
245
100
AcDbEntity
  8
0
100
AcDbLine
 62
7
  6
CONTINUOUS
 10
44.9172715578
 20
94.8425653716
 11
44.9836828654
 21
94.8902736396
  0
LINE
  5
246
100
AcDbEntity
  8
0
100
AcDbLine
 62
7
  6
CONTINUOUS
 10
39.2153947658
 20
93.8902736396
 11
41.1051529335
 21
94.8902736396
  0
LINE
  5
247
100
AcDbEntity
  8
0
100
AcDbLine
 62
7
  6
CONTINUOUS
 10
44.9065821162
 20
95.1383936536
 11
46.7936154779
 21
96.0460182272
  0
LINE
  5
248
100
AcDbEntity
  8
0
100
AcDbLine
 62
7
  6
CONTINUOUS
 10
28.5922602875
 20
62.261764327
 11
46.0922602875
 21
62.261764327
  0
LINE
  5
249
100
AcDbEntity
  8
0
100
AcDbLine
 62
7
  6
CONTINUOUS
 10
86.0922602875
 20
62.261764327
 11
103.5922602875
 21
62.261764327
  0
LINE
  5
24A
100
AcDbEntity
  8
0
100
AcDbLine
 62
7
  6
CONTINUOUS
 10
103.5922602875
 20
64.4402736396
 11
86.0922602875
 21
64.4402736396
  0
LINE
  5
24B
100
AcDbEntity
  8
0
100
AcDbLine
 62
7
  6
CONTINUOUS
 10
28.5922602875
 20
64.4402736396
 11
46.0922602875
 21
64.4402736396
  0
LINE
  5
24C
100
AcDbEntity
  8
0
100
AcDbLine
 62
7
  6
CONTINUOUS
 10
43.490605256
 20
93.8902736401
 11
43.490605256
 21
92.8902736396
  0
LINE
  5
24D
100
AcDbEntity
  8
0
100
AcDbLine
 62
7
  6
CONTINUOUS
 10
43.592293867
 20
92.8902736396
 11
43.592293867
 21
93.890273639
  0
LINE
  5
24E
100
AcDbEntity
  8
0
100
AcDbLine
 62
7
  6
CONTINUOUS
 10
49.8050409506
 20
93.9508928801
 11
49.7207484537
 21
93.8902735954
  0
LINE
  5
24F
100
AcDbEntity
  8
0
100
AcDbLine
 62
7
  6
CONTINUOUS
 10
51.1559661936
 20
94.8292204339
 11
51.2410186708
 21
94.8902736396
  0
LINE
  5
250
100
AcDbEntity
  8
0
100
AcDbLine
 62
7
  6
CONTINUOUS
 10
57.5922602875
 20
66.8902736396
 11
74.5922602875
 21
66.8902736396
  0
LINE
  5
251
100
AcDbEntity
  8
0
100
AcDbLine
 62
7
  6
CONTINUOUS
 10
21.2887522405
 20
67.7102736396
 11
12.2587522405
 21
67.7102736396
  0
LINE
  5
252
100
AcDbEntity
  8
0
100
AcDbLine
 62
7
  6
CONTINUOUS
 10
51.03611728
 20
67.7902736396
 11
22.1587522405
 21
67.7902736396
  0
LINE
  5
253
100
AcDbEntity
  8
0
100
AcDbLine
 62
7
  6
CONTINUOUS
 10
103.5922602875
 20
67.9402736396
 11
86.0922602875
 21
67.9402736396
  0
LINE
  5
254
100
AcDbEntity
  8
0
100
AcDbLine
 62
7
  6
CONTINUOUS
 10
22.1587522405
 20
68.9102736396
 11
21.2887522405
 21
68.9102736396
  0
LINE
  5
255
100
AcDbEntity
  8
0
100
AcDbLine
 62
7
  6
CONTINUOUS
 10
45.970497567
 20
96.052479174
 11
45.970497567
 21
95.6501152941
  0
LINE
  5
256
100
AcDbEntity
  8
0
100
AcDbLine
 62
7
  6
CONTINUOUS
 10
46.0922602875
 20
59.7902736396
 11
46.0922602875
 21
61.3621899779
  0
LINE
  5
257
100
AcDbEntity
  8
0
100
AcDbLine
 62
7
  6
CONTINUOUS
 10
46.0922602875
 20
61.3730028825
 11
46.0922602875
 21
67.7902736396
  0
LINE
  5
258
100
AcDbEntity
  8
0
100
AcDbLine
 62
7
  6
CONTINUOUS
 10
46.0922602875
 20
96.8902736396
 11
46.0922602875
 21
102.7044223945
  0
LINE
  5
259
100
AcDbEntity
  8
0
100
AcDbLine
 62
7
  6
CONTINUOUS
 10
46.0922602875
 20
102.7183573013
 11
46.0922602875
 21
104.2902736396
  0
LINE
  5
25A
100
AcDbEntity
  8
0
100
AcDbLine
 62
7
  6
CONTINUOUS
 10
46.7187645265
 20
96.8902736396
 11
46.7187645265
 21
96.1421423414
  0
LINE
  5
25B
100
AcDbEntity
  8
0
100
AcDbLine
 62
7
  6
CONTINUOUS
 10
47.1485728333
 20
96.8902736396
 11
47.1485728333
 21
96.2362486941
  0
LINE
  5
25C
100
AcDbEntity
  8
0
100
AcDbLine
 62
7
  6
CONTINUOUS
 10
48.0922602875
 20
96.8902736396
 11
48.0922602875
 21
96.8732976512
  0
LINE
  5
25D
100
AcDbEntity
  8
0
100
AcDbLine
 62
7
  6
CONTINUOUS
 10
51.1285699121
 20
67.8147746402
 11
51.03611728
 21
67.7902736396
  0
LINE
  5
25E
100
AcDbEntity
  8
0
100
AcDbLine
 62
7
  6
CONTINUOUS
 10
86.0922602875
 20
69.5174852691
 11
103.5922602875
 21
69.5174852691
  0
LINE
  5
25F
100
AcDbEntity
  8
0
100
AcDbLine
 62
7
  6
CONTINUOUS
 10
22.1587522405
 20
69.7902736396
 11
51.5723603241
 21
69.7902736396
  0
LINE
  5
260
100
AcDbEntity
  8
0
100
AcDbLine
 62
7
  6
CONTINUOUS
 10
82.5433796531
 20
69.8902736396
 11
86.0922602875
 21
69.8902736396
  0
LINE
  5
261
100
AcDbEntity
  8
0
100
AcDbLine
 62
7
  6
CONTINUOUS
 10
103.5922602875
 20
70.0102895463
 11
86.0922602875
 21
70.0102895463
  0
LINE
  5
262
100
AcDbEntity
  8
0
100
AcDbLine
 62
7
  6
CONTINUOUS
 10
53.3112703612
 20
71.6402736396
 11
54.5922602875
 21
71.6402736396
  0
LINE
  5
263
100
AcDbEntity
  8
0
100
AcDbLine
 62
7
  6
CONTINUOUS
 10
56.0069494918
 20
71.6402736396
 11
60.1772945188
 21
71.6402736396
  0
LINE
  5
264
100
AcDbEntity
  8
0
100
AcDbLine
 62
7
  6
CONTINUOUS
 10
72.0069494918
 20
71.6402736396
 11
76.1772945188
 21
71.6402736396
  0
LINE
  5
265
100
AcDbEntity
  8
0
100
AcDbLine
 62
7
  6
CONTINUOUS
 10
77.5922602875
 20
71.6402736396
 11
82.5433796531
 21
71.6402736396
  0
LINE
  5
266
100
AcDbEntity
  8
0
100
AcDbLine
 62
7
  6
CONTINUOUS
 10
86.0922602875
 20
71.6402736396
 11
97.0922602875
 21
71.6402736396
  0
LINE
  5
267
100
AcDbEntity
  8
0
100
AcDbLine
 62
7
  6
CONTINUOUS
 10
103.5922602875
 20
71.6902736396
 11
97.0922602875
 21
71.6902736396
  0
LINE
  5
268
100
AcDbEntity
  8
0
100
AcDbLine
 62
7
  6
CONTINUOUS
 10
53.3112703679
 20
69.8006670347
 11
51.5723602017
 21
69.802917658
  0
LINE
  5
269
100
AcDbEntity
  8
0
100
AcDbLine
 62
7
  6
CONTINUOUS
 10
21.9160711402
 20
78.2053847836
 11
25.3441503155
 21
77.5369244001
  0
LINE
  5
26A
100
AcDbEntity
  8
0
100
AcDbLine
 62
7
  6
CONTINUOUS
 10
49.7207484537
 20
93.8902735954
 11
49.7207484537
 21
92.8902736396
  0
LINE
  5
26B
100
AcDbEntity
  8
0
100
AcDbLine
 62
7
  6
CONTINUOUS
 10
49.8486242922
 20
92.8902736396
 11
49.8486242922
 21
93.8902736402
  0
LINE
  5
26C
100
AcDbEntity
  8
0
100
AcDbLine
 62
7
  6
CONTINUOUS
 10
51.5723601504
 20
74.3902736396
 11
51.5723603241
 21
69.7902736396
  0
LINE
  5
26D
100
AcDbEntity
  8
0
100
AcDbLine
 62
7
  6
CONTINUOUS
 10
97.0922602875
 20
72.4402736396
 11
102.2922602875
 21
72.4402736396
  0
LINE
  5
26E
100
AcDbEntity
  8
0
100
AcDbLine
 62
7
  6
CONTINUOUS
 10
93.243559794
 20
73.8902736396
 11
82.5433796531
 21
73.8902736396
  0
LINE
  5
26F
100
AcDbEntity
  8
0
100
AcDbLine
 62
7
  6
CONTINUOUS
 10
22.1587522405
 20
74.3902736396
 11
22.8587522405
 21
74.3902736396
  0
LINE
  5
270
100
AcDbEntity
  8
0
100
AcDbLine
 62
7
  6
CONTINUOUS
 10
39.2879418335
 20
74.3902736396
 11
94.4477365855
 21
74.3902736396
  0
LINE
  5
271
100
AcDbEntity
  8
0
100
AcDbLine
 62
7
  6
CONTINUOUS
 10
37.0287522405
 20
75.3902736396
 11
96.5922602875
 21
75.3902736396
  0
LINE
  5
272
100
AcDbEntity
  8
0
100
AcDbLine
 62
7
  6
CONTINUOUS
 10
53.3112703679
 20
69.8006670347
 11
53.3112703502
 21
74.3902736396
  0
LINE
  5
273
100
AcDbEntity
  8
0
100
AcDbLine
 62
7
  6
CONTINUOUS
 10
53.619471917
 20
74.3902736396
 11
53.619471917
 21
71.6402736396
  0
LINE
  5
274
100
AcDbEntity
  8
0
100
AcDbLine
 62
7
  6
CONTINUOUS
 10
54.1122761942
 20
71.6402736396
 11
54.1122761942
 21
74.3902736396
  0
LINE
  5
275
100
AcDbEntity
  8
0
100
AcDbLine
 62
7
  6
CONTINUOUS
 10
54.5922602875
 20
74.3902736396
 11
54.5922602875
 21
69.8902736396
  0
LINE
  5
276
100
AcDbEntity
  8
0
100
AcDbLine
 62
7
  6
CONTINUOUS
 10
22.8587522405
 20
76.6902736396
 11
36.5587602875
 21
76.6902736396
  0
LINE
  5
277
100
AcDbEntity
  8
0
100
AcDbLine
 62
7
  6
CONTINUOUS
 10
12.4587522405
 20
77.1102736396
 11
12.5587522405
 21
77.1102736396
  0
LINE
  5
278
100
AcDbEntity
  8
0
100
AcDbLine
 62
7
  6
CONTINUOUS
 10
36.5587602875
 20
78.3902736396
 11
23.1287522405
 21
78.3902736396
  0
LINE
  5
279
100
AcDbEntity
  8
0
100
AcDbLine
 62
7
  6
CONTINUOUS
 10
22.3227219147
 20
76.1542433138
 11
21.9718380567
 21
76.1557271461
  0
LINE
  5
27A
100
AcDbEntity
  8
0
100
AcDbLine
 62
7
  6
CONTINUOUS
 10
57.2926201878
 20
96.6421330864
 11
57.2926116549
 21
95.6620288842
  0
LINE
  5
27B
100
AcDbEntity
  8
0
100
AcDbLine
 62
7
  6
CONTINUOUS
 10
22.1287522405
 20
80.3402736396
 11
36.5587602875
 21
80.3402736396
  0
LINE
  5
27C
100
AcDbEntity
  8
0
100
AcDbLine
 62
7
  6
CONTINUOUS
 10
103.4850349415
 20
80.5402736396
 11
103.5922602875
 21
80.5402736396
  0
LINE
  5
27D
100
AcDbEntity
  8
0
100
AcDbLine
 62
7
  6
CONTINUOUS
 10
13.2629562961
 20
82.7102736396
 11
20.6887522405
 21
82.7102736396
  0
LINE
  5
27E
100
AcDbEntity
  8
0
100
AcDbLine
 62
7
  6
CONTINUOUS
 10
103.4850349415
 20
83.5402736396
 11
103.5922602875
 21
83.5402736396
  0
LINE
  5
27F
100
AcDbEntity
  8
0
100
AcDbLine
 62
7
  6
CONTINUOUS
 10
36.5587602875
 20
88.8902736396
 11
23.5587602875
 21
88.8902736396
  0
LINE
  5
280
100
AcDbEntity
  8
0
100
AcDbLine
 62
7
  6
CONTINUOUS
 10
53.5127899387
 20
94.8902736396
 11
53.2993135942
 21
95.1384136112
  0
LINE
  5
281
100
AcDbEntity
  8
0
100
AcDbLine
 62
7
  6
CONTINUOUS
 10
57.7592801836
 20
94.8902736396
 11
57.2926116549
 21
95.6620297954
  0
LINE
  5
282
100
AcDbEntity
  8
0
100
AcDbLine
 62
7
  6
CONTINUOUS
 10
71.8714357186
 20
94.8902762954
 11
72.2955897375
 21
95.8857977152
  0
LINE
  5
283
100
AcDbEntity
  8
0
100
AcDbLine
 62
7
  6
CONTINUOUS
 10
74.4252592328
 20
94.8902736396
 11
74.891927606
 21
95.6620309223
  0
LINE
  5
284
100
AcDbEntity
  8
0
100
AcDbLine
 62
7
  6
CONTINUOUS
 10
78.6717754058
 20
94.8902736396
 11
78.885207506
 21
95.1383630019
  0
LINE
  5
285
100
AcDbEntity
  8
0
100
AcDbLine
 62
7
  6
CONTINUOUS
 10
51.1286225251
 20
67.8147723129
 11
52.9516256175
 21
68.8189754263
  0
LINE
  5
286
100
AcDbEntity
  8
0
100
AcDbLine
 62
7
  6
CONTINUOUS
 10
102.2922602875
 20
91.6402736396
 11
97.0922602875
 21
91.6402736396
  0
LINE
  5
287
100
AcDbEntity
  8
0
100
AcDbLine
 62
7
  6
CONTINUOUS
 10
96.5922602875
 20
92.3902736396
 11
103.5922602875
 21
92.3902736396
  0
LINE
  5
288
100
AcDbEntity
  8
0
100
AcDbLine
 62
7
  6
CONTINUOUS
 10
88.6940368476
 20
92.8902736396
 11
88.592127239
 21
92.8902736396
  0
LINE
  5
289
100
AcDbEntity
  8
0
100
AcDbLine
 62
7
  6
CONTINUOUS
 10
82.4637733127
 20
92.8902736396
 11
82.3358679697
 21
92.8902736396
  0
LINE
  5
28A
100
AcDbEntity
  8
0
100
AcDbLine
 62
7
  6
CONTINUOUS
 10
49.8486242922
 20
92.8902736396
 11
49.7207484537
 21
92.8902736396
  0
LINE
  5
28B
100
AcDbEntity
  8
0
100
AcDbLine
 62
7
  6
CONTINUOUS
 10
43.5922938672
 20
92.8902736396
 11
43.490605256
 21
92.8902736396
  0
LINE
  5
28C
100
AcDbEntity
  8
0
100
AcDbLine
 62
7
  6
CONTINUOUS
 10
22.1287522405
 20
92.8902736396
 11
39.2153947548
 21
92.8902736396
  0
LINE
  5
28D
100
AcDbEntity
  8
0
100
AcDbLine
 62
7
  6
CONTINUOUS
 10
96.5922602875
 20
93.8902736396
 11
88.6940368476
 21
93.8902736396
  0
LINE
  5
28E
100
AcDbEntity
  8
0
100
AcDbLine
 62
7
  6
CONTINUOUS
 10
88.5921272656
 20
93.8902736396
 11
82.4637733127
 21
93.8902736396
  0
LINE
  5
28F
100
AcDbEntity
  8
0
100
AcDbLine
 62
7
  6
CONTINUOUS
 10
82.3358679697
 20
93.8902736396
 11
49.8486242922
 21
93.8902736396
  0
LINE
  5
290
100
AcDbEntity
  8
0
100
AcDbLine
 62
7
  6
CONTINUOUS
 10
49.7207484537
 20
93.8902736396
 11
43.5922938671
 21
93.8902736396
  0
LINE
  5
291
100
AcDbEntity
  8
0
100
AcDbLine
 62
7
  6
CONTINUOUS
 10
43.490605256
 20
93.8902736396
 11
22.1287522405
 21
93.8902736396
  0
LINE
  5
292
100
AcDbEntity
  8
0
100
AcDbLine
 62
7
  6
CONTINUOUS
 10
103.5922602875
 20
94.070257733
 11
96.2062831538
 21
94.070257733
  0
LINE
  5
293
100
AcDbEntity
  8
0
100
AcDbLine
 62
7
  6
CONTINUOUS
 10
103.5922602875
 20
94.5630620101
 11
95.149460971
 21
94.5630620101
  0
LINE
  5
294
100
AcDbEntity
  8
0
100
AcDbLine
 62
7
  6
CONTINUOUS
 10
94.4477287209
 20
94.8902736396
 11
24.2732591611
 21
94.8902736396
  0
LINE
  5
295
100
AcDbEntity
  8
0
100
AcDbLine
 62
7
  6
CONTINUOUS
 10
87.2783459074
 20
95.1384171039
 11
78.885241074
 21
95.1384141288
  0
LINE
  5
296
100
AcDbEntity
  8
0
100
AcDbLine
 62
7
  6
CONTINUOUS
 10
53.2993170383
 20
95.1384141366
 11
44.9065821162
 21
95.1383936536
  0
LINE
  5
297
100
AcDbEntity
  8
0
100
AcDbLine
 62
7
  6
CONTINUOUS
 10
74.8919089323
 20
95.6620334889
 11
74.8919089084
 21
96.6421331501
  0
LINE
  5
298
100
AcDbEntity
  8
0
100
AcDbLine
 62
7
  6
CONTINUOUS
 10
28.5922602875
 20
96.1402736396
 11
38.7350436026
 21
96.1402736396
  0
LINE
  5
299
100
AcDbEntity
  8
0
100
AcDbLine
 62
7
  6
CONTINUOUS
 10
93.3991634753
 20
96.1402736396
 11
103.5922602875
 21
96.1402736396
  0
LINE
  5
29A
100
AcDbEntity
  8
0
100
AcDbLine
 62
7
  6
CONTINUOUS
 10
84.5521867589
 20
96.6421331501
 11
74.8919089084
 21
96.6421331501
  0
LINE
  5
29B
100
AcDbEntity
  8
0
100
AcDbLine
 62
7
  6
CONTINUOUS
 10
57.2926201878
 20
96.6421330864
 11
47.6440030267
 21
96.6421331501
  0
LINE
  5
29C
100
AcDbEntity
  8
0
100
AcDbLine
 62
7
  6
CONTINUOUS
 10
91.9138689677
 20
96.8902736396
 11
84.1052609274
 21
96.8902736396
  0
LINE
  5
29D
100
AcDbEntity
  8
0
100
AcDbLine
 62
7
  6
CONTINUOUS
 10
81.1459081792
 20
96.8902736396
 11
51.0386123958
 21
96.8902736396
  0
LINE
  5
29E
100
AcDbEntity
  8
0
100
AcDbLine
 62
7
  6
CONTINUOUS
 10
48.0922602875
 20
96.8902736396
 11
40.2706256639
 21
96.8902736396
  0
LINE
  5
29F
100
AcDbEntity
  8
0
100
AcDbLine
 62
7
  6
CONTINUOUS
 10
77.5922602875
 20
69.8902736396
 11
77.5922602875
 21
74.3902736396
  0
LINE
  5
2A0
100
AcDbEntity
  8
0
100
AcDbLine
 62
7
  6
CONTINUOUS
 10
78.1722443808
 20
71.6402736396
 11
78.1722443808
 21
74.3902736396
  0
LINE
  5
2A1
100
AcDbEntity
  8
0
100
AcDbLine
 62
7
  6
CONTINUOUS
 10
78.665048658
 20
71.6402736396
 11
78.665048658
 21
74.3902736396
  0
LINE
  5
2A2
100
AcDbEntity
  8
0
100
AcDbLine
 62
7
  6
CONTINUOUS
 10
103.5922602875
 20
99.6402736396
 11
86.0922602875
 21
99.6402736396
  0
LINE
  5
2A3
100
AcDbEntity
  8
0
100
AcDbLine
 62
7
  6
CONTINUOUS
 10
28.5922602875
 20
99.6402736396
 11
46.0922602875
 21
99.6402736396
  0
LINE
  5
2A4
100
AcDbEntity
  8
0
100
AcDbLine
 62
7
  6
CONTINUOUS
 10
103.5922602875
 20
101.8187829523
 11
86.0922602875
 21
101.8187829523
  0
LINE
  5
2A5
100
AcDbEntity
  8
0
100
AcDbLine
 62
7
  6
CONTINUOUS
 10
46.0922602875
 20
101.8187829523
 11
28.5922602875
 21
101.8187829523
  0
LINE
  5
2A6
100
AcDbEntity
  8
0
100
AcDbLine
 62
7
  6
CONTINUOUS
 10
28.5922602875
 20
102.4187829523
 11
46.0922602875
 21
102.4187829523
  0
LINE
  5
2A7
100
AcDbEntity
  8
0
100
AcDbLine
 62
7
  6
CONTINUOUS
 10
86.0922602875
 20
102.4187829523
 11
103.5922602875
 21
102.4187829523
  0
LINE
  5
2A8
100
AcDbEntity
  8
0
100
AcDbLine
 62
7
  6
CONTINUOUS
 10
28.5922602875
 20
102.7183573013
 11
46.0922602875
 21
102.7183573013
  0
LINE
  5
2A9
100
AcDbEntity
  8
0
100
AcDbLine
 62
7
  6
CONTINUOUS
 10
86.0922602875
 20
102.7183573013
 11
103.5922602875
 21
102.7183573013
  0
LINE
  5
2AA
100
AcDbEntity
  8
0
100
AcDbLine
 62
7
  6
CONTINUOUS
 10
80.2422602875
 20
74.3902736396
 11
80.2422602875
 21
71.6402736396
  0
LINE
  5
2AB
100
AcDbEntity
  8
0
100
AcDbLine
 62
7
  6
CONTINUOUS
 10
96.4828093299
 20
75.3376565822
 11
96.5604880456
 21
75.3754579999
  0
LINE
  5
2AC
100
AcDbEntity
  8
0
100
AcDbLine
 62
7
  6
CONTINUOUS
 10
94.447753367
 20
74.3902736396
 11
96.5922602875
 21
75.3902736396
  0
LINE
  5
2AD
100
AcDbEntity
  8
0
100
AcDbLine
 62
7
  6
CONTINUOUS
 10
93.243559794
 20
73.8902736396
 11
94.3625619786
 21
74.3902736396
  0
LINE
  5
2AE
100
AcDbEntity
  8
0
100
AcDbLine
 62
7
  6
CONTINUOUS
 10
96.4017480978
 20
75.3014363466
 11
96.4828092989
 21
75.3376566517
  0
LINE
  5
2AF
100
AcDbEntity
  8
0
100
AcDbLine
 62
7
  6
CONTINUOUS
 10
103.5922602875
 20
103.7902736396
 11
86.0922602875
 21
103.7902736396
  0
LINE
  5
2B0
100
AcDbEntity
  8
0
100
AcDbLine
 62
7
  6
CONTINUOUS
 10
28.5922602875
 20
103.7902736396
 11
46.0922602875
 21
103.7902736396
  0
LINE
  5
2B1
100
AcDbEntity
  8
0
100
AcDbLine
 62
7
  6
CONTINUOUS
 10
103.5922602875
 20
104.2902736396
 11
86.0922602875
 21
104.2902736396
  0
LINE
  5
2B2
100
AcDbEntity
  8
0
100
AcDbLine
 62
7
  6
CONTINUOUS
 10
28.5922602875
 20
104.2902736396
 11
46.0922602875
 21
104.2902736396
  0
LINE
  5
2B3
100
AcDbEntity
  8
0
100
AcDbLine
 62
7
  6
CONTINUOUS
 10
80.943471281
 20
94.8902736396
 11
81.0285632869
 21
94.8292055878
  0
LINE
  5
2B4
100
AcDbEntity
  8
0
100
AcDbLine
 62
7
  6
CONTINUOUS
 10
82.4637733127
 20
93.8902736396
 11
82.3794588223
 21
93.9508982264
  0
LINE
  5
2B5
100
AcDbEntity
  8
0
100
AcDbLine
 62
7
  6
CONTINUOUS
 10
82.3358679697
 20
93.8902736396
 11
82.3358679697
 21
92.8902736396
  0
LINE
  5
2B6
100
AcDbEntity
  8
0
100
AcDbLine
 62
7
  6
CONTINUOUS
 10
82.4637733127
 20
92.8902736396
 11
82.4637733127
 21
93.8902736396
  0
LINE
  5
2B7
100
AcDbEntity
  8
0
100
AcDbLine
 62
7
  6
CONTINUOUS
 10
82.5433796531
 20
73.8902736396
 11
82.5433796531
 21
69.8902736396
  0
LINE
  5
2B8
100
AcDbEntity
  8
0
100
AcDbLine
 62
7
  6
CONTINUOUS
 10
82.6901681955
 20
73.8902736396
 11
82.6901681955
 21
69.8902736396
  0
LINE
  5
2B9
100
AcDbEntity
  8
0
100
AcDbLine
 62
7
  6
CONTINUOUS
 10
85.0489195849
 20
96.2315096286
 11
85.0489195849
 21
96.8902736396
  0
LINE
  5
2BA
100
AcDbEntity
  8
0
100
AcDbLine
 62
7
  6
CONTINUOUS
 10
94.447753367
 20
94.8902736396
 11
96.5922602875
 21
93.8902736396
  0
LINE
  5
2BB
100
AcDbEntity
  8
0
100
AcDbLine
 62
7
  6
CONTINUOUS
 10
87.2784130053
 20
95.1384198301
 11
85.3918246577
 21
96.0459050203
  0
LINE
  5
2BC
100
AcDbEntity
  8
0
100
AcDbLine
 62
7
  6
CONTINUOUS
 10
96.5909525513
 20
92.3909275077
 11
97.0923367386
 21
92.1402354141
  0
LINE
  5
2BD
100
AcDbEntity
  8
0
100
AcDbLine
 62
7
  6
CONTINUOUS
 10
87.2007355992
 20
94.8902736396
 11
87.2672951031
 21
94.8424692134
  0
LINE
  5
2BE
100
AcDbEntity
  8
0
100
AcDbLine
 62
7
  6
CONTINUOUS
 10
85.4782545641
 20
96.8902736396
 11
85.4782545641
 21
96.142143372
  0
LINE
  5
2BF
100
AcDbEntity
  8
0
100
AcDbLine
 62
7
  6
CONTINUOUS
 10
86.0922602875
 20
59.7902736396
 11
86.0922602875
 21
61.3621899779
  0
LINE
  5
2C0
100
AcDbEntity
  8
0
100
AcDbLine
 62
7
  6
CONTINUOUS
 10
86.0922602875
 20
61.3761248847
 11
86.0922602875
 21
71.6402736396
  0
LINE
  5
2C1
100
AcDbEntity
  8
0
100
AcDbLine
 62
7
  6
CONTINUOUS
 10
86.0922602875
 20
96.8902736396
 11
86.0922602875
 21
102.7075443967
  0
LINE
  5
2C2
100
AcDbEntity
  8
0
100
AcDbLine
 62
7
  6
CONTINUOUS
 10
86.0922602875
 20
102.7183573013
 11
86.0922602875
 21
104.2902736396
  0
LINE
  5
2C3
100
AcDbEntity
  8
0
100
AcDbLine
 62
7
  6
CONTINUOUS
 10
86.2149579705
 20
96.0523640709
 11
86.2149579705
 21
95.6499621047
  0
LINE
  5
2C4
100
AcDbEntity
  8
0
100
AcDbLine
 62
7
  6
CONTINUOUS
 10
86.3004865548
 20
71.6402736396
 11
86.3004865548
 21
73.8902736396
  0
LINE
  5
2C5
100
AcDbEntity
  8
0
100
AcDbLine
 62
7
  6
CONTINUOUS
 10
87.3621283198
 20
73.8902736396
 11
87.3621283198
 21
71.6402736396
  0
LINE
  5
2C6
100
AcDbEntity
  8
0
100
AcDbLine
 62
7
  6
CONTINUOUS
 10
88.172840531
 20
71.6402736396
 11
88.172840531
 21
73.8902736396
  0
LINE
  5
2C7
100
AcDbEntity
  8
0
100
AcDbLine
 62
7
  6
CONTINUOUS
 10
88.592123391
 20
93.8902735726
 11
88.592123391
 21
92.8902736396
  0
LINE
  5
2C8
100
AcDbEntity
  8
0
100
AcDbLine
 62
7
  6
CONTINUOUS
 10
88.6940368476
 20
92.8902736396
 11
88.6940368476
 21
93.8902736396
  0
LINE
  5
2C9
100
AcDbEntity
  8
0
100
AcDbLine
 62
7
  6
CONTINUOUS
 10
88.6940368476
 20
93.8902736396
 11
88.6268246258
 21
93.9385679856
  0
LINE
  5
2CA
100
AcDbEntity
  8
0
100
AcDbLine
 62
7
  6
CONTINUOUS
 10
85.0428941947
 20
96.2315096286
 11
84.5405175483
 21
96.6421331501
  0
LINE
  5
2CB
100
AcDbEntity
  8
0
100
AcDbLine
 62
7
  6
CONTINUOUS
 10
85.3918246577
 20
96.0459050203
 11
85.3819919525
 21
96.0553949459
  0
LINE
  5
2CC
100
AcDbEntity
  8
0
100
AcDbLine
 62
7
  6
CONTINUOUS
 10
91.0922602875
 20
74.3902736396
 11
91.0922602875
 21
71.6402736396
  0
LINE
  5
2CD
100
AcDbEntity
  8
0
100
AcDbLine
 62
7
  6
CONTINUOUS
 10
96.5922602875
 20
93.8902736396
 11
96.5922602875
 21
75.3902736396
  0
LINE
  5
2CE
100
AcDbEntity
  8
0
100
AcDbLine
 62
7
  6
CONTINUOUS
 10
97.0922602875
 20
71.6402736396
 11
97.0922602875
 21
92.1402736396
  0
LINE
  5
2CF
100
AcDbEntity
  8
0
100
AcDbLine
 62
7
  6
CONTINUOUS
 10
96.5996752699
 20
71.6402736396
 11
96.599956244
 21
75.3901485762
  0
LINE
  5
2D0
100
AcDbEntity
  8
0
100
AcDbLine
 62
7
  6
CONTINUOUS
 10
102.0910992675
 20
83.5402722257
 11
102.0910992679
 21
80.5404596833
  0
LINE
  5
2D1
100
AcDbEntity
  8
0
100
AcDbLine
 62
7
  6
CONTINUOUS
 10
103.4850349415
 20
80.5402736396
 11
103.4850349415
 21
81.4833366923
  0
LINE
  5
2D2
100
AcDbEntity
  8
0
100
AcDbLine
 62
7
  6
CONTINUOUS
 10
103.4850349415
 20
82.5972105869
 11
103.4850349415
 21
83.5402736396
  0
LINE
  5
2D3
100
AcDbEntity
  8
0
100
AcDbLine
 62
7
  6
CONTINUOUS
 10
103.5922602875
 20
59.7902736396
 11
103.5922602875
 21
61.3621899779
  0
LINE
  5
2D4
100
AcDbEntity
  8
0
100
AcDbLine
 62
7
  6
CONTINUOUS
 10
103.5922602875
 20
61.3730028825
 11
103.5922602875
 21
102.7044223945
  0
LINE
  5
2D5
100
AcDbEntity
  8
0
100
AcDbLine
 62
7
  6
CONTINUOUS
 10
103.5922602875
 20
102.7183573013
 11
103.5922602875
 21
104.2902736396
  0
ARC
  5
2D6
100
AcDbEntity
  8
0
100
AcDbCircle
 62
7
  6
CONTINUOUS
 10
375.3161747763
 20
836.5887463232
 40
832.9834821861
100
AcDbArc
 50
246.0389570674
 51
246.2088960102
  0
ARC
  5
2D7
100
AcDbEntity
  8
0
100
AcDbCircle
 62
7
  6
CONTINUOUS
 10
66.0922687077
 20
-705.7995783553
 40
802.4899588353
100
AcDbArc
 50
89.3717150681
 51
90.6282858305
  0
ARC
  5
2D8
100
AcDbEntity
  8
0
100
AcDbCircle
 62
7
  6
CONTINUOUS
 10
64.5586483937
 20
-54.9604449693
 40
152.1526293216
100
AcDbArc
 50
96.735212736
 51
97.0172286011
  0
ARC
  5
2D9
100
AcDbEntity
  8
0
100
AcDbCircle
 62
7
  6
CONTINUOUS
 10
66.0569956725
 20
16.0315397996
 40
79.0681966854
100
AcDbArc
 50
89.9767294826
 51
93.8921811839
  0
ARC
  5
2DA
100
AcDbEntity
  8
0
100
AcDbCircle
 62
7
  6
CONTINUOUS
 10
66.1474443353
 20
16.7904149475
 40
78.3093367442
100
AcDbArc
 50
85.8081402671
 51
90.0426816175
  0
ARC
  5
2DB
100
AcDbEntity
  8
0
100
AcDbCircle
 62
7
  6
CONTINUOUS
 10
67.210820428
 20
21.7140032265
 40
74.3458796301
100
AcDbArc
 50
84.0698707948
 51
86.0781994245
  0
ARC
  5
2DC
100
AcDbEntity
  8
0
100
AcDbCircle
 62
7
  6
CONTINUOUS
 10
50.6719446601
 20
106.6327636705
 40
11.7565464619
100
AcDbArc
 50
274.8184027064
 51
275.7039948396
  0
ARC
  5
2DD
100
AcDbEntity
  8
0
100
AcDbCircle
 62
7
  6
CONTINUOUS
 10
81.4783728924
 20
106.2565063616
 40
11.3787353575
100
AcDbArc
 50
264.2792054264
 51
265.1946438218
  0
ARC
  5
2DE
100
AcDbEntity
  8
0
100
AcDbCircle
 62
7
  6
CONTINUOUS
 10
59.5008749904
 20
86.9317905758
 40
9.9584872461
100
AcDbArc
 50
90.0525106454
 51
102.81740979
  0
ARC
  5
2DF
100
AcDbEntity
  8
0
100
AcDbCircle
 62
7
  6
CONTINUOUS
 10
72.6835839858
 20
86.9319020828
 40
9.958375738
100
AcDbArc
 50
77.1825277558
 51
89.9474960615
  0
ARC
  5
2E0
100
AcDbEntity
  8
0
100
AcDbCircle
 62
7
  6
CONTINUOUS
 10
50.8411075051
 20
104.661816381
 40
9.7783557743
100
AcDbArc
 50
273.9956118944
 51
274.8007682371
  0
ARC
  5
2E1
100
AcDbEntity
  8
0
100
AcDbCircle
 62
7
  6
CONTINUOUS
 10
81.3238887731
 20
104.4021698827
 40
9.5179756251
100
AcDbArc
 50
265.1862251795
 51
266.0130790256
  0
ARC
  5
2E2
100
AcDbEntity
  8
0
100
AcDbCircle
 62
7
  6
CONTINUOUS
 10
90.0075496855
 20
93.5159336714
 40
4.3913266707
100
AcDbArc
 50
17.8358863147
 51
18.9777407432
  0
ARC
  5
2E3
100
AcDbEntity
  8
0
100
AcDbCircle
 62
7
  6
CONTINUOUS
 10
57.5922602875
 20
69.8902736396
 40
3.0
100
AcDbArc
 50
180.0
 51
270.0
  0
ARC
  5
2E4
100
AcDbEntity
  8
0
100
AcDbCircle
 62
7
  6
CONTINUOUS
 10
74.5922602875
 20
69.8902736396
 40
3.0
100
AcDbArc
 50
270.0
 51
360.0
  0
ARC
  5
2E5
100
AcDbEntity
  8
0
100
AcDbCircle
 62
7
  6
CONTINUOUS
 10
88.4792678127
 20
97.630412009
 40
2.7662388343
100
AcDbArc
 50
244.2712587714
 51
248.1597346403
  0
ARC
  5
2E6
100
AcDbEntity
  8
0
100
AcDbCircle
 62
7
  6
CONTINUOUS
 10
43.7061987108
 20
97.6298832895
 40
2.7656555238
100
AcDbArc
 50
291.8391098126
 51
295.7276136082
  0
CIRCLE
  5
2E7
100
AcDbEntity
  8
0
100
AcDbCircle
 62
7
  6
CONTINUOUS
 10
58.0922602875
 20
70.8902736396
 40
2.25
  0
CIRCLE
  5
2E8
100
AcDbEntity
  8
0
100
AcDbCircle
 62
7
  6
CONTINUOUS
 10
74.0922602875
 20
70.8902736396
 40
2.25
  0
ARC
  5
2E9
100
AcDbEntity
  8
0
100
AcDbCircle
 62
7
  6
CONTINUOUS
 10
40.7146792527
 20
95.0299412443
 40
1.8608680944
100
AcDbArc
 50
103.5975619811
 51
107.2158706587
  0
ARC
  5
2EA
100
AcDbEntity
  8
0
100
AcDbCircle
 62
7
  6
CONTINUOUS
 10
91.4740548612
 20
95.046796427
 40
1.8435080583
100
AcDbArc
 50
76.9065084527
 51
90.0128227309
  0
ARC
  5
2EB
100
AcDbEntity
  8
0
100
AcDbCircle
 62
7
  6
CONTINUOUS
 10
40.7102028061
 20
95.0483838126
 40
1.8418900368
100
AcDbArc
 50
89.9726525887
 51
103.5970918087
  0
ARC
  5
2EC
100
AcDbEntity
  8
0
100
AcDbCircle
 62
7
  6
CONTINUOUS
 10
102.0922602875
 20
82.0402736396
 40
1.5
100
AcDbArc
 50
21.7952770463
 51
338.2047229537
  0
ARC
  5
2ED
100
AcDbEntity
  8
0
100
AcDbCircle
 62
7
  6
CONTINUOUS
 10
25.2049461818
 20
76.7999561449
 40
0.75
100
AcDbArc
 50
47.2535629218
 51
79.3035629176
  0
ARC
  5
2EE
100
AcDbEntity
  8
0
100
AcDbCircle
 62
7
  6
CONTINUOUS
 10
20.6887522405
 20
82.1102736396
 40
0.6
100
AcDbArc
 50
0.0
 51
90.0
  0
ARC
  5
2EF
100
AcDbEntity
  8
0
100
AcDbCircle
 62
7
  6
CONTINUOUS
 10
82.0433796531
 20
73.8902736396
 40
0.5
100
AcDbArc
 50
0.0
 51
90.0
  0
ARC
  5
2F0
100
AcDbEntity
  8
0
100
AcDbCircle
 62
7
  6
CONTINUOUS
 10
21.9833013414
 20
78.4977545838
 40
0.3
100
AcDbArc
 50
192.7334908581
 51
257.050000001
  0
ARC
  5
2F1
100
AcDbEntity
  8
0
100
AcDbCircle
 62
7
  6
CONTINUOUS
 10
21.9587522405
 20
75.8560126797
 40
0.3
100
AcDbArc
 50
87.5000000051
 51
270.0000000005
  0
ARC
  5
2F2
100
AcDbEntity
  8
0
100
AcDbCircle
 62
7
  6
CONTINUOUS
 10
21.9587522405
 20
75.3560126797
 40
0.2
100
AcDbArc
 50
0.0
 51
89.9999999993
  0
ARC
  5
2F3
100
AcDbEntity
  8
0
100
AcDbCircle
 62
7
  6
CONTINUOUS
 10
12.4587522405
 20
76.9102736396
 40
0.2
100
AcDbArc
 50
89.9999999999
 51
180.0000000001
  0
ARC
  5
2F4
100
AcDbEntity
  8
0
100
AcDbCircle
 62
7
  6
CONTINUOUS
 10
13.2629562961
 20
82.5102736396
 40
0.2
100
AcDbArc
 50
89.9999999999
 51
177.4999999938
  0
SPLINE
  5
2F5
100
AcDbEntity
  8
0
100
AcDbSpline
 62
7
  6
CONTINUOUS
 70
0
 71
3
 72
12
 73
8
 74
0
 42
0.0000001
 43
0.0000001
 44
0.0000000001
 40
0.0
 40
0.0
 40
0.0
 40
0.0
 40
0.1786297643
 40
0.2897581278
 40
0.4142201131
 40
0.6948302017
 40
1.0
 40
1.0
 40
1.0
 40
1.0
 10
52.9516284856
 20
68.8189950612
 30
0.0
 10
53.0080449476
 20
68.8500022478
 30
0.0
 10
53.0822131639
 20
68.9298973111
 30
0.0
 10
53.1580188762
 20
69.0580315189
 30
0.0
 10
53.2320658176
 20
69.2294281808
 30
0.0
 10
53.2945134931
 20
69.4792090464
 30
0.0
 10
53.3112701374
 20
69.6906881292
 30
0.0
 10
53.3112703076
 20
69.8006675353
 30
0.0
  0
LINE
  5
2F6
100
AcDbEntity
  8
0
100
AcDbLine
 62
7
  6
CONTINUOUS
 10
84.1051188142
 20
96.8731491286
 11
84.1052141809
 21
96.8902736396
  0
SPLINE
  5
2F7
100
AcDbEntity
  8
0
100
AcDbSpline
 62
7
  6
CONTINUOUS
 70
0
 71
3
 72
9
 73
5
 74
0
 42
0.0000001
 43
0.0000001
 44
0.0000000001
 40
0.0
 40
0.0
 40
0.0
 40
0.0
 40
0.2270001798
 40
1.0
 40
1.0
 40
1.0
 40
1.0
 10
88.7818995389
 20
94.8902736396
 30
0.0
 10
88.7069762663
 20
94.8902736396
 30
0.0
 10
88.3769164059
 20
94.8963128207
 30
0.0
 10
88.0475113793
 20
94.9238786697
 30
0.0
 10
87.7939878531
 20
94.9525083223
 30
0.0
  0
SPLINE
  5
2F8
100
AcDbEntity
  8
0
100
AcDbSpline
 62
7
  6
CONTINUOUS
 70
0
 71
3
 72
9
 73
5
 74
0
 42
0.0000001
 43
0.0000001
 44
0.0000000001
 40
0.0
 40
0.0
 40
0.0
 40
0.0
 40
0.2460733519
 40
1.0
 40
1.0
 40
1.0
 40
1.0
 10
87.7943001582
 20
94.9525018995
 30
0.0
 10
87.7654659348
 20
94.959427614
 30
0.0
 10
87.6488294169
 20
94.9897956626
 30
0.0
 10
87.5345132313
 20
95.0289402329
 30
0.0
 10
87.4501709518
 20
95.0627210348
 30
0.0
  0
SPLINE
  5
2F9
100
AcDbEntity
  8
0
100
AcDbSpline
 62
7
  6
CONTINUOUS
 70
0
 71
3
 72
13
 73
9
 74
0
 42
0.0000001
 43
0.0000001
 44
0.0000000001
 40
0.0
 40
0.0
 40
0.0
 40
0.0
 40
0.109909169
 40
0.2192740479
 40
0.3305985466
 40
0.4463618973
 40
0.7002142075
 40
1.0
 40
1.0
 40
1.0
 40
1.0
 10
40.2706256639
 20
96.8902736396
 30
0.0
 10
40.1528146976
 20
96.8902736396
 30
0.0
 10
39.9171788694
 20
96.8687302267
 30
0.0
 10
39.5744098881
 20
96.7717027756
 30
0.0
 10
39.2488018799
 20
96.6123182333
 30
0.0
 10
38.829063366
 20
96.3092221456
 30
0.0
 10
38.359764645
 20
95.7516065715
 30
0.0
 10
38.1109738326
 20
95.2051731491
 30
0.0
 10
38.0096277165
 20
94.9002347393
 30
0.0
  0
SPLINE
  5
2FA
100
AcDbEntity
  8
0
100
AcDbSpline
 62
7
  6
CONTINUOUS
 70
0
 71
3
 72
8
 73
4
 74
0
 42
0.0000001
 43
0.0000001
 44
0.0000000001
 40
0.0
 40
0.0
 40
0.0
 40
0.0
 40
1.0
 40
1.0
 40
1.0
 40
1.0
 10
87.2672951031
 20
94.8424692134
 30
0.0
 10
87.7090058206
 20
94.5252116403
 30
0.0
 10
88.1506084535
 20
94.2078035485
 30
0.0
 10
88.592123391
 20
93.8902735726
 30
0.0
  0
SPLINE
  5
2FB
100
AcDbEntity
  8
0
100
AcDbSpline
 62
7
  6
CONTINUOUS
 70
0
 71
3
 72
8
 73
4
 74
0
 42
0.0000001
 43
0.0000001
 44
0.0000000001
 40
0.0
 40
0.0
 40
0.0
 40
0.0
 40
1.0
 40
1.0
 40
1.0
 40
1.0
 10
81.0285632869
 20
94.8292055878
 30
0.0
 10
81.464437332
 20
94.5163756574
 30
0.0
 10
81.900198742
 20
94.2033887504
 30
0.0
 10
82.3358679697
 20
93.8902736396
 30
0.0
  0
SPLINE
  5
2FC
100
AcDbEntity
  8
0
100
AcDbSpline
 62
7
  6
CONTINUOUS
 70
0
 71
3
 72
8
 73
4
 74
0
 42
0.0000001
 43
0.0000001
 44
0.0000000001
 40
0.0
 40
0.0
 40
0.0
 40
0.0
 40
1.0
 40
1.0
 40
1.0
 40
1.0
 10
49.8486242922
 20
93.8902736402
 30
0.0
 10
50.2843048297
 20
94.2033973914
 30
0.0
 10
50.7200775518
 20
94.516392936
 30
0.0
 10
51.1559629121
 20
94.8292314999
 30
0.0
  0
SPLINE
  5
2FD
100
AcDbEntity
  8
0
100
AcDbSpline
 62
7
  6
CONTINUOUS
 70
0
 71
3
 72
8
 73
4
 74
0
 42
0.0000001
 43
0.0000001
 44
0.0000000001
 40
0.0
 40
0.0
 40
0.0
 40
0.0
 40
1.0
 40
1.0
 40
1.0
 40
1.0
 10
43.592293867
 20
93.890273639
 30
0.0
 10
44.0338580874
 20
94.2078380407
 30
0.0
 10
44.4755093231
 20
94.5252815039
 30
0.0
 10
44.9172690194
 20
94.8425739253
 30
0.0
  0
SPLINE
  5
2FE
100
AcDbEntity
  8
0
100
AcDbSpline
 62
7
  6
CONTINUOUS
 70
0
 71
3
 72
9
 73
5
 74
0
 42
0.0000001
 43
0.0000001
 44
0.0000000001
 40
0.0
 40
0.0
 40
0.0
 40
0.0
 40
0.2460743165
 40
1.0
 40
1.0
 40
1.0
 40
1.0
 10
44.3909434086
 20
94.9525016071
 30
0.0
 10
44.4197738457
 20
94.9594273775
 30
0.0
 10
44.5363942008
 20
94.9897965611
 30
0.0
 10
44.650694829
 20
95.028937953
 30
0.0
 10
44.7350267937
 20
95.0627130084
 30
0.0
  0
SPLINE
  5
2FF
100
AcDbEntity
  8
0
100
AcDbSpline
 62
7
  6
CONTINUOUS
 70
0
 71
3
 72
9
 73
5
 74
0
 42
0.0000001
 43
0.0000001
 44
0.0000000001
 40
0.0
 40
0.0
 40
0.0
 40
0.0
 40
0.2269873576
 40
1.0
 40
1.0
 40
1.0
 40
1.0
 10
43.403432225
 20
94.8902736396
 30
0.0
 10
43.4783032166
 20
94.8902736396
 30
0.0
 10
43.8081503846
 20
94.8963723811
 30
0.0
 10
44.1373439792
 20
94.9238931678
 30
0.0
 10
44.3907086839
 20
94.9525087249
 30
0.0
  0
SPLINE
  5
300
100
AcDbEntity
  8
0
100
AcDbSpline
 62
7
  6
CONTINUOUS
 70
0
 71
3
 72
12
 73
8
 74
0
 42
0.0000001
 43
0.0000001
 44
0.0000000001
 40
0.0
 40
0.0
 40
0.0
 40
0.0
 40
0.3709420121
 40
0.6670327296
 40
0.8781370437
 40
0.9501867676
 40
1.0
 40
1.0
 40
1.0
 40
1.0
 10
46.7140212617
 20
96.1421423414
 30
0.0
 10
46.7678510198
 20
96.1485020875
 30
0.0
 10
46.8645539638
 20
96.1611079429
 30
0.0
 10
46.9909755452
 20
96.1827494297
 30
0.0
 10
47.0737276523
 20
96.2018196712
 30
0.0
 10
47.1194565253
 20
96.2183354187
 30
0.0
 10
47.1354761188
 20
96.2265967601
 30
0.0
 10
47.1411752005
 20
96.2311249142
 30
0.0
  0
SPLINE
  5
301
100
AcDbEntity
  8
0
100
AcDbSpline
 62
7
  6
CONTINUOUS
 70
0
 71
3
 72
13
 73
9
 74
0
 42
0.0000001
 43
0.0000001
 44
0.0000000001
 40
0.0
 40
0.0
 40
0.0
 40
0.0
 40
0.2987718589
 40
0.5524638674
 40
0.6683503725
 40
0.7799446267
 40
0.8897608722
 40
1.0
 40
1.0
 40
1.0
 40
1.0
 10
94.1601857362
 20
94.943996611
 30
0.0
 10
94.0575162006
 20
95.2425117224
 30
0.0
 10
93.8073357968
 20
95.7774098518
 30
0.0
 10
93.3409604902
 20
96.3221312605
 30
0.0
 10
92.9251791844
 20
96.6184356686
 30
0.0
 10
92.6026012702
 20
96.7741806127
 30
0.0
 10
92.2634290398
 20
96.8691363151
 30
0.0
 10
92.0303458544
 20
96.8902736396
 30
0.0
 10
91.9138689677
 20
96.8902736396
 30
0.0
  0
SPLINE
  5
302
100
AcDbEntity
  8
0
100
AcDbSpline
 62
7
  6
CONTINUOUS
 70
0
 71
3
 72
9
 73
5
 74
0
 42
0.0000001
 43
0.0000001
 44
0.0000000001
 40
0.0
 40
0.0
 40
0.0
 40
0.0
 40
0.541494349
 40
1.0
 40
1.0
 40
1.0
 40
1.0
 10
53.2992115758
 20
95.1384038952
 30
0.0
 10
53.036978873
 20
95.0943544932
 30
0.0
 10
52.5518537414
 20
95.0179274712
 30
0.0
 10
52.0644597088
 20
94.956777649
 30
0.0
 10
51.8404175596
 20
94.9344280712
 30
0.0
  0
SPLINE
  5
303
100
AcDbEntity
  8
0
100
AcDbSpline
 62
7
  6
CONTINUOUS
 70
0
 71
3
 72
13
 73
9
 74
0
 42
0.0000001
 43
0.0000001
 44
0.0000000001
 40
0.0
 40
0.0
 40
0.0
 40
0.0
 40
0.3166951639
 40
0.5989252917
 40
0.7194515163
 40
0.8247493318
 40
0.9166149298
 40
1.0
 40
1.0
 40
1.0
 40
1.0
 10
82.6901681955
 20
73.8902736396
 30
0.0
 10
82.6901681955
 20
73.9543824625
 30
0.0
 10
82.6784960329
 20
74.0758606483
 30
0.0
 10
82.633998511
 20
74.2164757713
 30
0.0
 10
82.5804317869
 20
74.3048472739
 30
0.0
 10
82.5364334267
 20
74.3525593539
 30
0.0
 10
82.4874106426
 20
74.3829035906
 30
0.0
 10
82.451695464
 20
74.3902736396
 30
0.0
 10
82.4348157661
 20
74.3902736396
 30
0.0
  0
SPLINE
  5
304
100
AcDbEntity
  8
0
100
AcDbSpline
 62
7
  6
CONTINUOUS
 70
0
 71
3
 72
11
 73
7
 74
0
 42
0.0000001
 43
0.0000001
 44
0.0000000001
 40
0.0
 40
0.0
 40
0.0
 40
0.0
 40
0.2288060012
 40
0.4705611101
 40
0.7295260227
 40
1.0
 40
1.0
 40
1.0
 40
1.0
 10
86.9450683545
 20
74.3902736396
 30
0.0
 10
86.9997607878
 20
74.3902736396
 30
0.0
 10
87.1136941606
 20
74.3622749907
 30
0.0
 10
87.251715698
 20
74.2478391916
 30
0.0
 10
87.3415569106
 20
74.0825224067
 30
0.0
 10
87.3621283198
 20
73.9549261395
 30
0.0
 10
87.3621283198
 20
73.8902736396
 30
0.0
  0
SPLINE
  5
305
100
AcDbEntity
  8
0
100
AcDbSpline
 62
7
  6
CONTINUOUS
 70
0
 71
3
 72
13
 73
9
 74
0
 42
0.0000001
 43
0.0000001
 44
0.0000000001
 40
0.0
 40
0.0
 40
0.0
 40
0.0
 40
0.2995519557
 40
0.5724657258
 40
0.6936044021
 40
0.803796166
 40
0.9047745836
 40
1.0
 40
1.0
 40
1.0
 40
1.0
 10
86.3004865548
 20
73.8902736396
 30
0.0
 10
86.3004865548
 20
73.9545401937
 30
0.0
 10
86.2860087721
 20
74.0777937801
 30
0.0
 10
86.2307923062
 20
74.2186606668
 30
0.0
 10
86.1658870829
 20
74.3059748873
 30
0.0
 10
86.1118951583
 20
74.3535507041
 30
0.0
 10
86.0523472318
 20
74.3832618391
 30
0.0
 10
86.0100206423
 20
74.3902736396
 30
0.0
 10
85.9895907661
 20
74.3902736396
 30
0.0
  0
SPLINE
  5
306
100
AcDbEntity
  8
0
100
AcDbSpline
 62
7
  6
CONTINUOUS
 70
0
 71
3
 72
11
 73
7
 74
0
 42
0.0000001
 43
0.0000001
 44
0.0000000001
 40
0.0
 40
0.0
 40
0.0
 40
0.0
 40
0.2704739773
 40
0.5294388899
 40
0.7711939988
 40
1.0
 40
1.0
 40
1.0
 40
1.0
 10
88.1728405309
 20
73.8902736396
 30
0.0
 10
88.1728405309
 20
73.9549261395
 30
0.0
 10
88.1522691218
 20
74.0825224067
 30
0.0
 10
88.0624279092
 20
74.2478391916
 30
0.0
 10
87.9244063718
 20
74.3622749907
 30
0.0
 10
87.810472999
 20
74.3902736396
 30
0.0
 10
87.7557805657
 20
74.3902736396
 30
0.0
  0
SPLINE
  5
307
100
AcDbEntity
  8
0
100
AcDbSpline
 62
7
  6
CONTINUOUS
 70
0
 71
3
 72
9
 73
5
 74
0
 42
0.0000001
 43
0.0000001
 44
0.0000000001
 40
0.0
 40
0.0
 40
0.0
 40
0.0
 40
0.4584817647
 40
1.0
 40
1.0
 40
1.0
 40
1.0
 10
80.3441305106
 20
94.9344432742
 30
0.0
 10
80.1200686438
 20
94.9568013533
 30
0.0
 10
79.6326048763
 20
95.0179542693
 30
0.0
 10
79.1474046774
 20
95.0943575572
 30
0.0
 10
78.8851229777
 20
95.1384156163
 30
0.0
  0
SPLINE
  5
308
100
AcDbEntity
  8
0
100
AcDbSpline
 62
7
  6
CONTINUOUS
 70
0
 71
3
 72
15
 73
11
 74
0
 42
0.0000001
 43
0.0000001
 44
0.0000000001
 40
0.0
 40
0.0
 40
0.0
 40
0.0
 40
0.172287083
 40
0.3393002003
 40
0.4954963802
 40
0.6365323144
 40
0.7588217964
 40
0.8599920998
 40
0.9394646457
 40
1.0
 40
1.0
 40
1.0
 40
1.0
 10
51.5723164492
 20
69.7902736396
 30
0.0
 10
51.5723164093
 20
69.6713242716
 30
0.0
 10
51.565436624
 20
69.4370451597
 30
0.0
 10
51.5404705932
 20
69.0957750259
 30
0.0
 10
51.5030375413
 20
68.7773103188
 30
0.0
 10
51.4524431158
 20
68.4919034512
 30
0.0
 10
51.3903814132
 20
68.2477476867
 30
0.0
 10
51.317777345
 20
68.0509111228
 30
0.0
 10
51.2363450224
 20
67.9048825434
 30
0.0
 10
51.1652412607
 20
67.8349915932
 30
0.0
 10
51.1286302812
 20
67.8148319457
 30
0.0
  0
SPLINE
  5
309
100
AcDbEntity
  8
0
100
AcDbSpline
 62
7
  6
CONTINUOUS
 70
0
 71
3
 72
9
 73
5
 74
0
 42
0.0000001
 43
0.0000001
 44
0.0000000001
 40
0.0
 40
0.0
 40
0.0
 40
0.0
 40
0.5423752008
 40
1.0
 40
1.0
 40
1.0
 40
1.0
 10
57.2926116549
 20
95.6620288842
 30
0.0
 10
56.5683347634
 20
95.5863494386
 30
0.0
 10
55.234371216
 20
95.4328270201
 30
0.0
 10
53.9051511369
 20
95.2408306618
 30
0.0
 10
53.2993170383
 20
95.1384141366
 30
0.0
  0
SPLINE
  5
30A
100
AcDbEntity
  8
0
100
AcDbSpline
 62
7
  6
CONTINUOUS
 70
0
 71
3
 72
9
 73
5
 74
0
 42
0.0000001
 43
0.0000001
 44
0.0000000001
 40
0.0
 40
0.0
 40
0.0
 40
0.0
 40
0.4576402658
 40
1.0
 40
1.0
 40
1.0
 40
1.0
 10
78.885241074
 20
95.1384141288
 30
0.0
 10
78.2793791823
 20
95.2408251154
 30
0.0
 10
76.9501463343
 20
95.4328181881
 30
0.0
 10
75.6161712668
 20
95.5863493782
 30
0.0
 10
74.8919089323
 20
95.6620334889
 30
0.0
  0
SPLINE
  5
30B
100
AcDbEntity
  8
0
100
AcDbSpline
 62
7
  6
CONTINUOUS
 70
0
 71
3
 72
11
 73
7
 74
0
 42
0.0000001
 43
0.0000001
 44
0.0000000001
 40
0.0
 40
0.0
 40
0.0
 40
0.0
 40
0.2509578616
 40
0.5117856882
 40
0.7666007433
 40
1.0
 40
1.0
 40
1.0
 40
1.0
 10
72.2956991661
 20
95.885789144
 30
0.0
 10
71.0421581399
 20
95.9729177006
 30
0.0
 10
68.4814292062
 20
96.0915921358
 30
0.0
 10
64.6419978316
 20
96.1113298198
 30
0.0
 10
60.8929369488
 20
95.9750789658
 30
0.0
 10
58.4549489276
 20
95.7833573826
 30
0.0
 10
57.2926159214
 20
95.6620301961
 30
0.0
  0
SPLINE
  5
30C
100
AcDbEntity
  8
0
100
AcDbSpline
 62
7
  6
CONTINUOUS
 70
0
 71
3
 72
8
 73
4
 74
0
 42
0.0000001
 43
0.0000001
 44
0.0000000001
 40
0.0
 40
0.0
 40
0.0
 40
0.0
 40
1.0
 40
1.0
 40
1.0
 40
1.0
 10
82.3794613829
 20
93.9509068443
 30
0.0
 10
81.9438615568
 20
94.2641581618
 30
0.0
 10
81.5081763883
 20
94.5772908577
 30
0.0
 10
81.0723835767
 20
94.8902736396
 30
0.0
  0
SPLINE
  5
30D
100
AcDbEntity
  8
0
100
AcDbSpline
 62
7
  6
CONTINUOUS
 70
0
 71
3
 72
11
 73
7
 74
0
 42
0.0000001
 43
0.0000001
 44
0.0000000001
 40
0.0
 40
0.0
 40
0.0
 40
0.0
 40
0.2133573998
 40
0.4412829807
 40
0.6986303928
 40
1.0
 40
1.0
 40
1.0
 40
1.0
 10
91.8916844086
 20
96.842376423
 30
0.0
 10
92.0823581762
 20
96.7980285844
 30
0.0
 10
92.4639609553
 20
96.6411646461
 30
0.0
 10
92.9645691855
 20
96.2282328952
 30
0.0
 10
93.3890748416
 20
95.6361666702
 30
0.0
 10
93.5897756172
 20
95.1597226729
 30
0.0
 10
93.6737331052
 20
94.8962590096
 30
0.0
  0
SPLINE
  5
30E
100
AcDbEntity
  8
0
100
AcDbSpline
 62
7
  6
CONTINUOUS
 70
0
 71
3
 72
8
 73
4
 74
0
 42
0.0000001
 43
0.0000001
 44
0.0000000001
 40
0.0
 40
0.0
 40
0.0
 40
0.0
 40
1.0
 40
1.0
 40
1.0
 40
1.0
 10
88.626826938
 20
93.9385757724
 30
0.0
 10
88.1852007696
 20
94.2559514309
 30
0.0
 10
87.7434793812
 20
94.5731946546
 30
0.0
 10
87.3016401589
 20
94.8902736396
 30
0.0
  0
LINE
  5
30F
100
AcDbEntity
  8
0
100
AcDbLine
 62
7
  6
CONTINUOUS
 10
96.599956244
 20
75.3901485762
 11
96.4828092989
 21
75.3376566517
  0
SPLINE
  5
310
100
AcDbEntity
  8
0
100
AcDbSpline
 62
7
  6
CONTINUOUS
 70
0
 71
3
 72
8
 73
4
 74
0
 42
0.0000001
 43
0.0000001
 44
0.0000000001
 40
0.0
 40
0.0
 40
0.0
 40
0.0
 40
1.0
 40
1.0
 40
1.0
 40
1.0
 10
51.1121400614
 20
94.8902736396
 30
0.0
 10
50.6763405598
 20
94.5772856303
 30
0.0
 10
50.2406476038
 20
94.2641492342
 30
0.0
 10
49.8050409506
 20
93.9508928801
 30
0.0
  0
SPLINE
  5
311
100
AcDbEntity
  8
0
100
AcDbSpline
 62
7
  6
CONTINUOUS
 70
0
 71
3
 72
8
 73
4
 74
0
 42
0.0000001
 43
0.0000001
 44
0.0000000001
 40
0.0
 40
0.0
 40
0.0
 40
0.0
 40
1.0
 40
1.0
 40
1.0
 40
1.0
 10
44.8829990985
 20
94.8902736396
 30
0.0
 10
44.4411113615
 20
94.5731591731
 30
0.0
 10
43.9993414759
 20
94.2558804439
 30
0.0
 10
43.5576668232
 20
93.9384692624
 30
0.0
  0
SPLINE
  5
312
100
AcDbEntity
  8
0
100
AcDbSpline
 62
7
  6
CONTINUOUS
 70
0
 71
3
 72
9
 73
5
 74
0
 42
0.0000001
 43
0.0000001
 44
0.0000000001
 40
0.0
 40
0.0
 40
0.0
 40
0.0
 40
0.5480416451
 40
1.0
 40
1.0
 40
1.0
 40
1.0
 10
38.431704369
 20
94.9248091361
 30
0.0
 10
38.5335105326
 20
95.1763590952
 30
0.0
 10
38.7631089151
 20
95.619044214
 30
0.0
 10
39.0654471463
 20
96.0140142816
 30
0.0
 10
39.2153947548
 20
96.1801443583
 30
0.0
  0
SPLINE
  5
313
100
AcDbEntity
  8
0
100
AcDbSpline
 62
7
  6
CONTINUOUS
 70
0
 71
3
 72
9
 73
5
 74
0
 42
0.0000001
 43
0.0000001
 44
0.0000000001
 40
0.0
 40
0.0
 40
0.0
 40
0.0
 40
0.5178262875
 40
1.0
 40
1.0
 40
1.0
 40
1.0
 10
39.2153947548
 20
96.1801443583
 30
0.0
 10
39.3481161088
 20
96.3271891091
 30
0.0
 10
39.6379832606
 20
96.583739709
 30
0.0
 10
39.9877285291
 20
96.7528547259
 30
0.0
 10
40.1639131985
 20
96.8074357783
 30
0.0
  0
SPLINE
  5
314
100
AcDbEntity
  8
0
100
AcDbSpline
 62
7
  6
CONTINUOUS
 70
0
 71
3
 72
8
 73
4
 74
0
 42
0.0000001
 43
0.0000001
 44
0.0000000001
 40
0.0
 40
0.0
 40
0.0
 40
0.0
 40
1.0
 40
1.0
 40
1.0
 40
1.0
 10
47.1485728333
 20
96.2362486941
 30
0.0
 10
47.1462524982
 20
96.2343477442
 30
0.0
 10
47.1437484012
 20
96.2326664082
 30
0.0
 10
47.1411752005
 20
96.2311249142
 30
0.0
  0
ELLIPSE
  5
315
100
AcDbEntity
  8
0
100
AcDbEllipse
 62
7
  6
CONTINUOUS
 10
55.0422602875
 20
72.9402736396
 30
0.0
 11
-0.0
 21
2.5980762114
 31
0.0
 40
0.5773502692
 41
4.1883626434
 42
4.7123889804
  0
ELLIPSE
  5
316
100
AcDbEntity
  8
0
100
AcDbEllipse
 62
7
  6
CONTINUOUS
 10
86.2316426169
 20
96.1913152051
 30
0.0
 11
1.1967114973
 21
-0.0533441128
 31
0.0
 40
0.0895163483
 41
-3.0221082816
 42
-2.2561502866
  0
ELLIPSE
  5
317
100
AcDbEntity
  8
0
100
AcDbEllipse
 62
7
  6
CONTINUOUS
 10
66.0922602875
 20
94.8902736396
 30
0.0
 11
30.4671761683
 21
-1.3580921441
 31
0.0
 40
0.0895163483
 41
0.8533471789
 42
0.885442367
  0
ELLIPSE
  5
318
100
AcDbEntity
  8
0
100
AcDbEllipse
 62
7
  6
CONTINUOUS
 10
81.1459081792
 20
46.8902736396
 30
0.0
 11
113.0769230769
 21
-0.0
 31
0.0
 40
0.4421768707
 41
1.5446234488
 42
1.5707963268
  0
ELLIPSE
  5
319
100
AcDbEntity
  8
0
100
AcDbEllipse
 62
7
  6
CONTINUOUS
 10
51.0386123958
 20
46.8902736396
 30
0.0
 11
113.0769230769
 21
-0.0
 31
0.0
 40
0.4421768707
 41
1.5707963268
 42
1.5968554512
  0
ELLIPSE
  5
31A
100
AcDbEntity
  8
0
100
AcDbEllipse
 62
7
  6
CONTINUOUS
 10
77.2422602875
 20
72.9402736396
 30
0.0
 11
-0.0
 21
2.5980762114
 31
0.0
 40
0.5773502692
 41
-4.4305097628
 42
-4.1883626434
  0
ELLIPSE
  5
31B
100
AcDbEntity
  8
0
100
AcDbEllipse
 62
7
  6
CONTINUOUS
 10
102.2922602875
 20
93.1402736396
 30
0.0
 11
2.5980762114
 21
0.0
 31
0.0
 40
0.5773502692
 41
-1.5707963268
 42
-1.0467699898
  0
ELLIPSE
  5
31C
100
AcDbEntity
  8
0
100
AcDbEllipse
 62
7
  6
CONTINUOUS
 10
102.2922602875
 20
70.9402736396
 30
0.0
 11
2.5980762114
 21
0.0
 31
0.0
 40
0.5773502692
 41
1.0467699898
 42
1.5707963268
  0
ELLIPSE
  5
31D
100
AcDbEntity
  8
0
100
AcDbEllipse
 62
7
  6
CONTINUOUS
 10
83.945578271
 20
46.8902736396
 30
0.0
 11
-0.0
 21
50.0
 31
0.0
 40
0.1219267971
 41
-0.0996686525
 42
-0.026172878
  0
ELLIPSE
  5
31E
100
AcDbEntity
  8
0
100
AcDbEllipse
 62
7
  6
CONTINUOUS
 10
93.0943132565
 20
73.8902736396
 30
0.0
 11
1.1286478658
 21
0.4969233964
 31
0.0
 40
0.0490691121
 41
-1.4598050852
 42
0.1109912416
  0
ELLIPSE
  5
31F
100
AcDbEntity
  8
0
100
AcDbEllipse
 62
7
  6
CONTINUOUS
 10
85.8834687312
 20
96.0332204909
 30
0.0
 11
0.5018979667
 21
-0.0223723945
 31
0.0
 40
0.0895163483
 41
0.8533471789
 42
3.1455792819
  0
ELLIPSE
  5
320
100
AcDbEntity
  8
0
100
AcDbEllipse
 62
7
  6
CONTINUOUS
 10
48.2512835721
 20
46.8902736396
 30
0.0
 11
0.0
 21
50.0
 31
0.0
 40
0.122061879
 41
0.0260591244
 42
0.0996686525
  0
ELLIPSE
  5
321
100
AcDbEntity
  8
0
100
AcDbEllipse
 62
7
  6
CONTINUOUS
 10
46.3019714043
 20
96.0333336979
 30
0.0
 11
0.5018979667
 21
0.0223723945
 31
0.0
 40
0.0895163483
 41
-0.0039902213
 42
2.2882046057
  0
ENDSEC
  0
SECTION
  2
OBJECTS
  0
DICTIONARY
  5
C
100
AcDbDictionary
280
0
281
1
  3
ACAD_GROUP
350
D
  3
ACAD_MLINESTYLE
350
17
  3
ACAD_LAYOUT
350
1A
  3
ACAD_PLOTSETTINGS
350
19
  3
ACAD_PLOTSTYLENAME
350
E
  0
DICTIONARY
  5
D
102
{ACAD_REACTORS
330
C
102
}
100
AcDbDictionary
280
0
281
1
  0
ACDBDICTIONARYWDFLT
  5
E
102
{ACAD_REACTORS
330
C
102
}
100
AcDbDictionary
281
1
  3
Normal
350
F
100
AcDbDictionaryWithDefault
340
F
  0
DICTIONARY
  5
17
102
{ACAD_REACTORS
330
C
102
}
100
AcDbDictionary
280
0
281
1
  3
Standard
350
18
  0
DICTIONARY
  5
19
102
{ACAD_REACTORS
330
C
102
}
100
AcDbDictionary
281
1
  0
DICTIONARY
  5
1A
102
{ACAD_REACTORS
330
C
102
}
100
AcDbDictionary
281
1
  3
Model
350
322
  3
Layout1
350
323
  0
ACDBPLACEHOLDER
  5
F
102
{ACAD_REACTORS
330
E
102
}
  0
MLINESTYLE
  5
18
102
{ACAD_REACTORS
330
17
102
}
100
AcDbMlineStyle
  2
STANDARD
 70
0
  3

 62
256
 51
90.0
 52
90.0
 71
2
 49
0.5
 62
256
  6
BYLAYER
 49
-0.5
 62
256
  6
BYLAYER
  0
LAYOUT
  5
322
102
{ACAD_REACTORS
330
1A
102
}
100
AcDbPlotSettings
  1

  2
none_device
  4

  6

 40
0.0
 41
0.0
 42
0.0
 43
0.0
 44
210.0
 45
297.0
 46
0.0
 47
0.0
 48
0.0
 49
0.0
140
0.0
141
0.0
142
1.0
143
1.0
 70
1024
 72
1
 73
0
 74
0
  7

 75
0
147
1.0
148
0.0
149
0.0
100
AcDbLayout
  1
Model
 70
0
 71
0
 10
0.0
 20
0.0
 11
210.0
 21
297.0
 12
0.0
 22
0.0
 32
0.0
 14
0.0
 24
0.0
 34
0.0
 15
0.0
 25
0.0
 35
0.0
146
0.0
 13
0.0
 23
0.0
 33
0.0
 16
1.0
 26
0.0
 36
0.0
 17
0.0
 27
1.0
 37
0.0
 76
0
330
210
345
0
346
0
  0
LAYOUT
  5
323
102
{ACAD_REACTORS
330
1A
102
}
100
AcDbPlotSettings
  1

  2
none_device
  4

  6

 40
0.0
 41
0.0
 42
0.0
 43
0.0
 44
210.0
 45
297.0
 46
0.0
 47
0.0
 48
0.0
 49
0.0
140
0.0
141
0.0
142
1.0
143
1.0
 70
0
 72
1
 73
0
 74
0
  7

 75
0
147
1.0
148
0.0
149
0.0
100
AcDbLayout
  1
Layout1
 70
0
 71
1
 10
0.0
 20
0.0
 11
210.0
 21
297.0
 12
0.0
 22
0.0
 32
0.0
 14
0.0
 24
0.0
 34
0.0
 15
0.0
 25
0.0
 35
0.0
146
0.0
 13
0.0
 23
0.0
 33
0.0
 16
1.0
 26
0.0
 36
0.0
 17
0.0
 27
1.0
 37
0.0
 76
0
330
211
345
0
346
0
  0
ENDSEC
  0
EOF
