999
DXF file: C:\Users\sesa63760\Dev\_Creo\CAD\MCADID0000847_3D-CAD\drw0001_4.dxf
999
Pro/ENGINEER 2019471 by Parametric Technology Corporation
  0
SECTION
  2
HEADER
  9
$ACADVER
  1
AC1024
  9
$DWGCODEPAGE
  3
ANSI_1252
  9
$EXTMAX
 10
220.2652423516
 20
311.5179856115
 30
0.0
  9
$EXTMIN
 10
0.0
 20
0.0
 30
0.0
  9
$LIMMIN
 10
0.0
 20
0.0
  9
$LIMMAX
 10
220.2652423516
 20
311.5179856115
  9
$VIEWCTR
 10
110.1326211758
 20
155.7589928058
  9
$VIEWSIZE
 40
311.5179856115
  9
$CLAYER
  8
0
  9
$LTSCALE
 40
20.3063575806
  9
$CELTYPE
  6
BYLAYER
  9
$DIMSCALE
 40
1.0
  9
$DIMASZ
 40
2.6222052661
  9
$DIMEXO
 40
1.0
  9
$DIMDLI
 40
14.0298470557
  9
$DIMEXE
 40
1.0
  9
$DIMCEN
 40
3.3228585132
  9
$DIMLFAC
 40
1.0
  9
$DIMBLK
  1
_FILLED
  9
$DIMALT
 70
0
  9
$DIMALTF
 40
0.0393700787
  9
$DIMTXT
 40
3.6710873725
  9
$DIMTOL
 70
1
  9
$DIMLIM
 70
0
  9
$DIMTFAC
 40
1.0
  9
$DIMTP
 40
0.01
  9
$DIMTM
 40
0.01
  9
$DIMGAP
 40
0.625
  9
$DIMDSEP
 70
46
  9
$AUNITS
 70
0
  9
$PDMODE
 70
3
  9
$PDSIZE
 40
0.3125
  9
$HANDSEED
  5
3AE
  9
$TILEMODE
 70
1
  9
$MEASUREMENT
 70
1
  9
$INSUNITS
 70
4
  0
ENDSEC
  0
SECTION
  2
CLASSES
  0
CLASS
  1
ACDBDICTIONARYWDFLT
  2
AcDbDictionaryWithDefault
  3
AutoCAD 2000
 90
0
 91
1
280
0
281
0
  0
CLASS
  1
ACDBPLACEHOLDER
  2
AcDbPlaceHolder
  3
AutoCAD 2000
 90
0
 91
1
280
0
281
0
  0
CLASS
  1
LAYOUT
  2
AcDbLayout
  3
AutoCAD 2000
 90
0
 91
0
280
0
281
0
  0
ENDSEC
  0
SECTION
  2
TABLES
  0
TABLE
  2
VPORT
  5
8
100
AcDbSymbolTable
 70
2
  0
VPORT
  5
1F4
100
AcDbSymbolTableRecord
100
AcDbViewportTableRecord
  2
*ACTIVE
 70
0
 10
0.0
 20
0.0
 11
1.0
 21
1.0
 12
110.1326211758
 22
155.7589928058
 13
0.0
 23
0.0
 14
1.0
 24
1.0
 15
0.0
 25
0.0
 16
0.0
 26
0.0
 36
1.0
 17
0.0
 27
0.0
 37
0.0
 40
311.5179856115
 41
0.7070707071
 42
50.0
 43
0.0
 44
0.0
 50
0.0
 51
0.0
 71
0
 72
100
 73
1
 74
1
 75
0
 76
0
 77
0
 78
0
  0
ENDTAB
  0
TABLE
  2
LTYPE
  5
5
100
AcDbSymbolTable
 70
6
  0
LTYPE
  5
14
100
AcDbSymbolTableRecord
100
AcDbLinetypeTableRecord
  2
BYBLOCK
 70
0
  3

 72
65
 73
0
 40
0.0
  0
LTYPE
  5
15
100
AcDbSymbolTableRecord
100
AcDbLinetypeTableRecord
  2
BYLAYER
 70
0
  3

 72
65
 73
0
 40
0.0
  0
LTYPE
  5
16
100
AcDbSymbolTableRecord
100
AcDbLinetypeTableRecord
  2
CONTINUOUS
 70
64
  3
Solid line
 72
65
 73
0
 40
0.0
  0
LTYPE
  5
1F5
100
AcDbSymbolTableRecord
100
AcDbLinetypeTableRecord
  2
CENTER
 70
64
  3
____ _ ____ _ ____ _ ____ _ ____ _ ____ _ ____
 72
65
 73
4
 40
0.6
 49
0.375
 74
0
 49
-0.075
 74
0
 49
0.075
 74
0
 49
-0.075
 74
0
  0
LTYPE
  5
1F6
100
AcDbSymbolTableRecord
100
AcDbLinetypeTableRecord
  2
HIDDEN
 70
64
  3
- - - - - - - - - - - - - - - - - - - -
 72
65
 73
2
 40
0.2
 49
0.1
 74
0
 49
-0.1
 74
0
  0
LTYPE
  5
1F7
100
AcDbSymbolTableRecord
100
AcDbLinetypeTableRecord
  2
PHANTOM
 70
64
  3
_____ _ _ _____ _ _ _____ _ _ _____
 72
65
 73
6
 40
0.8
 49
0.45
 74
0
 49
-0.05
 74
0
 49
0.1
 74
0
 49
-0.05
 74
0
 49
0.1
 74
0
 49
-0.05
 74
0
  0
LTYPE
  5
1F8
100
AcDbSymbolTableRecord
100
AcDbLinetypeTableRecord
  2
DOT
 70
64
  3
. . . . . . . . . . . . . . . . . . . .
 72
65
 73
2
 40
0.2
 49
0.1
 74
0
 49
-0.1
 74
0
  0
LTYPE
  5
1F9
100
AcDbSymbolTableRecord
100
AcDbLinetypeTableRecord
  2
DASHED
 70
64
  3
- - - - - - - - - - - - - - - - - - - -
 72
65
 73
2
 40
0.2
 49
0.1
 74
0
 49
-0.1
 74
0
  0
ENDTAB
  0
TABLE
  2
LAYER
  5
2
100
AcDbSymbolTable
 70
36
  0
LAYER
  5
10
100
AcDbSymbolTableRecord
100
AcDbLayerTableRecord
  2
0
 70
0
 62
7
  6
CONTINUOUS
370
-3
390
F
  0
LAYER
  5
1FA
100
AcDbSymbolTableRecord
100
AcDbLayerTableRecord
  2
DEFAULT_1
 70
0
 62
7
  6
CENTER
370
-3
390
F
  0
LAYER
  5
1FB
100
AcDbSymbolTableRecord
100
AcDbLayerTableRecord
  2
DEFAULT_2
 70
0
 62
8
  6
HIDDEN
370
-3
390
F
  0
LAYER
  5
1FC
100
AcDbSymbolTableRecord
100
AcDbLayerTableRecord
  2
DEFAULT_3
 70
0
 62
7
  6
PHANTOM
370
-3
390
F
  0
LAYER
  5
1FD
100
AcDbSymbolTableRecord
100
AcDbLayerTableRecord
  2
00_COMPONENTS
 70
0
 62
7
  6
CONTINUOUS
370
-3
390
F
  0
LAYER
  5
1FE
100
AcDbSymbolTableRecord
100
AcDbLayerTableRecord
  2
01_1_DEFAULT_DATUMS
 70
0
 62
7
  6
CONTINUOUS
370
-3
390
F
  0
LAYER
  5
1FF
100
AcDbSymbolTableRecord
100
AcDbLayerTableRecord
  2
01_PLANES
 70
0
 62
7
  6
CONTINUOUS
370
-3
390
F
  0
LAYER
  5
200
100
AcDbSymbolTableRecord
100
AcDbLayerTableRecord
  2
02_COORD_SYS
 70
0
 62
7
  6
CONTINUOUS
370
-3
390
F
  0
LAYER
  5
201
100
AcDbSymbolTableRecord
100
AcDbLayerTableRecord
  2
03_AXES
 70
0
 62
7
  6
CONTINUOUS
370
-3
390
F
  0
LAYER
  5
202
100
AcDbSymbolTableRecord
100
AcDbLayerTableRecord
  2
04_POINTS
 70
0
 62
7
  6
CONTINUOUS
370
-3
390
F
  0
LAYER
  5
203
100
AcDbSymbolTableRecord
100
AcDbLayerTableRecord
  2
05_CURVES
 70
0
 62
7
  6
CONTINUOUS
370
-3
390
F
  0
LAYER
  5
204
100
AcDbSymbolTableRecord
100
AcDbLayerTableRecord
  2
06_SURFS
 70
0
 62
7
  6
CONTINUOUS
370
-3
390
F
  0
LAYER
  5
205
100
AcDbSymbolTableRecord
100
AcDbLayerTableRecord
  2
07_COSMETICS
 70
0
 62
7
  6
CONTINUOUS
370
-3
390
F
  0
LAYER
  5
206
100
AcDbSymbolTableRecord
100
AcDbLayerTableRecord
  2
10_NOTES
 70
0
 62
7
  6
CONTINUOUS
370
-3
390
F
  0
LAYER
  5
207
100
AcDbSymbolTableRecord
100
AcDbLayerTableRecord
  2
11_NOTES_PUB
 70
0
 62
7
  6
CONTINUOUS
370
-3
390
F
  0
LAYER
  5
208
100
AcDbSymbolTableRecord
100
AcDbLayerTableRecord
  2
13_REF_GTOL
 70
0
 62
7
  6
CONTINUOUS
370
-3
390
F
  0
LAYER
  5
209
100
AcDbSymbolTableRecord
100
AcDbLayerTableRecord
  2
16_MISC
 70
0
 62
7
  6
CONTINUOUS
370
-3
390
F
  0
LAYER
  5
20A
100
AcDbSymbolTableRecord
100
AcDbLayerTableRecord
  2
17_NO_PRINT
 70
0
 62
7
  6
CONTINUOUS
370
-3
390
F
  0
LAYER
  5
20B
100
AcDbSymbolTableRecord
100
AcDbLayerTableRecord
  2
18_DATUM_CAMS_JOINTS
 70
0
 62
7
  6
CONTINUOUS
370
-3
390
F
  0
LAYER
  5
20C
100
AcDbSymbolTableRecord
100
AcDbLayerTableRecord
  2
19_DATUM_FUNCTIONAL
 70
0
 62
7
  6
CONTINUOUS
370
-3
390
F
  0
LAYER
  5
20D
100
AcDbSymbolTableRecord
100
AcDbLayerTableRecord
  2
20_DATUM_KINEMATIC_SCHEME
 70
0
 62
7
  6
CONTINUOUS
370
-3
390
F
  0
ENDTAB
  0
TABLE
  2
STYLE
  5
3
100
AcDbSymbolTable
 70
1
  0
STYLE
  5
11
100
AcDbSymbolTableRecord
100
AcDbTextStyleTableRecord
  2
STANDARD
 70
0
 40
0.0
 41
0.8
 50
0.0
 71
0
 42
0.2
  3
txt
  4

  0
STYLE
  5
20E
100
AcDbSymbolTableRecord
100
AcDbTextStyleTableRecord
  2
TEXTSTYLE_1
 70
0
 40
0.0
 41
0.8
 50
0.0
 71
0
 42
0.2
  3
gdt
  4

  0
ENDTAB
  0
TABLE
  2
VIEW
  5
6
100
AcDbSymbolTable
 70
0
  0
ENDTAB
  0
TABLE
  2
UCS
  5
7
100
AcDbSymbolTable
 70
0
  0
ENDTAB
  0
TABLE
  2
APPID
  5
9
100
AcDbSymbolTable
 70
1
  0
APPID
  5
20F
100
AcDbSymbolTableRecord
100
AcDbRegAppTableRecord
  2
ACAD
 70
0
  0
ENDTAB
  0
TABLE
  2
BLOCK_RECORD
  5
1
100
AcDbSymbolTable
 70
0
  0
BLOCK_RECORD
  5
210
100
AcDbSymbolTableRecord
100
AcDbBlockTableRecord
  2
*Model_Space
  0
BLOCK_RECORD
  5
211
100
AcDbSymbolTableRecord
100
AcDbBlockTableRecord
  2
*Paper_Space
  0
BLOCK_RECORD
  5
212
100
AcDbSymbolTableRecord
100
AcDbBlockTableRecord
  2
_FILLED
  0
ENDTAB
  0
TABLE
  2
DIMSTYLE
  5
A
100
AcDbSymbolTable
 70
1
100
AcDbDimStyleTable
 71
0
  0
DIMSTYLE
105
213
100
AcDbSymbolTableRecord
100
AcDbDimStyleTableRecord
  2
STANDARD
 70
0
  3

  4

 40
1.0
 41
2.6222052661
 42
1.0
 43
0.38
 44
1.0
 45
0.0
 46
0.0
 47
0.01
 48
0.01
140
3.6710873725
141
0.09
142
0.0
143
25.4
144
1.0
145
0.0
146
1.0
147
0.625
 71
1
 72
0
 73
0
 74
0
 75
0
 76
0
 77
1
 78
8
 79
2
170
0
171
1
172
0
173
0
174
0
175
0
176
0
177
0
178
0
270
2
179
2
271
2
272
2
273
2
274
2
275
0
280
0
281
0
282
0
283
1
284
8
285
0
286
0
287
3
288
0
340
11
278
46
341
212
342
212
343
212
344
212
  0
ENDTAB
  0
ENDSEC
  0
SECTION
  2
BLOCKS
  0
BLOCK
  5
20
100
AcDbEntity
  8
0
100
AcDbBlockBegin
  2
*Model_Space
 70
0
 10
0.0
 20
0.0
 30
0.0
  3
*Model_Space
  1

  0
ENDBLK
  5
21
100
AcDbEntity
  8
0
100
AcDbBlockEnd
  0
BLOCK
  5
1C
100
AcDbEntity
  8
0
100
AcDbBlockBegin
  2
*Paper_Space
 70
0
 10
0.0
 20
0.0
 30
0.0
  3
*Paper_Space
  1

  0
ENDBLK
  5
1D
100
AcDbEntity
  8
0
100
AcDbBlockEnd
  0
BLOCK
  5
214
100
AcDbEntity
  8
0
100
AcDbBlockBegin
  2
_FILLED
 70
64
 10
0.0
 20
0.0
  3
_FILLED
  1

  0
SOLID
  5
215
100
AcDbEntity
  8
0
  6
BYBLOCK
 62
0
100
AcDbTrace
 10
0.0
 20
0.0
 11
-1.0
 21
0.25
 12
-1.0
 22
-0.25
 13
-1.0
 23
-0.25
  0
ENDBLK
  5
216
100
AcDbEntity
  8
0
  6
BYBLOCK
 62
0
100
AcDbBlockEnd
  0
ENDSEC
  0
SECTION
  2
ENTITIES
  0
LINE
  5
217
100
AcDbEntity
  8
0
100
AcDbLine
 62
7
  6
CONTINUOUS
 10
47.367337483
 20
22.3057553957
 11
177.6173320196
 21
22.3057553957
  0
LINE
  5
218
100
AcDbEntity
  8
0
100
AcDbLine
 62
7
  6
CONTINUOUS
 10
177.3671812895
 20
24.2460355947
 11
175.8673330484
 21
24.2460355947
  0
LINE
  5
219
100
AcDbEntity
  8
0
100
AcDbLine
 62
7
  6
CONTINUOUS
 10
48.8673289953
 20
24.2460355947
 11
47.367337483
 21
24.2460355947
  0
LINE
  5
21A
100
AcDbEntity
  8
0
100
AcDbLine
 62
7
  6
CONTINUOUS
 10
132.760884752
 20
25.8057553957
 11
126.9873820601
 21
25.8057553957
  0
LINE
  5
21B
100
AcDbEntity
  8
0
100
AcDbLine
 62
7
  6
CONTINUOUS
 10
126.9873820601
 20
35.8057553957
 11
132.760884752
 21
35.8057553957
  0
LINE
  5
21C
100
AcDbEntity
  8
0
100
AcDbLine
 62
7
  6
CONTINUOUS
 10
65.8710030852
 20
24.3057296465
 11
67.871003413
 21
22.3057553957
  0
LINE
  5
21D
100
AcDbEntity
  8
0
100
AcDbLine
 62
7
  6
CONTINUOUS
 10
85.6191798538
 20
287.3057553957
 11
83.6191652206
 21
285.3057668398
  0
LINE
  5
21E
100
AcDbEntity
  8
0
100
AcDbLine
 62
7
  6
CONTINUOUS
 10
87.871002966
 20
287.3057410906
 11
85.8710026381
 21
285.3057409956
  0
LINE
  5
21F
100
AcDbEntity
  8
0
100
AcDbLine
 62
7
  6
CONTINUOUS
 10
69.121933406
 20
38.5057553957
 11
78.976333406
 21
38.5057553957
  0
LINE
  5
220
100
AcDbEntity
  8
0
100
AcDbLine
 62
7
  6
CONTINUOUS
 10
107.917433406
 20
38.5057553957
 11
117.771833406
 21
38.5057553957
  0
LINE
  5
221
100
AcDbEntity
  8
0
100
AcDbLine
 62
7
  6
CONTINUOUS
 10
146.712933406
 20
38.5057553957
 11
156.567333406
 21
38.5057553957
  0
LINE
  5
222
100
AcDbEntity
  8
0
100
AcDbLine
 62
7
  6
CONTINUOUS
 10
47.367337483
 20
40.5023828934
 11
177.8673195259
 21
40.5023828934
  0
LINE
  5
223
100
AcDbEntity
  8
0
100
AcDbLine
 62
7
  6
CONTINUOUS
 10
172.3672846682
 20
40.8057553957
 11
168.8759063072
 21
40.8057553957
  0
LINE
  5
224
100
AcDbEntity
  8
0
100
AcDbLine
 62
7
  6
CONTINUOUS
 10
56.3672846682
 20
40.8057553957
 11
52.3673821438
 21
40.8057553957
  0
LINE
  5
225
100
AcDbEntity
  8
0
100
AcDbLine
 62
7
  6
CONTINUOUS
 10
174.3672358317
 20
42.8063349546
 11
168.8759063072
 21
42.8063349546
  0
LINE
  5
226
100
AcDbEntity
  8
0
100
AcDbLine
 62
7
  6
CONTINUOUS
 10
56.3587605048
 20
42.8063349546
 11
50.3674309803
 21
42.8063349546
  0
LINE
  5
227
100
AcDbEntity
  8
0
100
AcDbLine
 62
7
  6
CONTINUOUS
 10
177.8673177581
 20
44.3057553957
 11
168.8759063072
 21
44.3057553957
  0
LINE
  5
228
100
AcDbEntity
  8
0
100
AcDbLine
 62
7
  6
CONTINUOUS
 10
56.3587605048
 20
44.3057553957
 11
47.3769722776
 21
44.3057553957
  0
LINE
  5
229
100
AcDbEntity
  8
0
100
AcDbLine
 62
7
  6
CONTINUOUS
 10
85.8710026381
 20
24.3057296465
 11
87.871002966
 21
22.3057553957
  0
LINE
  5
22A
100
AcDbEntity
  8
0
100
AcDbLine
 62
7
  6
CONTINUOUS
 10
60.5882178952
 20
66.654765138
 11
60.0932431483
 21
67.1497398848
  0
LINE
  5
22B
100
AcDbEntity
  8
0
100
AcDbLine
 62
7
  6
CONTINUOUS
 10
58.2792479598
 20
61.2713110123
 11
48.5348573971
 21
61.2184148045
  0
LINE
  5
22C
100
AcDbEntity
  8
0
100
AcDbLine
 62
7
  6
CONTINUOUS
 10
47.3769722776
 20
59.8057345341
 11
177.7019271123
 21
59.8057345341
  0
LINE
  5
22D
100
AcDbEntity
  8
0
100
AcDbLine
 62
7
  6
CONTINUOUS
 10
177.7250139004
 20
60.3157416771
 11
47.367337483
 21
60.3157416771
  0
LINE
  5
22E
100
AcDbEntity
  8
0
100
AcDbLine
 62
7
  6
CONTINUOUS
 10
47.117333406
 20
60.502391169
 11
47.367337483
 21
60.502391169
  0
LINE
  5
22F
100
AcDbEntity
  8
0
100
AcDbLine
 62
7
  6
CONTINUOUS
 10
58.3673296211
 20
61.0240167372
 11
168.0673313973
 21
61.0240167372
  0
LINE
  5
230
100
AcDbEntity
  8
0
100
AcDbLine
 62
7
  6
CONTINUOUS
 10
47.367337483
 20
62.4259276406
 11
47.117333406
 21
62.4259276406
  0
LINE
  5
231
100
AcDbEntity
  8
0
100
AcDbLine
 62
7
  6
CONTINUOUS
 10
59.144333406
 20
62.8157392929
 11
99.784333406
 21
62.8157392929
  0
LINE
  5
232
100
AcDbEntity
  8
0
100
AcDbLine
 62
7
  6
CONTINUOUS
 10
102.287333406
 20
62.8157392929
 11
127.687333406
 21
62.8157392929
  0
LINE
  5
233
100
AcDbEntity
  8
0
100
AcDbLine
 62
7
  6
CONTINUOUS
 10
130.172333406
 20
62.8157392929
 11
145.412333406
 21
62.8157392929
  0
LINE
  5
234
100
AcDbEntity
  8
0
100
AcDbLine
 62
7
  6
CONTINUOUS
 10
145.412333406
 20
63.0157426784
 11
130.172333406
 21
63.0157426784
  0
LINE
  5
235
100
AcDbEntity
  8
0
100
AcDbLine
 62
7
  6
CONTINUOUS
 10
127.687333406
 20
63.0157426784
 11
102.287333406
 21
63.0157426784
  0
LINE
  5
236
100
AcDbEntity
  8
0
100
AcDbLine
 62
7
  6
CONTINUOUS
 10
99.784333406
 20
63.0157426784
 11
59.144333406
 21
63.0157426784
  0
LINE
  5
237
100
AcDbEntity
  8
0
100
AcDbLine
 62
7
  6
CONTINUOUS
 10
145.412333406
 20
63.1157443712
 11
130.172333406
 21
63.1157443712
  0
LINE
  5
238
100
AcDbEntity
  8
0
100
AcDbLine
 62
7
  6
CONTINUOUS
 10
127.687333406
 20
63.1157443712
 11
102.287333406
 21
63.1157443712
  0
LINE
  5
239
100
AcDbEntity
  8
0
100
AcDbLine
 62
7
  6
CONTINUOUS
 10
99.784333406
 20
63.1157443712
 11
59.144333406
 21
63.1157443712
  0
LINE
  5
23A
100
AcDbEntity
  8
0
100
AcDbLine
 62
7
  6
CONTINUOUS
 10
59.144333406
 20
63.6201355019
 11
99.784333406
 21
63.6201355019
  0
LINE
  5
23B
100
AcDbEntity
  8
0
100
AcDbLine
 62
7
  6
CONTINUOUS
 10
102.287333406
 20
63.6201355019
 11
127.687333406
 21
63.6201355019
  0
LINE
  5
23C
100
AcDbEntity
  8
0
100
AcDbLine
 62
7
  6
CONTINUOUS
 10
130.172333406
 20
63.6201355019
 11
145.412333406
 21
63.6201355019
  0
LINE
  5
23D
100
AcDbEntity
  8
0
100
AcDbLine
 62
7
  6
CONTINUOUS
 10
145.412333406
 20
63.8199451462
 11
130.172333406
 21
63.8199451462
  0
LINE
  5
23E
100
AcDbEntity
  8
0
100
AcDbLine
 62
7
  6
CONTINUOUS
 10
127.687333406
 20
63.8199451462
 11
102.287333406
 21
63.8199451462
  0
LINE
  5
23F
100
AcDbEntity
  8
0
100
AcDbLine
 62
7
  6
CONTINUOUS
 10
99.784333406
 20
63.8199451462
 11
59.144333406
 21
63.8199451462
  0
LINE
  5
240
100
AcDbEntity
  8
0
100
AcDbLine
 62
7
  6
CONTINUOUS
 10
176.2179689775
 20
61.2178901049
 11
168.1308272431
 21
61.2629428236
  0
LINE
  5
241
100
AcDbEntity
  8
0
100
AcDbLine
 62
7
  6
CONTINUOUS
 10
177.5420425215
 20
60.360404918
 11
177.3483760241
 21
60.3702614987
  0
LINE
  5
242
100
AcDbEntity
  8
0
100
AcDbLine
 62
7
  6
CONTINUOUS
 10
65.6682178952
 20
66.654765138
 11
65.1732431483
 21
67.1497398848
  0
LINE
  5
243
100
AcDbEntity
  8
0
100
AcDbLine
 62
7
  6
CONTINUOUS
 10
62.7802489168
 20
69.8367456534
 11
63.2752236637
 21
69.3417709065
  0
LINE
  5
244
100
AcDbEntity
  8
0
100
AcDbLine
 62
7
  6
CONTINUOUS
 10
70.7482178952
 20
66.654765138
 11
70.2532431483
 21
67.1497398848
  0
LINE
  5
245
100
AcDbEntity
  8
0
100
AcDbLine
 62
7
  6
CONTINUOUS
 10
67.8602489168
 20
69.8367456534
 11
68.3552236637
 21
69.3417709065
  0
LINE
  5
246
100
AcDbEntity
  8
0
100
AcDbLine
 62
7
  6
CONTINUOUS
 10
75.8282178952
 20
66.654765138
 11
75.3332431483
 21
67.1497398848
  0
LINE
  5
247
100
AcDbEntity
  8
0
100
AcDbLine
 62
7
  6
CONTINUOUS
 10
72.9402489168
 20
69.8367456534
 11
73.4352236637
 21
69.3417709065
  0
LINE
  5
248
100
AcDbEntity
  8
0
100
AcDbLine
 62
7
  6
CONTINUOUS
 10
90.1006307141
 20
278.8057553957
 11
92.9873820601
 21
283.8057553957
  0
LINE
  5
249
100
AcDbEntity
  8
0
100
AcDbLine
 62
7
  6
CONTINUOUS
 10
59.144333406
 20
71.2457410906
 11
99.784333406
 21
71.2457410906
  0
LINE
  5
24A
100
AcDbEntity
  8
0
100
AcDbLine
 62
7
  6
CONTINUOUS
 10
102.287333406
 20
71.2457410906
 11
127.687333406
 21
71.2457410906
  0
LINE
  5
24B
100
AcDbEntity
  8
0
100
AcDbLine
 62
7
  6
CONTINUOUS
 10
130.172333406
 20
71.2457410906
 11
145.412333406
 21
71.2457410906
  0
LINE
  5
24C
100
AcDbEntity
  8
0
100
AcDbLine
 62
7
  6
CONTINUOUS
 10
145.412333406
 20
71.8457410906
 11
130.172333406
 21
71.8457410906
  0
LINE
  5
24D
100
AcDbEntity
  8
0
100
AcDbLine
 62
7
  6
CONTINUOUS
 10
127.687333406
 20
71.8457410906
 11
102.287333406
 21
71.8457410906
  0
LINE
  5
24E
100
AcDbEntity
  8
0
100
AcDbLine
 62
7
  6
CONTINUOUS
 10
99.784333406
 20
71.8457410906
 11
59.144333406
 21
71.8457410906
  0
LINE
  5
24F
100
AcDbEntity
  8
0
100
AcDbLine
 62
7
  6
CONTINUOUS
 10
145.412333406
 20
72.2157345007
 11
130.172333406
 21
72.2157345007
  0
LINE
  5
250
100
AcDbEntity
  8
0
100
AcDbLine
 62
7
  6
CONTINUOUS
 10
127.687333406
 20
72.2157345007
 11
102.287333406
 21
72.2157345007
  0
LINE
  5
251
100
AcDbEntity
  8
0
100
AcDbLine
 62
7
  6
CONTINUOUS
 10
99.784333406
 20
72.2157345007
 11
59.144333406
 21
72.2157345007
  0
LINE
  5
252
100
AcDbEntity
  8
0
100
AcDbLine
 62
7
  6
CONTINUOUS
 10
59.144333406
 20
72.24766843
 11
99.784333406
 21
72.24766843
  0
LINE
  5
253
100
AcDbEntity
  8
0
100
AcDbLine
 62
7
  6
CONTINUOUS
 10
102.287333406
 20
72.24766843
 11
127.687333406
 21
72.24766843
  0
LINE
  5
254
100
AcDbEntity
  8
0
100
AcDbLine
 62
7
  6
CONTINUOUS
 10
130.172333406
 20
72.24766843
 11
145.412333406
 21
72.24766843
  0
LINE
  5
255
100
AcDbEntity
  8
0
100
AcDbLine
 62
7
  6
CONTINUOUS
 10
145.412333406
 20
72.4730626533
 11
130.172333406
 21
72.4730626533
  0
LINE
  5
256
100
AcDbEntity
  8
0
100
AcDbLine
 62
7
  6
CONTINUOUS
 10
127.687333406
 20
72.4730626533
 11
102.287333406
 21
72.4730626533
  0
LINE
  5
257
100
AcDbEntity
  8
0
100
AcDbLine
 62
7
  6
CONTINUOUS
 10
99.784333406
 20
72.4730626533
 11
59.144333406
 21
72.4730626533
  0
LINE
  5
258
100
AcDbEntity
  8
0
100
AcDbLine
 62
7
  6
CONTINUOUS
 10
149.004433406
 20
73.8157553957
 11
165.404433406
 21
73.8157553957
  0
LINE
  5
259
100
AcDbEntity
  8
0
100
AcDbLine
 62
7
  6
CONTINUOUS
 10
177.072601661
 20
76.8057553957
 11
47.6617339534
 21
76.8057553957
  0
LINE
  5
25A
100
AcDbEntity
  8
0
100
AcDbLine
 62
7
  6
CONTINUOUS
 10
120.3700862838
 20
24.3057296465
 11
122.3700856803
 21
22.3057553957
  0
LINE
  5
25B
100
AcDbEntity
  8
0
100
AcDbLine
 62
7
  6
CONTINUOUS
 10
80.9082178952
 20
66.654765138
 11
80.4132431483
 21
67.1497398848
  0
LINE
  5
25C
100
AcDbEntity
  8
0
100
AcDbLine
 62
7
  6
CONTINUOUS
 10
78.0202489168
 20
69.8367456534
 11
78.5152236637
 21
69.3417709065
  0
LINE
  5
25D
100
AcDbEntity
  8
0
100
AcDbLine
 62
7
  6
CONTINUOUS
 10
85.9882178952
 20
66.654765138
 11
85.4932431483
 21
67.1497398848
  0
LINE
  5
25E
100
AcDbEntity
  8
0
100
AcDbLine
 62
7
  6
CONTINUOUS
 10
83.1002489168
 20
69.8367456534
 11
83.5952236637
 21
69.3417709065
  0
LINE
  5
25F
100
AcDbEntity
  8
0
100
AcDbLine
 62
7
  6
CONTINUOUS
 10
91.0682178952
 20
66.654765138
 11
90.5732431483
 21
67.1497398848
  0
LINE
  5
260
100
AcDbEntity
  8
0
100
AcDbLine
 62
7
  6
CONTINUOUS
 10
88.1802489168
 20
69.8367456534
 11
88.6752236637
 21
69.3417709065
  0
LINE
  5
261
100
AcDbEntity
  8
0
100
AcDbLine
 62
7
  6
CONTINUOUS
 10
58.298635268
 20
61.2231183096
 11
58.3673296211
 21
61.0240167372
  0
LINE
  5
262
100
AcDbEntity
  8
0
100
AcDbLine
 62
7
  6
CONTINUOUS
 10
101.6476360979
 20
278.8057553957
 11
98.760884752
 21
273.8057553957
  0
LINE
  5
263
100
AcDbEntity
  8
0
100
AcDbLine
 62
7
  6
CONTINUOUS
 10
96.1482178952
 20
66.654765138
 11
95.6532431483
 21
67.1497398848
  0
LINE
  5
264
100
AcDbEntity
  8
0
100
AcDbLine
 62
7
  6
CONTINUOUS
 10
93.2602489168
 20
69.8367456534
 11
93.7552236637
 21
69.3417709065
  0
LINE
  5
265
100
AcDbEntity
  8
0
100
AcDbLine
 62
7
  6
CONTINUOUS
 10
98.3402489168
 20
69.8367456534
 11
98.8352236637
 21
69.3417709065
  0
LINE
  5
266
100
AcDbEntity
  8
0
100
AcDbLine
 62
7
  6
CONTINUOUS
 10
103.7223178952
 20
66.654765138
 11
103.2273431483
 21
67.1497398848
  0
LINE
  5
267
100
AcDbEntity
  8
0
100
AcDbLine
 62
7
  6
CONTINUOUS
 10
47.117333406
 20
60.502391169
 11
47.117333406
 21
132.502391169
  0
LINE
  5
268
100
AcDbEntity
  8
0
100
AcDbLine
 62
7
  6
CONTINUOUS
 10
47.117333406
 20
213.3057553956
 11
47.117333406
 21
247.3057553956
  0
LINE
  5
269
100
AcDbEntity
  8
0
100
AcDbLine
 62
7
  6
CONTINUOUS
 10
47.367337483
 20
249.8057396005
 11
47.367337483
 21
59.8057345341
  0
LINE
  5
26A
100
AcDbEntity
  8
0
100
AcDbLine
 62
7
  6
CONTINUOUS
 10
47.367337483
 20
22.3057553957
 11
47.367337483
 21
44.3057553957
  0
LINE
  5
26B
100
AcDbEntity
  8
0
100
AcDbLine
 62
7
  6
CONTINUOUS
 10
47.367337483
 20
265.3057553957
 11
47.367337483
 21
287.3057410906
  0
LINE
  5
26C
100
AcDbEntity
  8
0
100
AcDbLine
 62
7
  6
CONTINUOUS
 10
47.3769722776
 20
59.8057345341
 11
47.3769722776
 21
44.3057553957
  0
LINE
  5
26D
100
AcDbEntity
  8
0
100
AcDbLine
 62
7
  6
CONTINUOUS
 10
47.3871014907
 20
265.3057553957
 11
47.3871014907
 21
249.8057396005
  0
LINE
  5
26E
100
AcDbEntity
  8
0
100
AcDbLine
 62
7
  6
CONTINUOUS
 10
47.6617339534
 20
76.8057553957
 11
47.6617339534
 21
61.169007787
  0
LINE
  5
26F
100
AcDbEntity
  8
0
100
AcDbLine
 62
7
  6
CONTINUOUS
 10
47.9496227083
 20
248.0131712689
 11
47.9496227083
 21
76.8057553957
  0
LINE
  5
270
100
AcDbEntity
  8
0
100
AcDbLine
 62
7
  6
CONTINUOUS
 10
48.0354791222
 20
59.8057345341
 11
48.0354791222
 21
44.3057553957
  0
LINE
  5
271
100
AcDbEntity
  8
0
100
AcDbLine
 62
7
  6
CONTINUOUS
 10
48.5161241866
 20
59.8057345341
 11
48.5161241866
 21
44.3057553957
  0
LINE
  5
272
100
AcDbEntity
  8
0
100
AcDbLine
 62
7
  6
CONTINUOUS
 10
48.5348573971
 20
61.2184148045
 11
48.5348573971
 21
76.8057553957
  0
LINE
  5
273
100
AcDbEntity
  8
0
100
AcDbLine
 62
7
  6
CONTINUOUS
 10
48.8362835327
 20
247.975311356
 11
48.8362835327
 21
76.8057553957
  0
LINE
  5
274
100
AcDbEntity
  8
0
100
AcDbLine
 62
7
  6
CONTINUOUS
 10
48.8673289953
 20
287.3057410906
 11
48.8673289953
 21
269.1091054502
  0
LINE
  5
275
100
AcDbEntity
  8
0
100
AcDbLine
 62
7
  6
CONTINUOUS
 10
48.8673289953
 20
40.5023828934
 11
48.8673289953
 21
22.3057553957
  0
LINE
  5
276
100
AcDbEntity
  8
0
100
AcDbLine
 62
7
  6
CONTINUOUS
 10
49.6673276363
 20
22.3057553957
 11
49.6673276363
 21
40.5023828934
  0
LINE
  5
277
100
AcDbEntity
  8
0
100
AcDbLine
 62
7
  6
CONTINUOUS
 10
49.6673276363
 20
269.1091054502
 11
49.6673276363
 21
287.3057410906
  0
LINE
  5
278
100
AcDbEntity
  8
0
100
AcDbLine
 62
7
  6
CONTINUOUS
 10
50.3674309803
 20
266.4051758368
 11
50.3674309803
 21
265.3057553957
  0
LINE
  5
279
100
AcDbEntity
  8
0
100
AcDbLine
 62
7
  6
CONTINUOUS
 10
50.3674309803
 20
42.8063349546
 11
50.3674309803
 21
44.3057553957
  0
LINE
  5
27A
100
AcDbEntity
  8
0
100
AcDbLine
 62
7
  6
CONTINUOUS
 10
54.3673364458
 20
269.1091054502
 11
54.3673364458
 21
268.4057553957
  0
LINE
  5
27B
100
AcDbEntity
  8
0
100
AcDbLine
 62
7
  6
CONTINUOUS
 10
54.3673364458
 20
40.8057553957
 11
54.3673364458
 21
40.5023828934
  0
LINE
  5
27C
100
AcDbEntity
  8
0
100
AcDbLine
 62
7
  6
CONTINUOUS
 10
150.6155099213
 20
287.3057553957
 11
148.6154952882
 21
285.3057668398
  0
LINE
  5
27D
100
AcDbEntity
  8
0
100
AcDbLine
 62
7
  6
CONTINUOUS
 10
152.8673348961
 20
287.3057410906
 11
150.8691674111
 21
285.3075752354
  0
LINE
  5
27E
100
AcDbEntity
  8
0
100
AcDbLine
 62
7
  6
CONTINUOUS
 10
150.8691674111
 20
24.3057296465
 11
152.8691677389
 21
22.3057553957
  0
LINE
  5
27F
100
AcDbEntity
  8
0
100
AcDbLine
 62
7
  6
CONTINUOUS
 10
108.8023178952
 20
66.654765138
 11
108.3073431483
 21
67.1497398848
  0
LINE
  5
280
100
AcDbEntity
  8
0
100
AcDbLine
 62
7
  6
CONTINUOUS
 10
105.9143489168
 20
69.8367456534
 11
106.4093236637
 21
69.3417709065
  0
LINE
  5
281
100
AcDbEntity
  8
0
100
AcDbLine
 62
7
  6
CONTINUOUS
 10
157.2424016121
 20
22.6789884979
 11
157.6156345991
 21
22.3057553957
  0
LINE
  5
282
100
AcDbEntity
  8
0
100
AcDbLine
 62
7
  6
CONTINUOUS
 10
113.8823178952
 20
66.654765138
 11
113.3873431483
 21
67.1497398848
  0
LINE
  5
283
100
AcDbEntity
  8
0
100
AcDbLine
 62
7
  6
CONTINUOUS
 10
110.9943489168
 20
69.8367456534
 11
111.4893236637
 21
69.3417709065
  0
LINE
  5
284
100
AcDbEntity
  8
0
100
AcDbLine
 62
7
  6
CONTINUOUS
 10
118.9623178952
 20
66.654765138
 11
118.4673431483
 21
67.1497398848
  0
LINE
  5
285
100
AcDbEntity
  8
0
100
AcDbLine
 62
7
  6
CONTINUOUS
 10
116.0743489168
 20
69.8367456534
 11
116.5693236637
 21
69.3417709065
  0
LINE
  5
286
100
AcDbEntity
  8
0
100
AcDbLine
 62
7
  6
CONTINUOUS
 10
56.3587605048
 20
269.1091053407
 11
56.3587605048
 21
265.3057553957
  0
LINE
  5
287
100
AcDbEntity
  8
0
100
AcDbLine
 62
7
  6
CONTINUOUS
 10
56.3587605048
 20
44.3057553957
 11
56.3587605048
 21
40.5023828934
  0
LINE
  5
288
100
AcDbEntity
  8
0
100
AcDbLine
 62
7
  6
CONTINUOUS
 10
58.2792479598
 20
76.8057553957
 11
58.2792479598
 21
61.2713110123
  0
LINE
  5
289
100
AcDbEntity
  8
0
100
AcDbLine
 62
7
  6
CONTINUOUS
 10
58.3673296211
 20
76.8057553957
 11
58.3673296211
 21
61.0240167372
  0
LINE
  5
28A
100
AcDbEntity
  8
0
100
AcDbLine
 62
7
  6
CONTINUOUS
 10
58.8710030472
 20
30.645497862
 11
58.8710038004
 21
24.3057296465
  0
LINE
  5
28B
100
AcDbEntity
  8
0
100
AcDbLine
 62
7
  6
CONTINUOUS
 10
59.0673358796
 20
280.6924171599
 11
59.0673358796
 21
277.4389902914
  0
LINE
  5
28C
100
AcDbEntity
  8
0
100
AcDbLine
 62
7
  6
CONTINUOUS
 10
59.144333406
 20
62.8157392929
 11
59.144333406
 21
63.5957405756
  0
LINE
  5
28D
100
AcDbEntity
  8
0
100
AcDbLine
 62
7
  6
CONTINUOUS
 10
59.144333406
 20
63.6197162913
 11
59.144333406
 21
76.8057553957
  0
LINE
  5
28E
100
AcDbEntity
  8
0
100
AcDbLine
 62
7
  6
CONTINUOUS
 10
165.8691680072
 20
24.3057296465
 11
167.869168335
 21
22.3057553957
  0
LINE
  5
28F
100
AcDbEntity
  8
0
100
AcDbLine
 62
7
  6
CONTINUOUS
 10
124.0423178952
 20
66.654765138
 11
123.5473431483
 21
67.1497398848
  0
LINE
  5
290
100
AcDbEntity
  8
0
100
AcDbLine
 62
7
  6
CONTINUOUS
 10
121.1543489168
 20
69.8367456534
 11
121.6493236637
 21
69.3417709065
  0
LINE
  5
291
100
AcDbEntity
  8
0
100
AcDbLine
 62
7
  6
CONTINUOUS
 10
126.2343489168
 20
69.8367456534
 11
126.7293236637
 21
69.3417709065
  0
LINE
  5
292
100
AcDbEntity
  8
0
100
AcDbLine
 62
7
  6
CONTINUOUS
 10
131.6163178952
 20
66.654765138
 11
131.1213431483
 21
67.1497398848
  0
LINE
  5
293
100
AcDbEntity
  8
0
100
AcDbLine
 62
7
  6
CONTINUOUS
 10
126.9873820601
 20
25.8057553957
 11
124.1006307141
 21
30.8057553957
  0
LINE
  5
294
100
AcDbEntity
  8
0
100
AcDbLine
 62
7
  6
CONTINUOUS
 10
65.8710030852
 20
24.3057296465
 11
65.8710030472
 21
30.8057410906
  0
LINE
  5
295
100
AcDbEntity
  8
0
100
AcDbLine
 62
7
  6
CONTINUOUS
 10
66.0673347769
 20
277.4389906713
 11
66.0673347775
 21
280.9190650278
  0
LINE
  5
296
100
AcDbEntity
  8
0
100
AcDbLine
 62
7
  6
CONTINUOUS
 10
69.121933406
 20
38.5057553957
 11
69.121933406
 21
40.5023828934
  0
LINE
  5
297
100
AcDbEntity
  8
0
100
AcDbLine
 62
7
  6
CONTINUOUS
 10
69.121933406
 20
269.1091056199
 11
69.121933406
 21
271.1057553957
  0
LINE
  5
298
100
AcDbEntity
  8
0
100
AcDbLine
 62
7
  6
CONTINUOUS
 10
69.6173329923
 20
272.4233529178
 11
69.6173329923
 21
271.1057553957
  0
LINE
  5
299
100
AcDbEntity
  8
0
100
AcDbLine
 62
7
  6
CONTINUOUS
 10
73.8691678284
 20
285.3057409956
 11
73.8691678284
 21
278.9659839908
  0
LINE
  5
29A
100
AcDbEntity
  8
0
100
AcDbLine
 62
7
  6
CONTINUOUS
 10
73.8710030472
 20
30.6454978624
 11
73.8710043965
 21
24.3057296465
  0
LINE
  5
29B
100
AcDbEntity
  8
0
100
AcDbLine
 62
7
  6
CONTINUOUS
 10
136.6963178952
 20
66.654765138
 11
136.2013431483
 21
67.1497398848
  0
LINE
  5
29C
100
AcDbEntity
  8
0
100
AcDbLine
 62
7
  6
CONTINUOUS
 10
133.8083489168
 20
69.8367456534
 11
134.3033236637
 21
69.3417709065
  0
LINE
  5
29D
100
AcDbEntity
  8
0
100
AcDbLine
 62
7
  6
CONTINUOUS
 10
141.7763178952
 20
66.654765138
 11
141.2813431483
 21
67.1497398848
  0
LINE
  5
29E
100
AcDbEntity
  8
0
100
AcDbLine
 62
7
  6
CONTINUOUS
 10
138.8883489168
 20
69.8367456534
 11
139.3833236637
 21
69.3417709065
  0
LINE
  5
29F
100
AcDbEntity
  8
0
100
AcDbLine
 62
7
  6
CONTINUOUS
 10
143.9683489168
 20
69.8367456534
 11
144.4633236637
 21
69.3417709065
  0
LINE
  5
2A0
100
AcDbEntity
  8
0
100
AcDbLine
 62
7
  6
CONTINUOUS
 10
132.760884752
 20
35.8057553957
 11
135.6476360979
 21
30.8057553957
  0
LINE
  5
2A1
100
AcDbEntity
  8
0
100
AcDbLine
 62
7
  6
CONTINUOUS
 10
76.617330973
 20
34.172505815
 11
76.617330973
 21
30.9190793129
  0
LINE
  5
2A2
100
AcDbEntity
  8
0
100
AcDbLine
 62
7
  6
CONTINUOUS
 10
76.6191640733
 20
285.3057668398
 11
76.6191640733
 21
278.9660082052
  0
LINE
  5
2A3
100
AcDbEntity
  8
0
100
AcDbLine
 62
7
  6
CONTINUOUS
 10
78.976333406
 20
38.5057553957
 11
78.976333406
 21
40.5023828934
  0
LINE
  5
2A4
100
AcDbEntity
  8
0
100
AcDbLine
 62
7
  6
CONTINUOUS
 10
78.976333406
 20
269.1091056199
 11
78.976333406
 21
271.1057553957
  0
LINE
  5
2A5
100
AcDbEntity
  8
0
100
AcDbLine
 62
7
  6
CONTINUOUS
 10
83.6188853023
 20
30.7615925411
 11
83.6188853023
 21
34.1733270178
  0
LINE
  5
2A6
100
AcDbEntity
  8
0
100
AcDbLine
 62
7
  6
CONTINUOUS
 10
83.6191652206
 20
278.8057611177
 11
83.6191652206
 21
285.3057668398
  0
LINE
  5
2A7
100
AcDbEntity
  8
0
100
AcDbLine
 62
7
  6
CONTINUOUS
 10
47.6617339534
 20
61.169007787
 11
47.3673374856
 21
60.3157416771
  0
LINE
  5
2A8
100
AcDbEntity
  8
0
100
AcDbLine
 62
7
  6
CONTINUOUS
 10
85.8710026381
 20
24.3057296465
 11
85.8710026381
 21
30.8075831125
  0
LINE
  5
2A9
100
AcDbEntity
  8
0
100
AcDbLine
 62
7
  6
CONTINUOUS
 10
85.8710026381
 20
278.8039068545
 11
85.8710026381
 21
285.3057409956
  0
LINE
  5
2AA
100
AcDbEntity
  8
0
100
AcDbLine
 62
7
  6
CONTINUOUS
 10
47.117333406
 20
130.5788546975
 11
47.367337483
 21
130.5788546975
  0
LINE
  5
2AB
100
AcDbEntity
  8
0
100
AcDbLine
 62
7
  6
CONTINUOUS
 10
47.367337483
 20
132.502391169
 11
47.117333406
 21
132.502391169
  0
LINE
  5
2AC
100
AcDbEntity
  8
0
100
AcDbLine
 62
7
  6
CONTINUOUS
 10
47.3673374856
 20
249.3057423125
 11
47.9496227083
 21
248.0131712689
  0
LINE
  5
2AD
100
AcDbEntity
  8
0
100
AcDbLine
 62
7
  6
CONTINUOUS
 10
99.784333406
 20
76.8057553957
 11
99.784333406
 21
63.6197201237
  0
LINE
  5
2AE
100
AcDbEntity
  8
0
100
AcDbLine
 62
7
  6
CONTINUOUS
 10
99.784333406
 20
63.5957405756
 11
99.784333406
 21
62.8157392929
  0
LINE
  5
2AF
100
AcDbEntity
  8
0
100
AcDbLine
 62
7
  6
CONTINUOUS
 10
102.287333406
 20
62.8157392929
 11
102.287333406
 21
63.5957405756
  0
LINE
  5
2B0
100
AcDbEntity
  8
0
100
AcDbLine
 62
7
  6
CONTINUOUS
 10
102.287333406
 20
63.6197162913
 11
102.287333406
 21
76.8057553957
  0
LINE
  5
2B1
100
AcDbEntity
  8
0
100
AcDbLine
 62
7
  6
CONTINUOUS
 10
107.917433406
 20
38.5057553957
 11
107.917433406
 21
40.5023828934
  0
LINE
  5
2B2
100
AcDbEntity
  8
0
100
AcDbLine
 62
7
  6
CONTINUOUS
 10
107.917433406
 20
269.1091056199
 11
107.917433406
 21
271.1057553957
  0
LINE
  5
2B3
100
AcDbEntity
  8
0
100
AcDbLine
 62
7
  6
CONTINUOUS
 10
114.3700859988
 20
25.8960709761
 11
114.3700859988
 21
24.3057296465
  0
LINE
  5
2B4
100
AcDbEntity
  8
0
100
AcDbLine
 62
7
  6
CONTINUOUS
 10
117.771833406
 20
38.5057553957
 11
117.771833406
 21
40.5023828934
  0
LINE
  5
2B5
100
AcDbEntity
  8
0
100
AcDbLine
 62
7
  6
CONTINUOUS
 10
117.771833406
 20
269.1091056199
 11
117.771833406
 21
271.1057553957
  0
LINE
  5
2B6
100
AcDbEntity
  8
0
100
AcDbLine
 62
7
  6
CONTINUOUS
 10
120.3700862838
 20
24.3057296465
 11
120.3700862838
 21
25.8960709761
  0
LINE
  5
2B7
100
AcDbEntity
  8
0
100
AcDbLine
 62
7
  6
CONTINUOUS
 10
127.687333406
 20
76.8057553957
 11
127.687333406
 21
63.6197201237
  0
LINE
  5
2B8
100
AcDbEntity
  8
0
100
AcDbLine
 62
7
  6
CONTINUOUS
 10
127.687333406
 20
63.5957405756
 11
127.687333406
 21
62.8157392929
  0
LINE
  5
2B9
100
AcDbEntity
  8
0
100
AcDbLine
 62
7
  6
CONTINUOUS
 10
130.172333406
 20
62.8157392929
 11
130.172333406
 21
63.5957405756
  0
LINE
  5
2BA
100
AcDbEntity
  8
0
100
AcDbLine
 62
7
  6
CONTINUOUS
 10
130.172333406
 20
63.6197162913
 11
130.172333406
 21
76.8057553957
  0
LINE
  5
2BB
100
AcDbEntity
  8
0
100
AcDbLine
 62
7
  6
CONTINUOUS
 10
176.7848960641
 20
248.01317121
 11
177.3483760241
 21
249.2639860924
  0
LINE
  5
2BC
100
AcDbEntity
  8
0
100
AcDbLine
 62
7
  6
CONTINUOUS
 10
138.8691691695
 20
285.3057409956
 11
138.8691688965
 21
278.80390695
  0
LINE
  5
2BD
100
AcDbEntity
  8
0
100
AcDbLine
 62
7
  6
CONTINUOUS
 10
138.8691691695
 20
30.8075831114
 11
138.8691691695
 21
24.3057296465
  0
LINE
  5
2BE
100
AcDbEntity
  8
0
100
AcDbLine
 62
7
  6
CONTINUOUS
 10
141.6154960034
 20
285.3057668398
 11
141.6154960034
 21
278.8057611177
  0
LINE
  5
2BF
100
AcDbEntity
  8
0
100
AcDbLine
 62
7
  6
CONTINUOUS
 10
141.617330973
 20
34.172505815
 11
141.617330973
 21
30.9190793129
  0
LINE
  5
2C0
100
AcDbEntity
  8
0
100
AcDbLine
 62
7
  6
CONTINUOUS
 10
60.0932431483
 20
67.1497398848
 11
62.7802489168
 21
69.8367456534
  0
LINE
  5
2C1
100
AcDbEntity
  8
0
100
AcDbLine
 62
7
  6
CONTINUOUS
 10
63.2752236637
 20
69.3417709065
 11
60.5882178952
 21
66.654765138
  0
LINE
  5
2C2
100
AcDbEntity
  8
0
100
AcDbLine
 62
7
  6
CONTINUOUS
 10
65.1732431483
 20
67.1497398848
 11
67.8602489168
 21
69.8367456534
  0
LINE
  5
2C3
100
AcDbEntity
  8
0
100
AcDbLine
 62
7
  6
CONTINUOUS
 10
68.3552236637
 20
69.3417709065
 11
65.6682178952
 21
66.654765138
  0
LINE
  5
2C4
100
AcDbEntity
  8
0
100
AcDbLine
 62
7
  6
CONTINUOUS
 10
177.3483760241
 20
60.3702614987
 11
177.072601661
 21
61.1695465728
  0
LINE
  5
2C5
100
AcDbEntity
  8
0
100
AcDbLine
 62
7
  6
CONTINUOUS
 10
150.8691674111
 20
24.3057296465
 11
150.8667267053
 21
30.9787491633
  0
LINE
  5
2C6
100
AcDbEntity
  8
0
100
AcDbLine
 62
7
  6
CONTINUOUS
 10
145.412333406
 20
76.8057553957
 11
145.412333406
 21
63.6197201237
  0
LINE
  5
2C7
100
AcDbEntity
  8
0
100
AcDbLine
 62
7
  6
CONTINUOUS
 10
145.412333406
 20
63.5957405756
 11
145.412333406
 21
62.8157392929
  0
LINE
  5
2C8
100
AcDbEntity
  8
0
100
AcDbLine
 62
7
  6
CONTINUOUS
 10
146.712933406
 20
38.5057553957
 11
146.712933406
 21
40.5023828934
  0
LINE
  5
2C9
100
AcDbEntity
  8
0
100
AcDbLine
 62
7
  6
CONTINUOUS
 10
146.712933406
 20
269.1091056199
 11
146.712933406
 21
271.1057553957
  0
LINE
  5
2CA
100
AcDbEntity
  8
0
100
AcDbLine
 62
7
  6
CONTINUOUS
 10
148.6154952882
 20
278.9660082052
 11
148.6154952882
 21
285.3057668398
  0
LINE
  5
2CB
100
AcDbEntity
  8
0
100
AcDbLine
 62
7
  6
CONTINUOUS
 10
148.6188853023
 20
30.7615925411
 11
148.6188853023
 21
34.1733270178
  0
LINE
  5
2CC
100
AcDbEntity
  8
0
100
AcDbLine
 62
7
  6
CONTINUOUS
 10
149.004433406
 20
73.8157553957
 11
149.004433406
 21
76.8057553957
  0
LINE
  5
2CD
100
AcDbEntity
  8
0
100
AcDbLine
 62
7
  6
CONTINUOUS
 10
150.8691674111
 20
278.8045187334
 11
150.8691674111
 21
285.3075752354
  0
LINE
  5
2CE
100
AcDbEntity
  8
0
100
AcDbLine
 62
7
  6
CONTINUOUS
 10
70.2532431483
 20
67.1497398848
 11
72.9402489168
 21
69.8367456534
  0
LINE
  5
2CF
100
AcDbEntity
  8
0
100
AcDbLine
 62
7
  6
CONTINUOUS
 10
73.4352236637
 20
69.3417709065
 11
70.7482178952
 21
66.654765138
  0
LINE
  5
2D0
100
AcDbEntity
  8
0
100
AcDbLine
 62
7
  6
CONTINUOUS
 10
75.3332431483
 20
67.1497398848
 11
78.0202489168
 21
69.8367456534
  0
LINE
  5
2D1
100
AcDbEntity
  8
0
100
AcDbLine
 62
7
  6
CONTINUOUS
 10
78.5152236637
 20
69.3417709065
 11
75.8282178952
 21
66.654765138
  0
LINE
  5
2D2
100
AcDbEntity
  8
0
100
AcDbLine
 62
7
  6
CONTINUOUS
 10
80.4132431483
 20
67.1497398848
 11
83.1002489168
 21
69.8367456534
  0
LINE
  5
2D3
100
AcDbEntity
  8
0
100
AcDbLine
 62
7
  6
CONTINUOUS
 10
83.5952236637
 20
69.3417709065
 11
80.9082178952
 21
66.654765138
  0
LINE
  5
2D4
100
AcDbEntity
  8
0
100
AcDbLine
 62
7
  6
CONTINUOUS
 10
155.6173321877
 20
273.5017349479
 11
155.6173321877
 21
271.1057553957
  0
LINE
  5
2D5
100
AcDbEntity
  8
0
100
AcDbLine
 62
7
  6
CONTINUOUS
 10
156.567333406
 20
38.5057553957
 11
156.567333406
 21
40.5023828934
  0
LINE
  5
2D6
100
AcDbEntity
  8
0
100
AcDbLine
 62
7
  6
CONTINUOUS
 10
156.567333406
 20
269.1091056199
 11
156.567333406
 21
271.1057553957
  0
LINE
  5
2D7
100
AcDbEntity
  8
0
100
AcDbLine
 62
7
  6
CONTINUOUS
 10
158.8673358796
 20
280.6924171599
 11
158.8673358796
 21
277.4389902914
  0
LINE
  5
2D8
100
AcDbEntity
  8
0
100
AcDbLine
 62
7
  6
CONTINUOUS
 10
158.8691687224
 20
30.9190736006
 11
158.8691687224
 21
24.3057296465
  0
LINE
  5
2D9
100
AcDbEntity
  8
0
100
AcDbLine
 62
7
  6
CONTINUOUS
 10
85.4932431483
 20
67.1497398848
 11
88.1802489168
 21
69.8367456534
  0
LINE
  5
2DA
100
AcDbEntity
  8
0
100
AcDbLine
 62
7
  6
CONTINUOUS
 10
88.6752236637
 20
69.3417709065
 11
85.9882178952
 21
66.654765138
  0
LINE
  5
2DB
100
AcDbEntity
  8
0
100
AcDbLine
 62
7
  6
CONTINUOUS
 10
90.5732431483
 20
67.1497398848
 11
93.2602489168
 21
69.8367456534
  0
LINE
  5
2DC
100
AcDbEntity
  8
0
100
AcDbLine
 62
7
  6
CONTINUOUS
 10
93.7552236637
 20
69.3417709065
 11
91.0682178952
 21
66.654765138
  0
LINE
  5
2DD
100
AcDbEntity
  8
0
100
AcDbLine
 62
7
  6
CONTINUOUS
 10
95.6532431483
 20
67.1497398848
 11
98.3402489168
 21
69.8367456534
  0
LINE
  5
2DE
100
AcDbEntity
  8
0
100
AcDbLine
 62
7
  6
CONTINUOUS
 10
98.8352236637
 20
69.3417709065
 11
96.1482178952
 21
66.654765138
  0
LINE
  5
2DF
100
AcDbEntity
  8
0
100
AcDbLine
 62
7
  6
CONTINUOUS
 10
92.9873820601
 20
273.8057553957
 11
90.1006307141
 21
278.8057553957
  0
LINE
  5
2E0
100
AcDbEntity
  8
0
100
AcDbLine
 62
7
  6
CONTINUOUS
 10
165.404433406
 20
73.8157553957
 11
165.404433406
 21
76.8057553957
  0
LINE
  5
2E1
100
AcDbEntity
  8
0
100
AcDbLine
 62
7
  6
CONTINUOUS
 10
165.8673347769
 20
277.4389906713
 11
165.8673347775
 21
280.9190650278
  0
LINE
  5
2E2
100
AcDbEntity
  8
0
100
AcDbLine
 62
7
  6
CONTINUOUS
 10
165.8691680072
 20
24.3057296465
 11
165.8691680072
 21
30.6924269388
  0
LINE
  5
2E3
100
AcDbEntity
  8
0
100
AcDbLine
 62
7
  6
CONTINUOUS
 10
168.0673313973
 20
76.8057553957
 11
168.0673313973
 21
61.0240167372
  0
LINE
  5
2E4
100
AcDbEntity
  8
0
100
AcDbLine
 62
7
  6
CONTINUOUS
 10
168.1308272431
 20
76.8057553957
 11
168.1308272431
 21
61.2629428236
  0
LINE
  5
2E5
100
AcDbEntity
  8
0
100
AcDbLine
 62
7
  6
CONTINUOUS
 10
168.8759063072
 20
40.5023828934
 11
168.8759063072
 21
44.3057553957
  0
LINE
  5
2E6
100
AcDbEntity
  8
0
100
AcDbLine
 62
7
  6
CONTINUOUS
 10
168.8759063072
 20
265.3057553957
 11
168.8759063072
 21
269.1091053422
  0
LINE
  5
2E7
100
AcDbEntity
  8
0
100
AcDbLine
 62
7
  6
CONTINUOUS
 10
170.8673303662
 20
40.5023828934
 11
170.8673303662
 21
40.8057553957
  0
LINE
  5
2E8
100
AcDbEntity
  8
0
100
AcDbLine
 62
7
  6
CONTINUOUS
 10
170.8673303662
 20
268.4057553957
 11
170.8673303662
 21
269.1091054502
  0
LINE
  5
2E9
100
AcDbEntity
  8
0
100
AcDbLine
 62
7
  6
CONTINUOUS
 10
56.8710034726
 20
22.3057553957
 11
58.8710038004
 21
24.3057296465
  0
LINE
  5
2EA
100
AcDbEntity
  8
0
100
AcDbLine
 62
7
  6
CONTINUOUS
 10
103.2273431483
 20
67.1497398848
 11
105.9143489168
 21
69.8367456534
  0
LINE
  5
2EB
100
AcDbEntity
  8
0
100
AcDbLine
 62
7
  6
CONTINUOUS
 10
106.4093236637
 20
69.3417709065
 11
103.7223178952
 21
66.654765138
  0
LINE
  5
2EC
100
AcDbEntity
  8
0
100
AcDbLine
 62
7
  6
CONTINUOUS
 10
108.3073431483
 20
67.1497398848
 11
110.9943489168
 21
69.8367456534
  0
LINE
  5
2ED
100
AcDbEntity
  8
0
100
AcDbLine
 62
7
  6
CONTINUOUS
 10
111.4893236637
 20
69.3417709065
 11
108.8023178952
 21
66.654765138
  0
LINE
  5
2EE
100
AcDbEntity
  8
0
100
AcDbLine
 62
7
  6
CONTINUOUS
 10
47.117333406
 20
213.3057553956
 11
47.367337483
 21
213.3057553956
  0
LINE
  5
2EF
100
AcDbEntity
  8
0
100
AcDbLine
 62
7
  6
CONTINUOUS
 10
47.367337483
 20
214.3057553956
 11
47.117333406
 21
214.3057553956
  0
LINE
  5
2F0
100
AcDbEntity
  8
0
100
AcDbLine
 62
7
  6
CONTINUOUS
 10
98.760884752
 20
283.8057553957
 11
101.6476360979
 21
278.8057553957
  0
LINE
  5
2F1
100
AcDbEntity
  8
0
100
AcDbLine
 62
7
  6
CONTINUOUS
 10
174.3672358317
 20
266.4051758368
 11
174.3672358317
 21
265.3057553957
  0
LINE
  5
2F2
100
AcDbEntity
  8
0
100
AcDbLine
 62
7
  6
CONTINUOUS
 10
174.3672358317
 20
42.8063349546
 11
174.3672358317
 21
44.3057553957
  0
LINE
  5
2F3
100
AcDbEntity
  8
0
100
AcDbLine
 62
7
  6
CONTINUOUS
 10
174.5946881301
 20
265.3057553957
 11
174.5946881301
 21
249.8057396005
  0
LINE
  5
2F4
100
AcDbEntity
  8
0
100
AcDbLine
 62
7
  6
CONTINUOUS
 10
175.0599404525
 20
265.3057553957
 11
175.0599404525
 21
249.8057396005
  0
LINE
  5
2F5
100
AcDbEntity
  8
0
100
AcDbLine
 62
7
  6
CONTINUOUS
 10
175.0673310218
 20
287.3057410906
 11
175.0673310218
 21
269.1091054502
  0
LINE
  5
2F6
100
AcDbEntity
  8
0
100
AcDbLine
 62
7
  6
CONTINUOUS
 10
175.0673310218
 20
40.5023828934
 11
175.0673310218
 21
22.3057553957
  0
LINE
  5
2F7
100
AcDbEntity
  8
0
100
AcDbLine
 62
7
  6
CONTINUOUS
 10
175.8673330484
 20
22.3057553957
 11
175.8673330484
 21
40.5023828934
  0
LINE
  5
2F8
100
AcDbEntity
  8
0
100
AcDbLine
 62
7
  6
CONTINUOUS
 10
175.8673330484
 20
269.1091054502
 11
175.8673330484
 21
287.3057410906
  0
LINE
  5
2F9
100
AcDbEntity
  8
0
100
AcDbLine
 62
7
  6
CONTINUOUS
 10
175.9001941858
 20
247.9753572988
 11
175.9001941858
 21
76.8057553957
  0
LINE
  5
2FA
100
AcDbEntity
  8
0
100
AcDbLine
 62
7
  6
CONTINUOUS
 10
176.2179689775
 20
76.8057553957
 11
176.2179689775
 21
61.2178901049
  0
LINE
  5
2FB
100
AcDbEntity
  8
0
100
AcDbLine
 62
7
  6
CONTINUOUS
 10
176.7848960641
 20
76.8057553957
 11
176.7848960641
 21
248.01317121
  0
LINE
  5
2FC
100
AcDbEntity
  8
0
100
AcDbLine
 62
7
  6
CONTINUOUS
 10
177.072601661
 20
61.1695465728
 11
177.072601661
 21
76.8057553957
  0
LINE
  5
2FD
100
AcDbEntity
  8
0
100
AcDbLine
 62
7
  6
CONTINUOUS
 10
177.2277904874
 20
59.8057345341
 11
177.2277904874
 21
44.3057553957
  0
LINE
  5
2FE
100
AcDbEntity
  8
0
100
AcDbLine
 62
7
  6
CONTINUOUS
 10
177.3483760241
 20
249.2639860924
 11
177.3483760241
 21
60.3702614987
  0
LINE
  5
2FF
100
AcDbEntity
  8
0
100
AcDbLine
 62
7
  6
CONTINUOUS
 10
177.3671812895
 20
287.3057410906
 11
177.3671812895
 21
269.1091054502
  0
LINE
  5
300
100
AcDbEntity
  8
0
100
AcDbLine
 62
7
  6
CONTINUOUS
 10
177.3671812895
 20
40.5023828934
 11
177.3671812895
 21
22.3057553957
  0
LINE
  5
301
100
AcDbEntity
  8
0
100
AcDbLine
 62
7
  6
CONTINUOUS
 10
177.5137256286
 20
44.3057553957
 11
177.5137256286
 21
59.8057345341
  0
LINE
  5
302
100
AcDbEntity
  8
0
100
AcDbLine
 62
7
  6
CONTINUOUS
 10
177.5420425215
 20
249.2715351551
 11
177.5420425215
 21
60.360404918
  0
LINE
  5
303
100
AcDbEntity
  8
0
100
AcDbLine
 62
7
  6
CONTINUOUS
 10
177.5420425215
 20
59.8057345341
 11
177.5420425215
 21
44.3057553957
  0
LINE
  5
304
100
AcDbEntity
  8
0
100
AcDbLine
 62
7
  6
CONTINUOUS
 10
177.6173320196
 20
22.3057553957
 11
177.6173320196
 21
40.5023828934
  0
LINE
  5
305
100
AcDbEntity
  8
0
100
AcDbLine
 62
7
  6
CONTINUOUS
 10
177.6173320196
 20
269.1091057673
 11
177.6173320196
 21
287.3057553957
  0
LINE
  5
306
100
AcDbEntity
  8
0
100
AcDbLine
 62
7
  6
CONTINUOUS
 10
177.702147997
 20
44.3057553957
 11
177.702147997
 21
59.8057345341
  0
LINE
  5
307
100
AcDbEntity
  8
0
100
AcDbLine
 62
7
  6
CONTINUOUS
 10
177.7023780024
 20
249.8057396005
 11
177.7023780024
 21
265.3057553957
  0
LINE
  5
308
100
AcDbEntity
  8
0
100
AcDbLine
 62
7
  6
CONTINUOUS
 10
177.7035962373
 20
60.3409936275
 11
177.7035962373
 21
249.2864020804
  0
LINE
  5
309
100
AcDbEntity
  8
0
100
AcDbLine
 62
7
  6
CONTINUOUS
 10
177.7250139004
 20
59.8057345341
 11
177.7250139004
 21
60.3157416771
  0
LINE
  5
30A
100
AcDbEntity
  8
0
100
AcDbLine
 62
7
  6
CONTINUOUS
 10
177.7250139004
 20
249.3057423125
 11
177.7250139004
 21
249.8057396005
  0
LINE
  5
30B
100
AcDbEntity
  8
0
100
AcDbLine
 62
7
  6
CONTINUOUS
 10
177.8322763327
 20
265.3057553957
 11
177.8322763327
 21
44.3057553957
  0
LINE
  5
30C
100
AcDbEntity
  8
0
100
AcDbLine
 62
7
  6
CONTINUOUS
 10
177.8673195259
 20
40.5023828934
 11
177.8673195259
 21
269.1091054502
  0
LINE
  5
30D
100
AcDbEntity
  8
0
100
AcDbLine
 62
7
  6
CONTINUOUS
 10
178.867333406
 20
181.2993680595
 11
178.867333406
 21
179.2573427318
  0
LINE
  5
30E
100
AcDbEntity
  8
0
100
AcDbLine
 62
7
  6
CONTINUOUS
 10
178.867333406
 20
95.2993680595
 11
178.867333406
 21
93.2573427318
  0
LINE
  5
30F
100
AcDbEntity
  8
0
100
AcDbLine
 62
7
  6
CONTINUOUS
 10
67.6190322129
 20
22.3057553957
 11
67.745017774
 21
22.4317409957
  0
LINE
  5
310
100
AcDbEntity
  8
0
100
AcDbLine
 62
7
  6
CONTINUOUS
 10
113.3873431483
 20
67.1497398848
 11
116.0743489168
 21
69.8367456534
  0
LINE
  5
311
100
AcDbEntity
  8
0
100
AcDbLine
 62
7
  6
CONTINUOUS
 10
116.5693236637
 20
69.3417709065
 11
113.8823178952
 21
66.654765138
  0
LINE
  5
312
100
AcDbEntity
  8
0
100
AcDbLine
 62
7
  6
CONTINUOUS
 10
71.8710040686
 20
22.3057553957
 11
73.8710043965
 21
24.3057296465
  0
LINE
  5
313
100
AcDbEntity
  8
0
100
AcDbLine
 62
7
  6
CONTINUOUS
 10
118.4673431483
 20
67.1497398848
 11
121.1543489168
 21
69.8367456534
  0
LINE
  5
314
100
AcDbEntity
  8
0
100
AcDbLine
 62
7
  6
CONTINUOUS
 10
121.6493236637
 20
69.3417709065
 11
118.9623178952
 21
66.654765138
  0
LINE
  5
315
100
AcDbEntity
  8
0
100
AcDbLine
 62
7
  6
CONTINUOUS
 10
123.5473431483
 20
67.1497398848
 11
126.2343489168
 21
69.8367456534
  0
LINE
  5
316
100
AcDbEntity
  8
0
100
AcDbLine
 62
7
  6
CONTINUOUS
 10
126.7293236637
 20
69.3417709065
 11
124.0423178952
 21
66.654765138
  0
LINE
  5
317
100
AcDbEntity
  8
0
100
AcDbLine
 62
7
  6
CONTINUOUS
 10
73.8691678284
 20
285.3057409956
 11
71.8691675005
 21
287.3057410906
  0
LINE
  5
318
100
AcDbEntity
  8
0
100
AcDbLine
 62
7
  6
CONTINUOUS
 10
76.6191640733
 20
285.3057668398
 11
74.6191494401
 21
287.3057553957
  0
LINE
  5
319
100
AcDbEntity
  8
0
100
AcDbLine
 62
7
  6
CONTINUOUS
 10
124.1006307141
 20
30.8057553957
 11
126.9873820601
 21
35.8057553957
  0
LINE
  5
31A
100
AcDbEntity
  8
0
100
AcDbLine
 62
7
  6
CONTINUOUS
 10
131.1213431483
 20
67.1497398848
 11
133.8083489168
 21
69.8367456534
  0
LINE
  5
31B
100
AcDbEntity
  8
0
100
AcDbLine
 62
7
  6
CONTINUOUS
 10
134.3033236637
 20
69.3417709065
 11
131.6163178952
 21
66.654765138
  0
LINE
  5
31C
100
AcDbEntity
  8
0
100
AcDbLine
 62
7
  6
CONTINUOUS
 10
136.2013431483
 20
67.1497398848
 11
138.8883489168
 21
69.8367456534
  0
LINE
  5
31D
100
AcDbEntity
  8
0
100
AcDbLine
 62
7
  6
CONTINUOUS
 10
139.3833236637
 20
69.3417709065
 11
136.6963178952
 21
66.654765138
  0
LINE
  5
31E
100
AcDbEntity
  8
0
100
AcDbLine
 62
7
  6
CONTINUOUS
 10
168.0673313973
 20
61.0240167372
 11
168.1330604194
 21
61.2145261259
  0
LINE
  5
31F
100
AcDbEntity
  8
0
100
AcDbLine
 62
7
  6
CONTINUOUS
 10
135.6476360979
 20
30.8057553957
 11
132.760884752
 21
25.8057553957
  0
LINE
  5
320
100
AcDbEntity
  8
0
100
AcDbLine
 62
7
  6
CONTINUOUS
 10
141.2813431483
 20
67.1497398848
 11
143.9683489168
 21
69.8367456534
  0
LINE
  5
321
100
AcDbEntity
  8
0
100
AcDbLine
 62
7
  6
CONTINUOUS
 10
144.4633236637
 20
69.3417709065
 11
141.7763178952
 21
66.654765138
  0
LINE
  5
322
100
AcDbEntity
  8
0
100
AcDbLine
 62
7
  6
CONTINUOUS
 10
112.3700859797
 20
22.3057553957
 11
114.3700859988
 21
24.3057296465
  0
LINE
  5
323
100
AcDbEntity
  8
0
100
AcDbLine
 62
7
  6
CONTINUOUS
 10
177.3483760241
 20
249.2639860924
 11
177.5420425215
 21
249.2715351551
  0
LINE
  5
324
100
AcDbEntity
  8
0
100
AcDbLine
 62
7
  6
CONTINUOUS
 10
47.117333406
 20
246.3057553956
 11
47.367337483
 21
246.3057553956
  0
LINE
  5
325
100
AcDbEntity
  8
0
100
AcDbLine
 62
7
  6
CONTINUOUS
 10
47.367337483
 20
247.3057553956
 11
47.117333406
 21
247.3057553956
  0
LINE
  5
326
100
AcDbEntity
  8
0
100
AcDbLine
 62
7
  6
CONTINUOUS
 10
70.829802715
 20
248.2289083198
 11
153.805932148
 21
248.2289083198
  0
LINE
  5
327
100
AcDbEntity
  8
0
100
AcDbLine
 62
7
  6
CONTINUOUS
 10
177.7250139004
 20
249.3057423125
 11
47.3673374856
 21
249.3057423125
  0
LINE
  5
328
100
AcDbEntity
  8
0
100
AcDbLine
 62
7
  6
CONTINUOUS
 10
47.3871014907
 20
249.8057396005
 11
177.7023780024
 21
249.8057396005
  0
LINE
  5
329
100
AcDbEntity
  8
0
100
AcDbLine
 62
7
  6
CONTINUOUS
 10
136.8691688416
 20
22.3057553957
 11
138.8691691695
 21
24.3057296465
  0
LINE
  5
32A
100
AcDbEntity
  8
0
100
AcDbLine
 62
7
  6
CONTINUOUS
 10
47.3871014907
 20
265.3057553957
 11
56.3587605048
 21
265.3057553957
  0
LINE
  5
32B
100
AcDbEntity
  8
0
100
AcDbLine
 62
7
  6
CONTINUOUS
 10
168.8759063072
 20
265.3057553957
 11
177.8673177581
 21
265.3057553957
  0
LINE
  5
32C
100
AcDbEntity
  8
0
100
AcDbLine
 62
7
  6
CONTINUOUS
 10
50.3674309803
 20
266.4051758368
 11
56.3587605048
 21
266.4051758368
  0
LINE
  5
32D
100
AcDbEntity
  8
0
100
AcDbLine
 62
7
  6
CONTINUOUS
 10
168.8759063072
 20
266.4051758368
 11
174.3672358317
 21
266.4051758368
  0
LINE
  5
32E
100
AcDbEntity
  8
0
100
AcDbLine
 62
7
  6
CONTINUOUS
 10
52.3673821438
 20
268.4057553957
 11
56.3672846682
 21
268.4057553957
  0
LINE
  5
32F
100
AcDbEntity
  8
0
100
AcDbLine
 62
7
  6
CONTINUOUS
 10
168.8759063072
 20
268.4057553957
 11
172.3672846682
 21
268.4057553957
  0
LINE
  5
330
100
AcDbEntity
  8
0
100
AcDbLine
 62
7
  6
CONTINUOUS
 10
47.367337483
 20
269.1091054502
 11
177.8673195259
 21
269.1091054502
  0
LINE
  5
331
100
AcDbEntity
  8
0
100
AcDbLine
 62
7
  6
CONTINUOUS
 10
156.567333406
 20
271.1057553957
 11
146.712933406
 21
271.1057553957
  0
LINE
  5
332
100
AcDbEntity
  8
0
100
AcDbLine
 62
7
  6
CONTINUOUS
 10
117.771833406
 20
271.1057553957
 11
107.917433406
 21
271.1057553957
  0
LINE
  5
333
100
AcDbEntity
  8
0
100
AcDbLine
 62
7
  6
CONTINUOUS
 10
78.976333406
 20
271.1057553957
 11
69.121933406
 21
271.1057553957
  0
LINE
  5
334
100
AcDbEntity
  8
0
100
AcDbLine
 62
7
  6
CONTINUOUS
 10
98.760884752
 20
273.8057553957
 11
92.9873820601
 21
273.8057553957
  0
LINE
  5
335
100
AcDbEntity
  8
0
100
AcDbLine
 62
7
  6
CONTINUOUS
 10
138.8691691695
 20
285.3057409956
 11
136.8691688416
 21
287.3057410906
  0
LINE
  5
336
100
AcDbEntity
  8
0
100
AcDbLine
 62
7
  6
CONTINUOUS
 10
141.6154960034
 20
285.3057668398
 11
139.615483233
 21
287.3057553957
  0
LINE
  5
337
100
AcDbEntity
  8
0
100
AcDbLine
 62
7
  6
CONTINUOUS
 10
156.8691683946
 20
22.3057553957
 11
158.8691687224
 21
24.3057296465
  0
LINE
  5
338
100
AcDbEntity
  8
0
100
AcDbLine
 62
7
  6
CONTINUOUS
 10
92.9873820601
 20
283.8057553957
 11
98.760884752
 21
283.8057553957
  0
LINE
  5
339
100
AcDbEntity
  8
0
100
AcDbLine
 62
7
  6
CONTINUOUS
 10
177.3671812895
 20
285.3654561185
 11
175.8673330484
 21
285.3654561185
  0
LINE
  5
33A
100
AcDbEntity
  8
0
100
AcDbLine
 62
7
  6
CONTINUOUS
 10
48.8673289953
 20
285.3654561185
 11
47.367337483
 21
285.3654561185
  0
LINE
  5
33B
100
AcDbEntity
  8
0
100
AcDbLine
 62
7
  6
CONTINUOUS
 10
139.615483233
 20
287.3057553957
 11
85.6191798538
 21
287.3057553957
  0
LINE
  5
33C
100
AcDbEntity
  8
0
100
AcDbLine
 62
7
  6
CONTINUOUS
 10
74.6191494401
 20
287.3057553957
 11
47.367337483
 21
287.3057410906
  0
LINE
  5
33D
100
AcDbEntity
  8
0
100
AcDbLine
 62
7
  6
CONTINUOUS
 10
150.6155099213
 20
287.3057553957
 11
177.6173320196
 21
287.3057553957
  0
ARC
  5
33E
100
AcDbEntity
  8
0
100
AcDbCircle
 62
7
  6
CONTINUOUS
 10
80.1173301809
 20
40.8057555918
 40
7.4999998038
100
AcDbArc
 50
297.8315735231
 51
303.0283220267
  0
ARC
  5
33F
100
AcDbEntity
  8
0
100
AcDbCircle
 62
7
  6
CONTINUOUS
 10
80.1173301809
 20
40.8057555918
 40
7.4999998038
100
AcDbArc
 50
234.5824218903
 51
242.1818667661
  0
ARC
  5
340
100
AcDbEntity
  8
0
100
AcDbCircle
 62
7
  6
CONTINUOUS
 10
79.8710028325
 20
30.80757473
 40
5.9999998056
100
AcDbArc
 50
0.0000000004
 51
177.6718917475
  0
ARC
  5
341
100
AcDbEntity
  8
0
100
AcDbCircle
 62
7
  6
CONTINUOUS
 10
62.617333406
 20
30.8057553957
 40
5.9999991208
100
AcDbArc
 50
229.8480294826
 51
303.4934150062
  0
ARC
  5
342
100
AcDbEntity
  8
0
100
AcDbCircle
 62
7
  6
CONTINUOUS
 10
62.617333406
 20
30.8057553957
 40
4.9999970943
100
AcDbArc
 50
223.4954328129
 51
308.2810995676
  0
ARC
  5
343
100
AcDbEntity
  8
0
100
AcDbCircle
 62
7
  6
CONTINUOUS
 10
62.617333406
 20
30.8057553957
 40
4.8999986846
100
AcDbArc
 50
218.3164760408
 51
313.4428697973
  0
ARC
  5
344
100
AcDbEntity
  8
0
100
AcDbCircle
 62
7
  6
CONTINUOUS
 10
62.617333406
 20
30.8057553957
 40
4.3999986846
100
AcDbArc
 50
211.1950450938
 51
319.603584383
  0
CIRCLE
  5
345
100
AcDbEntity
  8
0
100
AcDbCircle
 62
7
  6
CONTINUOUS
 10
73.617333406
 20
50.1057553957
 40
3.8
  0
ARC
  5
346
100
AcDbEntity
  8
0
100
AcDbCircle
 62
7
  6
CONTINUOUS
 10
62.3691689121
 20
30.8057410906
 40
3.5018341352
100
AcDbArc
 50
0.0
 51
182.6227592624
  0
ARC
  5
347
100
AcDbEntity
  8
0
100
AcDbCircle
 62
7
  6
CONTINUOUS
 10
77.3691689124
 20
30.8057410906
 40
3.5018341355
100
AcDbArc
 50
175.978843715
 51
182.6227592559
  0
ARC
  5
348
100
AcDbEntity
  8
0
100
AcDbCircle
 62
7
  6
CONTINUOUS
 10
80.1173302994
 20
30.8057547581
 40
3.5018334826
100
AcDbArc
 50
178.1454993239
 51
359.277414036
  0
CIRCLE
  5
349
100
AcDbEntity
  8
0
100
AcDbCircle
 62
7
  6
CONTINUOUS
 10
76.924233406
 20
68.2457553957
 40
2.0
  0
CIRCLE
  5
34A
100
AcDbEntity
  8
0
100
AcDbCircle
 62
7
  6
CONTINUOUS
 10
71.844233406
 20
68.2457553957
 40
2.0
  0
CIRCLE
  5
34B
100
AcDbEntity
  8
0
100
AcDbCircle
 62
7
  6
CONTINUOUS
 10
66.764233406
 20
68.2457553957
 40
2.0
  0
CIRCLE
  5
34C
100
AcDbEntity
  8
0
100
AcDbCircle
 62
7
  6
CONTINUOUS
 10
61.684233406
 20
68.2457553957
 40
2.0
  0
ARC
  5
34D
100
AcDbEntity
  8
0
100
AcDbCircle
 62
7
  6
CONTINUOUS
 10
52.3673821438
 20
42.8057066579
 40
1.9999512622
100
AcDbArc
 50
179.9820001857
 51
270.0
  0
CIRCLE
  5
34E
100
AcDbEntity
  8
0
100
AcDbCircle
 62
7
  6
CONTINUOUS
 10
60.867333406
 20
102.8157553957
 40
2.7
  0
CIRCLE
  5
34F
100
AcDbEntity
  8
0
100
AcDbCircle
 62
7
  6
CONTINUOUS
 10
97.244233406
 20
68.2457553957
 40
2.0
  0
CIRCLE
  5
350
100
AcDbEntity
  8
0
100
AcDbCircle
 62
7
  6
CONTINUOUS
 10
92.164233406
 20
68.2457553957
 40
2.0
  0
CIRCLE
  5
351
100
AcDbEntity
  8
0
100
AcDbCircle
 62
7
  6
CONTINUOUS
 10
87.084233406
 20
68.2457553957
 40
2.0
  0
CIRCLE
  5
352
100
AcDbEntity
  8
0
100
AcDbCircle
 62
7
  6
CONTINUOUS
 10
82.004233406
 20
68.2457553957
 40
2.0
  0
CIRCLE
  5
353
100
AcDbEntity
  8
0
100
AcDbCircle
 62
7
  6
CONTINUOUS
 10
109.898333406
 20
68.2457553957
 40
2.0
  0
CIRCLE
  5
354
100
AcDbEntity
  8
0
100
AcDbCircle
 62
7
  6
CONTINUOUS
 10
104.818333406
 20
68.2457553957
 40
2.0
  0
ARC
  5
355
100
AcDbEntity
  8
0
100
AcDbCircle
 62
7
  6
CONTINUOUS
 10
94.297333406
 20
153.5157553957
 40
3.4999998472
100
AcDbArc
 50
124.5036248476
 51
235.60194125
  0
ARC
  5
356
100
AcDbEntity
  8
0
100
AcDbCircle
 62
7
  6
CONTINUOUS
 10
93.9068128855
 20
153.5743523834
 40
3.3464999401
100
AcDbArc
 50
241.6783078664
 51
276.715993437
  0
ARC
  5
357
100
AcDbEntity
  8
0
100
AcDbCircle
 62
7
  6
CONTINUOUS
 10
93.9068046908
 20
153.4571913524
 40
3.3464672119
100
AcDbArc
 50
83.2838326794
 51
118.3218374829
  0
ARC
  5
358
100
AcDbEntity
  8
0
100
AcDbCircle
 62
7
  6
CONTINUOUS
 10
-122.0717823181
 20
231.6266177802
 40
276.3768249875
100
AcDbArc
 50
341.5909840232
 51
3.4439002239
  0
ARC
  5
359
100
AcDbEntity
  8
0
100
AcDbCircle
 62
7
  6
CONTINUOUS
 10
64.8711431024
 20
167.4190719676
 40
78.7463957897
100
AcDbArc
 50
319.1202190086
 51
342.9630340819
  0
CIRCLE
  5
35A
100
AcDbEntity
  8
0
100
AcDbCircle
 62
7
  6
CONTINUOUS
 10
56.867333406
 20
239.8157553957
 40
4.0
  0
CIRCLE
  5
35B
100
AcDbEntity
  8
0
100
AcDbCircle
 62
7
  6
CONTINUOUS
 10
73.617333406
 20
259.5057553957
 40
3.8
  0
ARC
  5
35C
100
AcDbEntity
  8
0
100
AcDbCircle
 62
7
  6
CONTINUOUS
 10
62.5673356882
 20
270.8057421762
 40
7.4999986146
100
AcDbArc
 50
2.4706784797
 51
62.1818630023
  0
ARC
  5
35D
100
AcDbEntity
  8
0
100
AcDbCircle
 62
7
  6
CONTINUOUS
 10
62.5673356882
 20
270.8057421762
 40
7.4999986146
100
AcDbArc
 50
117.8181432158
 51
193.6135024126
  0
ARC
  5
35E
100
AcDbEntity
  8
0
100
AcDbCircle
 62
7
  6
CONTINUOUS
 10
62.617333406
 20
280.8057553957
 40
5.9999991208
100
AcDbArc
 50
223.8048531395
 51
315.4280776559
  0
ARC
  5
35F
100
AcDbEntity
  8
0
100
AcDbCircle
 62
7
  6
CONTINUOUS
 10
62.617333406
 20
280.8057553957
 40
4.9999970943
100
AcDbArc
 50
226.9025741155
 51
312.4837953824
  0
ARC
  5
360
100
AcDbEntity
  8
0
100
AcDbCircle
 62
7
  6
CONTINUOUS
 10
62.617333406
 20
280.8057553957
 40
4.8999986846
100
AcDbArc
 50
223.4675497305
 51
315.6961432908
  0
ARC
  5
361
100
AcDbEntity
  8
0
100
AcDbCircle
 62
7
  6
CONTINUOUS
 10
62.617333406
 20
280.8057553957
 40
4.3999986846
100
AcDbArc
 50
214.8501732904
 51
323.2781428424
  0
ARC
  5
362
100
AcDbEntity
  8
0
100
AcDbCircle
 62
7
  6
CONTINUOUS
 10
62.5673353102
 20
280.8057416589
 40
3.5018335849
100
AcDbArc
 50
1.8544812067
 51
181.8544997085
  0
ARC
  5
363
100
AcDbEntity
  8
0
100
AcDbCircle
 62
7
  6
CONTINUOUS
 10
52.3673821438
 20
266.4058041335
 40
1.9999512622
100
AcDbArc
 50
90.0
 51
180.0179998143
  0
CIRCLE
  5
364
100
AcDbEntity
  8
0
100
AcDbCircle
 62
7
  6
CONTINUOUS
 10
95.874133406
 20
278.8057553957
 40
7.0
  0
ARC
  5
365
100
AcDbEntity
  8
0
100
AcDbCircle
 62
7
  6
CONTINUOUS
 10
79.8690176661
 20
278.8058919273
 40
6.0019853003
100
AcDbArc
 50
178.4715578068
 51
359.9999782833
  0
CIRCLE
  5
366
100
AcDbEntity
  8
0
100
AcDbCircle
 62
7
  6
CONTINUOUS
 10
95.874133406
 20
278.8057553957
 40
5.0
  0
ARC
  5
367
100
AcDbEntity
  8
0
100
AcDbCircle
 62
7
  6
CONTINUOUS
 10
80.1173303108
 20
278.8057561857
 40
3.5018349098
100
AcDbArc
 50
177.3770973327
 51
359.9999999996
  0
CIRCLE
  5
368
100
AcDbEntity
  8
0
100
AcDbCircle
 62
7
  6
CONTINUOUS
 10
95.874133406
 20
278.8057553957
 40
3.0
  0
CIRCLE
  5
369
100
AcDbEntity
  8
0
100
AcDbCircle
 62
7
  6
CONTINUOUS
 10
95.874133406
 20
278.8057553957
 40
2.5
  0
CIRCLE
  5
36A
100
AcDbEntity
  8
0
100
AcDbCircle
 62
7
  6
CONTINUOUS
 10
129.874133406
 20
30.8057553957
 40
7.0
  0
CIRCLE
  5
36B
100
AcDbEntity
  8
0
100
AcDbCircle
 62
7
  6
CONTINUOUS
 10
129.874133406
 20
30.8057553957
 40
5.0
  0
ARC
  5
36C
100
AcDbEntity
  8
0
100
AcDbCircle
 62
7
  6
CONTINUOUS
 10
117.3700861413
 20
28.5418142664
 40
3.9999948017
100
AcDbArc
 50
318.5904654073
 51
221.4095345927
  0
CIRCLE
  5
36D
100
AcDbEntity
  8
0
100
AcDbCircle
 62
7
  6
CONTINUOUS
 10
112.367333406
 20
50.1057553957
 40
3.8
  0
CIRCLE
  5
36E
100
AcDbEntity
  8
0
100
AcDbCircle
 62
7
  6
CONTINUOUS
 10
129.874133406
 20
30.8057553957
 40
3.0
  0
CIRCLE
  5
36F
100
AcDbEntity
  8
0
100
AcDbCircle
 62
7
  6
CONTINUOUS
 10
129.874133406
 20
30.8057553957
 40
2.5
  0
CIRCLE
  5
370
100
AcDbEntity
  8
0
100
AcDbCircle
 62
7
  6
CONTINUOUS
 10
142.872333406
 20
68.2457553957
 40
2.38
  0
CIRCLE
  5
371
100
AcDbEntity
  8
0
100
AcDbCircle
 62
7
  6
CONTINUOUS
 10
137.792333406
 20
68.2457553957
 40
2.38
  0
CIRCLE
  5
372
100
AcDbEntity
  8
0
100
AcDbCircle
 62
7
  6
CONTINUOUS
 10
132.712333406
 20
68.2457553957
 40
2.38
  0
CIRCLE
  5
373
100
AcDbEntity
  8
0
100
AcDbCircle
 62
7
  6
CONTINUOUS
 10
125.138333406
 20
68.2457553957
 40
2.0
  0
CIRCLE
  5
374
100
AcDbEntity
  8
0
100
AcDbCircle
 62
7
  6
CONTINUOUS
 10
120.058333406
 20
68.2457553957
 40
2.0
  0
CIRCLE
  5
375
100
AcDbEntity
  8
0
100
AcDbCircle
 62
7
  6
CONTINUOUS
 10
114.978333406
 20
68.2457553957
 40
2.0
  0
CIRCLE
  5
376
100
AcDbEntity
  8
0
100
AcDbCircle
 62
7
  6
CONTINUOUS
 10
142.872333406
 20
68.2457553957
 40
2.0
  0
CIRCLE
  5
377
100
AcDbEntity
  8
0
100
AcDbCircle
 62
7
  6
CONTINUOUS
 10
137.792333406
 20
68.2457553957
 40
2.0
  0
CIRCLE
  5
378
100
AcDbEntity
  8
0
100
AcDbCircle
 62
7
  6
CONTINUOUS
 10
132.712333406
 20
68.2457553957
 40
2.0
  0
ARC
  5
379
100
AcDbEntity
  8
0
100
AcDbCircle
 62
7
  6
CONTINUOUS
 10
112.3178674315
 20
125.160162016
 40
15.2418200914
100
AcDbArc
 50
217.4996671181
 51
322.5003328819
  0
ARC
  5
37A
100
AcDbEntity
  8
0
100
AcDbCircle
 62
7
  6
CONTINUOUS
 10
130.937333406
 20
153.5157553957
 40
3.5000000521
100
AcDbArc
 50
294.8325117293
 51
65.1674882537
  0
ARC
  5
37B
100
AcDbEntity
  8
0
100
AcDbCircle
 62
7
  6
CONTINUOUS
 10
145.1173301809
 20
40.8057555918
 40
7.4999998038
100
AcDbArc
 50
297.8315735231
 51
302.8364570096
  0
ARC
  5
37C
100
AcDbEntity
  8
0
100
AcDbCircle
 62
7
  6
CONTINUOUS
 10
145.1173301809
 20
40.8057555918
 40
7.4999998038
100
AcDbArc
 50
234.3025711785
 51
242.1818667661
  0
ARC
  5
37D
100
AcDbEntity
  8
0
100
AcDbCircle
 62
7
  6
CONTINUOUS
 10
144.8691690389
 20
30.8075753582
 40
5.9999998694
100
AcDbArc
 50
1.6348112817
 51
179.9999999997
  0
ARC
  5
37E
100
AcDbEntity
  8
0
100
AcDbCircle
 62
7
  6
CONTINUOUS
 10
162.617333406
 20
30.8057553957
 40
5.9999991208
100
AcDbArc
 50
229.8229717993
 51
303.4686017374
  0
ARC
  5
37F
100
AcDbEntity
  8
0
100
AcDbCircle
 62
7
  6
CONTINUOUS
 10
162.617333406
 20
30.8057553957
 40
4.9999970943
100
AcDbArc
 50
223.4644511428
 51
308.2612260385
  0
ARC
  5
380
100
AcDbEntity
  8
0
100
AcDbCircle
 62
7
  6
CONTINUOUS
 10
162.617333406
 20
30.8057553957
 40
4.8999986846
100
AcDbArc
 50
218.2857880337
 51
313.4121750285
  0
ARC
  5
381
100
AcDbEntity
  8
0
100
AcDbCircle
 62
7
  6
CONTINUOUS
 10
162.617333406
 20
30.8057553957
 40
4.3999986846
100
AcDbArc
 50
211.1610758352
 51
319.5693048656
  0
CIRCLE
  5
382
100
AcDbEntity
  8
0
100
AcDbCircle
 62
7
  6
CONTINUOUS
 10
151.117333406
 20
50.1057553957
 40
3.8
  0
ARC
  5
383
100
AcDbEntity
  8
0
100
AcDbCircle
 62
7
  6
CONTINUOUS
 10
162.3691680807
 20
30.8057414941
 40
3.5018337588
100
AcDbArc
 50
358.1456631648
 51
178.1453758483
  0
ARC
  5
384
100
AcDbEntity
  8
0
100
AcDbCircle
 62
7
  6
CONTINUOUS
 10
145.1173302994
 20
30.8057547581
 40
3.5018334826
100
AcDbArc
 50
178.1454993239
 51
359.277414036
  0
ARC
  5
385
100
AcDbEntity
  8
0
100
AcDbCircle
 62
7
  6
CONTINUOUS
 10
172.3672846682
 20
42.8057066579
 40
1.9999512622
100
AcDbArc
 50
270.0
 51
0.0179998143
  0
ARC
  5
386
100
AcDbEntity
  8
0
100
AcDbCircle
 62
7
  6
CONTINUOUS
 10
175.4173357807
 20
95.2993617035
 40
3.4499976253
100
AcDbArc
 50
0.0001055578
 51
44.7533348865
  0
ARC
  5
387
100
AcDbEntity
  8
0
100
AcDbCircle
 62
7
  6
CONTINUOUS
 10
175.4173357807
 20
93.2573490879
 40
3.4499976253
100
AcDbArc
 50
315.2466651135
 51
359.9998944422
  0
CIRCLE
  5
388
100
AcDbEntity
  8
0
100
AcDbCircle
 62
7
  6
CONTINUOUS
 10
164.867333406
 20
102.8157553957
 40
2.7
  0
ARC
  5
389
100
AcDbEntity
  8
0
100
AcDbCircle
 62
7
  6
CONTINUOUS
 10
159.7645917606
 20
167.4190719676
 40
78.7463957897
100
AcDbArc
 50
197.0369659181
 51
220.8797809914
  0
ARC
  5
38A
100
AcDbEntity
  8
0
100
AcDbCircle
 62
7
  6
CONTINUOUS
 10
175.4173357807
 20
181.2993617035
 40
3.4499976253
100
AcDbArc
 50
0.0001055578
 51
44.7533348865
  0
ARC
  5
38B
100
AcDbEntity
  8
0
100
AcDbCircle
 62
7
  6
CONTINUOUS
 10
175.4173357807
 20
179.2573490879
 40
3.4499976253
100
AcDbArc
 50
315.2466651135
 51
359.9998944422
  0
ARC
  5
38C
100
AcDbEntity
  8
0
100
AcDbCircle
 62
7
  6
CONTINUOUS
 10
162.3673356882
 20
270.8057421762
 40
7.4999986146
100
AcDbArc
 50
117.8181432158
 51
177.5293215584
  0
ARC
  5
38D
100
AcDbEntity
  8
0
100
AcDbCircle
 62
7
  6
CONTINUOUS
 10
162.3673356882
 20
270.8057421762
 40
7.4999986146
100
AcDbArc
 50
346.4018696666
 51
62.1818630023
  0
ARC
  5
38E
100
AcDbEntity
  8
0
100
AcDbCircle
 62
7
  6
CONTINUOUS
 10
144.8691681694
 20
278.8039062127
 40
5.9999992729
100
AcDbArc
 50
180.0
 51
359.999997931
  0
ARC
  5
38F
100
AcDbEntity
  8
0
100
AcDbCircle
 62
7
  6
CONTINUOUS
 10
162.617333406
 20
280.8057553957
 40
5.9999991208
100
AcDbArc
 50
222.4426746945
 51
314.431493027
  0
ARC
  5
390
100
AcDbEntity
  8
0
100
AcDbCircle
 62
7
  6
CONTINUOUS
 10
162.617333406
 20
280.8057553957
 40
4.9999970943
100
AcDbArc
 50
223.433498829
 51
311.5033221463
  0
ARC
  5
391
100
AcDbEntity
  8
0
100
AcDbCircle
 62
7
  6
CONTINUOUS
 10
162.617333406
 20
280.8057553957
 40
4.8999986846
100
AcDbArc
 50
221.7948651136
 51
314.0234586739
  0
ARC
  5
392
100
AcDbEntity
  8
0
100
AcDbCircle
 62
7
  6
CONTINUOUS
 10
162.617333406
 20
280.8057553957
 40
4.3999986846
100
AcDbArc
 50
211.127142882
 51
319.5350615291
  0
CIRCLE
  5
393
100
AcDbEntity
  8
0
100
AcDbCircle
 62
7
  6
CONTINUOUS
 10
168.867333406
 20
239.8157553957
 40
4.0
  0
CIRCLE
  5
394
100
AcDbEntity
  8
0
100
AcDbCircle
 62
7
  6
CONTINUOUS
 10
151.117333406
 20
259.5057553957
 40
3.8
  0
CIRCLE
  5
395
100
AcDbEntity
  8
0
100
AcDbCircle
 62
7
  6
CONTINUOUS
 10
112.367333406
 20
259.5057553957
 40
3.8
  0
ARC
  5
396
100
AcDbEntity
  8
0
100
AcDbCircle
 62
7
  6
CONTINUOUS
 10
145.1173300041
 20
278.8057552389
 40
3.5018340006
100
AcDbArc
 50
180.0000000005
 51
2.622918855
  0
ARC
  5
397
100
AcDbEntity
  8
0
100
AcDbCircle
 62
7
  6
CONTINUOUS
 10
162.3673353102
 20
280.8057416589
 40
3.5018335849
100
AcDbArc
 50
1.8544812067
 51
181.8544997085
  0
ARC
  5
398
100
AcDbEntity
  8
0
100
AcDbCircle
 62
7
  6
CONTINUOUS
 10
172.3672846682
 20
266.4058041335
 40
1.9999512622
100
AcDbArc
 50
359.9820001857
 51
90.0
  0
ARC
  5
399
100
AcDbEntity
  8
0
100
AcDbCircle
 62
7
  6
CONTINUOUS
 10
346.7075171811
 20
231.6266177802
 40
276.3768249875
100
AcDbArc
 50
176.5560997761
 51
198.4090159768
  0
SPLINE
  5
39A
100
AcDbEntity
  8
0
100
AcDbSpline
 62
7
  6
CONTINUOUS
 70
0
 71
3
 72
11
 73
7
 74
0
 42
0.0000001
 43
0.0000001
 44
0.0000000001
 40
0.0
 40
0.0
 40
0.0
 40
0.0
 40
0.0739346208
 40
0.2783392261
 40
0.5895806351
 40
1.0
 40
1.0
 40
1.0
 40
1.0
 10
177.7019707292
 20
60.3429101415
 30
0.0
 10
177.7046794949
 20
60.3458296777
 30
0.0
 10
177.6765708017
 20
60.3499275965
 30
0.0
 10
177.6570802056
 20
60.3531537365
 30
0.0
 10
177.6009807271
 20
60.3574902074
 30
0.0
 10
177.564128042
 20
60.359411326
 30
0.0
 10
177.5420425215
 20
60.360404918
 30
0.0
  0
SPLINE
  5
39B
100
AcDbEntity
  8
0
100
AcDbSpline
 62
7
  6
CONTINUOUS
 70
0
 71
3
 72
11
 73
7
 74
0
 42
0.0000001
 43
0.0000001
 44
0.0000000001
 40
0.0
 40
0.0
 40
0.0
 40
0.0
 40
0.411843346
 40
0.7239418161
 40
0.9283800707
 40
1.0
 40
1.0
 40
1.0
 40
1.0
 10
177.5420425215
 20
249.2715351551
 30
0.0
 10
177.5641207948
 20
249.2722958881
 30
0.0
 10
177.6006976869
 20
249.2738228881
 30
0.0
 10
177.6575907759
 20
249.2769589264
 30
0.0
 10
177.6755030895
 20
249.2797638369
 30
0.0
 10
177.7049333299
 20
249.2824885088
 30
0.0
 10
177.7019706429
 20
249.2849341624
 30
0.0
  0
SPLINE
  5
39C
100
AcDbEntity
  8
0
100
AcDbSpline
 62
7
  6
CONTINUOUS
 70
0
 71
3
 72
9
 73
5
 74
0
 42
0.0000001
 43
0.0000001
 44
0.0000000001
 40
0.0
 40
0.0
 40
0.0
 40
0.0
 40
0.4999647322
 40
1.0
 40
1.0
 40
1.0
 40
1.0
 10
110.0514345213
 20
130.4727803325
 30
0.0
 10
110.359358244
 20
130.0989113673
 30
0.0
 10
111.1524119059
 20
129.4814994744
 30
0.0
 10
112.1329156242
 20
129.2649107474
 30
0.0
 10
112.6173334061
 20
129.2641149427
 30
0.0
  0
SPLINE
  5
39D
100
AcDbEntity
  8
0
100
AcDbSpline
 62
7
  6
CONTINUOUS
 70
0
 71
3
 72
15
 73
11
 74
0
 42
0.0000001
 43
0.0000001
 44
0.0000000001
 40
0.0
 40
0.0
 40
0.0
 40
0.0
 40
0.1249917811
 40
0.2500413675
 40
0.3750256793
 40
0.5000252385
 40
0.625017386
 40
0.7499986165
 40
0.8750236045
 40
1.0
 40
1.0
 40
1.0
 40
1.0
 10
112.6173334061
 20
135.8273958486
 30
0.0
 10
112.3090491728
 20
135.8268893973
 30
0.0
 10
111.6891242186
 20
135.7396054964
 30
0.0
 10
110.8330472421
 20
135.3599645511
 30
0.0
 10
110.1142686978
 20
134.7583776167
 30
0.0
 10
109.5907662791
 20
133.9809366844
 30
0.0
 10
109.3066314441
 20
133.0875682576
 30
0.0
 10
109.2854932459
 20
132.1501204393
 30
0.0
 10
109.5290335732
 20
131.2453342524
 30
0.0
 10
109.8554678614
 20
130.7107154021
 30
0.0
 10
110.0514345213
 20
130.4727803325
 30
0.0
  0
SPLINE
  5
39E
100
AcDbEntity
  8
0
100
AcDbSpline
 62
7
  6
CONTINUOUS
 70
0
 71
3
 72
15
 73
11
 74
0
 42
0.0000001
 43
0.0000001
 44
0.0000000001
 40
0.0
 40
0.0
 40
0.0
 40
0.0
 40
0.1250302071
 40
0.2500159291
 40
0.3750046123
 40
0.4999879605
 40
0.6249701298
 40
0.7499654709
 40
0.874964705
 40
1.0
 40
1.0
 40
1.0
 40
1.0
 10
112.6173334061
 20
129.2641149427
 30
0.0
 10
113.0469801587
 20
129.2634091163
 30
0.0
 10
113.9156458966
 20
129.4310810841
 30
0.0
 10
115.0194680059
 20
130.1558073731
 30
0.0
 10
115.7644598586
 20
131.2487787273
 30
0.0
 10
116.0272892153
 20
132.5456123644
 30
0.0
 10
115.764669589
 20
133.8425195421
 30
0.0
 10
115.0196520134
 20
134.9356097105
 30
0.0
 10
113.915676095
 20
135.6602053228
 30
0.0
 10
113.0469976425
 20
135.8281017038
 30
0.0
 10
112.6173334061
 20
135.8273958486
 30
0.0
  0
SPLINE
  5
39F
100
AcDbEntity
  8
0
100
AcDbSpline
 62
7
  6
CONTINUOUS
 70
0
 71
3
 72
8
 73
4
 74
0
 42
0.0000001
 43
0.0000001
 44
0.0000000001
 40
0.0
 40
0.0
 40
0.0
 40
0.0
 40
1.0
 40
1.0
 40
1.0
 40
1.0
 10
132.4071402671
 20
156.6921639925
 30
0.0
 10
131.9392896041
 20
156.8468171975
 30
0.0
 10
131.4257050992
 20
156.8984500757
 30
0.0
 10
130.9363636418
 20
156.8405985865
 30
0.0
  0
SPLINE
  5
3A0
100
AcDbEntity
  8
0
100
AcDbSpline
 62
7
  6
CONTINUOUS
 70
0
 71
3
 72
8
 73
4
 74
0
 42
0.0000001
 43
0.0000001
 44
0.0000000001
 40
0.0
 40
0.0
 40
0.0
 40
0.0
 40
1.0
 40
1.0
 40
1.0
 40
1.0
 10
130.9363648005
 20
150.1909125233
 30
0.0
 10
131.4257058355
 20
150.1330610799
 30
0.0
 10
131.9392898467
 20
150.1846939187
 30
0.0
 10
132.4071401802
 20
150.339346767
 30
0.0
  0
SPLINE
  5
3A1
100
AcDbEntity
  8
0
100
AcDbSpline
 62
7
  6
CONTINUOUS
 70
0
 71
3
 72
15
 73
11
 74
0
 42
0.0000001
 43
0.0000001
 44
0.0000000001
 40
0.0
 40
0.0
 40
0.0
 40
0.0
 40
0.1250016879
 40
0.2499842356
 40
0.3749932209
 40
0.5000043211
 40
0.6250131556
 40
0.7500224865
 40
0.8750007541
 40
1.0
 40
1.0
 40
1.0
 40
1.0
 10
130.9363636418
 20
156.8405985865
 30
0.0
 10
130.5345537029
 20
156.793095172
 30
0.0
 10
129.7409255348
 20
156.5507894701
 30
0.0
 10
128.7596836624
 20
155.7937243138
 30
0.0
 10
128.1094275122
 20
154.736338942
 30
0.0
 10
127.8822850197
 20
153.5156981479
 30
0.0
 10
128.1094377122
 20
152.295089723
 30
0.0
 10
128.7595874025
 20
151.2376152644
 30
0.0
 10
129.7410266889
 20
150.4808555094
 30
0.0
 10
130.5345627114
 20
150.2384150109
 30
0.0
 10
130.9363648005
 20
150.1909125233
 30
0.0
  0
SPLINE
  5
3A2
100
AcDbEntity
  8
0
100
AcDbSpline
 62
7
  6
CONTINUOUS
 70
0
 71
3
 72
15
 73
11
 74
0
 42
0.0000001
 43
0.0000001
 44
0.0000000001
 40
0.0
 40
0.0
 40
0.0
 40
0.0
 40
0.1250042393
 40
0.2499883447
 40
0.3749955095
 40
0.5000055136
 40
0.6250121745
 40
0.7500205931
 40
0.8749985535
 40
1.0
 40
1.0
 40
1.0
 40
1.0
 10
94.2981792411
 20
150.2508159801
 30
0.0
 10
94.6929617174
 20
150.2972099785
 30
0.0
 10
95.4728372249
 20
150.5347252893
 30
0.0
 10
96.4370928871
 20
151.2781479293
 30
0.0
 10
97.0763993499
 20
152.3166447648
 30
0.0
 10
97.299648699
 20
153.5158327497
 30
0.0
 10
97.0763732561
 20
154.7149566488
 30
0.0
 10
96.4372915853
 20
155.7536468339
 30
0.0
 10
95.4726659121
 20
156.4965251542
 30
0.0
 10
94.6929509612
 20
156.7343011008
 30
0.0
 10
94.2981773053
 20
156.7806940643
 30
0.0
  0
SPLINE
  5
3A3
100
AcDbEntity
  8
0
100
AcDbSpline
 62
7
  6
CONTINUOUS
 70
0
 71
3
 72
9
 73
5
 74
0
 42
0.0000001
 43
0.0000001
 44
0.0000000001
 40
0.0
 40
0.0
 40
0.0
 40
0.0
 40
0.4999647322
 40
1.0
 40
1.0
 40
1.0
 40
1.0
 10
110.0514345213
 20
151.4427803325
 30
0.0
 10
110.359358244
 20
151.0689113673
 30
0.0
 10
111.1524119059
 20
150.4514994744
 30
0.0
 10
112.1329156242
 20
150.2349107474
 30
0.0
 10
112.6173334061
 20
150.2341149427
 30
0.0
  0
SPLINE
  5
3A4
100
AcDbEntity
  8
0
100
AcDbSpline
 62
7
  6
CONTINUOUS
 70
0
 71
3
 72
15
 73
11
 74
0
 42
0.0000001
 43
0.0000001
 44
0.0000000001
 40
0.0
 40
0.0
 40
0.0
 40
0.0
 40
0.1249917811
 40
0.2500413675
 40
0.3750256793
 40
0.5000252385
 40
0.625017386
 40
0.7499986165
 40
0.8750236045
 40
1.0
 40
1.0
 40
1.0
 40
1.0
 10
112.6173334061
 20
156.7973958486
 30
0.0
 10
112.3090491728
 20
156.7968893973
 30
0.0
 10
111.6891242186
 20
156.7096054964
 30
0.0
 10
110.8330472421
 20
156.3299645511
 30
0.0
 10
110.1142686978
 20
155.7283776167
 30
0.0
 10
109.5907662791
 20
154.9509366844
 30
0.0
 10
109.3066314441
 20
154.0575682576
 30
0.0
 10
109.2854932459
 20
153.1201204393
 30
0.0
 10
109.5290335732
 20
152.2153342524
 30
0.0
 10
109.8554678614
 20
151.6807154021
 30
0.0
 10
110.0514345213
 20
151.4427803325
 30
0.0
  0
SPLINE
  5
3A5
100
AcDbEntity
  8
0
100
AcDbSpline
 62
7
  6
CONTINUOUS
 70
0
 71
3
 72
15
 73
11
 74
0
 42
0.0000001
 43
0.0000001
 44
0.0000000001
 40
0.0
 40
0.0
 40
0.0
 40
0.0
 40
0.1250302071
 40
0.2500159291
 40
0.3750046123
 40
0.4999879605
 40
0.6249701298
 40
0.7499654709
 40
0.874964705
 40
1.0
 40
1.0
 40
1.0
 40
1.0
 10
112.6173334061
 20
150.2341149427
 30
0.0
 10
113.0469801587
 20
150.2334091163
 30
0.0
 10
113.9156458966
 20
150.4010810841
 30
0.0
 10
115.0194680059
 20
151.1258073731
 30
0.0
 10
115.7644598586
 20
152.2187787273
 30
0.0
 10
116.0272892153
 20
153.5156123644
 30
0.0
 10
115.764669589
 20
154.8125195421
 30
0.0
 10
115.0196520134
 20
155.9056097105
 30
0.0
 10
113.915676095
 20
156.6302053228
 30
0.0
 10
113.0469976425
 20
156.7981017038
 30
0.0
 10
112.6173334061
 20
156.7973958486
 30
0.0
  0
ELLIPSE
  5
3A6
100
AcDbEntity
  8
0
100
AcDbEllipse
 62
7
  6
CONTINUOUS
 10
176.0701514562
 20
61.1676953159
 30
0.0
 11
1.0031178539
 21
0.0
 31
0.0
 40
0.0505910674
 41
0.0364869234
 42
1.4228996681
  0
ELLIPSE
  5
3A7
100
AcDbEntity
  8
0
100
AcDbEllipse
 62
7
  6
CONTINUOUS
 10
48.6970085746
 20
61.1666310057
 30
0.0
 11
1.0363400436
 21
0.0
 31
0.0
 40
0.0505910674
 41
1.7279071024
 42
3.0962442541
  0
ELLIPSE
  5
3A8
100
AcDbEntity
  8
0
100
AcDbEllipse
 62
7
  6
CONTINUOUS
 10
112.363116678
 20
269.2440428123
 30
0.0
 11
552.5736499128
 21
-0.0
 31
0.0
 40
0.0387472241
 41
-1.6860164635
 42
-1.6460668904
  0
ELLIPSE
  5
3A9
100
AcDbEntity
  8
0
100
AcDbEllipse
 62
7
  6
CONTINUOUS
 10
48.9325805504
 20
248.01321506
 30
0.0
 11
0.9829584917
 21
-0.0
 31
0.0
 40
0.0387472241
 41
-3.1404428862
 42
-1.6689202269
  0
ELLIPSE
  5
3AA
100
AcDbEntity
  8
0
100
AcDbEllipse
 62
7
  6
CONTINUOUS
 10
175.7891192834
 20
248.0137037939
 30
0.0
 11
0.9958716405
 21
0.0
 31
0.0
 40
0.0387472241
 41
-1.4590284096
 42
-0.0138025026
  0
ELLIPSE
  5
3AB
100
AcDbEntity
  8
0
100
AcDbEllipse
 62
7
  6
CONTINUOUS
 10
112.363116678
 20
269.2440428123
 30
0.0
 11
552.5736499128
 21
-0.0
 31
0.0
 40
0.0387472241
 41
-1.4956899753
 42
-1.455557527
  0
ENDSEC
  0
SECTION
  2
OBJECTS
  0
DICTIONARY
  5
C
100
AcDbDictionary
280
0
281
1
  3
ACAD_GROUP
350
D
  3
ACAD_MLINESTYLE
350
17
  3
ACAD_LAYOUT
350
1A
  3
ACAD_PLOTSETTINGS
350
19
  3
ACAD_PLOTSTYLENAME
350
E
  0
DICTIONARY
  5
D
102
{ACAD_REACTORS
330
C
102
}
100
AcDbDictionary
280
0
281
1
  0
ACDBDICTIONARYWDFLT
  5
E
102
{ACAD_REACTORS
330
C
102
}
100
AcDbDictionary
281
1
  3
Normal
350
F
100
AcDbDictionaryWithDefault
340
F
  0
DICTIONARY
  5
17
102
{ACAD_REACTORS
330
C
102
}
100
AcDbDictionary
280
0
281
1
  3
Standard
350
18
  0
DICTIONARY
  5
19
102
{ACAD_REACTORS
330
C
102
}
100
AcDbDictionary
281
1
  0
DICTIONARY
  5
1A
102
{ACAD_REACTORS
330
C
102
}
100
AcDbDictionary
281
1
  3
Model
350
3AC
  3
Layout1
350
3AD
  0
ACDBPLACEHOLDER
  5
F
102
{ACAD_REACTORS
330
E
102
}
  0
MLINESTYLE
  5
18
102
{ACAD_REACTORS
330
17
102
}
100
AcDbMlineStyle
  2
STANDARD
 70
0
  3

 62
256
 51
90.0
 52
90.0
 71
2
 49
0.5
 62
256
  6
BYLAYER
 49
-0.5
 62
256
  6
BYLAYER
  0
LAYOUT
  5
3AC
102
{ACAD_REACTORS
330
1A
102
}
100
AcDbPlotSettings
  1

  2
none_device
  4

  6

 40
0.0
 41
0.0
 42
0.0
 43
0.0
 44
210.0
 45
297.0
 46
0.0
 47
0.0
 48
0.0
 49
0.0
140
0.0
141
0.0
142
1.0
143
1.0
 70
1024
 72
1
 73
0
 74
0
  7

 75
0
147
1.0
148
0.0
149
0.0
100
AcDbLayout
  1
Model
 70
0
 71
0
 10
0.0
 20
0.0
 11
210.0
 21
297.0
 12
0.0
 22
0.0
 32
0.0
 14
0.0
 24
0.0
 34
0.0
 15
0.0
 25
0.0
 35
0.0
146
0.0
 13
0.0
 23
0.0
 33
0.0
 16
1.0
 26
0.0
 36
0.0
 17
0.0
 27
1.0
 37
0.0
 76
0
330
210
345
0
346
0
  0
LAYOUT
  5
3AD
102
{ACAD_REACTORS
330
1A
102
}
100
AcDbPlotSettings
  1

  2
none_device
  4

  6

 40
0.0
 41
0.0
 42
0.0
 43
0.0
 44
210.0
 45
297.0
 46
0.0
 47
0.0
 48
0.0
 49
0.0
140
0.0
141
0.0
142
1.0
143
1.0
 70
0
 72
1
 73
0
 74
0
  7

 75
0
147
1.0
148
0.0
149
0.0
100
AcDbLayout
  1
Layout1
 70
0
 71
1
 10
0.0
 20
0.0
 11
210.0
 21
297.0
 12
0.0
 22
0.0
 32
0.0
 14
0.0
 24
0.0
 34
0.0
 15
0.0
 25
0.0
 35
0.0
146
0.0
 13
0.0
 23
0.0
 33
0.0
 16
1.0
 26
0.0
 36
0.0
 17
0.0
 27
1.0
 37
0.0
 76
0
330
211
345
0
346
0
  0
ENDSEC
  0
EOF
