999
DXF file: C:\Users\sesa63760\Dev\_Creo\CAD\MCADPE0012193_3D-CAD\drw0001_1.dxf
999
Pro/ENGINEER 2019471 by Parametric Technology Corporation
  0
SECTION
  2
HEADER
  9
$ACADVER
  1
AC1024
  9
$DWGCODEPAGE
  3
ANSI_1252
  9
$EXTMAX
 10
108.197122328
 20
153.0216444353
 30
0.0
  9
$EXTMIN
 10
0.0
 20
0.0
 30
0.0
  9
$LIMMIN
 10
0.0
 20
0.0
  9
$LIMMAX
 10
108.197122328
 20
153.0216444353
  9
$VIEWCTR
 10
54.098561164
 20
76.5108222176
  9
$VIEWSIZE
 40
153.0216444353
  9
$CLAYER
  8
0
  9
$LTSCALE
 40
9.9747442299
  9
$CELTYPE
  6
BYLAYER
  9
$DIMSCALE
 40
1.0
  9
$DIMASZ
 40
1.2880609801
  9
$DIMEXO
 40
1.0
  9
$DIMDLI
 40
6.8916414679
  9
$DIMEXE
 40
1.0
  9
$DIMCEN
 40
1.632230874
  9
$DIMLFAC
 40
1.0
  9
$DIMBLK
  1
_FILLED
  9
$DIMALT
 70
0
  9
$DIMALTF
 40
0.0393700787
  9
$DIMTXT
 40
1.8032853721
  9
$DIMTOL
 70
1
  9
$DIMLIM
 70
0
  9
$DIMTFAC
 40
1.0
  9
$DIMTP
 40
0.01
  9
$DIMTM
 40
0.01
  9
$DIMGAP
 40
0.625
  9
$DIMDSEP
 70
46
  9
$AUNITS
 70
0
  9
$PDMODE
 70
3
  9
$PDSIZE
 40
0.3125
  9
$HANDSEED
  5
296
  9
$TILEMODE
 70
1
  9
$MEASUREMENT
 70
1
  9
$INSUNITS
 70
4
  0
ENDSEC
  0
SECTION
  2
CLASSES
  0
CLASS
  1
ACDBDICTIONARYWDFLT
  2
AcDbDictionaryWithDefault
  3
AutoCAD 2000
 90
0
 91
1
280
0
281
0
  0
CLASS
  1
ACDBPLACEHOLDER
  2
AcDbPlaceHolder
  3
AutoCAD 2000
 90
0
 91
1
280
0
281
0
  0
CLASS
  1
LAYOUT
  2
AcDbLayout
  3
AutoCAD 2000
 90
0
 91
0
280
0
281
0
  0
ENDSEC
  0
SECTION
  2
TABLES
  0
TABLE
  2
VPORT
  5
8
100
AcDbSymbolTable
 70
2
  0
VPORT
  5
1F4
100
AcDbSymbolTableRecord
100
AcDbViewportTableRecord
  2
*ACTIVE
 70
0
 10
0.0
 20
0.0
 11
1.0
 21
1.0
 12
54.098561164
 22
76.5108222176
 13
0.0
 23
0.0
 14
1.0
 24
1.0
 15
0.0
 25
0.0
 16
0.0
 26
0.0
 36
1.0
 17
0.0
 27
0.0
 37
0.0
 40
153.0216444353
 41
0.7070707071
 42
50.0
 43
0.0
 44
0.0
 50
0.0
 51
0.0
 71
0
 72
100
 73
1
 74
1
 75
0
 76
0
 77
0
 78
0
  0
ENDTAB
  0
TABLE
  2
LTYPE
  5
5
100
AcDbSymbolTable
 70
6
  0
LTYPE
  5
14
100
AcDbSymbolTableRecord
100
AcDbLinetypeTableRecord
  2
BYBLOCK
 70
0
  3

 72
65
 73
0
 40
0.0
  0
LTYPE
  5
15
100
AcDbSymbolTableRecord
100
AcDbLinetypeTableRecord
  2
BYLAYER
 70
0
  3

 72
65
 73
0
 40
0.0
  0
LTYPE
  5
16
100
AcDbSymbolTableRecord
100
AcDbLinetypeTableRecord
  2
CONTINUOUS
 70
64
  3
Solid line
 72
65
 73
0
 40
0.0
  0
LTYPE
  5
1F5
100
AcDbSymbolTableRecord
100
AcDbLinetypeTableRecord
  2
CENTER
 70
64
  3
____ _ ____ _ ____ _ ____ _ ____ _ ____ _ ____
 72
65
 73
4
 40
0.6
 49
0.375
 74
0
 49
-0.075
 74
0
 49
0.075
 74
0
 49
-0.075
 74
0
  0
LTYPE
  5
1F6
100
AcDbSymbolTableRecord
100
AcDbLinetypeTableRecord
  2
HIDDEN
 70
64
  3
- - - - - - - - - - - - - - - - - - - -
 72
65
 73
2
 40
0.2
 49
0.1
 74
0
 49
-0.1
 74
0
  0
LTYPE
  5
1F7
100
AcDbSymbolTableRecord
100
AcDbLinetypeTableRecord
  2
PHANTOM
 70
64
  3
_____ _ _ _____ _ _ _____ _ _ _____
 72
65
 73
6
 40
0.8
 49
0.45
 74
0
 49
-0.05
 74
0
 49
0.1
 74
0
 49
-0.05
 74
0
 49
0.1
 74
0
 49
-0.05
 74
0
  0
LTYPE
  5
1F8
100
AcDbSymbolTableRecord
100
AcDbLinetypeTableRecord
  2
DOT
 70
64
  3
. . . . . . . . . . . . . . . . . . . .
 72
65
 73
2
 40
0.2
 49
0.1
 74
0
 49
-0.1
 74
0
  0
LTYPE
  5
1F9
100
AcDbSymbolTableRecord
100
AcDbLinetypeTableRecord
  2
DASHED
 70
64
  3
- - - - - - - - - - - - - - - - - - - -
 72
65
 73
2
 40
0.2
 49
0.1
 74
0
 49
-0.1
 74
0
  0
ENDTAB
  0
TABLE
  2
LAYER
  5
2
100
AcDbSymbolTable
 70
36
  0
LAYER
  5
10
100
AcDbSymbolTableRecord
100
AcDbLayerTableRecord
  2
0
 70
0
 62
7
  6
CONTINUOUS
370
-3
390
F
  0
LAYER
  5
1FA
100
AcDbSymbolTableRecord
100
AcDbLayerTableRecord
  2
DEFAULT_1
 70
0
 62
7
  6
CENTER
370
-3
390
F
  0
LAYER
  5
1FB
100
AcDbSymbolTableRecord
100
AcDbLayerTableRecord
  2
DEFAULT_2
 70
0
 62
7
  6
HIDDEN
370
-3
390
F
  0
LAYER
  5
1FC
100
AcDbSymbolTableRecord
100
AcDbLayerTableRecord
  2
DEFAULT_3
 70
0
 62
7
  6
PHANTOM
370
-3
390
F
  0
LAYER
  5
1FD
100
AcDbSymbolTableRecord
100
AcDbLayerTableRecord
  2
00_COMPONENTS
 70
0
 62
7
  6
CONTINUOUS
370
-3
390
F
  0
LAYER
  5
1FE
100
AcDbSymbolTableRecord
100
AcDbLayerTableRecord
  2
01_1_DEFAULT_DATUMS
 70
0
 62
7
  6
CONTINUOUS
370
-3
390
F
  0
LAYER
  5
1FF
100
AcDbSymbolTableRecord
100
AcDbLayerTableRecord
  2
01_PLANES
 70
0
 62
7
  6
CONTINUOUS
370
-3
390
F
  0
LAYER
  5
200
100
AcDbSymbolTableRecord
100
AcDbLayerTableRecord
  2
02_COORD_SYS
 70
0
 62
7
  6
CONTINUOUS
370
-3
390
F
  0
LAYER
  5
201
100
AcDbSymbolTableRecord
100
AcDbLayerTableRecord
  2
03_AXES
 70
0
 62
7
  6
CONTINUOUS
370
-3
390
F
  0
LAYER
  5
202
100
AcDbSymbolTableRecord
100
AcDbLayerTableRecord
  2
04_POINTS
 70
0
 62
7
  6
CONTINUOUS
370
-3
390
F
  0
LAYER
  5
203
100
AcDbSymbolTableRecord
100
AcDbLayerTableRecord
  2
05_CURVES
 70
0
 62
7
  6
CONTINUOUS
370
-3
390
F
  0
LAYER
  5
204
100
AcDbSymbolTableRecord
100
AcDbLayerTableRecord
  2
06_SURFS
 70
0
 62
7
  6
CONTINUOUS
370
-3
390
F
  0
LAYER
  5
205
100
AcDbSymbolTableRecord
100
AcDbLayerTableRecord
  2
07_COSMETICS
 70
0
 62
7
  6
CONTINUOUS
370
-3
390
F
  0
LAYER
  5
206
100
AcDbSymbolTableRecord
100
AcDbLayerTableRecord
  2
10_NOTES
 70
0
 62
7
  6
CONTINUOUS
370
-3
390
F
  0
LAYER
  5
207
100
AcDbSymbolTableRecord
100
AcDbLayerTableRecord
  2
11_NOTES_PUB
 70
0
 62
7
  6
CONTINUOUS
370
-3
390
F
  0
LAYER
  5
208
100
AcDbSymbolTableRecord
100
AcDbLayerTableRecord
  2
13_REF_GTOL
 70
0
 62
7
  6
CONTINUOUS
370
-3
390
F
  0
LAYER
  5
209
100
AcDbSymbolTableRecord
100
AcDbLayerTableRecord
  2
16_MISC
 70
0
 62
7
  6
CONTINUOUS
370
-3
390
F
  0
LAYER
  5
20A
100
AcDbSymbolTableRecord
100
AcDbLayerTableRecord
  2
17_NO_PRINT
 70
0
 62
7
  6
CONTINUOUS
370
-3
390
F
  0
LAYER
  5
20B
100
AcDbSymbolTableRecord
100
AcDbLayerTableRecord
  2
18_DATUM_CAMS_JOINTS
 70
0
 62
7
  6
CONTINUOUS
370
-3
390
F
  0
LAYER
  5
20C
100
AcDbSymbolTableRecord
100
AcDbLayerTableRecord
  2
19_DATUM_FUNCTIONAL
 70
0
 62
7
  6
CONTINUOUS
370
-3
390
F
  0
LAYER
  5
20D
100
AcDbSymbolTableRecord
100
AcDbLayerTableRecord
  2
20_DATUM_KINEMATIC_SCHEME
 70
0
 62
7
  6
CONTINUOUS
370
-3
390
F
  0
LAYER
  5
20E
100
AcDbSymbolTableRecord
100
AcDbLayerTableRecord
  2
SHELL1
 70
0
 62
7
  6
CONTINUOUS
370
-3
390
F
  0
ENDTAB
  0
TABLE
  2
STYLE
  5
3
100
AcDbSymbolTable
 70
1
  0
STYLE
  5
11
100
AcDbSymbolTableRecord
100
AcDbTextStyleTableRecord
  2
STANDARD
 70
0
 40
0.0
 41
1.0
 50
0.0
 71
0
 42
0.2
  3
ARIAL.TTF
  4

  0
STYLE
  5
20F
100
AcDbSymbolTableRecord
100
AcDbTextStyleTableRecord
  2
TEXTSTYLE_1
 70
0
 40
0.0
 41
0.8
 50
0.0
 71
0
 42
0.2
  3
gdt
  4

  0
ENDTAB
  0
TABLE
  2
VIEW
  5
6
100
AcDbSymbolTable
 70
0
  0
ENDTAB
  0
TABLE
  2
UCS
  5
7
100
AcDbSymbolTable
 70
0
  0
ENDTAB
  0
TABLE
  2
APPID
  5
9
100
AcDbSymbolTable
 70
1
  0
APPID
  5
210
100
AcDbSymbolTableRecord
100
AcDbRegAppTableRecord
  2
ACAD
 70
0
  0
ENDTAB
  0
TABLE
  2
BLOCK_RECORD
  5
1
100
AcDbSymbolTable
 70
0
  0
BLOCK_RECORD
  5
211
100
AcDbSymbolTableRecord
100
AcDbBlockTableRecord
  2
*Model_Space
  0
BLOCK_RECORD
  5
212
100
AcDbSymbolTableRecord
100
AcDbBlockTableRecord
  2
*Paper_Space
  0
BLOCK_RECORD
  5
213
100
AcDbSymbolTableRecord
100
AcDbBlockTableRecord
  2
_FILLED
  0
ENDTAB
  0
TABLE
  2
DIMSTYLE
  5
A
100
AcDbSymbolTable
 70
1
100
AcDbDimStyleTable
 71
0
  0
DIMSTYLE
105
214
100
AcDbSymbolTableRecord
100
AcDbDimStyleTableRecord
  2
STANDARD
 70
0
  3

  4

 40
1.0
 41
1.2880609801
 42
1.0
 43
0.38
 44
1.0
 45
0.0
 46
0.0
 47
0.01
 48
0.01
140
1.8032853721
141
0.09
142
0.0
143
25.4
144
1.0
145
0.0
146
1.0
147
0.625
 71
1
 72
0
 73
0
 74
0
 75
0
 76
0
 77
1
 78
8
 79
2
170
0
171
1
172
0
173
0
174
0
175
0
176
0
177
0
178
0
270
2
179
2
271
2
272
2
273
2
274
2
275
0
280
0
281
0
282
0
283
1
284
8
285
0
286
0
287
3
288
0
340
11
278
46
341
213
342
213
343
213
344
213
  0
ENDTAB
  0
ENDSEC
  0
SECTION
  2
BLOCKS
  0
BLOCK
  5
20
100
AcDbEntity
  8
0
100
AcDbBlockBegin
  2
*Model_Space
 70
0
 10
0.0
 20
0.0
 30
0.0
  3
*Model_Space
  1

  0
ENDBLK
  5
21
100
AcDbEntity
  8
0
100
AcDbBlockEnd
  0
BLOCK
  5
1C
100
AcDbEntity
  8
0
100
AcDbBlockBegin
  2
*Paper_Space
 70
0
 10
0.0
 20
0.0
 30
0.0
  3
*Paper_Space
  1

  0
ENDBLK
  5
1D
100
AcDbEntity
  8
0
100
AcDbBlockEnd
  0
BLOCK
  5
215
100
AcDbEntity
  8
0
100
AcDbBlockBegin
  2
_FILLED
 70
64
 10
0.0
 20
0.0
  3
_FILLED
  1

  0
SOLID
  5
216
100
AcDbEntity
  8
0
  6
BYBLOCK
 62
0
100
AcDbTrace
 10
0.0
 20
0.0
 11
-1.0
 21
0.25
 12
-1.0
 22
-0.25
 13
-1.0
 23
-0.25
  0
ENDBLK
  5
217
100
AcDbEntity
  8
0
  6
BYBLOCK
 62
0
100
AcDbBlockEnd
  0
ENDSEC
  0
SECTION
  2
ENTITIES
  0
LINE
  5
218
100
AcDbEntity
  8
0
100
AcDbLine
 62
7
  6
BYLAYER
 10
41.5143974492
 20
26.9077359951
 11
40.0775504877
 21
27.7372812082
  0
LINE
  5
219
100
AcDbEntity
  8
0
100
AcDbLine
 62
7
  6
BYLAYER
 10
23.0149928199
 20
37.5881306148
 11
21.5781458584
 21
38.417675828
  0
LINE
  5
21A
100
AcDbEntity
  8
0
100
AcDbLine
 62
7
  6
BYLAYER
 10
41.3286390743
 20
27.1129144014
 11
39.8917921128
 21
27.9424596146
  0
LINE
  5
21B
100
AcDbEntity
  8
0
100
AcDbLine
 62
7
  6
BYLAYER
 10
22.829234445
 20
37.7933090212
 11
21.3923874835
 21
38.6228542344
  0
LINE
  5
21C
100
AcDbEntity
  8
0
100
AcDbLine
 62
7
  6
BYLAYER
 10
24.0348460408
 20
37.873231033
 11
39.3550958813
 21
29.028280763
  0
LINE
  5
21D
100
AcDbEntity
  8
0
100
AcDbLine
 62
7
  6
BYLAYER
 10
21.5781696724
 20
38.4177171427
 11
21.3923874835
 21
38.6228542344
  0
LINE
  5
21E
100
AcDbEntity
  8
0
100
AcDbLine
 62
7
  6
BYLAYER
 10
22.829234445
 20
37.7933090212
 11
23.0150166339
 21
37.5881719296
  0
LINE
  5
21F
100
AcDbEntity
  8
0
100
AcDbLine
 62
7
  6
BYLAYER
 10
18.38745716
 20
44.7023023534
 11
19.8243041215
 21
43.8727571403
  0
LINE
  5
220
100
AcDbEntity
  8
0
100
AcDbLine
 62
7
  6
BYLAYER
 10
36.8868617893
 20
34.0219077337
 11
38.3237087507
 21
33.1923625205
  0
LINE
  5
221
100
AcDbEntity
  8
0
100
AcDbLine
 62
7
  6
BYLAYER
 10
40.0775743017
 20
27.737322523
 11
39.8917921128
 21
27.9424596146
  0
LINE
  5
222
100
AcDbEntity
  8
0
100
AcDbLine
 62
7
  6
BYLAYER
 10
41.3286390743
 20
27.1129144014
 11
41.5144212632
 21
26.9077773098
  0
LINE
  5
223
100
AcDbEntity
  8
0
100
AcDbLine
 62
7
  6
BYLAYER
 10
21.3923874835
 20
38.6228542344
 11
18.38745716
 21
44.7023023534
  0
LINE
  5
224
100
AcDbEntity
  8
0
100
AcDbLine
 62
7
  6
BYLAYER
 10
19.8243041215
 20
43.8727571403
 11
22.829234445
 21
37.7933090212
  0
LINE
  5
225
100
AcDbEntity
  8
0
100
AcDbLine
 62
7
  6
BYLAYER
 10
12.5521110275
 20
84.958109798
 11
12.5521110275
 21
89.105942077
  0
LINE
  5
226
100
AcDbEntity
  8
0
100
AcDbLine
 62
7
  6
BYLAYER
 10
13.988957989
 20
86.6172639522
 11
13.988957989
 21
84.1285645848
  0
LINE
  5
227
100
AcDbEntity
  8
0
100
AcDbLine
 62
7
  6
BYLAYER
 10
18.38745716
 20
44.7023023534
 11
16.5365113373
 21
85.1464666146
  0
LINE
  5
228
100
AcDbEntity
  8
0
100
AcDbLine
 62
7
  6
BYLAYER
 10
17.9733582988
 20
84.3169214015
 11
19.8243041215
 21
43.8727571403
  0
LINE
  5
229
100
AcDbEntity
  8
0
100
AcDbLine
 62
7
  6
BYLAYER
 10
39.8917921128
 20
27.9424596146
 11
36.8868617893
 21
34.0219077337
  0
LINE
  5
22A
100
AcDbEntity
  8
0
100
AcDbLine
 62
7
  6
BYLAYER
 10
24.0348460408
 20
87.6234975425
 11
24.0348460408
 21
86.2094853628
  0
LINE
  5
22B
100
AcDbEntity
  8
0
100
AcDbLine
 62
7
  6
BYLAYER
 10
24.0348460408
 20
80.8173989917
 11
24.0348460408
 21
70.306929977
  0
LINE
  5
22C
100
AcDbEntity
  8
0
100
AcDbLine
 62
7
  6
BYLAYER
 10
24.0348460408
 20
65.9592917679
 11
24.0348460408
 21
37.873231033
  0
LINE
  5
22D
100
AcDbEntity
  8
0
100
AcDbLine
 62
7
  6
BYLAYER
 10
33.9030979324
 20
98.8085955095
 11
33.828926035
 21
98.704901805
  0
LINE
  5
22E
100
AcDbEntity
  8
0
100
AcDbLine
 62
7
  6
BYLAYER
 10
77.389290277
 20
126.5394815221
 11
50.9560638791
 21
111.2783422424
  0
LINE
  5
22F
100
AcDbEntity
  8
0
100
AcDbLine
 62
7
  6
BYLAYER
 10
25.3275678049
 20
96.4818114584
 11
12.5521110275
 21
89.105942077
  0
LINE
  5
230
100
AcDbEntity
  8
0
100
AcDbLine
 62
7
  6
BYLAYER
 10
38.3237087507
 20
33.1923625205
 11
41.3286390743
 21
27.1129144014
  0
LINE
  5
231
100
AcDbEntity
  8
0
100
AcDbLine
 62
7
  6
BYLAYER
 10
27.9981515556
 20
87.4468462931
 11
27.9981515556
 21
89.1059792047
  0
LINE
  5
232
100
AcDbEntity
  8
0
100
AcDbLine
 62
7
  6
BYLAYER
 10
44.3201516622
 20
104.8228483843
 11
33.9030979324
 21
98.8085955095
  0
LINE
  5
233
100
AcDbEntity
  8
0
100
AcDbLine
 62
7
  6
BYLAYER
 10
50.2739794313
 20
106.3937796594
 11
44.7537684392
 21
103.2067033813
  0
LINE
  5
234
100
AcDbEntity
  8
0
100
AcDbLine
 62
7
  6
BYLAYER
 10
36.7023868188
 20
98.5582637829
 11
29.216738499
 21
94.2364485082
  0
LINE
  5
235
100
AcDbEntity
  8
0
100
AcDbLine
 62
7
  6
BYLAYER
 10
13.988957989
 20
84.1285645848
 11
16.1442656755
 21
85.3729246299
  0
LINE
  5
236
100
AcDbEntity
  8
0
100
AcDbLine
 62
7
  6
BYLAYER
 10
31.0515156568
 20
74.2777151782
 11
31.0515156568
 21
76.7664145456
  0
LINE
  5
237
100
AcDbEntity
  8
0
100
AcDbLine
 62
7
  6
BYLAYER
 10
32.4882983103
 20
86.5136504135
 11
32.4882983103
 21
84.8545175019
  0
LINE
  5
238
100
AcDbEntity
  8
0
100
AcDbLine
 62
7
  6
BYLAYER
 10
32.4883626183
 20
77.596002244
 11
32.4883626183
 21
73.448169965
  0
LINE
  5
239
100
AcDbEntity
  8
0
100
AcDbLine
 62
7
  6
BYLAYER
 10
36.8868617893
 20
34.0219077337
 11
35.0294622366
 21
74.6070894752
  0
LINE
  5
23A
100
AcDbEntity
  8
0
100
AcDbLine
 62
7
  6
BYLAYER
 10
36.4663091981
 20
73.777544262
 11
38.3237087507
 21
33.1923625205
  0
LINE
  5
23B
100
AcDbEntity
  8
0
100
AcDbLine
 62
7
  6
BYLAYER
 10
33.8287038025
 20
98.7049023579
 11
33.8287038025
 21
96.8991520234
  0
LINE
  5
23C
100
AcDbEntity
  8
0
100
AcDbLine
 62
7
  6
BYLAYER
 10
34.08270486
 20
97.045798727
 11
34.08270486
 21
98.5582574859
  0
LINE
  5
23D
100
AcDbEntity
  8
0
100
AcDbLine
 62
7
  6
BYLAYER
 10
32.4883626183
 20
73.448169965
 11
31.0515156568
 21
74.2777151782
  0
LINE
  5
23E
100
AcDbEntity
  8
0
100
AcDbLine
 62
7
  6
BYLAYER
 10
13.988957989
 20
84.1285645848
 11
12.5521110275
 21
84.958109798
  0
LINE
  5
23F
100
AcDbEntity
  8
0
100
AcDbLine
 62
7
  6
BYLAYER
 10
44.7537684392
 20
103.2067033813
 11
44.7537575324
 21
104.7191558432
  0
LINE
  5
240
100
AcDbEntity
  8
0
100
AcDbLine
 62
7
  6
BYLAYER
 10
45.4615967197
 20
81.8200480666
 11
45.4615967197
 21
80.5952944409
  0
LINE
  5
241
100
AcDbEntity
  8
0
100
AcDbLine
 62
7
  6
BYLAYER
 10
46.0803125772
 20
83.8102665355
 11
46.0803125772
 21
82.1772617012
  0
LINE
  5
242
100
AcDbEntity
  8
0
100
AcDbLine
 62
7
  6
BYLAYER
 10
50.2739794313
 20
107.9451342519
 11
50.9560638791
 21
111.2783422424
  0
LINE
  5
243
100
AcDbEntity
  8
0
100
AcDbLine
 62
7
  6
BYLAYER
 10
97.3255418678
 20
115.0295416891
 11
70.8923154699
 21
99.7684024095
  0
LINE
  5
244
100
AcDbEntity
  8
0
100
AcDbLine
 62
7
  6
BYLAYER
 10
45.2638193957
 20
84.9718716255
 11
32.4883626183
 21
77.596002244
  0
LINE
  5
245
100
AcDbEntity
  8
0
100
AcDbLine
 62
7
  6
BYLAYER
 10
27.2956484701
 20
72.9883137931
 11
25.4996047236
 21
71.9513736423
  0
LINE
  5
246
100
AcDbEntity
  8
0
100
AcDbLine
 62
7
  6
BYLAYER
 10
64.256403253
 20
93.3129085514
 11
53.8393495232
 21
87.2986556766
  0
LINE
  5
247
100
AcDbEntity
  8
0
100
AcDbLine
 62
7
  6
BYLAYER
 10
46.0803125772
 20
82.1772617012
 11
45.4615967197
 21
81.8200480666
  0
LINE
  5
248
100
AcDbEntity
  8
0
100
AcDbLine
 62
7
  6
BYLAYER
 10
97.3255418678
 20
110.8817094101
 11
95.141263308
 21
109.6206231233
  0
LINE
  5
249
100
AcDbEntity
  8
0
100
AcDbLine
 62
7
  6
BYLAYER
 10
34.672641178
 20
74.7092562518
 11
32.4883626183
 21
73.448169965
  0
LINE
  5
24A
100
AcDbEntity
  8
0
100
AcDbLine
 62
7
  6
BYLAYER
 10
31.0515156568
 20
76.7664145456
 11
13.988957989
 21
86.6172639522
  0
LINE
  5
24B
100
AcDbEntity
  8
0
100
AcDbLine
 62
7
  6
BYLAYER
 10
35.0294622366
 20
74.6070894752
 11
36.4663091981
 21
73.777544262
  0
LINE
  5
24C
100
AcDbEntity
  8
0
100
AcDbLine
 62
7
  6
BYLAYER
 10
12.5521110275
 20
89.105942077
 11
32.4883626183
 21
77.596002244
  0
LINE
  5
24D
100
AcDbEntity
  8
0
100
AcDbLine
 62
7
  6
BYLAYER
 10
50.2739794313
 20
107.9451342519
 11
50.2739794313
 21
106.3937796594
  0
LINE
  5
24E
100
AcDbEntity
  8
0
100
AcDbLine
 62
7
  6
BYLAYER
 10
53.765176997
 20
87.1949619712
 11
53.8393495232
 21
87.2986556766
  0
LINE
  5
24F
100
AcDbEntity
  8
0
100
AcDbLine
 62
7
  6
BYLAYER
 10
45.4615967197
 20
80.5952944409
 11
56.6386384096
 21
87.0483239499
  0
LINE
  5
250
100
AcDbEntity
  8
0
100
AcDbLine
 62
7
  6
BYLAYER
 10
64.6900200299
 20
91.6967635484
 11
70.2102310221
 21
94.8838398264
  0
LINE
  5
251
100
AcDbEntity
  8
0
100
AcDbLine
 62
7
  6
BYLAYER
 10
24.9337793796
 20
66.3097335843
 11
26.7298231261
 21
67.3466737351
  0
LINE
  5
252
100
AcDbEntity
  8
0
100
AcDbLine
 62
7
  6
BYLAYER
 10
26.4932172485
 20
66.8396410078
 11
24.697173502
 21
65.802700857
  0
LINE
  5
253
100
AcDbEntity
  8
0
100
AcDbLine
 62
7
  6
BYLAYER
 10
23.5080421893
 20
86.5136288276
 11
27.998188944
 21
83.9213000364
  0
LINE
  5
254
100
AcDbEntity
  8
0
100
AcDbLine
 62
7
  6
BYLAYER
 10
27.9981515556
 20
87.4468462931
 11
32.4882983103
 21
84.8545175019
  0
LINE
  5
255
100
AcDbEntity
  8
0
100
AcDbLine
 62
7
  6
BYLAYER
 10
53.8393495232
 20
87.1012728738
 11
53.8393495232
 21
87.2986556766
  0
LINE
  5
256
100
AcDbEntity
  8
0
100
AcDbLine
 62
7
  6
BYLAYER
 10
56.6386384096
 20
78.5452355239
 11
64.256403253
 21
82.9433278538
  0
LINE
  5
257
100
AcDbEntity
  8
0
100
AcDbLine
 62
7
  6
BYLAYER
 10
32.4882983103
 20
86.5136504135
 11
27.9981515556
 21
89.1059792047
  0
LINE
  5
258
100
AcDbEntity
  8
0
100
AcDbLine
 62
7
  6
BYLAYER
 10
46.0803125772
 20
83.8102665355
 11
45.2638193957
 21
84.9718716255
  0
LINE
  5
259
100
AcDbEntity
  8
0
100
AcDbLine
 62
7
  6
BYLAYER
 10
56.6386384096
 20
87.0483239499
 11
56.6386384096
 21
76.6787432524
  0
LINE
  5
25A
100
AcDbEntity
  8
0
100
AcDbLine
 62
7
  6
BYLAYER
 10
56.6386384096
 20
76.6787432524
 11
64.6900200299
 21
81.3271828508
  0
LINE
  5
25B
100
AcDbEntity
  8
0
100
AcDbLine
 62
7
  6
BYLAYER
 10
25.3275678049
 20
96.4818114584
 11
45.2638193957
 21
84.9718716255
  0
LINE
  5
25C
100
AcDbEntity
  8
0
100
AcDbLine
 62
7
  6
BYLAYER
 10
64.256403253
 20
93.3129085514
 11
64.256403253
 21
82.9433278538
  0
LINE
  5
25D
100
AcDbEntity
  8
0
100
AcDbLine
 62
7
  6
BYLAYER
 10
64.6900091232
 20
93.2092160103
 11
64.6900200299
 21
81.3271828508
  0
LINE
  5
25E
100
AcDbEntity
  8
0
100
AcDbLine
 62
7
  6
BYLAYER
 10
70.8923154699
 20
99.7684024095
 11
70.2102310221
 21
96.435194419
  0
LINE
  5
25F
100
AcDbEntity
  8
0
100
AcDbLine
 62
7
  6
BYLAYER
 10
56.6386384096
 20
87.0483239499
 11
54.0189564508
 21
87.048317653
  0
LINE
  5
260
100
AcDbEntity
  8
0
100
AcDbLine
 62
7
  6
BYLAYER
 10
70.2102310221
 20
94.8838398264
 11
70.2102310221
 21
96.435194419
  0
LINE
  5
261
100
AcDbEntity
  8
0
100
AcDbLine
 62
7
  6
BYLAYER
 10
23.6499820458
 20
37.6510310282
 11
24.0348460408
 21
37.873231033
  0
LINE
  5
262
100
AcDbEntity
  8
0
100
AcDbLine
 62
7
  6
BYLAYER
 10
34.08270486
 20
98.5582574859
 11
36.7023868188
 21
98.5582637829
  0
LINE
  5
263
100
AcDbEntity
  8
0
100
AcDbLine
 62
7
  6
BYLAYER
 10
50.2739794313
 20
106.3937796594
 11
70.2102310221
 21
94.8838398264
  0
LINE
  5
264
100
AcDbEntity
  8
0
100
AcDbLine
 62
7
  6
BYLAYER
 10
50.2739794313
 20
107.9451342519
 11
70.2102310221
 21
96.435194419
  0
LINE
  5
265
100
AcDbEntity
  8
0
100
AcDbLine
 62
7
  6
BYLAYER
 10
81.8794639513
 20
118.5550508181
 11
81.8794639513
 21
120.2141837297
  0
LINE
  5
266
100
AcDbEntity
  8
0
100
AcDbLine
 62
7
  6
BYLAYER
 10
70.8923154699
 20
99.7684024095
 11
50.9560638791
 21
111.2783422424
  0
LINE
  5
267
100
AcDbEntity
  8
0
100
AcDbLine
 62
7
  6
BYLAYER
 10
86.369610706
 20
117.6218549385
 11
86.369610706
 21
115.9627220269
  0
LINE
  5
268
100
AcDbEntity
  8
0
100
AcDbLine
 62
7
  6
BYLAYER
 10
91.4901957353
 20
63.8878648655
 11
93.347595288
 21
106.6177740681
  0
LINE
  5
269
100
AcDbEntity
  8
0
100
AcDbLine
 62
7
  6
BYLAYER
 10
88.4852654118
 20
54.3386427958
 11
91.4901957353
 21
63.8878648655
  0
LINE
  5
26A
100
AcDbEntity
  8
0
100
AcDbLine
 62
7
  6
BYLAYER
 10
42.1493866751
 20
26.9706364085
 11
87.664517811
 21
53.2486527633
  0
LINE
  5
26B
100
AcDbEntity
  8
0
100
AcDbLine
 62
7
  6
BYLAYER
 10
97.3255418678
 20
110.8817094101
 11
97.3255418678
 21
115.0295416891
  0
LINE
  5
26C
100
AcDbEntity
  8
0
100
AcDbLine
 62
7
  6
BYLAYER
 10
77.389354585
 20
117.6218333526
 11
81.8795013397
 21
115.0295045614
  0
LINE
  5
26D
100
AcDbEntity
  8
0
100
AcDbLine
 62
7
  6
BYLAYER
 10
81.8794639513
 20
118.5550508181
 11
86.369610706
 21
115.9627220269
  0
LINE
  5
26E
100
AcDbEntity
  8
0
100
AcDbLine
 62
7
  6
BYLAYER
 10
86.369610706
 20
117.6218549385
 11
81.8794639513
 21
120.2141837297
  0
LINE
  5
26F
100
AcDbEntity
  8
0
100
AcDbLine
 62
7
  6
BYLAYER
 10
97.3255418678
 20
115.0295416891
 11
77.389290277
 21
126.5394815221
  0
ARC
  5
270
100
AcDbEntity
  8
0
100
AcDbCircle
 62
7
  6
BYLAYER
 10
33.1843158976
 20
74.5413467285
 40
1.8455402517
100
AcDbArc
 50
8.7336417978
 51
9.169683109
  0
SPLINE
  5
271
100
AcDbEntity
  8
0
100
AcDbSpline
 62
7
  6
BYLAYER
 70
0
 71
3
 72
14
 73
10
 74
0
 42
0.0000001
 43
0.0000001
 44
0.0000000001
 40
0.0
 40
0.0
 40
0.0
 40
0.0
 40
0.1085589237
 40
0.2190772143
 40
0.3333508813
 40
0.4528501342
 40
0.5787090444
 40
0.7117198827
 40
1.0
 40
1.0
 40
1.0
 40
1.0
 10
25.4996108613
 20
71.9513630237
 30
0.0
 10
25.3306478766
 20
71.8538064433
 30
0.0
 10
25.0055916741
 20
71.627859848
 30
0.0
 10
24.5744299419
 20
71.2083707702
 30
0.0
 10
24.2019484796
 20
70.7113303891
 30
0.0
 10
23.891116832
 20
70.142383435
 30
0.0
 10
23.6445743116
 20
69.5067294863
 30
0.0
 10
23.3973638317
 20
68.5532610278
 30
0.0
 10
23.3254726794
 20
67.7934484037
 30
0.0
 10
23.3175727415
 20
67.2754051571
 30
0.0
  0
SPLINE
  5
272
100
AcDbEntity
  8
0
100
AcDbSpline
 62
7
  6
BYLAYER
 70
0
 71
3
 72
18
 73
14
 74
0
 42
0.0000001
 43
0.0000001
 44
0.0000000001
 40
0.0
 40
0.0
 40
0.0
 40
0.0
 40
0.0440430795
 40
0.0891053951
 40
0.1360911488
 40
0.1857172486
 40
0.2384791036
 40
0.2946528049
 40
0.4172619716
 40
0.5525724716
 40
0.6976162697
 40
0.8483111442
 40
1.0
 40
1.0
 40
1.0
 40
1.0
 10
26.6426146355
 20
69.9716105815
 30
0.0
 10
26.7928898011
 20
70.0583918212
 30
0.0
 10
27.1144998343
 20
70.2052297098
 30
0.0
 10
27.6377332894
 20
70.3345332123
 30
0.0
 10
28.1971941611
 20
70.3730933808
 30
0.0
 10
28.7855788469
 20
70.3212680489
 30
0.0
 10
29.3960677235
 20
70.1803823755
 30
0.0
 10
30.2550846258
 20
69.8676230913
 30
0.0
 10
31.3400124636
 20
69.2543704301
 30
0.0
 10
32.5742238652
 20
68.2462852277
 30
0.0
 10
33.7251298397
 20
66.9899624984
 30
0.0
 10
34.7400580239
 20
65.5431537167
 30
0.0
 10
35.2997711427
 20
64.4871795292
 30
0.0
 10
35.5452270806
 20
63.9422445427
 30
0.0
  0
SPLINE
  5
273
100
AcDbEntity
  8
0
100
AcDbSpline
 62
7
  6
BYLAYER
 70
0
 71
3
 72
11
 73
7
 74
0
 42
0.0000001
 43
0.0000001
 44
0.0000000001
 40
0.0
 40
0.0
 40
0.0
 40
0.0
 40
0.2177416883
 40
0.4508634985
 40
0.7103528632
 40
1.0
 40
1.0
 40
1.0
 40
1.0
 10
41.5144007297
 20
26.9077417375
 30
0.0
 10
41.5562899279
 20
26.883570873
 30
0.0
 10
41.6525154099
 20
26.8486076613
 30
0.0
 10
41.8124098098
 20
26.8445853194
 30
0.0
 10
41.9827978872
 20
26.8857475937
 30
0.0
 10
42.0936721969
 20
26.9384698315
 30
0.0
 10
42.1493866751
 20
26.9706364085
 30
0.0
  0
SPLINE
  5
274
100
AcDbEntity
  8
0
100
AcDbSpline
 62
7
  6
BYLAYER
 70
0
 71
3
 72
9
 73
5
 74
0
 42
0.0000001
 43
0.0000001
 44
0.0000000001
 40
0.0
 40
0.0
 40
0.0
 40
0.0
 40
0.2349657121
 40
1.0
 40
1.0
 40
1.0
 40
1.0
 10
33.0497733162
 20
84.4154697742
 30
0.0
 10
33.0119756347
 20
84.456721906
 30
0.0
 10
32.8429619203
 20
84.6248053703
 30
0.0
 10
32.6460629352
 20
84.7634341138
 30
0.0
 10
32.4882983103
 20
84.8545175019
 30
0.0
  0
SPLINE
  5
275
100
AcDbEntity
  8
0
100
AcDbSpline
 62
7
  6
BYLAYER
 70
0
 71
3
 72
17
 73
13
 74
0
 42
0.0000001
 43
0.0000001
 44
0.0000000001
 40
0.0
 40
0.0
 40
0.0
 40
0.0
 40
0.0428584554
 40
0.0874839031
 40
0.1353177481
 40
0.1872794187
 40
0.3045395902
 40
0.4382053041
 40
0.582547581
 40
0.729712444
 40
0.8713059798
 40
1.0
 40
1.0
 40
1.0
 40
1.0
 10
33.4182328045
 20
85.2174752189
 30
0.0
 10
33.4182396384
 20
85.1270942744
 30
0.0
 10
33.3940129981
 20
84.9418284171
 30
0.0
 10
33.2878163827
 20
84.6742906814
 30
0.0
 10
33.115367968
 20
84.4206778795
 30
0.0
 10
32.7907965246
 20
84.0949108015
 30
0.0
 10
32.2377091539
 20
83.758241332
 30
0.0
 10
31.4424717458
 20
83.4925999756
 30
0.0
 10
30.5500114655
 20
83.3671627948
 30
0.0
 10
29.6326894708
 20
83.3925532523
 30
0.0
 10
28.7653741926
 20
83.5660365388
 30
0.0
 10
28.2332235529
 20
83.7856058115
 30
0.0
 10
27.998188944
 20
83.9213000364
 30
0.0
  0
SPLINE
  5
276
100
AcDbEntity
  8
0
100
AcDbSpline
 62
7
  6
BYLAYER
 70
0
 71
3
 72
11
 73
7
 74
0
 42
0.0000001
 43
0.0000001
 44
0.0000000001
 40
0.0
 40
0.0
 40
0.0
 40
0.0
 40
0.2177416883
 40
0.4508634985
 40
0.7103528632
 40
1.0
 40
1.0
 40
1.0
 40
1.0
 10
23.0149961004
 20
37.5881363572
 30
0.0
 10
23.0568852987
 20
37.5639654927
 30
0.0
 10
23.1531107806
 20
37.5290022811
 30
0.0
 10
23.3130051805
 20
37.5249799392
 30
0.0
 10
23.4833932579
 20
37.5661422135
 30
0.0
 10
23.5942675676
 20
37.6188644512
 30
0.0
 10
23.6499820458
 20
37.6510310282
 30
0.0
  0
SPLINE
  5
277
100
AcDbEntity
  8
0
100
AcDbSpline
 62
7
  6
BYLAYER
 70
0
 71
3
 72
9
 73
5
 74
0
 42
0.0000001
 43
0.0000001
 44
0.0000000001
 40
0.0
 40
0.0
 40
0.0
 40
0.0
 40
0.2349657121
 40
1.0
 40
1.0
 40
1.0
 40
1.0
 10
86.9310857119
 20
115.5236742992
 30
0.0
 10
86.8932880304
 20
115.564926431
 30
0.0
 10
86.724274316
 20
115.7330098954
 30
0.0
 10
86.5273753309
 20
115.8716386388
 30
0.0
 10
86.369610706
 20
115.9627220269
 30
0.0
  0
SPLINE
  5
278
100
AcDbEntity
  8
0
100
AcDbSpline
 62
7
  6
BYLAYER
 70
0
 71
3
 72
17
 73
13
 74
0
 42
0.0000001
 43
0.0000001
 44
0.0000000001
 40
0.0
 40
0.0
 40
0.0
 40
0.0
 40
0.0428584554
 40
0.0874839031
 40
0.1353177481
 40
0.1872794187
 40
0.3045395902
 40
0.4382053041
 40
0.582547581
 40
0.729712444
 40
0.8713059798
 40
1.0
 40
1.0
 40
1.0
 40
1.0
 10
87.2995452002
 20
116.3256797439
 30
0.0
 10
87.2995520341
 20
116.2352987994
 30
0.0
 10
87.2753253938
 20
116.0500329421
 30
0.0
 10
87.1691287784
 20
115.7824952065
 30
0.0
 10
86.9966803637
 20
115.5288824045
 30
0.0
 10
86.6721089203
 20
115.2031153265
 30
0.0
 10
86.1190215496
 20
114.8664458571
 30
0.0
 10
85.3237841415
 20
114.6008045006
 30
0.0
 10
84.4313238612
 20
114.4753673198
 30
0.0
 10
83.5140018665
 20
114.5007577773
 30
0.0
 10
82.6466865883
 20
114.6742410639
 30
0.0
 10
82.1145359486
 20
114.8938103365
 30
0.0
 10
81.8795013397
 20
115.0295045614
 30
0.0
  0
SPLINE
  5
279
100
AcDbEntity
  8
0
100
AcDbSpline
 62
7
  6
BYLAYER
 70
0
 71
3
 72
15
 73
11
 74
0
 42
0.0000001
 43
0.0000001
 44
0.0000000001
 40
0.0
 40
0.0
 40
0.0
 40
0.0
 40
0.1187336496
 40
0.2480273816
 40
0.3838485916
 40
0.5214799606
 40
0.6559550651
 40
0.7826822724
 40
0.8980142074
 40
1.0
 40
1.0
 40
1.0
 40
1.0
 10
81.8794639513
 20
118.5550508181
 30
0.0
 10
81.6952812181
 20
118.661386363
 30
0.0
 10
81.2867459221
 20
118.8432553917
 30
0.0
 10
80.6195430268
 20
119.0186454358
 30
0.0
 10
79.9006305602
 20
119.1018390688
 30
0.0
 10
79.1679266068
 20
119.0885344523
 30
0.0
 10
78.4596188986
 20
118.9793906273
 30
0.0
 10
77.8123660149
 20
118.7798896071
 30
0.0
 10
77.2596592803
 20
118.5002921363
 30
0.0
 10
76.9533269353
 20
118.2525141522
 30
0.0
 10
76.8297429162
 20
118.1179870529
 30
0.0
  0
SPLINE
  5
27A
100
AcDbEntity
  8
0
100
AcDbSpline
 62
7
  6
BYLAYER
 70
0
 71
3
 72
11
 73
7
 74
0
 42
0.0000001
 43
0.0000001
 44
0.0000000001
 40
0.0
 40
0.0
 40
0.0
 40
0.0
 40
0.2897036169
 40
0.5490920547
 40
0.7822205729
 40
1.0
 40
1.0
 40
1.0
 40
1.0
 10
77.389354585
 20
117.6218333526
 30
0.0
 10
77.2500378752
 20
117.7022660729
 30
0.0
 10
76.9972807296
 20
117.8763543966
 30
0.0
 10
76.6951945747
 20
118.1938187943
 30
0.0
 10
76.5041085112
 20
118.5450214499
 30
0.0
 10
76.4594292345
 20
118.7970788255
 30
0.0
 10
76.4594200907
 20
118.9180085473
 30
0.0
  0
SPLINE
  5
27B
100
AcDbEntity
  8
0
100
AcDbSpline
 62
7
  6
BYLAYER
 70
0
 71
3
 72
17
 73
13
 74
0
 42
0.0000001
 43
0.0000001
 44
0.0000000001
 40
0.0
 40
0.0
 40
0.0
 40
0.0
 40
0.1278334576
 40
0.2690201456
 40
0.4161360317
 40
0.560740876
 40
0.6948074202
 40
0.8124378683
 40
0.8645339334
 40
0.912449515
 40
0.9571217676
 40
1.0
 40
1.0
 40
1.0
 40
1.0
 10
23.3175727415
 20
67.2754051571
 30
0.0
 10
23.3160825011
 20
67.1776817342
 30
0.0
 10
23.3410820428
 20
66.9713737263
 30
0.0
 10
23.4409072293
 20
66.6676644329
 30
0.0
 10
23.597217634
 20
66.3741057864
 30
0.0
 10
23.7971724303
 20
66.1150857756
 30
0.0
 10
24.0242653184
 20
65.9118140376
 30
0.0
 10
24.2302912416
 20
65.7978432005
 30
0.0
 10
24.3916450793
 20
65.7540852349
 30
0.0
 10
24.5027076491
 20
65.7455258656
 30
0.0
 10
24.6061413675
 20
65.7603397753
 30
0.0
 10
24.6687556733
 20
65.786357261
 30
0.0
 10
24.6971492785
 20
65.8027430069
 30
0.0
  0
SPLINE
  5
27C
100
AcDbEntity
  8
0
100
AcDbSpline
 62
7
  6
BYLAYER
 70
0
 71
3
 72
12
 73
8
 74
0
 42
0.0000001
 43
0.0000001
 44
0.0000000001
 40
0.0
 40
0.0
 40
0.0
 40
0.0
 40
0.3065904326
 40
0.5837125481
 40
0.8116318921
 40
0.9090803606
 40
1.0
 40
1.0
 40
1.0
 40
1.0
 10
54.0189564508
 20
87.048317653
 30
0.0
 10
53.9863567333
 20
87.0483175746
 30
0.0
 10
53.9240088321
 20
87.0552069247
 30
0.0
 10
53.8420383177
 20
87.0846464908
 30
0.0
 10
53.7900974386
 20
87.1257751347
 30
0.0
 10
53.768532229
 20
87.1651237222
 30
0.0
 10
53.7649631964
 20
87.1852945125
 30
0.0
 10
53.7649650574
 20
87.1949619848
 30
0.0
  0
SPLINE
  5
27D
100
AcDbEntity
  8
0
100
AcDbSpline
 62
7
  6
BYLAYER
 70
0
 71
3
 72
13
 73
9
 74
0
 42
0.0000001
 43
0.0000001
 44
0.0000000001
 40
0.0
 40
0.0
 40
0.0
 40
0.0
 40
0.0870186095
 40
0.1868821964
 40
0.3045429645
 40
0.4386850547
 40
0.7300259559
 40
1.0
 40
1.0
 40
1.0
 40
1.0
 10
44.7537575324
 20
104.7191558432
 30
0.0
 10
44.7537574269
 20
104.7337836562
 30
0.0
 10
44.7448036307
 20
104.7654455736
 30
0.0
 10
44.7103918779
 20
104.8048298475
 30
0.0
 10
44.6593216849
 20
104.8358986154
 30
0.0
 10
44.5721269907
 20
104.8648703374
 30
0.0
 10
44.4533797314
 20
104.8709838655
 30
0.0
 10
44.359454196
 20
104.8455395774
 30
0.0
 10
44.3201516622
 20
104.8228483843
 30
0.0
  0
SPLINE
  5
27E
100
AcDbEntity
  8
0
100
AcDbSpline
 62
7
  6
BYLAYER
 70
0
 71
3
 72
13
 73
9
 74
0
 42
0.0000001
 43
0.0000001
 44
0.0000000001
 40
0.0
 40
0.0
 40
0.0
 40
0.0
 40
0.1161762739
 40
0.2406329718
 40
0.503134715
 40
0.7639319025
 40
0.8863873897
 40
1.0
 40
1.0
 40
1.0
 40
1.0
 10
93.347595288
 20
106.6177740681
 30
0.0
 10
93.3536837803
 20
106.7578412518
 30
0.0
 10
93.3897762638
 20
107.0472098494
 30
0.0
 10
93.5437676328
 20
107.6358664552
 30
0.0
 10
93.8745682398
 20
108.351593481
 30
0.0
 10
94.3461516151
 20
108.980795055
 30
0.0
 10
94.7877163167
 20
109.3884587392
 30
0.0
 10
95.0225261408
 20
109.552070597
 30
0.0
 10
95.141263308
 20
109.6206231233
 30
0.0
  0
SPLINE
  5
27F
100
AcDbEntity
  8
0
100
AcDbSpline
 62
7
  6
BYLAYER
 70
0
 71
3
 72
11
 73
7
 74
0
 42
0.0000001
 43
0.0000001
 44
0.0000000001
 40
0.0
 40
0.0
 40
0.0
 40
0.0
 40
0.2287922689
 40
0.4803104966
 40
0.7421267899
 40
1.0
 40
1.0
 40
1.0
 40
1.0
 10
87.664517811
 20
53.2486527633
 30
0.0
 10
87.7564080064
 20
53.3017052757
 30
0.0
 10
87.935016536
 20
53.4383472558
 30
0.0
 10
88.1648430914
 20
53.6966826074
 30
0.0
 10
88.3557020665
 20
54.0009863807
 30
0.0
 10
88.4493677678
 20
54.2245654172
 30
0.0
 10
88.4852654118
 20
54.3386427958
 30
0.0
  0
SPLINE
  5
280
100
AcDbEntity
  8
0
100
AcDbSpline
 62
7
  6
BYLAYER
 70
0
 71
3
 72
11
 73
7
 74
0
 42
0.0000001
 43
0.0000001
 44
0.0000000001
 40
0.0
 40
0.0
 40
0.0
 40
0.0
 40
0.2897222905
 40
0.5490831528
 40
0.7822150648
 40
1.0
 40
1.0
 40
1.0
 40
1.0
 10
34.672641178
 20
74.7092562518
 30
0.0
 10
34.7840993723
 20
74.7736062861
 30
0.0
 10
35.0058030748
 20
74.8790919468
 30
0.0
 10
35.3465845985
 20
74.961369968
 30
0.0
 10
35.6663157407
 20
74.9532685839
 30
0.0
 10
35.8588379085
 20
74.8834320742
 30
0.0
 10
35.9426119515
 20
74.8350438145
 30
0.0
  0
SPLINE
  5
281
100
AcDbEntity
  8
0
100
AcDbSpline
 62
7
  6
BYLAYER
 70
0
 71
3
 72
9
 73
5
 74
0
 42
0.0000001
 43
0.0000001
 44
0.0000000001
 40
0.0
 40
0.0
 40
0.0
 40
0.0
 40
0.255382862
 40
1.0
 40
1.0
 40
1.0
 40
1.0
 10
35.0294622366
 20
74.6070894752
 30
0.0
 10
35.0286232782
 20
74.6254211686
 30
0.0
 10
35.0244356478
 20
74.6971566141
 30
0.0
 10
35.016581672
 20
74.7686907637
 30
0.0
 10
35.0084569294
 20
74.8215757719
 30
0.0
  0
SPLINE
  5
282
100
AcDbEntity
  8
0
100
AcDbSpline
 62
7
  6
BYLAYER
 70
0
 71
3
 72
15
 73
11
 74
0
 42
0.0000001
 43
0.0000001
 44
0.0000000001
 40
0.0
 40
0.0
 40
0.0
 40
0.0
 40
0.1187336496
 40
0.2480273816
 40
0.3838485916
 40
0.5214799606
 40
0.6559550651
 40
0.7826822724
 40
0.8980142074
 40
1.0
 40
1.0
 40
1.0
 40
1.0
 10
27.9981515556
 20
87.4468462931
 30
0.0
 10
27.8139688224
 20
87.553181838
 30
0.0
 10
27.4054335264
 20
87.7350508667
 30
0.0
 10
26.7382306311
 20
87.9104409108
 30
0.0
 10
26.0193181645
 20
87.9936345438
 30
0.0
 10
25.2866142112
 20
87.9803299273
 30
0.0
 10
24.5783065029
 20
87.8711861023
 30
0.0
 10
23.9310536192
 20
87.6716850821
 30
0.0
 10
23.3783468846
 20
87.3920876113
 30
0.0
 10
23.0720145396
 20
87.1443096272
 30
0.0
 10
22.9484305205
 20
87.0097825279
 30
0.0
  0
SPLINE
  5
283
100
AcDbEntity
  8
0
100
AcDbSpline
 62
7
  6
BYLAYER
 70
0
 71
3
 72
11
 73
7
 74
0
 42
0.0000001
 43
0.0000001
 44
0.0000000001
 40
0.0
 40
0.0
 40
0.0
 40
0.0
 40
0.2897036169
 40
0.5490920547
 40
0.7822205729
 40
1.0
 40
1.0
 40
1.0
 40
1.0
 10
23.5080421893
 20
86.5136288276
 30
0.0
 10
23.3687254795
 20
86.5940615479
 30
0.0
 10
23.1159683339
 20
86.7681498716
 30
0.0
 10
22.813882179
 20
87.0856142693
 30
0.0
 10
22.6227961155
 20
87.4368169249
 30
0.0
 10
22.5781168388
 20
87.6888743004
 30
0.0
 10
22.578107695
 20
87.8098040222
 30
0.0
  0
SPLINE
  5
284
100
AcDbEntity
  8
0
100
AcDbSpline
 62
7
  6
BYLAYER
 70
0
 71
3
 72
17
 73
13
 74
0
 42
0.0000001
 43
0.0000001
 44
0.0000000001
 40
0.0
 40
0.0
 40
0.0
 40
0.0
 40
0.0428584554
 40
0.0874839031
 40
0.1353177481
 40
0.1872794187
 40
0.3045395902
 40
0.4382053041
 40
0.582547581
 40
0.729712444
 40
0.8713059798
 40
1.0
 40
1.0
 40
1.0
 40
1.0
 10
22.578107695
 20
87.8098040222
 30
0.0
 10
22.5781008612
 20
87.9001849667
 30
0.0
 10
22.6023275015
 20
88.085450824
 30
0.0
 10
22.7085241169
 20
88.3529885597
 30
0.0
 10
22.8809725316
 20
88.6066013616
 30
0.0
 10
23.205543975
 20
88.9323684396
 30
0.0
 10
23.7586313457
 20
89.2690379091
 30
0.0
 10
24.5538687538
 20
89.5346792655
 30
0.0
 10
25.446329034
 20
89.6601164463
 30
0.0
 10
26.3636510288
 20
89.6347259888
 30
0.0
 10
27.230966307
 20
89.4612427023
 30
0.0
 10
27.7631169467
 20
89.2416734296
 30
0.0
 10
27.9981515556
 20
89.1059792047
 30
0.0
  0
SPLINE
  5
285
100
AcDbEntity
  8
0
100
AcDbSpline
 62
7
  6
BYLAYER
 70
0
 71
3
 72
17
 73
13
 74
0
 42
0.0000001
 43
0.0000001
 44
0.0000000001
 40
0.0
 40
0.0
 40
0.0
 40
0.0
 40
0.0428584554
 40
0.0874839031
 40
0.1353177481
 40
0.1872794187
 40
0.3045395902
 40
0.4382053041
 40
0.582547581
 40
0.729712444
 40
0.8713059798
 40
1.0
 40
1.0
 40
1.0
 40
1.0
 10
76.4594200907
 20
118.9180085473
 30
0.0
 10
76.4594132569
 20
119.0083894917
 30
0.0
 10
76.4836398972
 20
119.193655349
 30
0.0
 10
76.5898365126
 20
119.4611930847
 30
0.0
 10
76.7622849273
 20
119.7148058866
 30
0.0
 10
77.0868563707
 20
120.0405729646
 30
0.0
 10
77.6399437414
 20
120.3772424341
 30
0.0
 10
78.4351811495
 20
120.6428837906
 30
0.0
 10
79.3276414297
 20
120.7683209713
 30
0.0
 10
80.2449634245
 20
120.7429305138
 30
0.0
 10
81.1122787027
 20
120.5694472273
 30
0.0
 10
81.6444293424
 20
120.3498779546
 30
0.0
 10
81.8794639513
 20
120.2141837297
 30
0.0
  0
SPLINE
  5
286
100
AcDbEntity
  8
0
100
AcDbSpline
 62
7
  6
BYLAYER
 70
0
 71
3
 72
11
 73
7
 74
0
 42
0.0000001
 43
0.0000001
 44
0.0000000001
 40
0.0
 40
0.0
 40
0.0
 40
0.0
 40
0.222128309
 40
0.4609243781
 40
0.7199178525
 40
1.0
 40
1.0
 40
1.0
 40
1.0
 10
27.6868665229
 20
70.3760965091
 30
0.0
 10
27.5321063723
 20
70.1932473618
 30
0.0
 10
27.2545704882
 20
69.7754602335
 30
0.0
 10
26.9600634509
 20
69.0526858339
 30
0.0
 10
26.7779673836
 20
68.2303827319
 30
0.0
 10
26.7344287243
 20
67.6486886444
 30
0.0
 10
26.7298231261
 20
67.3466737351
 30
0.0
  0
SPLINE
  5
287
100
AcDbEntity
  8
0
100
AcDbSpline
 62
7
  6
BYLAYER
 70
0
 71
3
 72
17
 73
13
 74
0
 42
0.0000001
 43
0.0000001
 44
0.0000000001
 40
0.0
 40
0.0
 40
0.0
 40
0.0
 40
0.1563667624
 40
0.3073198237
 40
0.4498662695
 40
0.5816831248
 40
0.7014583631
 40
0.8093129874
 40
0.8594261151
 40
0.9075021201
 40
0.9541283933
 40
1.0
 40
1.0
 40
1.0
 40
1.0
 10
35.4556031797
 20
66.810969182
 30
0.0
 10
35.1054596679
 20
67.3399271673
 30
0.0
 10
34.362102207
 20
68.3443567682
 30
0.0
 10
33.1183921266
 20
69.6852618378
 30
0.0
 10
31.7971252403
 20
70.802324089
 30
0.0
 10
30.4398875733
 20
71.6591760141
 30
0.0
 10
29.0888922885
 20
72.227652432
 30
0.0
 10
27.9725952642
 20
72.4478604568
 30
0.0
 10
27.1344371123
 20
72.4488479356
 30
0.0
 10
26.5503943889
 20
72.3682104446
 30
0.0
 10
26.0013792516
 20
72.2062518277
 30
0.0
 10
25.660768582
 20
72.0444129671
 30
0.0
 10
25.4996108613
 20
71.9513630237
 30
0.0
  0
SPLINE
  5
288
100
AcDbEntity
  8
0
100
AcDbSpline
 62
7
  6
BYLAYER
 70
0
 71
3
 72
13
 73
9
 74
0
 42
0.0000001
 43
0.0000001
 44
0.0000000001
 40
0.0
 40
0.0
 40
0.0
 40
0.0
 40
0.2883952413
 40
0.5469537347
 40
0.6664993214
 40
0.7808220795
 40
0.8913924153
 40
1.0
 40
1.0
 40
1.0
 40
1.0
 10
24.9337793796
 20
66.3097335843
 30
0.0
 10
24.9399658105
 20
66.7154125678
 30
0.0
 10
25.0126968683
 20
67.4861584088
 30
0.0
 10
25.2932646437
 20
68.3907330166
 30
0.0
 10
25.6263487029
 20
69.000504742
 30
0.0
 10
25.9181017717
 20
69.3897188994
 30
0.0
 10
26.255691845
 20
69.7183060784
 30
0.0
 10
26.510299088
 20
69.8952007023
 30
0.0
 10
26.6426146355
 20
69.9716105815
 30
0.0
  0
SPLINE
  5
289
100
AcDbEntity
  8
0
100
AcDbSpline
 62
7
  6
BYLAYER
 70
0
 71
3
 72
21
 73
17
 74
0
 42
0.0000001
 43
0.0000001
 44
0.0000000001
 40
0.0
 40
0.0
 40
0.0
 40
0.0
 40
0.0436152199
 40
0.090111319
 40
0.1403235133
 40
0.1946659466
 40
0.2531859009
 40
0.3156387622
 40
0.38155087
 40
0.4502736102
 40
0.5928632745
 40
0.7365679437
 40
0.8066436363
 40
0.8743626867
 40
0.9390304659
 40
1.0
 40
1.0
 40
1.0
 40
1.0
 10
35.9024397417
 20
56.7216789867
 30
0.0
 10
35.6902006592
 20
56.6630311497
 30
0.0
 10
35.2361852536
 20
56.5936464874
 30
0.0
 10
34.5247754469
 20
56.6331585539
 30
0.0
 10
33.779451808
 20
56.8102446536
 30
0.0
 10
33.0138822003
 20
57.1201961811
 30
0.0
 10
32.2413318365
 20
57.5564670213
 30
0.0
 10
31.4756780649
 20
58.110772817
 30
0.0
 10
30.730831222
 20
58.7728127933
 30
0.0
 10
29.7724352813
 20
59.7949353689
 30
0.0
 10
28.7177366623
 20
61.2544389789
 30
0.0
 10
27.899708337
 20
62.8659108019
 30
0.0
 10
27.4164947231
 20
64.2039471303
 30
0.0
 10
27.1536268819
 20
65.1932173325
 30
0.0
 10
26.9924653322
 20
66.1574617319
 30
0.0
 10
26.9534414314
 20
66.7921303748
 30
0.0
 10
26.9534414314
 20
67.0999373781
 30
0.0
  0
SPLINE
  5
28A
100
AcDbEntity
  8
0
100
AcDbSpline
 62
7
  6
BYLAYER
 70
0
 71
3
 72
11
 73
7
 74
0
 42
0.0000001
 43
0.0000001
 44
0.0000000001
 40
0.0
 40
0.0
 40
0.0
 40
0.0
 40
0.2206479473
 40
0.4550176023
 40
0.7133379976
 40
1.0
 40
1.0
 40
1.0
 40
1.0
 10
35.9426119515
 20
74.8350438145
 30
0.0
 10
36.0208227298
 20
74.7898689213
 30
0.0
 10
36.1676877188
 20
74.6694688593
 30
0.0
 10
36.3296749431
 20
74.4221680584
 30
0.0
 10
36.4330869624
 20
74.1175350727
 30
0.0
 10
36.4609445959
 20
73.8947637134
 30
0.0
 10
36.4663091981
 20
73.777544262
 30
0.0
  0
SPLINE
  5
28B
100
AcDbEntity
  8
0
100
AcDbSpline
 62
7
  6
BYLAYER
 70
0
 71
3
 72
13
 73
9
 74
0
 42
0.0000001
 43
0.0000001
 44
0.0000000001
 40
0.0
 40
0.0
 40
0.0
 40
0.0
 40
0.2699754461
 40
0.5613166997
 40
0.6954586098
 40
0.8131187853
 40
0.9129817127
 40
1.0
 40
1.0
 40
1.0
 40
1.0
 10
64.256403253
 20
93.3129085514
 30
0.0
 10
64.2957059942
 20
93.3355998642
 30
0.0
 10
64.389631891
 20
93.3610441392
 30
0.0
 10
64.5083794
 20
93.354930363
 30
0.0
 10
64.5955740068
 20
93.3259584858
 30
0.0
 10
64.6466438151
 20
93.2948896135
 30
0.0
 10
64.6810554947
 20
93.2555055891
 30
0.0
 10
64.6900090177
 20
93.2238437703
 30
0.0
 10
64.6900091232
 20
93.2092160103
 30
0.0
  0
SPLINE
  5
28C
100
AcDbEntity
  8
0
100
AcDbSpline
 62
7
  6
BYLAYER
 70
0
 71
3
 72
11
 73
7
 74
0
 42
0.0000001
 43
0.0000001
 44
0.0000000001
 40
0.0
 40
0.0
 40
0.0
 40
0.0
 40
0.2897036169
 40
0.5490920547
 40
0.7822205729
 40
1.0
 40
1.0
 40
1.0
 40
1.0
 10
32.4882983103
 20
86.5136504135
 30
0.0
 10
32.6276150201
 20
86.4332176932
 30
0.0
 10
32.8803721657
 20
86.2591293695
 30
0.0
 10
33.1824583206
 20
85.9416649718
 30
0.0
 10
33.3735443841
 20
85.5904623162
 30
0.0
 10
33.4182236608
 20
85.3384049407
 30
0.0
 10
33.4182328045
 20
85.2174752189
 30
0.0
  0
SPLINE
  5
28D
100
AcDbEntity
  8
0
100
AcDbSpline
 62
7
  6
BYLAYER
 70
0
 71
3
 72
11
 73
7
 74
0
 42
0.0000001
 43
0.0000001
 44
0.0000000001
 40
0.0
 40
0.0
 40
0.0
 40
0.0
 40
0.2897036169
 40
0.5490920547
 40
0.7822205729
 40
1.0
 40
1.0
 40
1.0
 40
1.0
 10
86.369610706
 20
117.6218549385
 30
0.0
 10
86.5089274158
 20
117.5414222182
 30
0.0
 10
86.7616845614
 20
117.3673338945
 30
0.0
 10
87.0637707163
 20
117.0498694968
 30
0.0
 10
87.2548567798
 20
116.6986668412
 30
0.0
 10
87.2995360565
 20
116.4466094657
 30
0.0
 10
87.2995452002
 20
116.3256797439
 30
0.0
  0
SPLINE
  5
28E
100
AcDbEntity
  8
0
100
AcDbSpline
 62
7
  6
BYLAYER
 70
0
 71
3
 72
12
 73
8
 74
0
 42
0.0000001
 43
0.0000001
 44
0.0000000001
 40
0.0
 40
0.0
 40
0.0
 40
0.0
 40
0.0909199541
 40
0.1883686966
 40
0.416288579
 40
0.6934100417
 40
1.0
 40
1.0
 40
1.0
 40
1.0
 10
33.828713492
 20
98.7049018185
 30
0.0
 10
33.82871164
 20
98.6952343117
 30
0.0
 10
33.8322805718
 20
98.6750634319
 30
0.0
 10
33.8538460479
 20
98.6357148173
 30
0.0
 10
33.9057869123
 20
98.5945862083
 30
0.0
 10
33.9877573925
 20
98.5651466204
 30
0.0
 10
34.0501051894
 20
98.5582574076
 30
0.0
 10
34.08270486
 20
98.5582574859
 30
0.0
  0
SPLINE
  5
28F
100
AcDbEntity
  8
0
100
AcDbSpline
 62
7
  6
BYLAYER
 70
0
 71
3
 72
11
 73
7
 74
0
 42
0.0000001
 43
0.0000001
 44
0.0000000001
 40
0.0
 40
0.0
 40
0.0
 40
0.0
 40
0.2847794446
 40
0.5444473334
 40
0.7809580998
 40
1.0
 40
1.0
 40
1.0
 40
1.0
 10
26.9534414314
 20
67.0999373781
 30
0.0
 10
26.9534414314
 20
67.4405160442
 30
0.0
 10
26.9975835937
 20
68.0931028891
 30
0.0
 10
27.2172644097
 20
69.0063210331
 30
0.0
 10
27.5847865077
 20
69.7862013166
 30
0.0
 10
27.9352506048
 20
70.2131349756
 30
0.0
 10
28.1286616831
 20
70.3898141146
 30
0.0
  0
SPLINE
  5
290
100
AcDbEntity
  8
0
100
AcDbSpline
 62
7
  6
BYLAYER
 70
0
 71
3
 72
15
 73
11
 74
0
 42
0.0000001
 43
0.0000001
 44
0.0000000001
 40
0.0
 40
0.0
 40
0.0
 40
0.0
 40
0.0983032407
 40
0.2004932994
 40
0.3097489778
 40
0.4281690553
 40
0.5567387745
 40
0.6954836177
 40
0.8436735012
 40
1.0
 40
1.0
 40
1.0
 40
1.0
 10
27.2956537359
 20
72.9883047045
 30
0.0
 10
27.5496532643
 20
73.1349568098
 30
0.0
 10
28.1080922243
 20
73.3689766711
 30
0.0
 10
29.0290230615
 20
73.5117243158
 30
0.0
 10
30.0179576863
 20
73.4506487364
 30
0.0
 10
31.053743308
 20
73.1907041307
 30
0.0
 10
32.1167897246
 20
72.7396399161
 30
0.0
 10
33.1868767025
 20
72.1075748012
 30
0.0
 10
34.243149632
 20
71.3076837092
 30
0.0
 10
34.909130137
 20
70.6872221268
 30
0.0
 10
35.2356186031
 20
70.354135394
 30
0.0
  0
SPLINE
  5
291
100
AcDbEntity
  8
0
100
AcDbSpline
 62
7
  6
BYLAYER
 70
0
 71
3
 72
13
 73
9
 74
0
 42
0.0000001
 43
0.0000001
 44
0.0000000001
 40
0.0
 40
0.0
 40
0.0
 40
0.0
 40
0.0870186095
 40
0.1868821964
 40
0.3045429645
 40
0.4386850547
 40
0.7300259559
 40
1.0
 40
1.0
 40
1.0
 40
1.0
 10
64.6900091232
 20
82.8396353127
 30
0.0
 10
64.6900090177
 20
82.8542631257
 30
0.0
 10
64.6810552215
 20
82.8859250432
 30
0.0
 10
64.6466434687
 20
82.925309317
 30
0.0
 10
64.5955732757
 20
82.9563780849
 30
0.0
 10
64.5083785814
 20
82.9853498069
 30
0.0
 10
64.3896313222
 20
82.991463335
 30
0.0
 10
64.2957057868
 20
82.9660190469
 30
0.0
 10
64.256403253
 20
82.9433278538
 30
0.0
  0
SPLINE
  5
292
100
AcDbEntity
  8
0
100
AcDbSpline
 62
7
  6
BYLAYER
 70
0
 71
3
 72
11
 73
7
 74
0
 42
0.0000001
 43
0.0000001
 44
0.0000000001
 40
0.0
 40
0.0
 40
0.0
 40
0.0
 40
0.2885205292
 40
0.5477561255
 40
0.7813159178
 40
1.0
 40
1.0
 40
1.0
 40
1.0
 10
26.7298231261
 20
67.3466737351
 30
0.0
 10
26.7289673299
 20
67.2905543812
 30
0.0
 10
26.718786001
 20
67.1837938699
 30
0.0
 10
26.6735302349
 20
67.0373111199
 30
0.0
 10
26.5991038099
 20
66.9184318134
 30
0.0
 10
26.5300382167
 20
66.8609464989
 30
0.0
 10
26.4931941118
 20
66.8396811623
 30
0.0
  0
SPLINE
  5
293
100
AcDbEntity
  8
0
100
AcDbSpline
 62
7
  6
BYLAYER
 70
0
 71
3
 72
11
 73
7
 74
0
 42
0.0000001
 43
0.0000001
 44
0.0000000001
 40
0.0
 40
0.0
 40
0.0
 40
0.0
 40
0.2186861694
 40
0.452254029
 40
0.7114932709
 40
1.0
 40
1.0
 40
1.0
 40
1.0
 10
24.6971492785
 20
65.8027430069
 30
0.0
 10
24.7339948959
 20
65.8240063484
 30
0.0
 10
24.8030602453
 20
65.8814956583
 30
0.0
 10
24.8774889618
 20
66.0003758182
 30
0.0
 10
24.9227415938
 20
66.1468590867
 30
0.0
 10
24.9329236262
 20
66.2536170377
 30
0.0
 10
24.9337793796
 20
66.3097335843
 30
0.0
  0
ENDSEC
  0
SECTION
  2
OBJECTS
  0
DICTIONARY
  5
C
100
AcDbDictionary
280
0
281
1
  3
ACAD_GROUP
350
D
  3
ACAD_MLINESTYLE
350
17
  3
ACAD_LAYOUT
350
1A
  3
ACAD_PLOTSETTINGS
350
19
  3
ACAD_PLOTSTYLENAME
350
E
  0
DICTIONARY
  5
D
102
{ACAD_REACTORS
330
C
102
}
100
AcDbDictionary
280
0
281
1
  0
ACDBDICTIONARYWDFLT
  5
E
102
{ACAD_REACTORS
330
C
102
}
100
AcDbDictionary
281
1
  3
Normal
350
F
100
AcDbDictionaryWithDefault
340
F
  0
DICTIONARY
  5
17
102
{ACAD_REACTORS
330
C
102
}
100
AcDbDictionary
280
0
281
1
  3
Standard
350
18
  0
DICTIONARY
  5
19
102
{ACAD_REACTORS
330
C
102
}
100
AcDbDictionary
281
1
  0
DICTIONARY
  5
1A
102
{ACAD_REACTORS
330
C
102
}
100
AcDbDictionary
281
1
  3
Model
350
294
  3
Layout1
350
295
  0
ACDBPLACEHOLDER
  5
F
102
{ACAD_REACTORS
330
E
102
}
  0
MLINESTYLE
  5
18
102
{ACAD_REACTORS
330
17
102
}
100
AcDbMlineStyle
  2
STANDARD
 70
0
  3

 62
256
 51
90.0
 52
90.0
 71
2
 49
0.5
 62
256
  6
BYLAYER
 49
-0.5
 62
256
  6
BYLAYER
  0
LAYOUT
  5
294
102
{ACAD_REACTORS
330
1A
102
}
100
AcDbPlotSettings
  1

  2
none_device
  4

  6

 40
0.0
 41
0.0
 42
0.0
 43
0.0
 44
210.0
 45
297.0
 46
0.0
 47
0.0
 48
0.0
 49
0.0
140
0.0
141
0.0
142
1.0
143
1.0
 70
1024
 72
1
 73
0
 74
0
  7

 75
0
147
1.0
148
0.0
149
0.0
100
AcDbLayout
  1
Model
 70
0
 71
0
 10
0.0
 20
0.0
 11
210.0
 21
297.0
 12
0.0
 22
0.0
 32
0.0
 14
0.0
 24
0.0
 34
0.0
 15
0.0
 25
0.0
 35
0.0
146
0.0
 13
0.0
 23
0.0
 33
0.0
 16
1.0
 26
0.0
 36
0.0
 17
0.0
 27
1.0
 37
0.0
 76
0
330
211
345
0
346
0
  0
LAYOUT
  5
295
102
{ACAD_REACTORS
330
1A
102
}
100
AcDbPlotSettings
  1

  2
none_device
  4

  6

 40
0.0
 41
0.0
 42
0.0
 43
0.0
 44
210.0
 45
297.0
 46
0.0
 47
0.0
 48
0.0
 49
0.0
140
0.0
141
0.0
142
1.0
143
1.0
 70
0
 72
1
 73
0
 74
0
  7

 75
0
147
1.0
148
0.0
149
0.0
100
AcDbLayout
  1
Layout1
 70
0
 71
1
 10
0.0
 20
0.0
 11
210.0
 21
297.0
 12
0.0
 22
0.0
 32
0.0
 14
0.0
 24
0.0
 34
0.0
 15
0.0
 25
0.0
 35
0.0
146
0.0
 13
0.0
 23
0.0
 33
0.0
 16
1.0
 26
0.0
 36
0.0
 17
0.0
 27
1.0
 37
0.0
 76
0
330
212
345
0
346
0
  0
ENDSEC
  0
EOF
