999
DXF file: C:\Users\sesa63760\Dev\_Creo\CAD\MCADPP0003368_3D-CAD\drw0001_6.dxf
999
Pro/ENGINEER 2019471 by Parametric Technology Corporation
  0
SECTION
  2
HEADER
  9
$ACADVER
  1
AC1024
  9
$DWGCODEPAGE
  3
ANSI_1252
  9
$EXTMAX
 10
120.9708242159
 20
171.0873085339
 30
0.0
  9
$EXTMIN
 10
0.0
 20
0.0
 30
0.0
  9
$LIMMIN
 10
0.0
 20
0.0
  9
$LIMMAX
 10
120.9708242159
 20
171.0873085339
  9
$VIEWCTR
 10
60.485412108
 20
85.543654267
  9
$VIEWSIZE
 40
171.0873085339
  9
$CLAYER
  8
0
  9
$LTSCALE
 40
11.1523578896
  9
$CELTYPE
  6
BYLAYER
  9
$DIMSCALE
 40
1.0
  9
$DIMASZ
 40
1.4401288597
  9
$DIMEXO
 40
1.0
  9
$DIMDLI
 40
7.705265451
  9
$DIMEXE
 40
1.0
  9
$DIMCEN
 40
1.824931291
  9
$DIMLFAC
 40
1.0
  9
$DIMBLK
  1
_FILLED
  9
$DIMALT
 70
0
  9
$DIMALTF
 40
0.0393700787
  9
$DIMTXT
 40
2.0161804036
  9
$DIMTOL
 70
1
  9
$DIMLIM
 70
0
  9
$DIMTFAC
 40
1.0
  9
$DIMTP
 40
0.01
  9
$DIMTM
 40
0.01
  9
$DIMGAP
 40
0.625
  9
$DIMDSEP
 70
46
  9
$AUNITS
 70
0
  9
$PDMODE
 70
3
  9
$PDSIZE
 40
0.3125
  9
$HANDSEED
  5
261
  9
$TILEMODE
 70
1
  9
$MEASUREMENT
 70
1
  9
$INSUNITS
 70
4
  0
ENDSEC
  0
SECTION
  2
CLASSES
  0
CLASS
  1
ACDBDICTIONARYWDFLT
  2
AcDbDictionaryWithDefault
  3
AutoCAD 2000
 90
0
 91
1
280
0
281
0
  0
CLASS
  1
ACDBPLACEHOLDER
  2
AcDbPlaceHolder
  3
AutoCAD 2000
 90
0
 91
1
280
0
281
0
  0
CLASS
  1
LAYOUT
  2
AcDbLayout
  3
AutoCAD 2000
 90
0
 91
0
280
0
281
0
  0
ENDSEC
  0
SECTION
  2
TABLES
  0
TABLE
  2
VPORT
  5
8
100
AcDbSymbolTable
 70
2
  0
VPORT
  5
1F4
100
AcDbSymbolTableRecord
100
AcDbViewportTableRecord
  2
*ACTIVE
 70
0
 10
0.0
 20
0.0
 11
1.0
 21
1.0
 12
60.485412108
 22
85.543654267
 13
0.0
 23
0.0
 14
1.0
 24
1.0
 15
0.0
 25
0.0
 16
0.0
 26
0.0
 36
1.0
 17
0.0
 27
0.0
 37
0.0
 40
171.0873085339
 41
0.7070707071
 42
50.0
 43
0.0
 44
0.0
 50
0.0
 51
0.0
 71
0
 72
100
 73
1
 74
1
 75
0
 76
0
 77
0
 78
0
  0
ENDTAB
  0
TABLE
  2
LTYPE
  5
5
100
AcDbSymbolTable
 70
6
  0
LTYPE
  5
14
100
AcDbSymbolTableRecord
100
AcDbLinetypeTableRecord
  2
BYBLOCK
 70
0
  3

 72
65
 73
0
 40
0.0
  0
LTYPE
  5
15
100
AcDbSymbolTableRecord
100
AcDbLinetypeTableRecord
  2
BYLAYER
 70
0
  3

 72
65
 73
0
 40
0.0
  0
LTYPE
  5
16
100
AcDbSymbolTableRecord
100
AcDbLinetypeTableRecord
  2
CONTINUOUS
 70
64
  3
Solid line
 72
65
 73
0
 40
0.0
  0
LTYPE
  5
1F5
100
AcDbSymbolTableRecord
100
AcDbLinetypeTableRecord
  2
CENTER
 70
64
  3
____ _ ____ _ ____ _ ____ _ ____ _ ____ _ ____
 72
65
 73
4
 40
0.6
 49
0.375
 74
0
 49
-0.075
 74
0
 49
0.075
 74
0
 49
-0.075
 74
0
  0
LTYPE
  5
1F6
100
AcDbSymbolTableRecord
100
AcDbLinetypeTableRecord
  2
HIDDEN
 70
64
  3
- - - - - - - - - - - - - - - - - - - -
 72
65
 73
2
 40
0.2
 49
0.1
 74
0
 49
-0.1
 74
0
  0
LTYPE
  5
1F7
100
AcDbSymbolTableRecord
100
AcDbLinetypeTableRecord
  2
PHANTOM
 70
64
  3
_____ _ _ _____ _ _ _____ _ _ _____
 72
65
 73
6
 40
0.8
 49
0.45
 74
0
 49
-0.05
 74
0
 49
0.1
 74
0
 49
-0.05
 74
0
 49
0.1
 74
0
 49
-0.05
 74
0
  0
LTYPE
  5
1F8
100
AcDbSymbolTableRecord
100
AcDbLinetypeTableRecord
  2
DOT
 70
64
  3
. . . . . . . . . . . . . . . . . . . .
 72
65
 73
2
 40
0.2
 49
0.1
 74
0
 49
-0.1
 74
0
  0
LTYPE
  5
1F9
100
AcDbSymbolTableRecord
100
AcDbLinetypeTableRecord
  2
DASHED
 70
64
  3
- - - - - - - - - - - - - - - - - - - -
 72
65
 73
2
 40
0.2
 49
0.1
 74
0
 49
-0.1
 74
0
  0
ENDTAB
  0
TABLE
  2
LAYER
  5
2
100
AcDbSymbolTable
 70
36
  0
LAYER
  5
10
100
AcDbSymbolTableRecord
100
AcDbLayerTableRecord
  2
0
 70
0
 62
7
  6
CONTINUOUS
370
-3
390
F
  0
LAYER
  5
1FA
100
AcDbSymbolTableRecord
100
AcDbLayerTableRecord
  2
DEFAULT_1
 70
0
 62
7
  6
CENTER
370
-3
390
F
  0
LAYER
  5
1FB
100
AcDbSymbolTableRecord
100
AcDbLayerTableRecord
  2
DEFAULT_2
 70
0
 62
8
  6
HIDDEN
370
-3
390
F
  0
LAYER
  5
1FC
100
AcDbSymbolTableRecord
100
AcDbLayerTableRecord
  2
DEFAULT_3
 70
0
 62
7
  6
PHANTOM
370
-3
390
F
  0
LAYER
  5
1FD
100
AcDbSymbolTableRecord
100
AcDbLayerTableRecord
  2
00_COMPONENTS
 70
0
 62
7
  6
CONTINUOUS
370
-3
390
F
  0
LAYER
  5
1FE
100
AcDbSymbolTableRecord
100
AcDbLayerTableRecord
  2
01_1_DEFAULT_DATUMS
 70
0
 62
7
  6
CONTINUOUS
370
-3
390
F
  0
LAYER
  5
1FF
100
AcDbSymbolTableRecord
100
AcDbLayerTableRecord
  2
01_PLANES
 70
0
 62
7
  6
CONTINUOUS
370
-3
390
F
  0
LAYER
  5
200
100
AcDbSymbolTableRecord
100
AcDbLayerTableRecord
  2
02_COORD_SYS
 70
0
 62
7
  6
CONTINUOUS
370
-3
390
F
  0
LAYER
  5
201
100
AcDbSymbolTableRecord
100
AcDbLayerTableRecord
  2
03_AXES
 70
0
 62
7
  6
CONTINUOUS
370
-3
390
F
  0
LAYER
  5
202
100
AcDbSymbolTableRecord
100
AcDbLayerTableRecord
  2
04_POINTS
 70
0
 62
7
  6
CONTINUOUS
370
-3
390
F
  0
LAYER
  5
203
100
AcDbSymbolTableRecord
100
AcDbLayerTableRecord
  2
05_CURVES
 70
0
 62
7
  6
CONTINUOUS
370
-3
390
F
  0
LAYER
  5
204
100
AcDbSymbolTableRecord
100
AcDbLayerTableRecord
  2
06_SURFS
 70
0
 62
7
  6
CONTINUOUS
370
-3
390
F
  0
LAYER
  5
205
100
AcDbSymbolTableRecord
100
AcDbLayerTableRecord
  2
07_COSMETICS
 70
0
 62
7
  6
CONTINUOUS
370
-3
390
F
  0
LAYER
  5
206
100
AcDbSymbolTableRecord
100
AcDbLayerTableRecord
  2
10_NOTES
 70
0
 62
7
  6
CONTINUOUS
370
-3
390
F
  0
LAYER
  5
207
100
AcDbSymbolTableRecord
100
AcDbLayerTableRecord
  2
11_NOTES_PUB
 70
0
 62
7
  6
CONTINUOUS
370
-3
390
F
  0
LAYER
  5
208
100
AcDbSymbolTableRecord
100
AcDbLayerTableRecord
  2
13_REF_GTOL
 70
0
 62
7
  6
CONTINUOUS
370
-3
390
F
  0
LAYER
  5
209
100
AcDbSymbolTableRecord
100
AcDbLayerTableRecord
  2
16_MISC
 70
0
 62
7
  6
CONTINUOUS
370
-3
390
F
  0
LAYER
  5
20A
100
AcDbSymbolTableRecord
100
AcDbLayerTableRecord
  2
17_NO_PRINT
 70
0
 62
7
  6
CONTINUOUS
370
-3
390
F
  0
LAYER
  5
20B
100
AcDbSymbolTableRecord
100
AcDbLayerTableRecord
  2
18_DATUM_CAMS_JOINTS
 70
0
 62
7
  6
CONTINUOUS
370
-3
390
F
  0
LAYER
  5
20C
100
AcDbSymbolTableRecord
100
AcDbLayerTableRecord
  2
19_DATUM_FUNCTIONAL
 70
0
 62
7
  6
CONTINUOUS
370
-3
390
F
  0
LAYER
  5
20D
100
AcDbSymbolTableRecord
100
AcDbLayerTableRecord
  2
20_DATUM_KINEMATIC_SCHEME
 70
0
 62
7
  6
CONTINUOUS
370
-3
390
F
  0
ENDTAB
  0
TABLE
  2
STYLE
  5
3
100
AcDbSymbolTable
 70
1
  0
STYLE
  5
11
100
AcDbSymbolTableRecord
100
AcDbTextStyleTableRecord
  2
STANDARD
 70
0
 40
0.0
 41
0.8
 50
0.0
 71
0
 42
0.2
  3
txt
  4

  0
STYLE
  5
20E
100
AcDbSymbolTableRecord
100
AcDbTextStyleTableRecord
  2
TEXTSTYLE_1
 70
0
 40
0.0
 41
0.8
 50
0.0
 71
0
 42
0.2
  3
gdt
  4

  0
ENDTAB
  0
TABLE
  2
VIEW
  5
6
100
AcDbSymbolTable
 70
0
  0
ENDTAB
  0
TABLE
  2
UCS
  5
7
100
AcDbSymbolTable
 70
0
  0
ENDTAB
  0
TABLE
  2
APPID
  5
9
100
AcDbSymbolTable
 70
1
  0
APPID
  5
20F
100
AcDbSymbolTableRecord
100
AcDbRegAppTableRecord
  2
ACAD
 70
0
  0
ENDTAB
  0
TABLE
  2
BLOCK_RECORD
  5
1
100
AcDbSymbolTable
 70
0
  0
BLOCK_RECORD
  5
210
100
AcDbSymbolTableRecord
100
AcDbBlockTableRecord
  2
*Model_Space
  0
BLOCK_RECORD
  5
211
100
AcDbSymbolTableRecord
100
AcDbBlockTableRecord
  2
*Paper_Space
  0
BLOCK_RECORD
  5
212
100
AcDbSymbolTableRecord
100
AcDbBlockTableRecord
  2
_FILLED
  0
ENDTAB
  0
TABLE
  2
DIMSTYLE
  5
A
100
AcDbSymbolTable
 70
1
100
AcDbDimStyleTable
 71
0
  0
DIMSTYLE
105
213
100
AcDbSymbolTableRecord
100
AcDbDimStyleTableRecord
  2
STANDARD
 70
0
  3

  4

 40
1.0
 41
1.4401288597
 42
1.0
 43
0.38
 44
1.0
 45
0.0
 46
0.0
 47
0.01
 48
0.01
140
2.0161804036
141
0.09
142
0.0
143
25.4
144
1.0
145
0.0
146
1.0
147
0.625
 71
1
 72
0
 73
0
 74
0
 75
0
 76
0
 77
1
 78
8
 79
2
170
0
171
1
172
0
173
0
174
0
175
0
176
0
177
0
178
0
270
2
179
2
271
2
272
2
273
2
274
2
275
0
280
0
281
0
282
0
283
1
284
8
285
0
286
0
287
3
288
0
340
11
278
46
341
212
342
212
343
212
344
212
  0
ENDTAB
  0
ENDSEC
  0
SECTION
  2
BLOCKS
  0
BLOCK
  5
20
100
AcDbEntity
  8
0
100
AcDbBlockBegin
  2
*Model_Space
 70
0
 10
0.0
 20
0.0
 30
0.0
  3
*Model_Space
  1

  0
ENDBLK
  5
21
100
AcDbEntity
  8
0
100
AcDbBlockEnd
  0
BLOCK
  5
1C
100
AcDbEntity
  8
0
100
AcDbBlockBegin
  2
*Paper_Space
 70
0
 10
0.0
 20
0.0
 30
0.0
  3
*Paper_Space
  1

  0
ENDBLK
  5
1D
100
AcDbEntity
  8
0
100
AcDbBlockEnd
  0
BLOCK
  5
214
100
AcDbEntity
  8
0
100
AcDbBlockBegin
  2
_FILLED
 70
64
 10
0.0
 20
0.0
  3
_FILLED
  1

  0
SOLID
  5
215
100
AcDbEntity
  8
0
  6
BYBLOCK
 62
0
100
AcDbTrace
 10
0.0
 20
0.0
 11
-1.0
 21
0.25
 12
-1.0
 22
-0.25
 13
-1.0
 23
-0.25
  0
ENDBLK
  5
216
100
AcDbEntity
  8
0
  6
BYBLOCK
 62
0
100
AcDbBlockEnd
  0
ENDSEC
  0
SECTION
  2
ENTITIES
  0
LINE
  5
217
100
AcDbEntity
  8
0
100
AcDbLine
 62
7
  6
CONTINUOUS
 10
13.6824580598
 20
70.743654267
 11
13.6824580598
 21
86.743654267
  0
LINE
  5
218
100
AcDbEntity
  8
0
100
AcDbLine
 62
7
  6
CONTINUOUS
 10
13.7824580598
 20
86.943654267
 11
13.7824580598
 21
100.143654267
  0
LINE
  5
219
100
AcDbEntity
  8
0
100
AcDbLine
 62
7
  6
CONTINUOUS
 10
15.0283644989
 20
86.743654267
 11
15.0283644989
 21
86.943654267
  0
LINE
  5
21A
100
AcDbEntity
  8
0
100
AcDbLine
 62
7
  6
CONTINUOUS
 10
15.1549171868
 20
86.743654267
 11
15.1549171868
 21
70.743654267
  0
LINE
  5
21B
100
AcDbEntity
  8
0
100
AcDbLine
 62
7
  6
CONTINUOUS
 10
15.269095496
 20
100.143654267
 11
15.269095496
 21
86.943654267
  0
LINE
  5
21C
100
AcDbEntity
  8
0
100
AcDbLine
 62
7
  6
CONTINUOUS
 10
16.2646147017
 20
70.743654267
 11
16.2646147017
 21
86.743654267
  0
LINE
  5
21D
100
AcDbEntity
  8
0
100
AcDbLine
 62
7
  6
CONTINUOUS
 10
16.2779970416
 20
86.943654267
 11
16.2779970416
 21
70.943654267
  0
LINE
  5
21E
100
AcDbEntity
  8
0
100
AcDbLine
 62
7
  6
CONTINUOUS
 10
21.2824580598
 20
59.643654267
 11
21.2824580598
 21
70.943654267
  0
LINE
  5
21F
100
AcDbEntity
  8
0
100
AcDbLine
 62
7
  6
CONTINUOUS
 10
21.2824580598
 20
100.143654267
 11
21.2824580598
 21
111.443654267
  0
LINE
  5
220
100
AcDbEntity
  8
0
100
AcDbLine
 62
7
  6
CONTINUOUS
 10
23.2824580598
 20
111.443654267
 11
23.2824580598
 21
100.143654267
  0
LINE
  5
221
100
AcDbEntity
  8
0
100
AcDbLine
 62
7
  6
CONTINUOUS
 10
23.2824580598
 20
70.943654267
 11
23.2824580598
 21
59.643654267
  0
LINE
  5
222
100
AcDbEntity
  8
0
100
AcDbLine
 62
7
  6
CONTINUOUS
 10
102.3824580598
 20
47.043654267
 11
109.3824580598
 21
47.043654267
  0
LINE
  5
223
100
AcDbEntity
  8
0
100
AcDbLine
 62
7
  6
CONTINUOUS
 10
102.3824580598
 20
47.8035449721
 11
109.3824580598
 21
47.8035449721
  0
LINE
  5
224
100
AcDbEntity
  8
0
100
AcDbLine
 62
7
  6
CONTINUOUS
 10
35.8827245527
 20
49.643654267
 11
71.3824580598
 21
49.643654267
  0
LINE
  5
225
100
AcDbEntity
  8
0
100
AcDbLine
 62
7
  6
CONTINUOUS
 10
102.3824580598
 20
52.043654267
 11
109.3824580598
 21
52.043654267
  0
LINE
  5
226
100
AcDbEntity
  8
0
100
AcDbLine
 62
7
  6
CONTINUOUS
 10
71.3824580598
 20
55.243654267
 11
102.3824580598
 21
55.243654267
  0
LINE
  5
227
100
AcDbEntity
  8
0
100
AcDbLine
 62
7
  6
CONTINUOUS
 10
35.8824580598
 20
49.643654267
 11
35.8824580598
 21
51.643654267
  0
LINE
  5
228
100
AcDbEntity
  8
0
100
AcDbLine
 62
7
  6
CONTINUOUS
 10
35.8824580598
 20
58.143654267
 11
35.8824580598
 21
59.643654267
  0
LINE
  5
229
100
AcDbEntity
  8
0
100
AcDbLine
 62
7
  6
CONTINUOUS
 10
35.8824580598
 20
111.443654267
 11
35.8824580598
 21
112.943654267
  0
LINE
  5
22A
100
AcDbEntity
  8
0
100
AcDbLine
 62
7
  6
CONTINUOUS
 10
35.8824580598
 20
119.443654267
 11
35.8824580598
 21
121.443654267
  0
LINE
  5
22B
100
AcDbEntity
  8
0
100
AcDbLine
 62
7
  6
CONTINUOUS
 10
21.2824653298
 20
59.643654267
 11
38.8824580598
 21
59.643654267
  0
LINE
  5
22C
100
AcDbEntity
  8
0
100
AcDbLine
 62
7
  6
CONTINUOUS
 10
38.8824580598
 20
121.443654267
 11
38.8824580598
 21
49.643654267
  0
LINE
  5
22D
100
AcDbEntity
  8
0
100
AcDbLine
 62
7
  6
CONTINUOUS
 10
104.9824580598
 20
66.543654267
 11
103.7824580598
 21
66.543654267
  0
LINE
  5
22E
100
AcDbEntity
  8
0
100
AcDbLine
 62
7
  6
CONTINUOUS
 10
109.3824580598
 20
69.543654267
 11
104.9824580598
 21
69.543654267
  0
LINE
  5
22F
100
AcDbEntity
  8
0
100
AcDbLine
 62
7
  6
CONTINUOUS
 10
13.6824609908
 20
70.743654267
 11
16.2646147017
 21
70.743654267
  0
LINE
  5
230
100
AcDbEntity
  8
0
100
AcDbLine
 62
7
  6
CONTINUOUS
 10
16.2646147017
 20
70.943654267
 11
23.2824580598
 21
70.943654267
  0
LINE
  5
231
100
AcDbEntity
  8
0
100
AcDbLine
 62
7
  6
CONTINUOUS
 10
16.2646147017
 20
86.743654267
 11
13.6824609908
 21
86.743654267
  0
LINE
  5
232
100
AcDbEntity
  8
0
100
AcDbLine
 62
7
  6
CONTINUOUS
 10
13.7824610493
 20
86.943654267
 11
16.2779970415
 21
86.943654267
  0
LINE
  5
233
100
AcDbEntity
  8
0
100
AcDbLine
 62
7
  6
CONTINUOUS
 10
71.3824580598
 20
49.643654267
 11
71.3824580598
 21
55.243654267
  0
LINE
  5
234
100
AcDbEntity
  8
0
100
AcDbLine
 62
7
  6
CONTINUOUS
 10
71.3824580598
 20
115.843654267
 11
71.3824580598
 21
121.443654267
  0
LINE
  5
235
100
AcDbEntity
  8
0
100
AcDbLine
 62
7
  6
CONTINUOUS
 10
13.7824610493
 20
100.143654267
 11
23.2824580598
 21
100.143654267
  0
LINE
  5
236
100
AcDbEntity
  8
0
100
AcDbLine
 62
7
  6
CONTINUOUS
 10
104.9824580598
 20
101.543654267
 11
109.3824580598
 21
101.543654267
  0
LINE
  5
237
100
AcDbEntity
  8
0
100
AcDbLine
 62
7
  6
CONTINUOUS
 10
109.3824580598
 20
104.543654267
 11
103.7824580598
 21
104.543654267
  0
LINE
  5
238
100
AcDbEntity
  8
0
100
AcDbLine
 62
7
  6
CONTINUOUS
 10
21.2824653298
 20
111.443654267
 11
38.8824580598
 21
111.443654267
  0
LINE
  5
239
100
AcDbEntity
  8
0
100
AcDbLine
 62
7
  6
CONTINUOUS
 10
102.3824580598
 20
115.843654267
 11
71.3824580598
 21
115.843654267
  0
LINE
  5
23A
100
AcDbEntity
  8
0
100
AcDbLine
 62
7
  6
CONTINUOUS
 10
71.3824580598
 20
121.443654267
 11
35.8827245527
 21
121.443654267
  0
LINE
  5
23B
100
AcDbEntity
  8
0
100
AcDbLine
 62
7
  6
CONTINUOUS
 10
102.3824580598
 20
124.043654267
 11
102.3824580598
 21
115.843654267
  0
LINE
  5
23C
100
AcDbEntity
  8
0
100
AcDbLine
 62
7
  6
CONTINUOUS
 10
102.3824580598
 20
55.243654267
 11
102.3824580598
 21
47.043654267
  0
LINE
  5
23D
100
AcDbEntity
  8
0
100
AcDbLine
 62
7
  6
CONTINUOUS
 10
109.3824580598
 20
124.043654267
 11
102.3824580598
 21
124.043654267
  0
LINE
  5
23E
100
AcDbEntity
  8
0
100
AcDbLine
 62
7
  6
CONTINUOUS
 10
103.7824580598
 20
66.543654267
 11
103.7824580598
 21
104.543654267
  0
LINE
  5
23F
100
AcDbEntity
  8
0
100
AcDbLine
 62
7
  6
CONTINUOUS
 10
104.9824580598
 20
104.543654267
 11
104.9824580598
 21
101.543654267
  0
LINE
  5
240
100
AcDbEntity
  8
0
100
AcDbLine
 62
7
  6
CONTINUOUS
 10
104.9824580598
 20
69.543654267
 11
104.9824580598
 21
66.543654267
  0
LINE
  5
241
100
AcDbEntity
  8
0
100
AcDbLine
 62
7
  6
CONTINUOUS
 10
109.3824580598
 20
47.043654267
 11
109.3824580598
 21
69.543654267
  0
LINE
  5
242
100
AcDbEntity
  8
0
100
AcDbLine
 62
7
  6
CONTINUOUS
 10
109.3824580598
 20
101.543654267
 11
109.3824580598
 21
124.043654267
  0
SPLINE
  5
243
100
AcDbEntity
  8
0
100
AcDbSpline
 62
7
  6
CONTINUOUS
 70
0
 71
3
 72
19
 73
15
 74
0
 42
0.0000001
 43
0.0000001
 44
0.0000000001
 40
0.0
 40
0.0
 40
0.0
 40
0.0
 40
0.0163615516
 40
0.0373375935
 40
0.0650233286
 40
0.10018618
 40
0.142962068
 40
0.1932529479
 40
0.2507763773
 40
0.3151147651
 40
0.4621995982
 40
0.629508207
 40
0.8111524906
 40
1.0
 40
1.0
 40
1.0
 40
1.0
 10
37.0396033732
 20
58.1436538581
 30
0.0
 10
37.0580589484
 20
58.1436578616
 30
0.0
 10
37.1000823457
 20
58.1292613569
 30
0.0
 10
37.1539090729
 20
58.0779524507
 30
0.0
 10
37.2069663569
 20
57.9992191327
 30
0.0
 10
37.2593387989
 20
57.8919175898
 30
0.0
 10
37.3109347317
 20
57.756660312
 30
0.0
 10
37.3609564699
 20
57.5942300846
 30
0.0
 10
37.4088116929
 20
57.4059697011
 30
0.0
 10
37.4716905215
 20
57.1091242136
 30
0.0
 10
37.5385099297
 20
56.6868926239
 30
0.0
 10
37.5976135426
 20
56.1303091252
 30
0.0
 10
37.6346575181
 20
55.5246290246
 30
0.0
 10
37.6430976628
 20
55.1066713191
 30
0.0
 10
37.6430976628
 20
54.893654267
 30
0.0
  0
SPLINE
  5
244
100
AcDbEntity
  8
0
100
AcDbSpline
 62
7
  6
CONTINUOUS
 70
0
 71
3
 72
19
 73
15
 74
0
 42
0.0000001
 43
0.0000001
 44
0.0000000001
 40
0.0
 40
0.0
 40
0.0
 40
0.0
 40
0.0163615516
 40
0.0373375935
 40
0.0650233286
 40
0.10018618
 40
0.142962068
 40
0.1932529479
 40
0.2507763773
 40
0.3151147651
 40
0.4621995982
 40
0.629508207
 40
0.8111524906
 40
1.0
 40
1.0
 40
1.0
 40
1.0
 10
37.0396033732
 20
119.4436538581
 30
0.0
 10
37.0580589484
 20
119.4436578616
 30
0.0
 10
37.1000823457
 20
119.4292613569
 30
0.0
 10
37.1539090729
 20
119.3779524507
 30
0.0
 10
37.2069663569
 20
119.2992191327
 30
0.0
 10
37.2593387989
 20
119.1919175898
 30
0.0
 10
37.3109347317
 20
119.056660312
 30
0.0
 10
37.3609564699
 20
118.8942300846
 30
0.0
 10
37.4088116929
 20
118.7059697011
 30
0.0
 10
37.4716905215
 20
118.4091242136
 30
0.0
 10
37.5385099297
 20
117.9868926239
 30
0.0
 10
37.5976135426
 20
117.4303091252
 30
0.0
 10
37.6346575181
 20
116.8246290246
 30
0.0
 10
37.6430976628
 20
116.4066713191
 30
0.0
 10
37.6430976628
 20
116.193654267
 30
0.0
  0
SPLINE
  5
245
100
AcDbEntity
  8
0
100
AcDbSpline
 62
7
  6
CONTINUOUS
 70
0
 71
3
 72
19
 73
15
 74
0
 42
0.0000001
 43
0.0000001
 44
0.0000000001
 40
0.0
 40
0.0
 40
0.0
 40
0.0
 40
0.0130250772
 40
0.0214814814
 40
0.0316693166
 40
0.0578180696
 40
0.0920787909
 40
0.1344329836
 40
0.1846824857
 40
0.2424701458
 40
0.3073161568
 40
0.4559463708
 40
0.6252171199
 40
1.0
 40
1.0
 40
1.0
 40
1.0
 10
22.2798321777
 20
67.8936536668
 30
0.0
 10
22.294304511
 20
67.8936585505
 30
0.0
 10
22.3178189285
 20
67.8825273853
 30
0.0
 10
22.342614928
 20
67.8577617121
 30
0.0
 10
22.3723871725
 20
67.817564171
 30
0.0
 10
22.4075827956
 20
67.7470522453
 30
0.0
 10
22.4470445495
 20
67.6398100413
 30
0.0
 10
22.4857996839
 20
67.5041694828
 30
0.0
 10
22.5233766431
 20
67.341300597
 30
0.0
 10
22.5592357567
 20
67.1525428578
 30
0.0
 10
22.6062949109
 20
66.8547985436
 30
0.0
 10
22.656032176
 20
66.4322708811
 30
0.0
 10
22.7163999805
 20
65.6648844474
 30
0.0
 10
22.7334041391
 20
65.0600804418
 30
0.0
 10
22.7334041391
 20
64.643654267
 30
0.0
  0
SPLINE
  5
246
100
AcDbEntity
  8
0
100
AcDbSpline
 62
7
  6
CONTINUOUS
 70
0
 71
3
 72
21
 73
17
 74
0
 42
0.0000001
 43
0.0000001
 44
0.0000000001
 40
0.0
 40
0.0
 40
0.0
 40
0.0
 40
0.0023212777
 40
0.0064617978
 40
0.0214061536
 40
0.045538478
 40
0.0787589813
 40
0.1207544946
 40
0.1711689942
 40
0.2295237883
 40
0.2952546344
 40
0.3677662882
 40
0.4463373953
 40
0.6186019533
 40
0.8056367856
 40
1.0
 40
1.0
 40
1.0
 40
1.0
 10
21.383336546
 20
67.8936542599
 30
0.0
 10
21.385861423
 20
67.8936546147
 30
0.0
 10
21.3919399453
 20
67.8883638769
 30
0.0
 10
21.4014026887
 20
67.8675604253
 30
0.0
 10
21.4133559598
 20
67.8213824137
 30
0.0
 10
21.4266918789
 20
67.7441868907
 30
0.0
 10
21.4408641023
 20
67.6368965445
 30
0.0
 10
21.4552066546
 20
67.5010461053
 30
0.0
 10
21.4695209176
 20
67.3376581701
 30
0.0
 10
21.4835011862
 20
67.1483698464
 30
0.0
 10
21.4968974013
 20
66.9349433228
 30
0.0
 10
21.5094345215
 20
66.6994439157
 30
0.0
 10
21.5251890411
 20
66.3480852105
 30
0.0
 10
21.5408780948
 20
65.8720486228
 30
0.0
 10
21.5525145268
 20
65.2699208941
 30
0.0
 10
21.5551738693
 20
64.8550650923
 30
0.0
 10
21.5551738693
 20
64.643654267
 30
0.0
  0
SPLINE
  5
247
100
AcDbEntity
  8
0
100
AcDbSpline
 62
7
  6
CONTINUOUS
 70
0
 71
3
 72
21
 73
17
 74
0
 42
0.0000001
 43
0.0000001
 44
0.0000000001
 40
0.0
 40
0.0
 40
0.0
 40
0.0
 40
0.1950042899
 40
0.3826661051
 40
0.5554941393
 40
0.7070347493
 40
0.7729340405
 40
0.83140173
 40
0.8818649267
 40
0.9238286958
 40
0.9569146054
 40
0.9807669674
 40
0.9891583925
 40
0.995171667
 40
0.9987908494
 40
1.0
 40
1.0
 40
1.0
 40
1.0
 10
35.9439793691
 20
54.893654267
 30
0.0
 10
35.9439793691
 20
55.104956599
 30
0.0
 10
35.9424393839
 20
55.5196065248
 30
0.0
 10
35.935859269
 20
56.1214974322
 30
0.0
 10
35.9260055905
 20
56.6762358248
 30
0.0
 10
35.9158980984
 20
57.0990110254
 30
0.0
 10
35.907529393
 20
57.3978479411
 30
0.0
 10
35.9017735672
 20
57.5872358416
 30
0.0
 10
35.896483428
 20
57.7505568756
 30
0.0
 10
35.8918177131
 20
57.8867617135
 30
0.0
 10
35.8880667388
 20
57.9931278728
 30
0.0
 10
35.8853338784
 20
58.0654094821
 30
0.0
 10
35.8839844249
 20
58.1047524591
 30
0.0
 10
35.8829347453
 20
58.1277130564
 30
0.0
 10
35.883050735
 20
58.1333484779
 30
0.0
 10
35.8822687035
 20
58.1449127994
 30
0.0
 10
35.8824580805
 20
58.1436163491
 30
0.0
  0
SPLINE
  5
248
100
AcDbEntity
  8
0
100
AcDbSpline
 62
7
  6
CONTINUOUS
 70
0
 71
3
 72
19
 73
15
 74
0
 42
0.0000001
 43
0.0000001
 44
0.0000000001
 40
0.0
 40
0.0
 40
0.0
 40
0.0
 40
0.0130461416
 40
0.0215544985
 40
0.0318033276
 40
0.0580140447
 40
0.0921890051
 40
0.1344140613
 40
0.1846257958
 40
0.2424783871
 40
0.3073963696
 40
0.455966982
 40
0.6251920113
 40
1.0
 40
1.0
 40
1.0
 40
1.0
 10
22.2798373398
 20
103.1931402338
 30
0.0
 10
22.2943339655
 20
103.1931032311
 30
0.0
 10
22.3178862679
 20
103.2045198994
 30
0.0
 10
22.3425862306
 20
103.2295567786
 30
0.0
 10
22.3722879207
 20
103.2700555748
 30
0.0
 10
22.4074481284
 20
103.3406087634
 30
0.0
 10
22.4470299805
 20
103.4476375859
 30
0.0
 10
22.4858526032
 20
103.5829774936
 30
0.0
 10
22.5234193324
 20
103.7457459608
 30
0.0
 10
22.5592301302
 20
103.9346377049
 30
0.0
 10
22.6062320249
 20
104.2324967757
 30
0.0
 10
22.6560498771
 20
104.655003757
 30
0.0
 10
22.7163890033
 20
105.42235498
 30
0.0
 10
22.7334041391
 20
106.0271733621
 30
0.0
 10
22.7334041391
 20
106.443654267
 30
0.0
  0
SPLINE
  5
249
100
AcDbEntity
  8
0
100
AcDbSpline
 62
7
  6
CONTINUOUS
 70
0
 71
3
 72
21
 73
17
 74
0
 42
0.0000001
 43
0.0000001
 44
0.0000000001
 40
0.0
 40
0.0
 40
0.0
 40
0.0
 40
0.0023359326
 40
0.006534641
 40
0.0216330221
 40
0.045815739
 40
0.078922582
 40
0.1207771323
 40
0.1711648921
 40
0.2295921525
 40
0.2953898015
 40
0.3678818077
 40
0.4463832638
 40
0.6185926385
 40
0.8056568769
 40
1.0
 40
1.0
 40
1.0
 40
1.0
 10
21.383346516
 20
103.1931295495
 30
0.0
 10
21.3858876577
 20
103.1931338796
 30
0.0
 10
21.3919674239
 20
103.1986009735
 30
0.0
 10
21.4013527508
 20
103.219648116
 30
0.0
 10
21.4132920662
 20
103.2661695902
 30
0.0
 10
21.4266317309
 20
103.3434526003
 30
0.0
 10
21.440862523
 20
103.4505327346
 30
0.0
 10
21.4552341844
 20
103.5860877078
 30
0.0
 10
21.4695404217
 20
103.7493949136
 30
0.0
 10
21.4834977642
 20
103.9388319002
 30
0.0
 10
21.4968801129
 20
104.1524173547
 30
0.0
 10
21.5094253787
 20
104.3879221974
 30
0.0
 10
21.52519697
 20
104.7391682944
 30
0.0
 10
21.5408776948
 20
105.2151629569
 30
0.0
 10
21.5525052262
 20
105.817318584
 30
0.0
 10
21.5551738693
 20
106.2322380089
 30
0.0
 10
21.5551738693
 20
106.443654267
 30
0.0
  0
SPLINE
  5
24A
100
AcDbEntity
  8
0
100
AcDbSpline
 62
7
  6
CONTINUOUS
 70
0
 71
3
 72
21
 73
17
 74
0
 42
0.0000001
 43
0.0000001
 44
0.0000000001
 40
0.0
 40
0.0
 40
0.0
 40
0.0
 40
0.0012102595
 40
0.0048288643
 40
0.0108408009
 40
0.0192310568
 40
0.0430840806
 40
0.0761669186
 40
0.1181274998
 40
0.1685910119
 40
0.2270568021
 40
0.2929568354
 40
0.4444998812
 40
0.6173328578
 40
0.804999334
 40
1.0
 40
1.0
 40
1.0
 40
1.0
 10
35.8824580805
 20
112.9436921866
 30
0.0
 10
35.8826480613
 20
112.944989763
 30
0.0
 10
35.8825089456
 20
112.9502496504
 30
0.0
 10
35.8832799066
 20
112.9619579938
 30
0.0
 10
35.8838284297
 20
112.981488159
 30
0.0
 10
35.8854800738
 20
113.0229017701
 30
0.0
 10
35.88799049
 20
113.0936478028
 30
0.0
 10
35.8918471165
 20
113.2007381961
 30
0.0
 10
35.8964712751
 20
113.3366570244
 30
0.0
 10
35.9017766311
 20
113.5000716376
 30
0.0
 10
35.9075274476
 20
113.6894258042
 30
0.0
 10
35.9158975994
 20
113.9882775566
 30
0.0
 10
35.9260053455
 20
114.4110537385
 30
0.0
 10
35.9358588962
 20
114.965808131
 30
0.0
 10
35.9424393235
 20
115.5677045974
 30
0.0
 10
35.9439793691
 20
115.9823558621
 30
0.0
 10
35.9439793691
 20
116.193654267
 30
0.0
  0
SPLINE
  5
24B
100
AcDbEntity
  8
0
100
AcDbSpline
 62
7
  6
CONTINUOUS
 70
0
 71
3
 72
21
 73
17
 74
0
 42
0.0000001
 43
0.0000001
 44
0.0000000001
 40
0.0
 40
0.0
 40
0.0
 40
0.0
 40
0.0012102595
 40
0.0048288643
 40
0.0108408009
 40
0.0192310568
 40
0.0430840806
 40
0.0761669186
 40
0.1181274998
 40
0.1685910119
 40
0.2270568021
 40
0.2929568354
 40
0.4444998812
 40
0.6173328578
 40
0.804999334
 40
1.0
 40
1.0
 40
1.0
 40
1.0
 10
35.8824580805
 20
51.6436921866
 30
0.0
 10
35.8826480614
 20
51.644989763
 30
0.0
 10
35.8825089456
 20
51.6502496504
 30
0.0
 10
35.8832799066
 20
51.6619579938
 30
0.0
 10
35.8838284297
 20
51.681488159
 30
0.0
 10
35.8854800738
 20
51.7229017701
 30
0.0
 10
35.88799049
 20
51.7936478028
 30
0.0
 10
35.8918471165
 20
51.9007381961
 30
0.0
 10
35.8964712751
 20
52.0366570244
 30
0.0
 10
35.9017766311
 20
52.2000716376
 30
0.0
 10
35.9075274476
 20
52.3894258042
 30
0.0
 10
35.9158975994
 20
52.6882775566
 30
0.0
 10
35.9260053455
 20
53.1110537385
 30
0.0
 10
35.9358588962
 20
53.665808131
 30
0.0
 10
35.9424393235
 20
54.2677045974
 30
0.0
 10
35.9439793691
 20
54.6823558621
 30
0.0
 10
35.9439793691
 20
54.893654267
 30
0.0
  0
SPLINE
  5
24C
100
AcDbEntity
  8
0
100
AcDbSpline
 62
7
  6
CONTINUOUS
 70
0
 71
3
 72
21
 73
17
 74
0
 42
0.0000001
 43
0.0000001
 44
0.0000000001
 40
0.0
 40
0.0
 40
0.0
 40
0.0
 40
0.1950042899
 40
0.3826661051
 40
0.5554941393
 40
0.7070347493
 40
0.7729340405
 40
0.83140173
 40
0.8818649267
 40
0.9238286958
 40
0.9569146054
 40
0.9807669674
 40
0.9891583925
 40
0.995171667
 40
0.9987908494
 40
1.0
 40
1.0
 40
1.0
 40
1.0
 10
35.9439793691
 20
116.193654267
 30
0.0
 10
35.9439793691
 20
116.404956599
 30
0.0
 10
35.9424393839
 20
116.8196065248
 30
0.0
 10
35.935859269
 20
117.4214974322
 30
0.0
 10
35.9260055905
 20
117.9762358248
 30
0.0
 10
35.9158980984
 20
118.3990110254
 30
0.0
 10
35.907529393
 20
118.6978479411
 30
0.0
 10
35.9017735672
 20
118.8872358416
 30
0.0
 10
35.896483428
 20
119.0505568756
 30
0.0
 10
35.8918177131
 20
119.1867617135
 30
0.0
 10
35.8880667388
 20
119.2931278728
 30
0.0
 10
35.8853338784
 20
119.3654094821
 30
0.0
 10
35.8839844249
 20
119.4047524591
 30
0.0
 10
35.8829347453
 20
119.4277130564
 30
0.0
 10
35.883050735
 20
119.4333484779
 30
0.0
 10
35.8822687035
 20
119.4449127994
 30
0.0
 10
35.8824580805
 20
119.4436163491
 30
0.0
  0
SPLINE
  5
24D
100
AcDbEntity
  8
0
100
AcDbSpline
 62
7
  6
CONTINUOUS
 70
0
 71
3
 72
19
 73
15
 74
0
 42
0.0000001
 43
0.0000001
 44
0.0000000001
 40
0.0
 40
0.0
 40
0.0
 40
0.0
 40
0.1888414508
 40
0.3704831082
 40
0.5377926535
 40
0.6848796948
 40
0.7492189885
 40
0.8067429077
 40
0.8570353485
 40
0.8998110542
 40
0.9349745497
 40
0.962661926
 40
0.9836374307
 40
1.0
 40
1.0
 40
1.0
 40
1.0
 10
37.6430976628
 20
54.893654267
 30
0.0
 10
37.6430976628
 20
54.6806436885
 30
0.0
 10
37.6346572258
 20
54.2626950858
 30
0.0
 10
37.5976159055
 20
53.6570226361
 30
0.0
 10
37.5385142993
 20
53.1004372024
 30
0.0
 10
37.4716890779
 20
52.6782013074
 30
0.0
 10
37.4088141412
 20
52.381350358
 30
0.0
 10
37.3609610954
 20
52.1930856628
 30
0.0
 10
37.3109433165
 20
52.0306517168
 30
0.0
 10
37.2593447707
 20
51.8953923841
 30
0.0
 10
37.2069668261
 20
51.7880910758
 30
0.0
 10
37.1539112208
 20
51.7093538413
 30
0.0
 10
37.1000763085
 20
51.6580481515
 30
0.0
 10
37.0580538927
 20
51.6436542811
 30
0.0
 10
37.0395971379
 20
51.6436542304
 30
0.0
  0
SPLINE
  5
24E
100
AcDbEntity
  8
0
100
AcDbSpline
 62
7
  6
CONTINUOUS
 70
0
 71
3
 72
19
 73
15
 74
0
 42
0.0000001
 43
0.0000001
 44
0.0000000001
 40
0.0
 40
0.0
 40
0.0
 40
0.0
 40
0.1888414508
 40
0.3704831082
 40
0.5377926535
 40
0.6848796948
 40
0.7492189885
 40
0.8067429077
 40
0.8570353485
 40
0.8998110542
 40
0.9349745497
 40
0.962661926
 40
0.9836374307
 40
1.0
 40
1.0
 40
1.0
 40
1.0
 10
37.6430976628
 20
116.193654267
 30
0.0
 10
37.6430976628
 20
115.9806436885
 30
0.0
 10
37.6346572258
 20
115.5626950858
 30
0.0
 10
37.5976159055
 20
114.9570226361
 30
0.0
 10
37.5385142993
 20
114.4004372024
 30
0.0
 10
37.4716890779
 20
113.9782013074
 30
0.0
 10
37.4088141412
 20
113.681350358
 30
0.0
 10
37.3609610954
 20
113.4930856628
 30
0.0
 10
37.3109433165
 20
113.3306517168
 30
0.0
 10
37.2593447707
 20
113.1953923841
 30
0.0
 10
37.2069668261
 20
113.0880910758
 30
0.0
 10
37.1539112208
 20
113.0093538413
 30
0.0
 10
37.1000763085
 20
112.9580481515
 30
0.0
 10
37.0580538927
 20
112.9436542811
 30
0.0
 10
37.0395971379
 20
112.9436542304
 30
0.0
  0
SPLINE
  5
24F
100
AcDbEntity
  8
0
100
AcDbSpline
 62
7
  6
CONTINUOUS
 70
0
 71
3
 72
19
 73
15
 74
0
 42
0.0000001
 43
0.0000001
 44
0.0000000001
 40
0.0
 40
0.0
 40
0.0
 40
0.0
 40
0.3747737457
 40
0.5440476685
 40
0.69268198
 40
0.7575292667
 40
0.8153165734
 40
0.8655682658
 40
0.9079204316
 40
0.942180715
 40
0.9683320168
 40
0.978518698
 40
0.9869739088
 40
1.0
 40
1.0
 40
1.0
 40
1.0
 10
22.7334041391
 20
64.643654267
 30
0.0
 10
22.7334041391
 20
64.2272373262
 30
0.0
 10
22.7163993782
 20
63.6224388448
 30
0.0
 10
22.656036074
 20
62.8550521771
 30
0.0
 10
22.6062884595
 20
62.4325153764
 30
0.0
 10
22.559235176
 20
62.1347638594
 30
0.0
 10
22.5233788241
 20
61.9460016703
 30
0.0
 10
22.4858095059
 20
61.7831309184
 30
0.0
 10
22.4470508387
 20
61.6474908029
 30
0.0
 10
22.4075800051
 20
61.5402523105
 30
0.0
 10
22.3723873719
 20
61.4697367893
 30
0.0
 10
22.3426102495
 20
61.4295425744
 30
0.0
 10
22.317808637
 20
61.4047827451
 30
0.0
 10
22.2942969402
 20
61.3936572947
 30
0.0
 10
22.2798234479
 20
61.3936544462
 30
0.0
  0
SPLINE
  5
250
100
AcDbEntity
  8
0
100
AcDbSpline
 62
7
  6
CONTINUOUS
 70
0
 71
3
 72
21
 73
17
 74
0
 42
0.0000001
 43
0.0000001
 44
0.0000000001
 40
0.0
 40
0.0
 40
0.0
 40
0.0
 40
0.1943644857
 40
0.3814087508
 40
0.5536789537
 40
0.6322503595
 40
0.7047635117
 40
0.7704940393
 40
0.828845705
 40
0.8792592159
 40
0.9212503924
 40
0.9544665626
 40
0.9785979179
 40
0.993539056
 40
0.9976785939
 40
1.0
 40
1.0
 40
1.0
 40
1.0
 10
21.5551738693
 20
64.643654267
 30
0.0
 10
21.5551738693
 20
64.4322420479
 30
0.0
 10
21.5525134952
 20
64.0173745848
 30
0.0
 10
21.5408767877
 20
63.4152290583
 30
0.0
 10
21.5251879592
 20
62.9391756854
 30
0.0
 10
21.5094302316
 20
62.5878089998
 30
0.0
 10
21.4968923593
 20
62.3523080184
 30
0.0
 10
21.4834981582
 20
62.1388834859
 30
0.0
 10
21.4695192724
 20
61.9495998787
 30
0.0
 10
21.455206684
 20
61.7862210409
 30
0.0
 10
21.4408635046
 20
61.6503811199
 30
0.0
 10
21.4266893855
 20
61.5431018071
 30
0.0
 10
21.4133537828
 20
61.4659151758
 30
0.0
 10
21.4014024402
 20
61.4197434662
 30
0.0
 10
21.3919375554
 20
61.3989441661
 30
0.0
 10
21.3858606994
 20
61.3936555539
 30
0.0
 10
21.3833356827
 20
61.3936543691
 30
0.0
  0
SPLINE
  5
251
100
AcDbEntity
  8
0
100
AcDbSpline
 62
7
  6
CONTINUOUS
 70
0
 71
3
 72
21
 73
17
 74
0
 42
0.0000001
 43
0.0000001
 44
0.0000000001
 40
0.0
 40
0.0
 40
0.0
 40
0.0
 40
0.1943416448
 40
0.3813903024
 40
0.5535891239
 40
0.63209573
 40
0.7045928575
 40
0.7703897394
 40
0.8288110779
 40
0.8791914006
 40
0.921054735
 40
0.9541787275
 40
0.9783724344
 40
0.9934707794
 40
0.9976666387
 40
1.0
 40
1.0
 40
1.0
 40
1.0
 10
21.5551738693
 20
106.443654267
 30
0.0
 10
21.5551738693
 20
106.6550694833
 30
0.0
 10
21.5525063099
 20
107.0699714625
 30
0.0
 10
21.5408790815
 20
107.6720986931
 30
0.0
 10
21.5251961463
 20
108.1480716894
 30
0.0
 10
21.5094293491
 20
108.4993186232
 30
0.0
 10
21.4968874134
 20
108.7348346397
 30
0.0
 10
21.4835053146
 20
108.9484189753
 30
0.0
 10
21.469547162
 20
109.1378410456
 30
0.0
 10
21.4552356247
 20
109.3011431687
 30
0.0
 10
21.440863089
 20
109.4367187325
 30
0.0
 10
21.4266325473
 20
109.5438393849
 30
0.0
 10
21.4132981368
 20
109.6211550782
 30
0.0
 10
21.4013534906
 20
109.6676838057
 30
0.0
 10
21.3919718694
 20
109.6887270077
 30
0.0
 10
21.3858849154
 20
109.6941820938
 30
0.0
 10
21.3833465621
 20
109.6941791454
 30
0.0
  0
SPLINE
  5
252
100
AcDbEntity
  8
0
100
AcDbSpline
 62
7
  6
CONTINUOUS
 70
0
 71
3
 72
19
 73
15
 74
0
 42
0.0000001
 43
0.0000001
 44
0.0000000001
 40
0.0
 40
0.0
 40
0.0
 40
0.0
 40
0.3747925839
 40
0.5440258517
 40
0.6926000568
 40
0.7575223734
 40
0.8153864086
 40
0.8656185975
 40
0.9078421795
 40
0.9419970458
 40
0.9681863935
 40
0.9784312708
 40
0.9869413117
 40
1.0
 40
1.0
 40
1.0
 40
1.0
 10
22.7334041391
 20
106.443654267
 30
0.0
 10
22.7334041391
 20
106.8601110645
 30
0.0
 10
22.7163884138
 20
107.4649110521
 30
0.0
 10
22.6560586653
 20
108.23224623
 30
0.0
 10
22.60623376
 20
108.654763264
 30
0.0
 10
22.5592279488
 20
108.9526384813
 30
0.0
 10
22.5234116284
 20
109.1415665254
 30
0.0
 10
22.4858643013
 20
109.3043713564
 30
0.0
 10
22.4470460922
 20
109.4397090059
 30
0.0
 10
22.4074608361
 20
109.5466855226
 30
0.0
 10
22.3722790675
 20
109.6171699753
 30
0.0
 10
22.3425809876
 20
109.6576361231
 30
0.0
 10
22.317868648
 20
109.6826780162
 30
0.0
 10
22.2943477691
 20
109.6941412679
 30
0.0
 10
22.2798374271
 20
109.6941703359
 30
0.0
  0
SPLINE
  5
253
100
AcDbEntity
  8
0
100
AcDbSpline
 62
7
  6
CONTINUOUS
 70
0
 71
3
 72
21
 73
17
 74
0
 42
0.0000001
 43
0.0000001
 44
0.0000000001
 40
0.0
 40
0.0
 40
0.0
 40
0.0
 40
0.194583769
 40
0.3818354408
 40
0.5542811477
 40
0.6329199216
 40
0.705477596
 40
0.7712258976
 40
0.8295645141
 40
0.8799273789
 40
0.9218331242
 40
0.9549289969
 40
0.9789071482
 40
0.993676106
 40
0.9977306426
 40
1.0
 40
1.0
 40
1.0
 40
1.0
 10
21.2952711102
 20
64.643654267
 30
0.0
 10
21.2952711102
 20
64.8549791131
 30
0.0
 10
21.295834892
 20
65.2696662045
 30
0.0
 10
21.2985018812
 20
65.8716301554
 30
0.0
 10
21.3026762574
 20
66.3476632658
 30
0.0
 10
21.3076449896
 20
66.6991160653
 30
0.0
 10
21.3120412244
 20
66.9346851774
 30
0.0
 10
21.3172891085
 20
67.1481871066
 30
0.0
 10
21.3234339795
 20
67.3375429413
 30
0.0
 10
21.3305455973
 20
67.500974884
 30
0.0
 10
21.3385907648
 20
67.636846029
 30
0.0
 10
21.3475893749
 20
67.7441103526
 30
0.0
 10
21.3570177959
 20
67.8212888005
 30
0.0
 10
21.3666615762
 20
67.8674197567
 30
0.0
 10
21.374963254
 20
67.8883597929
 30
0.0
 10
21.3808719436
 20
67.8936539135
 30
0.0
 10
21.383336546
 20
67.8936542599
 30
0.0
  0
SPLINE
  5
254
100
AcDbEntity
  8
0
100
AcDbSpline
 62
7
  6
CONTINUOUS
 70
0
 71
3
 72
19
 73
15
 74
0
 42
0.0000001
 43
0.0000001
 44
0.0000000001
 40
0.0
 40
0.0
 40
0.0
 40
0.0
 40
0.1898751575
 40
0.3725327382
 40
0.5407073074
 40
0.6882859124
 40
0.7526452972
 40
0.8100075445
 40
0.8599480675
 40
0.9021863678
 40
0.9366653278
 40
0.9635946014
 40
0.9838971855
 40
1.0
 40
1.0
 40
1.0
 40
1.0
 10
36.5642915205
 20
116.193654267
 30
0.0
 10
36.5642915205
 20
116.4060888927
 30
0.0
 10
36.569442675
 20
116.8229009179
 30
0.0
 10
36.5924674344
 20
117.4274919687
 30
0.0
 10
36.6307164386
 20
117.9838966138
 30
0.0
 10
36.6763560316
 20
118.4069052487
 30
0.0
 10
36.7219239481
 20
118.7047874645
 30
0.0
 10
36.7578662958
 20
118.8935041781
 30
0.0
 10
36.7969475674
 20
119.0562776201
 30
0.0
 10
36.8389836212
 20
119.191726386
 30
0.0
 10
36.8834486488
 20
119.2991309857
 30
0.0
 10
36.9304814006
 20
119.3779643878
 30
0.0
 10
36.9807712352
 20
119.4296760592
 30
0.0
 10
37.0215873497
 20
119.44364995
 30
0.0
 10
37.0396033732
 20
119.4436538581
 30
0.0
  0
SPLINE
  5
255
100
AcDbEntity
  8
0
100
AcDbSpline
 62
7
  6
CONTINUOUS
 70
0
 71
3
 72
19
 73
15
 74
0
 42
0.0000001
 43
0.0000001
 44
0.0000000001
 40
0.0
 40
0.0
 40
0.0
 40
0.0
 40
0.016103834
 40
0.0364079531
 40
0.0633361339
 40
0.0978164656
 40
0.1400570992
 40
0.189996932
 40
0.2473603601
 40
0.3117192581
 40
0.4592948717
 40
0.6274658052
 40
0.8101209105
 40
1.0
 40
1.0
 40
1.0
 40
1.0
 10
37.0395971379
 20
51.6436542304
 30
0.0
 10
37.0215799965
 20
51.643654181
 30
0.0
 10
36.9807593322
 20
51.6576327611
 30
0.0
 10
36.9304775935
 20
51.7093527374
 30
0.0
 10
36.8834406723
 20
51.7881855143
 30
0.0
 10
36.8389853503
 20
51.8955978764
 30
0.0
 10
36.7969529027
 20
52.0310503946
 30
0.0
 10
36.7578616098
 20
52.1938245149
 30
0.0
 10
36.7219183428
 20
52.3825409088
 30
0.0
 10
36.6763484798
 20
52.6804198387
 30
0.0
 10
36.6307193331
 20
53.1034211557
 30
0.0
 10
36.5924687034
 20
53.6598145544
 30
0.0
 10
36.5694412354
 20
54.2644023777
 30
0.0
 10
36.5642915205
 20
54.6812155139
 30
0.0
 10
36.5642915205
 20
54.893654267
 30
0.0
  0
SPLINE
  5
256
100
AcDbEntity
  8
0
100
AcDbSpline
 62
7
  6
CONTINUOUS
 70
0
 71
3
 72
21
 73
17
 74
0
 42
0.0000001
 43
0.0000001
 44
0.0000000001
 40
0.0
 40
0.0
 40
0.0
 40
0.0
 40
0.002284953
 40
0.0064002789
 40
0.0213279525
 40
0.0453578199
 40
0.0783396111
 40
0.1201040997
 40
0.1704404694
 40
0.2288525885
 40
0.2946677733
 40
0.3672057306
 40
0.4457760516
 40
0.6181679779
 40
0.8054419862
 40
1.0
 40
1.0
 40
1.0
 40
1.0
 10
21.3833465621
 20
109.6941791454
 30
0.0
 10
21.3808646831
 20
109.6941762627
 30
0.0
 10
21.374950274
 20
109.6887062365
 30
0.0
 10
21.3667053014
 20
109.6675341732
 30
0.0
 10
21.3570371935
 20
109.621056542
 30
0.0
 10
21.3476013232
 20
109.5437863405
 30
0.0
 10
21.338581143
 20
109.4367220754
 30
0.0
 10
21.3305419247
 20
109.3011415858
 30
0.0
 10
21.3234384274
 20
109.1377880388
 30
0.0
 10
21.3172938881
 20
108.9482827984
 30
0.0
 10
21.3120421671
 20
108.7346203706
 30
0.0
 10
21.3076442506
 20
108.4990420683
 30
0.0
 10
21.302677337
 20
108.1476951151
 30
0.0
 10
21.2985042703
 20
107.671705092
 30
0.0
 10
21.2958327784
 20
107.0697205554
 30
0.0
 10
21.2952711102
 20
106.654980181
 30
0.0
 10
21.2952711102
 20
106.443654267
 30
0.0
  0
SPLINE
  5
257
100
AcDbEntity
  8
0
100
AcDbSpline
 62
7
  6
CONTINUOUS
 70
0
 71
3
 72
21
 73
17
 74
0
 42
0.0000001
 43
0.0000001
 44
0.0000000001
 40
0.0
 40
0.0
 40
0.0
 40
0.0
 40
0.1945586318
 40
0.3818174575
 40
0.5541955005
 40
0.6327697254
 40
0.7053116429
 40
0.771124762
 40
0.8295292694
 40
0.8798563365
 40
0.9216320289
 40
0.9546353335
 40
0.9786784812
 40
0.9936057771
 40
0.9977177956
 40
1.0
 40
1.0
 40
1.0
 40
1.0
 10
21.2952711102
 20
106.443654267
 30
0.0
 10
21.2952711102
 20
106.2323271203
 30
0.0
 10
21.2958325012
 20
105.8176014639
 30
0.0
 10
21.2985043817
 20
105.215646228
 30
0.0
 10
21.302677537
 20
104.7396822773
 30
0.0
 10
21.3076424961
 20
104.3883409049
 30
0.0
 10
21.3120392274
 20
104.1527556496
 30
0.0
 10
21.3172902147
 20
103.9390988623
 30
0.0
 10
21.3234336731
 20
103.7496136612
 30
0.0
 10
21.3305417396
 20
103.5862661781
 30
0.0
 10
21.3385807894
 20
103.4506596589
 30
0.0
 10
21.3475997921
 20
103.343545418
 30
0.0
 10
21.357031651
 20
103.2662357136
 30
0.0
 10
21.3667050204
 20
103.2197501622
 30
0.0
 10
21.3749458833
 20
103.1985819062
 30
0.0
 10
21.3808676179
 20
103.1931253254
 30
0.0
 10
21.383346516
 20
103.1931295495
 30
0.0
  0
SPLINE
  5
258
100
AcDbEntity
  8
0
100
AcDbSpline
 62
7
  6
CONTINUOUS
 70
0
 71
3
 72
17
 73
13
 74
0
 42
0.0000001
 43
0.0000001
 44
0.0000000001
 40
0.0
 40
0.0
 40
0.0
 40
0.0
 40
0.3763292076
 40
0.5462145455
 40
0.6952178081
 40
0.7602272625
 40
0.818077096
 40
0.8681842651
 40
0.9101640086
 40
0.9439739796
 40
0.969757091
 40
1.0
 40
1.0
 40
1.0
 40
1.0
 10
21.9118321175
 20
106.443654267
 30
0.0
 10
21.9118321175
 20
106.0277326113
 30
0.0
 10
21.9226622283
 20
105.4239034961
 30
0.0
 10
21.9639213681
 20
104.6565855882
 30
0.0
 10
21.9995921007
 20
104.2336991461
 30
0.0
 10
22.0350469534
 20
103.935278917
 30
0.0
 10
22.0628675034
 20
103.746182709
 30
0.0
 10
22.0932017738
 20
103.5830189627
 30
0.0
 10
22.1252191745
 20
103.4481192565
 30
0.0
 10
22.1604239958
 20
103.3396682757
 30
0.0
 10
22.1984432177
 20
103.2528125287
 30
0.0
 10
22.2464127754
 20
103.1932255503
 30
0.0
 10
22.2798373398
 20
103.1931402338
 30
0.0
  0
SPLINE
  5
259
100
AcDbEntity
  8
0
100
AcDbSpline
 62
7
  6
CONTINUOUS
 70
0
 71
3
 72
21
 73
17
 74
0
 42
0.0000001
 43
0.0000001
 44
0.0000000001
 40
0.0
 40
0.0
 40
0.0
 40
0.0
 40
0.0022689148
 40
0.0063230537
 40
0.0210913606
 40
0.0450672187
 40
0.0781602626
 40
0.1200639231
 40
0.1704258452
 40
0.2287643398
 40
0.2945133631
 40
0.3670724794
 40
0.4457129089
 40
0.6181610146
 40
0.8054139417
 40
1.0
 40
1.0
 40
1.0
 40
1.0
 10
21.3833356827
 20
61.3936543691
 30
0.0
 10
21.3808715604
 20
61.3936532129
 30
0.0
 10
21.374961215
 20
61.3989453559
 30
0.0
 10
21.3666618893
 20
61.4198848381
 30
0.0
 10
21.3570182911
 20
61.466011634
 30
0.0
 10
21.3475908449
 20
61.5431842285
 30
0.0
 10
21.3385922359
 20
61.6504405957
 30
0.0
 10
21.3305472432
 20
61.7863054893
 30
0.0
 10
21.3234354012
 20
61.9497340427
 30
0.0
 10
21.3172899339
 20
62.139089566
 30
0.0
 10
21.3120415631
 20
62.3525937841
 30
0.0
 10
21.3076452764
 20
62.5881671372
 30
0.0
 10
21.3026767417
 20
62.9396260466
 30
0.0
 10
21.2985020818
 20
63.4156651069
 30
0.0
 10
21.2958347657
 20
64.0176357479
 30
0.0
 10
21.2952711102
 20
64.4323268517
 30
0.0
 10
21.2952711102
 20
64.643654267
 30
0.0
  0
SPLINE
  5
25A
100
AcDbEntity
  8
0
100
AcDbSpline
 62
7
  6
CONTINUOUS
 70
0
 71
3
 72
19
 73
15
 74
0
 42
0.0000001
 43
0.0000001
 44
0.0000000001
 40
0.0
 40
0.0
 40
0.0
 40
0.0
 40
0.1898751575
 40
0.3725327382
 40
0.5407073074
 40
0.6882859124
 40
0.7526452972
 40
0.8100075445
 40
0.8599480675
 40
0.9021863678
 40
0.9366653278
 40
0.9635946014
 40
0.9838971855
 40
1.0
 40
1.0
 40
1.0
 40
1.0
 10
36.5642915205
 20
54.893654267
 30
0.0
 10
36.5642915205
 20
55.1060888927
 30
0.0
 10
36.569442675
 20
55.5229009179
 30
0.0
 10
36.5924674344
 20
56.1274919687
 30
0.0
 10
36.6307164386
 20
56.6838966138
 30
0.0
 10
36.6763560317
 20
57.1069052487
 30
0.0
 10
36.7219239481
 20
57.4047874645
 30
0.0
 10
36.7578662958
 20
57.5935041781
 30
0.0
 10
36.7969475674
 20
57.7562776201
 30
0.0
 10
36.8389836212
 20
57.891726386
 30
0.0
 10
36.8834486488
 20
57.9991309857
 30
0.0
 10
36.9304814006
 20
58.0779643878
 30
0.0
 10
36.9807712352
 20
58.1296760592
 30
0.0
 10
37.0215873497
 20
58.14364995
 30
0.0
 10
37.0396033732
 20
58.1436538581
 30
0.0
  0
SPLINE
  5
25B
100
AcDbEntity
  8
0
100
AcDbSpline
 62
7
  6
CONTINUOUS
 70
0
 71
3
 72
18
 73
14
 74
0
 42
0.0000001
 43
0.0000001
 44
0.0000000001
 40
0.0
 40
0.0
 40
0.0
 40
0.0
 40
0.3763053388
 40
0.5462294955
 40
0.6952963119
 40
0.7602304589
 40
0.817999735
 40
0.8681219268
 40
0.9102323001
 40
0.9441540418
 40
0.9580423884
 40
0.9699246726
 40
1.0
 40
1.0
 40
1.0
 40
1.0
 10
21.9118321175
 20
64.643654267
 30
0.0
 10
21.9118321175
 20
65.0595343177
 30
0.0
 10
21.9226550326
 20
65.663361827
 30
0.0
 10
21.9639296458
 20
66.4307287002
 30
0.0
 10
21.9995714378
 20
66.8536495864
 30
0.0
 10
22.0350217288
 20
67.151926518
 30
0.0
 10
22.0629179306
 20
67.3409236851
 30
0.0
 10
22.093108129
 20
67.5039422914
 30
0.0
 10
22.125595066
 20
67.6397235144
 30
0.0
 10
22.1554457805
 20
67.7343562133
 30
0.0
 10
22.1816695097
 20
67.7955499639
 30
0.0
 10
22.2094329492
 20
67.8485447419
 30
0.0
 10
22.2465939356
 20
67.8936424505
 30
0.0
 10
22.2798321777
 20
67.8936536668
 30
0.0
  0
SPLINE
  5
25C
100
AcDbEntity
  8
0
100
AcDbSpline
 62
7
  6
CONTINUOUS
 70
0
 71
3
 72
19
 73
15
 74
0
 42
0.0000001
 43
0.0000001
 44
0.0000000001
 40
0.0
 40
0.0
 40
0.0
 40
0.0
 40
0.016103834
 40
0.0364079531
 40
0.0633361339
 40
0.0978164656
 40
0.1400570992
 40
0.189996932
 40
0.2473603601
 40
0.3117192581
 40
0.4592948717
 40
0.6274658052
 40
0.8101209105
 40
1.0
 40
1.0
 40
1.0
 40
1.0
 10
37.0395971379
 20
112.9436542304
 30
0.0
 10
37.0215799965
 20
112.943654181
 30
0.0
 10
36.9807593322
 20
112.9576327611
 30
0.0
 10
36.9304775935
 20
113.0093527374
 30
0.0
 10
36.8834406723
 20
113.0881855143
 30
0.0
 10
36.8389853503
 20
113.1955978764
 30
0.0
 10
36.7969529027
 20
113.3310503946
 30
0.0
 10
36.7578616098
 20
113.4938245149
 30
0.0
 10
36.7219183428
 20
113.6825409088
 30
0.0
 10
36.6763484798
 20
113.9804198387
 30
0.0
 10
36.6307193331
 20
114.4034211557
 30
0.0
 10
36.5924687034
 20
114.9598145544
 30
0.0
 10
36.5694412354
 20
115.5644023777
 30
0.0
 10
36.5642915205
 20
115.9812155139
 30
0.0
 10
36.5642915205
 20
116.193654267
 30
0.0
  0
SPLINE
  5
25D
100
AcDbEntity
  8
0
100
AcDbSpline
 62
7
  6
CONTINUOUS
 70
0
 71
3
 72
18
 73
14
 74
0
 42
0.0000001
 43
0.0000001
 44
0.0000000001
 40
0.0
 40
0.0
 40
0.0
 40
0.0
 40
0.0300779289
 40
0.041959924
 40
0.0558461014
 40
0.0897695123
 40
0.1318831413
 40
0.1820035141
 40
0.2397740136
 40
0.3047070354
 40
0.4537694153
 40
0.6236890854
 40
1.0
 40
1.0
 40
1.0
 40
1.0
 10
22.2798234479
 20
61.3936544462
 30
0.0
 10
22.2465824095
 20
61.3936479042
 30
0.0
 10
22.2094247535
 20
61.4387773555
 30
0.0
 10
22.1816646874
 20
61.4917694047
 30
0.0
 10
22.1554388168
 20
61.5529622911
 30
0.0
 10
22.1255995752
 20
61.647601294
 30
0.0
 10
22.0931163913
 20
61.7833862712
 30
0.0
 10
22.0629141844
 20
61.9464051905
 30
0.0
 10
22.0350169976
 20
62.1353999513
 30
0.0
 10
21.9995641239
 20
62.4336710051
 30
0.0
 10
21.9639334938
 20
62.8565807604
 30
0.0
 10
21.9226545865
 20
63.6239416335
 30
0.0
 10
21.9118321175
 20
64.2277690557
 30
0.0
 10
21.9118321175
 20
64.643654267
 30
0.0
  0
SPLINE
  5
25E
100
AcDbEntity
  8
0
100
AcDbSpline
 62
7
  6
CONTINUOUS
 70
0
 71
3
 72
17
 73
13
 74
0
 42
0.0000001
 43
0.0000001
 44
0.0000000001
 40
0.0
 40
0.0
 40
0.0
 40
0.0
 40
0.0302241908
 40
0.0560309697
 40
0.0898632117
 40
0.1318447828
 40
0.1819302736
 40
0.2397690165
 40
0.3047752909
 40
0.4537779165
 40
0.623655489
 40
1.0
 40
1.0
 40
1.0
 40
1.0
 10
22.2798374271
 20
109.6941703359
 30
0.0
 10
22.2464332357
 20
109.6942372532
 30
0.0
 10
22.1983843042
 20
109.6345235082
 30
0.0
 10
22.1604426073
 20
109.5476609302
 30
0.0
 10
22.1252282038
 20
109.4391383532
 30
0.0
 10
22.0932131833
 20
109.3042408937
 30
0.0
 10
22.0628571084
 20
109.1411126084
 30
0.0
 10
22.0350435176
 20
108.9520542916
 30
0.0
 10
21.9995920615
 20
108.653647632
 30
0.0
 10
21.9639274172
 20
108.2307701606
 30
0.0
 10
21.9226616637
 20
107.4634387338
 30
0.0
 10
21.9118321175
 20
106.8595962317
 30
0.0
 10
21.9118321175
 20
106.443654267
 30
0.0
  0
ENDSEC
  0
SECTION
  2
OBJECTS
  0
DICTIONARY
  5
C
100
AcDbDictionary
280
0
281
1
  3
ACAD_GROUP
350
D
  3
ACAD_MLINESTYLE
350
17
  3
ACAD_LAYOUT
350
1A
  3
ACAD_PLOTSETTINGS
350
19
  3
ACAD_PLOTSTYLENAME
350
E
  0
DICTIONARY
  5
D
102
{ACAD_REACTORS
330
C
102
}
100
AcDbDictionary
280
0
281
1
  0
ACDBDICTIONARYWDFLT
  5
E
102
{ACAD_REACTORS
330
C
102
}
100
AcDbDictionary
281
1
  3
Normal
350
F
100
AcDbDictionaryWithDefault
340
F
  0
DICTIONARY
  5
17
102
{ACAD_REACTORS
330
C
102
}
100
AcDbDictionary
280
0
281
1
  3
Standard
350
18
  0
DICTIONARY
  5
19
102
{ACAD_REACTORS
330
C
102
}
100
AcDbDictionary
281
1
  0
DICTIONARY
  5
1A
102
{ACAD_REACTORS
330
C
102
}
100
AcDbDictionary
281
1
  3
Model
350
25F
  3
Layout1
350
260
  0
ACDBPLACEHOLDER
  5
F
102
{ACAD_REACTORS
330
E
102
}
  0
MLINESTYLE
  5
18
102
{ACAD_REACTORS
330
17
102
}
100
AcDbMlineStyle
  2
STANDARD
 70
0
  3

 62
256
 51
90.0
 52
90.0
 71
2
 49
0.5
 62
256
  6
BYLAYER
 49
-0.5
 62
256
  6
BYLAYER
  0
LAYOUT
  5
25F
102
{ACAD_REACTORS
330
1A
102
}
100
AcDbPlotSettings
  1

  2
none_device
  4

  6

 40
0.0
 41
0.0
 42
0.0
 43
0.0
 44
210.0
 45
297.0
 46
0.0
 47
0.0
 48
0.0
 49
0.0
140
0.0
141
0.0
142
1.0
143
1.0
 70
1024
 72
1
 73
0
 74
0
  7

 75
0
147
1.0
148
0.0
149
0.0
100
AcDbLayout
  1
Model
 70
0
 71
0
 10
0.0
 20
0.0
 11
210.0
 21
297.0
 12
0.0
 22
0.0
 32
0.0
 14
0.0
 24
0.0
 34
0.0
 15
0.0
 25
0.0
 35
0.0
146
0.0
 13
0.0
 23
0.0
 33
0.0
 16
1.0
 26
0.0
 36
0.0
 17
0.0
 27
1.0
 37
0.0
 76
0
330
210
345
0
346
0
  0
LAYOUT
  5
260
102
{ACAD_REACTORS
330
1A
102
}
100
AcDbPlotSettings
  1

  2
none_device
  4

  6

 40
0.0
 41
0.0
 42
0.0
 43
0.0
 44
210.0
 45
297.0
 46
0.0
 47
0.0
 48
0.0
 49
0.0
140
0.0
141
0.0
142
1.0
143
1.0
 70
0
 72
1
 73
0
 74
0
  7

 75
0
147
1.0
148
0.0
149
0.0
100
AcDbLayout
  1
Layout1
 70
0
 71
1
 10
0.0
 20
0.0
 11
210.0
 21
297.0
 12
0.0
 22
0.0
 32
0.0
 14
0.0
 24
0.0
 34
0.0
 15
0.0
 25
0.0
 35
0.0
146
0.0
 13
0.0
 23
0.0
 33
0.0
 16
1.0
 26
0.0
 36
0.0
 17
0.0
 27
1.0
 37
0.0
 76
0
330
211
345
0
346
0
  0
ENDSEC
  0
EOF
