999
DXF file: C:\Users\sesa63760\Dev\_Creo\CAD\MCADPP0003219_3D-CAD\drw0001_1.dxf
999
Pro/ENGINEER 2019471 by Parametric Technology Corporation
  0
SECTION
  2
HEADER
  9
$ACADVER
  1
AC1024
  9
$DWGCODEPAGE
  3
ANSI_1252
  9
$EXTMAX
 10
250.3971476728
 20
354.1331088516
 30
0.0
  9
$EXTMIN
 10
0.0
 20
0.0
 30
0.0
  9
$LIMMIN
 10
0.0
 20
0.0
  9
$LIMMAX
 10
250.3971476728
 20
354.1331088516
  9
$VIEWCTR
 10
125.1985738364
 20
177.0665544258
  9
$VIEWSIZE
 40
354.1331088516
  9
$CLAYER
  8
0
  9
$LTSCALE
 40
23.0842322807
  9
$CELTYPE
  6
BYLAYER
  9
$DIMSCALE
 40
1.0
  9
$DIMASZ
 40
2.9809184247
  9
$DIMEXO
 40
1.0
  9
$DIMDLI
 40
15.9491059394
  9
$DIMEXE
 40
1.0
  9
$DIMCEN
 40
3.7774198278
  9
$DIMLFAC
 40
1.0
  9
$DIMBLK
  1
_FILLED
  9
$DIMALT
 70
0
  9
$DIMALTF
 40
0.0393700787
  9
$DIMTXT
 40
4.1732857945
  9
$DIMTOL
 70
1
  9
$DIMLIM
 70
0
  9
$DIMTFAC
 40
1.0
  9
$DIMTP
 40
0.01
  9
$DIMTM
 40
0.01
  9
$DIMGAP
 40
0.625
  9
$DIMDSEP
 70
46
  9
$AUNITS
 70
0
  9
$PDMODE
 70
3
  9
$PDSIZE
 40
0.3125
  9
$HANDSEED
  5
403
  9
$TILEMODE
 70
1
  9
$MEASUREMENT
 70
1
  9
$INSUNITS
 70
4
  0
ENDSEC
  0
SECTION
  2
CLASSES
  0
CLASS
  1
ACDBDICTIONARYWDFLT
  2
AcDbDictionaryWithDefault
  3
AutoCAD 2000
 90
0
 91
1
280
0
281
0
  0
CLASS
  1
ACDBPLACEHOLDER
  2
AcDbPlaceHolder
  3
AutoCAD 2000
 90
0
 91
1
280
0
281
0
  0
CLASS
  1
LAYOUT
  2
AcDbLayout
  3
AutoCAD 2000
 90
0
 91
0
280
0
281
0
  0
ENDSEC
  0
SECTION
  2
TABLES
  0
TABLE
  2
VPORT
  5
8
100
AcDbSymbolTable
 70
2
  0
VPORT
  5
1F4
100
AcDbSymbolTableRecord
100
AcDbViewportTableRecord
  2
*ACTIVE
 70
0
 10
0.0
 20
0.0
 11
1.0
 21
1.0
 12
125.1985738364
 22
177.0665544258
 13
0.0
 23
0.0
 14
1.0
 24
1.0
 15
0.0
 25
0.0
 16
0.0
 26
0.0
 36
1.0
 17
0.0
 27
0.0
 37
0.0
 40
354.1331088516
 41
0.7070707071
 42
50.0
 43
0.0
 44
0.0
 50
0.0
 51
0.0
 71
0
 72
100
 73
1
 74
1
 75
0
 76
0
 77
0
 78
0
  0
ENDTAB
  0
TABLE
  2
LTYPE
  5
5
100
AcDbSymbolTable
 70
6
  0
LTYPE
  5
14
100
AcDbSymbolTableRecord
100
AcDbLinetypeTableRecord
  2
BYBLOCK
 70
0
  3

 72
65
 73
0
 40
0.0
  0
LTYPE
  5
15
100
AcDbSymbolTableRecord
100
AcDbLinetypeTableRecord
  2
BYLAYER
 70
0
  3

 72
65
 73
0
 40
0.0
  0
LTYPE
  5
16
100
AcDbSymbolTableRecord
100
AcDbLinetypeTableRecord
  2
CONTINUOUS
 70
64
  3
Solid line
 72
65
 73
0
 40
0.0
  0
LTYPE
  5
1F5
100
AcDbSymbolTableRecord
100
AcDbLinetypeTableRecord
  2
CENTER
 70
64
  3
____ _ ____ _ ____ _ ____ _ ____ _ ____ _ ____
 72
65
 73
4
 40
0.6
 49
0.375
 74
0
 49
-0.075
 74
0
 49
0.075
 74
0
 49
-0.075
 74
0
  0
LTYPE
  5
1F6
100
AcDbSymbolTableRecord
100
AcDbLinetypeTableRecord
  2
HIDDEN
 70
64
  3
- - - - - - - - - - - - - - - - - - - -
 72
65
 73
2
 40
0.2
 49
0.1
 74
0
 49
-0.1
 74
0
  0
LTYPE
  5
1F7
100
AcDbSymbolTableRecord
100
AcDbLinetypeTableRecord
  2
PHANTOM
 70
64
  3
_____ _ _ _____ _ _ _____ _ _ _____
 72
65
 73
6
 40
0.8
 49
0.45
 74
0
 49
-0.05
 74
0
 49
0.1
 74
0
 49
-0.05
 74
0
 49
0.1
 74
0
 49
-0.05
 74
0
  0
LTYPE
  5
1F8
100
AcDbSymbolTableRecord
100
AcDbLinetypeTableRecord
  2
DOT
 70
64
  3
. . . . . . . . . . . . . . . . . . . .
 72
65
 73
2
 40
0.2
 49
0.1
 74
0
 49
-0.1
 74
0
  0
LTYPE
  5
1F9
100
AcDbSymbolTableRecord
100
AcDbLinetypeTableRecord
  2
DASHED
 70
64
  3
- - - - - - - - - - - - - - - - - - - -
 72
65
 73
2
 40
0.2
 49
0.1
 74
0
 49
-0.1
 74
0
  0
ENDTAB
  0
TABLE
  2
LAYER
  5
2
100
AcDbSymbolTable
 70
36
  0
LAYER
  5
10
100
AcDbSymbolTableRecord
100
AcDbLayerTableRecord
  2
0
 70
0
 62
7
  6
CONTINUOUS
370
-3
390
F
  0
LAYER
  5
1FA
100
AcDbSymbolTableRecord
100
AcDbLayerTableRecord
  2
DEFAULT_1
 70
0
 62
7
  6
CENTER
370
-3
390
F
  0
LAYER
  5
1FB
100
AcDbSymbolTableRecord
100
AcDbLayerTableRecord
  2
DEFAULT_2
 70
0
 62
8
  6
HIDDEN
370
-3
390
F
  0
LAYER
  5
1FC
100
AcDbSymbolTableRecord
100
AcDbLayerTableRecord
  2
DEFAULT_3
 70
0
 62
7
  6
PHANTOM
370
-3
390
F
  0
LAYER
  5
1FD
100
AcDbSymbolTableRecord
100
AcDbLayerTableRecord
  2
00_COMPONENTS
 70
0
 62
7
  6
CONTINUOUS
370
-3
390
F
  0
LAYER
  5
1FE
100
AcDbSymbolTableRecord
100
AcDbLayerTableRecord
  2
01_1_DEFAULT_DATUMS
 70
0
 62
7
  6
CONTINUOUS
370
-3
390
F
  0
LAYER
  5
1FF
100
AcDbSymbolTableRecord
100
AcDbLayerTableRecord
  2
01_PLANES
 70
0
 62
7
  6
CONTINUOUS
370
-3
390
F
  0
LAYER
  5
200
100
AcDbSymbolTableRecord
100
AcDbLayerTableRecord
  2
02_COORD_SYS
 70
0
 62
7
  6
CONTINUOUS
370
-3
390
F
  0
LAYER
  5
201
100
AcDbSymbolTableRecord
100
AcDbLayerTableRecord
  2
03_AXES
 70
0
 62
7
  6
CONTINUOUS
370
-3
390
F
  0
LAYER
  5
202
100
AcDbSymbolTableRecord
100
AcDbLayerTableRecord
  2
04_POINTS
 70
0
 62
7
  6
CONTINUOUS
370
-3
390
F
  0
LAYER
  5
203
100
AcDbSymbolTableRecord
100
AcDbLayerTableRecord
  2
05_CURVES
 70
0
 62
7
  6
CONTINUOUS
370
-3
390
F
  0
LAYER
  5
204
100
AcDbSymbolTableRecord
100
AcDbLayerTableRecord
  2
06_SURFS
 70
0
 62
7
  6
CONTINUOUS
370
-3
390
F
  0
LAYER
  5
205
100
AcDbSymbolTableRecord
100
AcDbLayerTableRecord
  2
07_COSMETICS
 70
0
 62
7
  6
CONTINUOUS
370
-3
390
F
  0
LAYER
  5
206
100
AcDbSymbolTableRecord
100
AcDbLayerTableRecord
  2
10_NOTES
 70
0
 62
7
  6
CONTINUOUS
370
-3
390
F
  0
LAYER
  5
207
100
AcDbSymbolTableRecord
100
AcDbLayerTableRecord
  2
11_NOTES_PUB
 70
0
 62
7
  6
CONTINUOUS
370
-3
390
F
  0
LAYER
  5
208
100
AcDbSymbolTableRecord
100
AcDbLayerTableRecord
  2
13_REF_GTOL
 70
0
 62
7
  6
CONTINUOUS
370
-3
390
F
  0
LAYER
  5
209
100
AcDbSymbolTableRecord
100
AcDbLayerTableRecord
  2
16_MISC
 70
0
 62
7
  6
CONTINUOUS
370
-3
390
F
  0
LAYER
  5
20A
100
AcDbSymbolTableRecord
100
AcDbLayerTableRecord
  2
17_NO_PRINT
 70
0
 62
7
  6
CONTINUOUS
370
-3
390
F
  0
LAYER
  5
20B
100
AcDbSymbolTableRecord
100
AcDbLayerTableRecord
  2
18_DATUM_CAMS_JOINTS
 70
0
 62
7
  6
CONTINUOUS
370
-3
390
F
  0
LAYER
  5
20C
100
AcDbSymbolTableRecord
100
AcDbLayerTableRecord
  2
19_DATUM_FUNCTIONAL
 70
0
 62
7
  6
CONTINUOUS
370
-3
390
F
  0
LAYER
  5
20D
100
AcDbSymbolTableRecord
100
AcDbLayerTableRecord
  2
20_DATUM_KINEMATIC_SCHEME
 70
0
 62
7
  6
CONTINUOUS
370
-3
390
F
  0
ENDTAB
  0
TABLE
  2
STYLE
  5
3
100
AcDbSymbolTable
 70
1
  0
STYLE
  5
11
100
AcDbSymbolTableRecord
100
AcDbTextStyleTableRecord
  2
STANDARD
 70
0
 40
0.0
 41
0.8
 50
0.0
 71
0
 42
0.2
  3
txt
  4

  0
STYLE
  5
20E
100
AcDbSymbolTableRecord
100
AcDbTextStyleTableRecord
  2
TEXTSTYLE_1
 70
0
 40
0.0
 41
0.8
 50
0.0
 71
0
 42
0.2
  3
gdt
  4

  0
ENDTAB
  0
TABLE
  2
VIEW
  5
6
100
AcDbSymbolTable
 70
0
  0
ENDTAB
  0
TABLE
  2
UCS
  5
7
100
AcDbSymbolTable
 70
0
  0
ENDTAB
  0
TABLE
  2
APPID
  5
9
100
AcDbSymbolTable
 70
1
  0
APPID
  5
20F
100
AcDbSymbolTableRecord
100
AcDbRegAppTableRecord
  2
ACAD
 70
0
  0
ENDTAB
  0
TABLE
  2
BLOCK_RECORD
  5
1
100
AcDbSymbolTable
 70
0
  0
BLOCK_RECORD
  5
210
100
AcDbSymbolTableRecord
100
AcDbBlockTableRecord
  2
*Model_Space
  0
BLOCK_RECORD
  5
211
100
AcDbSymbolTableRecord
100
AcDbBlockTableRecord
  2
*Paper_Space
  0
BLOCK_RECORD
  5
212
100
AcDbSymbolTableRecord
100
AcDbBlockTableRecord
  2
_FILLED
  0
ENDTAB
  0
TABLE
  2
DIMSTYLE
  5
A
100
AcDbSymbolTable
 70
1
100
AcDbDimStyleTable
 71
0
  0
DIMSTYLE
105
213
100
AcDbSymbolTableRecord
100
AcDbDimStyleTableRecord
  2
STANDARD
 70
0
  3

  4

 40
1.0
 41
2.9809184247
 42
1.0
 43
0.38
 44
1.0
 45
0.0
 46
0.0
 47
0.01
 48
0.01
140
4.1732857945
141
0.09
142
0.0
143
25.4
144
1.0
145
0.0
146
1.0
147
0.625
 71
1
 72
0
 73
0
 74
0
 75
0
 76
0
 77
1
 78
8
 79
2
170
0
171
1
172
0
173
0
174
0
175
0
176
0
177
0
178
0
270
2
179
2
271
2
272
2
273
2
274
2
275
0
280
0
281
0
282
0
283
1
284
8
285
0
286
0
287
3
288
0
340
11
278
46
341
212
342
212
343
212
344
212
  0
ENDTAB
  0
ENDSEC
  0
SECTION
  2
BLOCKS
  0
BLOCK
  5
20
100
AcDbEntity
  8
0
100
AcDbBlockBegin
  2
*Model_Space
 70
0
 10
0.0
 20
0.0
 30
0.0
  3
*Model_Space
  1

  0
ENDBLK
  5
21
100
AcDbEntity
  8
0
100
AcDbBlockEnd
  0
BLOCK
  5
1C
100
AcDbEntity
  8
0
100
AcDbBlockBegin
  2
*Paper_Space
 70
0
 10
0.0
 20
0.0
 30
0.0
  3
*Paper_Space
  1

  0
ENDBLK
  5
1D
100
AcDbEntity
  8
0
100
AcDbBlockEnd
  0
BLOCK
  5
214
100
AcDbEntity
  8
0
100
AcDbBlockBegin
  2
_FILLED
 70
64
 10
0.0
 20
0.0
  3
_FILLED
  1

  0
SOLID
  5
215
100
AcDbEntity
  8
0
  6
BYBLOCK
 62
0
100
AcDbTrace
 10
0.0
 20
0.0
 11
-1.0
 21
0.25
 12
-1.0
 22
-0.25
 13
-1.0
 23
-0.25
  0
ENDBLK
  5
216
100
AcDbEntity
  8
0
  6
BYBLOCK
 62
0
100
AcDbBlockEnd
  0
ENDSEC
  0
SECTION
  2
ENTITIES
  0
LINE
  5
217
100
AcDbEntity
  8
0
100
AcDbLine
 62
7
  6
CONTINUOUS
 10
29.0489500177
 20
259.3021791372
 11
55.1225674963
 21
274.3556993498
  0
LINE
  5
218
100
AcDbEntity
  8
0
100
AcDbLine
 62
7
  6
CONTINUOUS
 10
35.8385344925
 20
246.9298085838
 11
37.604002646
 21
247.9490960131
  0
LINE
  5
219
100
AcDbEntity
  8
0
100
AcDbLine
 62
7
  6
CONTINUOUS
 10
29.0489500177
 20
242.2168660587
 11
30.228848654
 21
242.8980767878
  0
LINE
  5
21A
100
AcDbEntity
  8
0
100
AcDbLine
 62
7
  6
CONTINUOUS
 10
38.6323217578
 20
247.1793816462
 11
38.7029811824
 21
247.2201766405
  0
LINE
  5
21B
100
AcDbEntity
  8
0
100
AcDbLine
 62
7
  6
CONTINUOUS
 10
38.425561777
 20
244.9138426839
 11
32.7706750435
 21
241.6490117945
  0
LINE
  5
21C
100
AcDbEntity
  8
0
100
AcDbLine
 62
7
  6
CONTINUOUS
 10
218.0741573805
 20
84.5301820439
 11
211.4781598689
 21
83.8586867222
  0
LINE
  5
21D
100
AcDbEntity
  8
0
100
AcDbLine
 62
7
  6
CONTINUOUS
 10
218.0741573805
 20
86.1478366327
 11
211.4781598689
 21
85.476341311
  0
LINE
  5
21E
100
AcDbEntity
  8
0
100
AcDbLine
 62
7
  6
CONTINUOUS
 10
29.0489500177
 20
259.3021791372
 11
29.0489500177
 21
253.623404826
  0
LINE
  5
21F
100
AcDbEntity
  8
0
100
AcDbLine
 62
7
  6
CONTINUOUS
 10
29.0489500177
 20
242.2168660587
 11
29.0489500177
 21
237.6335113904
  0
LINE
  5
220
100
AcDbEntity
  8
0
100
AcDbLine
 62
7
  6
CONTINUOUS
 10
29.0489500177
 20
230.996979744
 11
29.0489500177
 21
225.8828349168
  0
LINE
  5
221
100
AcDbEntity
  8
0
100
AcDbLine
 62
7
  6
CONTINUOUS
 10
29.0489500177
 20
215.4259367154
 11
29.0489500177
 21
210.4237316401
  0
LINE
  5
222
100
AcDbEntity
  8
0
100
AcDbLine
 62
7
  6
CONTINUOUS
 10
29.0489500177
 20
203.7871999936
 11
29.0489500177
 21
199.1953537002
  0
LINE
  5
223
100
AcDbEntity
  8
0
100
AcDbLine
 62
7
  6
CONTINUOUS
 10
29.0489500177
 20
187.7888149329
 11
29.0489500177
 21
181.9403714195
  0
LINE
  5
224
100
AcDbEntity
  8
0
100
AcDbLine
 62
7
  6
CONTINUOUS
 10
29.0489500177
 20
230.996979744
 11
34.4236053104
 21
234.1000199014
  0
LINE
  5
225
100
AcDbEntity
  8
0
100
AcDbLine
 62
7
  6
CONTINUOUS
 10
34.7397756913
 20
233.8921581337
 11
30.6469203262
 21
231.529161092
  0
LINE
  5
226
100
AcDbEntity
  8
0
100
AcDbLine
 62
7
  6
CONTINUOUS
 10
65.5428829325
 20
247.5001762308
 11
91.9349754869
 21
262.7375670166
  0
LINE
  5
227
100
AcDbEntity
  8
0
100
AcDbLine
 62
7
  6
CONTINUOUS
 10
44.5841506791
 20
243.3193739972
 11
44.5841506791
 21
234.5827981339
  0
LINE
  5
228
100
AcDbEntity
  8
0
100
AcDbLine
 62
7
  6
CONTINUOUS
 10
44.5841506791
 20
227.4201123299
 11
44.5841506791
 21
223.2722800509
  0
LINE
  5
229
100
AcDbEntity
  8
0
100
AcDbLine
 62
7
  6
CONTINUOUS
 10
44.5841506791
 20
200.2103325795
 11
44.5841506791
 21
196.0625003005
  0
LINE
  5
22A
100
AcDbEntity
  8
0
100
AcDbLine
 62
7
  6
CONTINUOUS
 10
44.5841506791
 20
188.8913228714
 11
44.5841506791
 21
180.1547470081
  0
LINE
  5
22B
100
AcDbEntity
  8
0
100
AcDbLine
 62
7
  6
CONTINUOUS
 10
44.5841506791
 20
171.1845578118
 11
44.5841506791
 21
171.2367763204
  0
LINE
  5
22C
100
AcDbEntity
  8
0
100
AcDbLine
 62
7
  6
CONTINUOUS
 10
74.4878209556
 20
242.3359306861
 11
100.9579741516
 21
257.6183895353
  0
LINE
  5
22D
100
AcDbEntity
  8
0
100
AcDbLine
 62
7
  6
CONTINUOUS
 10
29.0489500177
 20
215.4259367154
 11
30.3383828989
 21
216.1703866927
  0
LINE
  5
22E
100
AcDbEntity
  8
0
100
AcDbLine
 62
7
  6
CONTINUOUS
 10
191.6032281191
 20
97.5948264981
 11
205.6248608052
 21
99.0222771203
  0
LINE
  5
22F
100
AcDbEntity
  8
0
100
AcDbLine
 62
7
  6
CONTINUOUS
 10
205.6248608052
 20
100.6399317092
 11
191.6032281191
 21
99.2124810869
  0
LINE
  5
230
100
AcDbEntity
  8
0
100
AcDbLine
 62
7
  6
CONTINUOUS
 10
45.9983701294
 20
244.7470416842
 11
45.9983701294
 21
172.0468989141
  0
LINE
  5
231
100
AcDbEntity
  8
0
100
AcDbLine
 62
7
  6
CONTINUOUS
 10
48.701835787
 20
168.5996699794
 11
48.701835787
 21
170.3224861001
  0
LINE
  5
232
100
AcDbEntity
  8
0
100
AcDbLine
 62
7
  6
CONTINUOUS
 10
48.8878753584
 20
243.2536825741
 11
48.8878753584
 21
173.7151455778
  0
LINE
  5
233
100
AcDbEntity
  8
0
100
AcDbLine
 62
7
  6
CONTINUOUS
 10
31.5634465222
 20
216.1104431557
 11
32.8528794034
 21
216.854893133
  0
LINE
  5
234
100
AcDbEntity
  8
0
100
AcDbLine
 62
7
  6
CONTINUOUS
 10
38.5228881197
 20
218.0296484478
 11
34.7534895693
 21
215.8533981705
  0
LINE
  5
235
100
AcDbEntity
  8
0
100
AcDbLine
 62
7
  6
CONTINUOUS
 10
70.8933900185
 20
233.5472022362
 11
97.0012029709
 21
248.6204650969
  0
LINE
  5
236
100
AcDbEntity
  8
0
100
AcDbLine
 62
7
  6
CONTINUOUS
 10
76.7382917246
 20
233.9449641708
 11
102.7890821266
 21
248.9853052432
  0
LINE
  5
237
100
AcDbEntity
  8
0
100
AcDbLine
 62
7
  6
CONTINUOUS
 10
40.4998749641
 20
211.401538327
 11
41.7893078441
 21
212.1459883049
  0
LINE
  5
238
100
AcDbEntity
  8
0
100
AcDbLine
 62
7
  6
CONTINUOUS
 10
202.5131702602
 20
110.1486820467
 11
202.7144486291
 21
110.1691728796
  0
LINE
  5
239
100
AcDbEntity
  8
0
100
AcDbLine
 62
7
  6
CONTINUOUS
 10
191.7953606078
 20
96.2341897462
 11
185.2205972103
 21
96.2341739424
  0
LINE
  5
23A
100
AcDbEntity
  8
0
100
AcDbLine
 62
7
  6
CONTINUOUS
 10
217.7513886373
 20
99.6819752588
 11
218.3437937356
 21
99.6819766827
  0
LINE
  5
23B
100
AcDbEntity
  8
0
100
AcDbLine
 62
7
  6
CONTINUOUS
 10
214.7878085406
 20
100.1176392956
 11
216.9967701225
 21
100.1176446053
  0
LINE
  5
23C
100
AcDbEntity
  8
0
100
AcDbLine
 62
7
  6
CONTINUOUS
 10
216.1348321538
 20
100.3663636991
 11
214.7877937356
 21
100.3663604612
  0
LINE
  5
23D
100
AcDbEntity
  8
0
100
AcDbLine
 62
7
  6
CONTINUOUS
 10
218.3437937356
 20
102.1706760502
 11
216.1348321538
 21
102.1706707405
  0
LINE
  5
23E
100
AcDbEntity
  8
0
100
AcDbLine
 62
7
  6
CONTINUOUS
 10
191.7953606078
 20
104.5298543042
 11
187.2698624428
 21
104.5298434263
  0
LINE
  5
23F
100
AcDbEntity
  8
0
100
AcDbLine
 62
7
  6
CONTINUOUS
 10
55.3465129335
 20
165.3659909325
 11
55.3465129335
 21
165.2545708511
  0
LINE
  5
240
100
AcDbEntity
  8
0
100
AcDbLine
 62
7
  6
CONTINUOUS
 10
57.8682644063
 20
161.4432939901
 11
57.8682644063
 21
164.1395926969
  0
LINE
  5
241
100
AcDbEntity
  8
0
100
AcDbLine
 62
7
  6
CONTINUOUS
 10
74.4878209556
 20
230.0230742358
 11
76.7382917246
 21
231.3223763843
  0
LINE
  5
242
100
AcDbEntity
  8
0
100
AcDbLine
 62
7
  6
CONTINUOUS
 10
29.0489500177
 20
203.7871999936
 11
34.4236053104
 21
206.890240151
  0
LINE
  5
243
100
AcDbEntity
  8
0
100
AcDbLine
 62
7
  6
CONTINUOUS
 10
35.2103360785
 20
206.3730150786
 11
31.2889502709
 21
204.1090154413
  0
LINE
  5
244
100
AcDbEntity
  8
0
100
AcDbLine
 62
7
  6
CONTINUOUS
 10
191.7953523593
 20
105.6736843052
 11
189.2510541942
 21
105.6736781895
  0
LINE
  5
245
100
AcDbEntity
  8
0
100
AcDbLine
 62
7
  6
CONTINUOUS
 10
71.0184293318
 20
225.7182394254
 11
70.8933900185
 21
233.5472022362
  0
LINE
  5
246
100
AcDbEntity
  8
0
100
AcDbLine
 62
7
  6
CONTINUOUS
 10
102.6819570146
 20
233.3940684362
 11
102.3138452867
 21
233.1815402996
  0
LINE
  5
247
100
AcDbEntity
  8
0
100
AcDbLine
 62
7
  6
CONTINUOUS
 10
105.1255182502
 20
234.00602441
 11
103.528484435
 21
233.0839820107
  0
LINE
  5
248
100
AcDbEntity
  8
0
100
AcDbLine
 62
7
  6
CONTINUOUS
 10
101.5604063964
 20
231.947718408
 11
102.821091324
 21
232.6755708456
  0
LINE
  5
249
100
AcDbEntity
  8
0
100
AcDbLine
 62
7
  6
CONTINUOUS
 10
105.4649309182
 20
233.8100688478
 11
103.8678971031
 21
232.8880264486
  0
LINE
  5
24A
100
AcDbEntity
  8
0
100
AcDbLine
 62
7
  6
CONTINUOUS
 10
102.0314106484
 20
231.8277368287
 11
103.1605039921
 21
232.4796152834
  0
LINE
  5
24B
100
AcDbEntity
  8
0
100
AcDbLine
 62
7
  6
CONTINUOUS
 10
103.854901204
 20
232.7178015621
 11
103.528484435
 21
232.5293458776
  0
LINE
  5
24C
100
AcDbEntity
  8
0
100
AcDbLine
 62
7
  6
CONTINUOUS
 10
104.0070314124
 20
232.1695288579
 11
104.3751431404
 21
232.3820569945
  0
LINE
  5
24D
100
AcDbEntity
  8
0
100
AcDbLine
 62
7
  6
CONTINUOUS
 10
29.0489500177
 20
187.7888149329
 11
30.4725623488
 21
188.6107329893
  0
LINE
  5
24E
100
AcDbEntity
  8
0
100
AcDbLine
 62
7
  6
CONTINUOUS
 10
40.1739999111
 20
191.8164430847
 11
32.7138545446
 21
187.5093518591
  0
LINE
  5
24F
100
AcDbEntity
  8
0
100
AcDbLine
 62
7
  6
CONTINUOUS
 10
38.4139788112
 20
174.79904612
 11
29.0489500177
 21
181.9403714195
  0
LINE
  5
250
100
AcDbEntity
  8
0
100
AcDbLine
 62
7
  6
CONTINUOUS
 10
36.6811827753
 20
244.7580147814
 11
35.8385344925
 21
246.9298085838
  0
LINE
  5
251
100
AcDbEntity
  8
0
100
AcDbLine
 62
7
  6
CONTINUOUS
 10
75.3144481391
 20
170.6705851632
 11
74.4670607045
 21
223.727216217
  0
LINE
  5
252
100
AcDbEntity
  8
0
100
AcDbLine
 62
7
  6
CONTINUOUS
 10
74.4878209556
 20
230.0230742358
 11
74.4878209556
 21
242.3359306861
  0
LINE
  5
253
100
AcDbEntity
  8
0
100
AcDbLine
 62
7
  6
CONTINUOUS
 10
75.3353655592
 20
157.1235869192
 11
75.3353655592
 21
179.8518650679
  0
LINE
  5
254
100
AcDbEntity
  8
0
100
AcDbLine
 62
7
  6
CONTINUOUS
 10
76.7382917246
 20
233.9449641708
 11
76.7382917246
 21
230.1727230037
  0
LINE
  5
255
100
AcDbEntity
  8
0
100
AcDbLine
 62
7
  6
CONTINUOUS
 10
76.8848256691
 20
155.7315276654
 11
76.8848256691
 21
178.9727824483
  0
LINE
  5
256
100
AcDbEntity
  8
0
100
AcDbLine
 62
7
  6
CONTINUOUS
 10
77.6259477851
 20
178.5523085251
 11
77.6259477851
 21
221.9034731692
  0
LINE
  5
257
100
AcDbEntity
  8
0
100
AcDbLine
 62
7
  6
CONTINUOUS
 10
77.7875453637
 20
178.6456063737
 11
77.7875453637
 21
149.7424263568
  0
LINE
  5
258
100
AcDbEntity
  8
0
100
AcDbLine
 62
7
  6
CONTINUOUS
 10
78.8622442427
 20
168.6223104659
 11
78.8622442427
 21
152.0101561917
  0
LINE
  5
259
100
AcDbEntity
  8
0
100
AcDbLine
 62
7
  6
CONTINUOUS
 10
128.2349950812
 20
235.0698589966
 11
106.3733232866
 21
222.4480922429
  0
LINE
  5
25A
100
AcDbEntity
  8
0
100
AcDbLine
 62
7
  6
CONTINUOUS
 10
125.6187468271
 20
229.7029729556
 11
115.7192931061
 21
223.9875548014
  0
LINE
  5
25B
100
AcDbEntity
  8
0
100
AcDbLine
 62
7
  6
CONTINUOUS
 10
38.4139788112
 20
174.79904612
 11
44.5841506791
 21
171.2367763204
  0
LINE
  5
25C
100
AcDbEntity
  8
0
100
AcDbLine
 62
7
  6
CONTINUOUS
 10
77.7875453637
 20
149.7424263568
 11
57.8682644063
 21
161.4432939901
  0
LINE
  5
25D
100
AcDbEntity
  8
0
100
AcDbLine
 62
7
  6
CONTINUOUS
 10
48.8878753584
 20
173.7151455778
 11
75.3353655592
 21
157.1235869192
  0
LINE
  5
25E
100
AcDbEntity
  8
0
100
AcDbLine
 62
7
  6
CONTINUOUS
 10
48.701835787
 20
168.5996699794
 11
44.5841506791
 21
171.1845578118
  0
LINE
  5
25F
100
AcDbEntity
  8
0
100
AcDbLine
 62
7
  6
CONTINUOUS
 10
45.9983701294
 20
172.0468989141
 11
48.701835787
 21
170.3224861001
  0
LINE
  5
260
100
AcDbEntity
  8
0
100
AcDbLine
 62
7
  6
CONTINUOUS
 10
31.6533362642
 20
222.3420296693
 11
29.0489500177
 21
225.8828349168
  0
LINE
  5
261
100
AcDbEntity
  8
0
100
AcDbLine
 62
7
  6
CONTINUOUS
 10
89.7747537271
 20
162.3221127071
 11
89.7747537271
 21
161.5056102904
  0
LINE
  5
262
100
AcDbEntity
  8
0
100
AcDbLine
 62
7
  6
CONTINUOUS
 10
125.6187468271
 20
224.5181826069
 11
120.209517453
 21
221.3951812134
  0
LINE
  5
263
100
AcDbEntity
  8
0
100
AcDbLine
 62
7
  6
CONTINUOUS
 10
45.9983701294
 20
172.0468989141
 11
48.8878753584
 21
173.7151455778
  0
LINE
  5
264
100
AcDbEntity
  8
0
100
AcDbLine
 62
7
  6
CONTINUOUS
 10
55.3465129335
 20
165.2545708511
 11
76.8848256691
 21
155.7315276654
  0
LINE
  5
265
100
AcDbEntity
  8
0
100
AcDbLine
 62
7
  6
CONTINUOUS
 10
48.701835787
 20
168.5996699794
 11
55.3465129335
 21
165.3659909325
  0
LINE
  5
266
100
AcDbEntity
  8
0
100
AcDbLine
 62
7
  6
CONTINUOUS
 10
48.701835787
 20
170.3224861001
 11
75.3353655592
 21
157.1235869192
  0
LINE
  5
267
100
AcDbEntity
  8
0
100
AcDbLine
 62
7
  6
CONTINUOUS
 10
190.5714656603
 20
94.6287333278
 11
199.8002353251
 21
89.808423909
  0
LINE
  5
268
100
AcDbEntity
  8
0
100
AcDbLine
 62
7
  6
CONTINUOUS
 10
199.8002353251
 20
91.3489533474
 11
191.9723797826
 21
95.4375466454
  0
LINE
  5
269
100
AcDbEntity
  8
0
100
AcDbLine
 62
7
  6
CONTINUOUS
 10
193.1962829786
 20
95.8991730628
 11
199.8002353251
 21
92.0864656528
  0
LINE
  5
26A
100
AcDbEntity
  8
0
100
AcDbLine
 62
7
  6
CONTINUOUS
 10
178.2736831187
 20
104.7682183614
 11
190.2820939464
 21
97.8353159806
  0
LINE
  5
26B
100
AcDbEntity
  8
0
100
AcDbLine
 62
7
  6
CONTINUOUS
 10
178.2736831187
 20
106.3858729502
 11
190.2820939464
 21
99.4529705695
  0
LINE
  5
26C
100
AcDbEntity
  8
0
100
AcDbLine
 62
7
  6
CONTINUOUS
 10
203.2464085747
 20
82.400328629
 11
190.5467179111
 21
90.775107104
  0
LINE
  5
26D
100
AcDbEntity
  8
0
100
AcDbLine
 62
7
  6
CONTINUOUS
 10
44.5841506791
 20
188.8913228714
 11
29.0489500177
 21
199.1953537002
  0
LINE
  5
26E
100
AcDbEntity
  8
0
100
AcDbLine
 62
7
  6
CONTINUOUS
 10
100.5387230899
 20
232.5494797756
 11
100.5387230899
 21
232.7730290564
  0
LINE
  5
26F
100
AcDbEntity
  8
0
100
AcDbLine
 62
7
  6
CONTINUOUS
 10
102.8366749929
 20
232.8796912567
 11
102.821091324
 21
232.6755708456
  0
LINE
  5
270
100
AcDbEntity
  8
0
100
AcDbLine
 62
7
  6
CONTINUOUS
 10
102.8340872231
 20
232.2911595989
 11
102.8366749929
 21
232.3250551236
  0
LINE
  5
271
100
AcDbEntity
  8
0
100
AcDbLine
 62
7
  6
CONTINUOUS
 10
103.8523134342
 20
232.6839060374
 11
103.8678971031
 21
232.8880264486
  0
LINE
  5
272
100
AcDbEntity
  8
0
100
AcDbLine
 62
7
  6
CONTINUOUS
 10
148.9427800741
 20
224.5763659088
 11
140.6915748387
 21
219.6675201905
  0
LINE
  5
273
100
AcDbEntity
  8
0
100
AcDbLine
 62
7
  6
CONTINUOUS
 10
147.2488300706
 20
226.1329150841
 11
138.8797144583
 21
221.3216154803
  0
LINE
  5
274
100
AcDbEntity
  8
0
100
AcDbLine
 62
7
  6
CONTINUOUS
 10
114.3415979866
 20
149.2535553943
 11
111.4683761623
 21
148.9810748806
  0
LINE
  5
275
100
AcDbEntity
  8
0
100
AcDbLine
 62
7
  6
CONTINUOUS
 10
29.0489500177
 20
187.7888149329
 11
44.5841506791
 21
180.1547470081
  0
LINE
  5
276
100
AcDbEntity
  8
0
100
AcDbLine
 62
7
  6
CONTINUOUS
 10
44.5841506791
 20
181.6762346079
 11
30.4725623488
 21
188.6107329893
  0
LINE
  5
277
100
AcDbEntity
  8
0
100
AcDbLine
 62
7
  6
CONTINUOUS
 10
189.5472867395
 20
101.8939114382
 11
185.2904861941
 21
104.3515207804
  0
LINE
  5
278
100
AcDbEntity
  8
0
100
AcDbLine
 62
7
  6
CONTINUOUS
 10
157.7645615756
 20
120.5688326522
 11
169.5281478757
 21
113.7772765807
  0
LINE
  5
279
100
AcDbEntity
  8
0
100
AcDbLine
 62
7
  6
CONTINUOUS
 10
172.5628476976
 20
113.6390584563
 11
177.5903978434
 21
110.7364666917
  0
LINE
  5
27A
100
AcDbEntity
  8
0
100
AcDbLine
 62
7
  6
CONTINUOUS
 10
157.7645615756
 20
122.186487241
 11
169.5281478757
 21
115.3949311695
  0
LINE
  5
27B
100
AcDbEntity
  8
0
100
AcDbLine
 62
7
  6
CONTINUOUS
 10
171.8017724342
 20
114.1483603232
 11
137.9004380205
 21
133.7208620837
  0
LINE
  5
27C
100
AcDbEntity
  8
0
100
AcDbLine
 62
7
  6
CONTINUOUS
 10
111.4683761623
 20
148.9810748806
 11
89.7737252516
 21
161.5062040676
  0
LINE
  5
27D
100
AcDbEntity
  8
0
100
AcDbLine
 62
7
  6
CONTINUOUS
 10
89.7757822027
 20
162.3215189299
 11
75.3144481391
 21
170.6705851632
  0
LINE
  5
27E
100
AcDbEntity
  8
0
100
AcDbLine
 62
7
  6
CONTINUOUS
 10
171.7382921263
 20
115.461596668
 11
176.7658422721
 21
112.5590049034
  0
LINE
  5
27F
100
AcDbEntity
  8
0
100
AcDbLine
 62
7
  6
CONTINUOUS
 10
180.6235226768
 20
110.8823743595
 11
180.9122752947
 21
110.7156667292
  0
LINE
  5
280
100
AcDbEntity
  8
0
100
AcDbLine
 62
7
  6
CONTINUOUS
 10
170.0765842722
 20
117.0659993507
 11
171.7382921263
 21
116.1066335776
  0
LINE
  5
281
100
AcDbEntity
  8
0
100
AcDbLine
 62
7
  6
CONTINUOUS
 10
193.669594008
 20
103.9215775526
 11
193.1962829786
 21
104.1948376208
  0
LINE
  5
282
100
AcDbEntity
  8
0
100
AcDbLine
 62
7
  6
CONTINUOUS
 10
179.5879829124
 20
112.5472529655
 11
178.1667395393
 21
113.3677890264
  0
LINE
  5
283
100
AcDbEntity
  8
0
100
AcDbLine
 62
7
  6
CONTINUOUS
 10
180.6235226768
 20
112.5000289483
 11
181.4440480224
 21
112.0263091361
  0
LINE
  5
284
100
AcDbEntity
  8
0
100
AcDbLine
 62
7
  6
CONTINUOUS
 10
174.6445130967
 20
117.5396382857
 11
167.8233438777
 21
121.4777530785
  0
LINE
  5
285
100
AcDbEntity
  8
0
100
AcDbLine
 62
7
  6
CONTINUOUS
 10
137.9004380205
 20
138.921226511
 11
112.5226711431
 21
153.5727555873
  0
LINE
  5
286
100
AcDbEntity
  8
0
100
AcDbLine
 62
7
  6
CONTINUOUS
 10
176.045427219
 20
118.3484516034
 11
169.224258
 21
122.2865663961
  0
LINE
  5
287
100
AcDbEntity
  8
0
100
AcDbLine
 62
7
  6
CONTINUOUS
 10
194.2707049268
 20
107.9185669457
 11
197.692243256
 21
105.9431855594
  0
LINE
  5
288
100
AcDbEntity
  8
0
100
AcDbLine
 62
7
  6
CONTINUOUS
 10
44.5841506791
 20
200.2103325795
 11
29.0489500177
 21
210.4237316401
  0
LINE
  5
289
100
AcDbEntity
  8
0
100
AcDbLine
 62
7
  6
CONTINUOUS
 10
100.9579741516
 20
247.9281208715
 11
100.9579741516
 21
257.6183895353
  0
LINE
  5
28A
100
AcDbEntity
  8
0
100
AcDbLine
 62
7
  6
CONTINUOUS
 10
102.6819570146
 20
233.3940684362
 11
102.6819570146
 21
232.9690157023
  0
LINE
  5
28B
100
AcDbEntity
  8
0
100
AcDbLine
 62
7
  6
CONTINUOUS
 10
102.821091324
 20
232.6755708456
 11
102.821091324
 21
232.2836564579
  0
LINE
  5
28C
100
AcDbEntity
  8
0
100
AcDbLine
 62
7
  6
CONTINUOUS
 10
102.8366749929
 20
232.8796912567
 11
102.8366749929
 21
232.3250551236
  0
LINE
  5
28D
100
AcDbEntity
  8
0
100
AcDbLine
 62
7
  6
CONTINUOUS
 10
103.2047867209
 20
233.0922193933
 11
103.2047867209
 21
232.5375832602
  0
LINE
  5
28E
100
AcDbEntity
  8
0
100
AcDbLine
 62
7
  6
CONTINUOUS
 10
103.528484435
 20
233.0839820107
 11
103.528484435
 21
232.5293458776
  0
LINE
  5
28F
100
AcDbEntity
  8
0
100
AcDbLine
 62
7
  6
CONTINUOUS
 10
103.8523134342
 20
232.6839060374
 11
103.8523134342
 21
232.2588533035
  0
LINE
  5
290
100
AcDbEntity
  8
0
100
AcDbLine
 62
7
  6
CONTINUOUS
 10
105.1255182502
 20
233.6141100222
 11
105.1255182502
 21
234.00602441
  0
LINE
  5
291
100
AcDbEntity
  8
0
100
AcDbLine
 62
7
  6
CONTINUOUS
 10
106.1198864029
 20
232.6470942426
 11
106.1198864029
 21
232.7730290564
  0
LINE
  5
292
100
AcDbEntity
  8
0
100
AcDbLine
 62
7
  6
CONTINUOUS
 10
106.3733232866
 20
219.116762381
 11
106.3733232866
 21
222.4480922429
  0
LINE
  5
293
100
AcDbEntity
  8
0
100
AcDbLine
 62
7
  6
CONTINUOUS
 10
77.7875453637
 20
178.6456063737
 11
77.6259477851
 21
178.5523085251
  0
LINE
  5
294
100
AcDbEntity
  8
0
100
AcDbLine
 62
7
  6
CONTINUOUS
 10
139.7864797112
 20
210.0926724806
 11
149.6859334322
 21
215.8080906348
  0
LINE
  5
295
100
AcDbEntity
  8
0
100
AcDbLine
 62
7
  6
CONTINUOUS
 10
140.5398947826
 20
214.2596820736
 11
149.1010586367
 21
218.9896709886
  0
LINE
  5
296
100
AcDbEntity
  8
0
100
AcDbLine
 62
7
  6
CONTINUOUS
 10
29.0489500177
 20
203.7871999936
 11
44.5841506791
 21
196.0625003005
  0
LINE
  5
297
100
AcDbEntity
  8
0
100
AcDbLine
 62
7
  6
CONTINUOUS
 10
44.5841506791
 20
197.498130088
 11
31.2889502709
 21
204.1090154413
  0
LINE
  5
298
100
AcDbEntity
  8
0
100
AcDbLine
 62
7
  6
CONTINUOUS
 10
75.3353655592
 20
179.8518650679
 11
77.6259477851
 21
178.5523085251
  0
LINE
  5
299
100
AcDbEntity
  8
0
100
AcDbLine
 62
7
  6
CONTINUOUS
 10
194.2707049268
 20
109.5362215346
 11
198.5275054721
 21
107.0786121923
  0
LINE
  5
29A
100
AcDbEntity
  8
0
100
AcDbLine
 62
7
  6
CONTINUOUS
 10
173.2159801086
 20
123.0229715183
 11
174.6060327524
 21
122.2204424058
  0
LINE
  5
29B
100
AcDbEntity
  8
0
100
AcDbLine
 62
7
  6
CONTINUOUS
 10
221.3025228407
 20
95.4438126456
 11
222.7077562012
 21
94.6325191406
  0
LINE
  5
29C
100
AcDbEntity
  8
0
100
AcDbLine
 62
7
  6
CONTINUOUS
 10
221.5150973651
 20
97.2601364033
 11
219.6963423533
 21
98.3101713439
  0
LINE
  5
29D
100
AcDbEntity
  8
0
100
AcDbLine
 62
7
  6
CONTINUOUS
 10
216.1348321538
 20
100.3663636991
 11
214.7878011388
 21
101.1440548244
  0
LINE
  5
29E
100
AcDbEntity
  8
0
100
AcDbLine
 62
7
  6
CONTINUOUS
 10
219.0726148223
 20
98.9191822219
 11
216.9967701225
 21
100.1176446053
  0
LINE
  5
29F
100
AcDbEntity
  8
0
100
AcDbLine
 62
7
  6
CONTINUOUS
 10
214.7877993439
 20
101.3929656273
 11
212.7119546441
 21
102.5914280107
  0
LINE
  5
2A0
100
AcDbEntity
  8
0
100
AcDbLine
 62
7
  6
CONTINUOUS
 10
220.4196476322
 20
99.696887335
 11
218.3438029324
 21
100.8953497184
  0
LINE
  5
2A1
100
AcDbEntity
  8
0
100
AcDbLine
 62
7
  6
CONTINUOUS
 10
216.1348321538
 20
102.1706707405
 11
214.058987454
 21
103.3691331238
  0
LINE
  5
2A2
100
AcDbEntity
  8
0
100
AcDbLine
 62
7
  6
CONTINUOUS
 10
204.0476214808
 20
110.0386869921
 11
202.9822228207
 21
110.65378128
  0
LINE
  5
2A3
100
AcDbEntity
  8
0
100
AcDbLine
 62
7
  6
CONTINUOUS
 10
191.6897032638
 20
118.1215541425
 11
191.0250201222
 21
118.5053004517
  0
LINE
  5
2A4
100
AcDbEntity
  8
0
100
AcDbLine
 62
7
  6
CONTINUOUS
 10
202.9822407463
 20
112.2714669177
 11
192.8352161905
 21
118.129721745
  0
LINE
  5
2A5
100
AcDbEntity
  8
0
100
AcDbLine
 62
7
  6
CONTINUOUS
 10
194.8157825856
 20
118.3259116013
 11
204.9628071414
 21
112.467656774
  0
LINE
  5
2A6
100
AcDbEntity
  8
0
100
AcDbLine
 62
7
  6
CONTINUOUS
 10
112.5209553906
 20
152.8913022759
 11
114.3444087107
 21
150.3679979722
  0
LINE
  5
2A7
100
AcDbEntity
  8
0
100
AcDbLine
 62
7
  6
CONTINUOUS
 10
112.5218106604
 20
152.8908084968
 11
112.5218106604
 21
153.573252376
  0
LINE
  5
2A8
100
AcDbEntity
  8
0
100
AcDbLine
 62
7
  6
CONTINUOUS
 10
114.3430111972
 20
149.2527394953
 11
114.3430111972
 21
150.3688048088
  0
LINE
  5
2A9
100
AcDbEntity
  8
0
100
AcDbLine
 62
7
  6
CONTINUOUS
 10
134.8795000486
 20
212.9256544191
 11
138.8797144583
 21
221.3216154803
  0
LINE
  5
2AA
100
AcDbEntity
  8
0
100
AcDbLine
 62
7
  6
CONTINUOUS
 10
31.5634465222
 20
216.1104431557
 11
40.4998442396
 21
211.40155679
  0
LINE
  5
2AB
100
AcDbEntity
  8
0
100
AcDbLine
 62
7
  6
CONTINUOUS
 10
41.789277123
 20
212.1460067662
 11
32.8528794034
 21
216.854893133
  0
LINE
  5
2AC
100
AcDbEntity
  8
0
100
AcDbLine
 62
7
  6
CONTINUOUS
 10
193.4747059455
 20
120.5728094251
 11
188.2019646237
 21
123.6169591787
  0
LINE
  5
2AD
100
AcDbEntity
  8
0
100
AcDbLine
 62
7
  6
CONTINUOUS
 10
189.8613634741
 20
125.9248943318
 11
194.8889136199
 21
123.0223025671
  0
LINE
  5
2AE
100
AcDbEntity
  8
0
100
AcDbLine
 62
7
  6
CONTINUOUS
 10
189.8613634741
 20
126.5699312413
 11
188.19965562
 21
127.5292970144
  0
LINE
  5
2AF
100
AcDbEntity
  8
0
100
AcDbLine
 62
7
  6
CONTINUOUS
 10
188.6945908822
 20
130.3544266812
 11
192.7675844445
 21
128.0029359495
  0
LINE
  5
2B0
100
AcDbEntity
  8
0
100
AcDbLine
 62
7
  6
CONTINUOUS
 10
190.0955050045
 20
131.1632399989
 11
194.1684985668
 21
128.8117492671
  0
LINE
  5
2B1
100
AcDbEntity
  8
0
100
AcDbLine
 62
7
  6
CONTINUOUS
 10
175.4038201312
 20
140.0725438992
 11
180.0000333447
 21
137.4189789948
  0
LINE
  5
2B2
100
AcDbEntity
  8
0
100
AcDbLine
 62
7
  6
CONTINUOUS
 10
40.499844367
 20
216.7886083951
 11
31.6533362642
 21
222.3420296693
  0
LINE
  5
2B3
100
AcDbEntity
  8
0
100
AcDbLine
 62
7
  6
CONTINUOUS
 10
125.6187468271
 20
229.7029729556
 11
125.6187468271
 21
224.5181826069
  0
LINE
  5
2B4
100
AcDbEntity
  8
0
100
AcDbLine
 62
7
  6
CONTINUOUS
 10
140.5398947826
 20
214.2596820736
 11
139.1880454519
 21
210.4381708451
  0
LINE
  5
2B5
100
AcDbEntity
  8
0
100
AcDbLine
 62
7
  6
CONTINUOUS
 10
150.0234220172
 20
197.2472661095
 11
171.8850938118
 21
209.8690328633
  0
LINE
  5
2B6
100
AcDbEntity
  8
0
100
AcDbLine
 62
7
  6
CONTINUOUS
 10
150.0234220172
 20
193.9159362476
 11
171.8850938118
 21
206.5377030014
  0
LINE
  5
2B7
100
AcDbEntity
  8
0
100
AcDbLine
 62
7
  6
CONTINUOUS
 10
78.8622442427
 20
152.0101561917
 11
92.5418755825
 21
159.908047884
  0
LINE
  5
2B8
100
AcDbEntity
  8
0
100
AcDbLine
 62
7
  6
CONTINUOUS
 10
149.3937412298
 20
191.9982698019
 11
175.4445316317
 21
207.0386108744
  0
LINE
  5
2B9
100
AcDbEntity
  8
0
100
AcDbLine
 62
7
  6
CONTINUOUS
 10
77.7875453637
 20
149.7424263568
 11
93.9684613907
 21
159.0844268164
  0
LINE
  5
2BA
100
AcDbEntity
  8
0
100
AcDbLine
 62
7
  6
CONTINUOUS
 10
44.5841506791
 20
227.4201123299
 11
29.0489500177
 21
237.6335113904
  0
LINE
  5
2BB
100
AcDbEntity
  8
0
100
AcDbLine
 62
7
  6
CONTINUOUS
 10
44.5841506791
 20
240.7096032173
 11
38.9828581302
 21
244.9636267742
  0
LINE
  5
2BC
100
AcDbEntity
  8
0
100
AcDbLine
 62
7
  6
CONTINUOUS
 10
147.8616423027
 20
214.7548419471
 11
149.1010586367
 21
218.9896709886
  0
LINE
  5
2BD
100
AcDbEntity
  8
0
100
AcDbLine
 62
7
  6
CONTINUOUS
 10
149.3937412298
 20
188.2260286348
 11
175.5015541822
 21
203.2992914955
  0
LINE
  5
2BE
100
AcDbEntity
  8
0
100
AcDbLine
 62
7
  6
CONTINUOUS
 10
29.0489500177
 20
230.996979744
 11
44.5841506791
 21
223.2722800509
  0
LINE
  5
2BF
100
AcDbEntity
  8
0
100
AcDbLine
 62
7
  6
CONTINUOUS
 10
44.5841506791
 20
224.5990337396
 11
30.6469203262
 21
231.529161092
  0
LINE
  5
2C0
100
AcDbEntity
  8
0
100
AcDbLine
 62
7
  6
CONTINUOUS
 10
193.6754898231
 20
146.3795441196
 11
189.2877072984
 21
148.912774232
  0
LINE
  5
2C1
100
AcDbEntity
  8
0
100
AcDbLine
 62
7
  6
CONTINUOUS
 10
175.4038201312
 20
157.4558860869
 11
180.0000333447
 21
154.8023211826
  0
LINE
  5
2C2
100
AcDbEntity
  8
0
100
AcDbLine
 62
7
  6
CONTINUOUS
 10
173.2159801086
 20
162.5862913544
 11
174.6060327524
 21
161.7837622419
  0
LINE
  5
2C3
100
AcDbEntity
  8
0
100
AcDbLine
 62
7
  6
CONTINUOUS
 10
44.5841506791
 20
243.3193739972
 11
29.0489500177
 21
253.623404826
  0
LINE
  5
2C4
100
AcDbEntity
  8
0
100
AcDbLine
 62
7
  6
CONTINUOUS
 10
38.6323217578
 20
247.1793816462
 11
44.5841506791
 21
242.6591356107
  0
LINE
  5
2C5
100
AcDbEntity
  8
0
100
AcDbLine
 62
7
  6
CONTINUOUS
 10
137.9004380205
 20
133.7208620837
 11
137.9004380205
 21
138.921226511
  0
LINE
  5
2C6
100
AcDbEntity
  8
0
100
AcDbLine
 62
7
  6
CONTINUOUS
 10
140.5398947826
 20
214.2596820736
 11
140.6915748387
 21
219.6675201905
  0
LINE
  5
2C7
100
AcDbEntity
  8
0
100
AcDbLine
 62
7
  6
CONTINUOUS
 10
112.5209553906
 20
152.8913022759
 11
113.1119775757
 21
153.2325270568
  0
LINE
  5
2C8
100
AcDbEntity
  8
0
100
AcDbLine
 62
7
  6
CONTINUOUS
 10
114.3430111972
 20
150.3688048088
 11
116.2075911829
 21
151.4453141395
  0
LINE
  5
2C9
100
AcDbEntity
  8
0
100
AcDbLine
 62
7
  6
CONTINUOUS
 10
114.3415979866
 20
149.2535553943
 11
117.1727327038
 21
150.8881020284
  0
LINE
  5
2CA
100
AcDbEntity
  8
0
100
AcDbLine
 62
7
  6
CONTINUOUS
 10
29.0489500177
 20
242.2168660587
 11
44.5841506791
 21
234.5827981339
  0
LINE
  5
2CB
100
AcDbEntity
  8
0
100
AcDbLine
 62
7
  6
CONTINUOUS
 10
44.5841506791
 20
235.8438163937
 11
30.228848654
 21
242.8980767878
  0
LINE
  5
2CC
100
AcDbEntity
  8
0
100
AcDbLine
 62
7
  6
CONTINUOUS
 10
168.4161592616
 20
169.4869059547
 11
71.0184293318
 21
225.7182394254
  0
LINE
  5
2CD
100
AcDbEntity
  8
0
100
AcDbLine
 62
7
  6
CONTINUOUS
 10
177.7514792966
 20
166.3033479378
 11
179.1415319404
 21
165.5008188253
  0
LINE
  5
2CE
100
AcDbEntity
  8
0
100
AcDbLine
 62
7
  6
CONTINUOUS
 10
149.1010586367
 20
218.9896709886
 11
148.9427800741
 21
224.5763659088
  0
LINE
  5
2CF
100
AcDbEntity
  8
0
100
AcDbLine
 62
7
  6
CONTINUOUS
 10
149.3937412298
 20
188.2260286348
 11
149.3937412298
 21
191.9982698019
  0
LINE
  5
2D0
100
AcDbEntity
  8
0
100
AcDbLine
 62
7
  6
CONTINUOUS
 10
150.0234220172
 20
193.9159362476
 11
150.0234220172
 21
197.2472661095
  0
LINE
  5
2D1
100
AcDbEntity
  8
0
100
AcDbLine
 62
7
  6
CONTINUOUS
 10
153.5879065291
 20
122.9907896996
 11
153.5879065291
 21
124.6084442884
  0
LINE
  5
2D2
100
AcDbEntity
  8
0
100
AcDbLine
 62
7
  6
CONTINUOUS
 10
185.193188553
 20
187.0931439598
 11
177.5021599201
 21
182.6527530139
  0
LINE
  5
2D3
100
AcDbEntity
  8
0
100
AcDbLine
 62
7
  6
CONTINUOUS
 10
168.4161592616
 20
177.2436789174
 11
177.5046284288
 21
182.4908777161
  0
LINE
  5
2D4
100
AcDbEntity
  8
0
100
AcDbLine
 62
7
  6
CONTINUOUS
 10
185.3346129418
 20
187.011494398
 11
194.523972214
 21
192.3169417782
  0
LINE
  5
2D5
100
AcDbEntity
  8
0
100
AcDbLine
 62
7
  6
CONTINUOUS
 10
186.5832411968
 20
186.2906148474
 11
178.892212564
 21
181.8502239014
  0
LINE
  5
2D6
100
AcDbEntity
  8
0
100
AcDbLine
 62
7
  6
CONTINUOUS
 10
171.8017724342
 20
171.4415789635
 11
168.4161592616
 21
169.4869059547
  0
LINE
  5
2D7
100
AcDbEntity
  8
0
100
AcDbLine
 62
7
  6
CONTINUOUS
 10
190.8935760389
 20
182.464171118
 11
194.6412263762
 21
184.6278651335
  0
LINE
  5
2D8
100
AcDbEntity
  8
0
100
AcDbLine
 62
7
  6
CONTINUOUS
 10
74.4878209556
 20
230.0230742358
 11
45.9983701294
 21
244.7470416842
  0
LINE
  5
2D9
100
AcDbEntity
  8
0
100
AcDbLine
 62
7
  6
CONTINUOUS
 10
168.4161592616
 20
177.2436789174
 11
149.3937412298
 21
188.2260286348
  0
LINE
  5
2DA
100
AcDbEntity
  8
0
100
AcDbLine
 62
7
  6
CONTINUOUS
 10
76.7382917246
 20
230.1727230037
 11
70.8933900185
 21
233.5472022362
  0
LINE
  5
2DB
100
AcDbEntity
  8
0
100
AcDbLine
 62
7
  6
CONTINUOUS
 10
190.1532634024
 20
165.971430299
 11
194.7494766158
 21
163.3178653946
  0
LINE
  5
2DC
100
AcDbEntity
  8
0
100
AcDbLine
 62
7
  6
CONTINUOUS
 10
149.3937412298
 20
191.9982698019
 11
76.7382917246
 21
233.9449641708
  0
LINE
  5
2DD
100
AcDbEntity
  8
0
100
AcDbLine
 62
7
  6
CONTINUOUS
 10
106.3733232866
 20
219.116762381
 11
150.0234220172
 21
193.9159362476
  0
LINE
  5
2DE
100
AcDbEntity
  8
0
100
AcDbLine
 62
7
  6
CONTINUOUS
 10
189.4793683645
 20
171.9759068934
 11
190.8694210083
 21
171.173377781
  0
LINE
  5
2DF
100
AcDbEntity
  8
0
100
AcDbLine
 62
7
  6
CONTINUOUS
 10
106.3733232866
 20
222.4480922429
 11
150.0234220172
 21
197.2472661095
  0
LINE
  5
2E0
100
AcDbEntity
  8
0
100
AcDbLine
 62
7
  6
CONTINUOUS
 10
156.8974909265
 20
120.8152371605
 11
156.8974909265
 21
122.4328917493
  0
LINE
  5
2E1
100
AcDbEntity
  8
0
100
AcDbLine
 62
7
  6
CONTINUOUS
 10
157.7645615756
 20
122.186487241
 11
157.7645615756
 21
120.5688326522
  0
LINE
  5
2E2
100
AcDbEntity
  8
0
100
AcDbLine
 62
7
  6
CONTINUOUS
 10
189.4793683645
 20
171.9759068934
 11
186.34157933
 21
170.1643143635
  0
LINE
  5
2E3
100
AcDbEntity
  8
0
100
AcDbLine
 62
7
  6
CONTINUOUS
 10
178.7028222679
 20
165.7541022428
 11
173.2159801086
 21
162.5862913544
  0
LINE
  5
2E4
100
AcDbEntity
  8
0
100
AcDbLine
 62
7
  6
CONTINUOUS
 10
179.1415319404
 20
165.5008188253
 11
186.3339218203
 21
169.6533222715
  0
LINE
  5
2E5
100
AcDbEntity
  8
0
100
AcDbLine
 62
7
  6
CONTINUOUS
 10
190.8694210083
 20
171.173377781
 11
174.6060327524
 21
161.7837622419
  0
LINE
  5
2E6
100
AcDbEntity
  8
0
100
AcDbLine
 62
7
  6
CONTINUOUS
 10
177.5021599201
 20
182.6527530139
 11
178.892212564
 21
181.8502239014
  0
LINE
  5
2E7
100
AcDbEntity
  8
0
100
AcDbLine
 62
7
  6
CONTINUOUS
 10
74.4878209556
 20
242.3359306861
 11
65.5428829325
 21
247.5001762308
  0
LINE
  5
2E8
100
AcDbEntity
  8
0
100
AcDbLine
 62
7
  6
CONTINUOUS
 10
115.7192931061
 20
223.9875548014
 11
139.7864797112
 21
210.0926724806
  0
LINE
  5
2E9
100
AcDbEntity
  8
0
100
AcDbLine
 62
7
  6
CONTINUOUS
 10
103.2047867209
 20
232.5375832602
 11
102.8366749929
 21
232.7501078575
  0
LINE
  5
2EA
100
AcDbEntity
  8
0
100
AcDbLine
 62
7
  6
CONTINUOUS
 10
103.4842017062
 20
232.4713779008
 11
104.0070314124
 21
232.1695288579
  0
LINE
  5
2EB
100
AcDbEntity
  8
0
100
AcDbLine
 62
7
  6
CONTINUOUS
 10
102.3138452867
 20
233.1815402996
 11
102.8366749929
 21
232.8796912567
  0
LINE
  5
2EC
100
AcDbEntity
  8
0
100
AcDbLine
 62
7
  6
CONTINUOUS
 10
104.3751431404
 20
232.3820569945
 11
103.8523134342
 21
232.6839060374
  0
LINE
  5
2ED
100
AcDbEntity
  8
0
100
AcDbLine
 62
7
  6
CONTINUOUS
 10
103.2047867209
 20
233.0922193933
 11
102.6819570146
 21
233.3940684362
  0
LINE
  5
2EE
100
AcDbEntity
  8
0
100
AcDbLine
 62
7
  6
CONTINUOUS
 10
185.193188553
 20
187.0931439598
 11
186.5832411968
 21
186.2906148474
  0
LINE
  5
2EF
100
AcDbEntity
  8
0
100
AcDbLine
 62
7
  6
CONTINUOUS
 10
168.4161592616
 20
169.4869059547
 11
168.4161592616
 21
177.2436789174
  0
LINE
  5
2F0
100
AcDbEntity
  8
0
100
AcDbLine
 62
7
  6
CONTINUOUS
 10
169.5281478757
 20
113.7772765807
 11
169.5281478757
 21
115.3949311695
  0
LINE
  5
2F1
100
AcDbEntity
  8
0
100
AcDbLine
 62
7
  6
CONTINUOUS
 10
171.6494682192
 20
114.2362912135
 11
171.6494682192
 21
113.7772816797
  0
LINE
  5
2F2
100
AcDbEntity
  8
0
100
AcDbLine
 62
7
  6
CONTINUOUS
 10
171.7382921263
 20
116.1066335776
 11
171.7382921263
 21
115.461596668
  0
LINE
  5
2F3
100
AcDbEntity
  8
0
100
AcDbLine
 62
7
  6
CONTINUOUS
 10
171.8017724342
 20
171.4415789635
 11
171.8017724342
 21
116.1066335776
  0
LINE
  5
2F4
100
AcDbEntity
  8
0
100
AcDbLine
 62
7
  6
CONTINUOUS
 10
171.8017724342
 20
115.1827322572
 11
171.8017724342
 21
114.1483603232
  0
LINE
  5
2F5
100
AcDbEntity
  8
0
100
AcDbLine
 62
7
  6
CONTINUOUS
 10
171.8850938118
 20
206.5377030014
 11
171.8850938118
 21
209.8690328633
  0
LINE
  5
2F6
100
AcDbEntity
  8
0
100
AcDbLine
 62
7
  6
CONTINUOUS
 10
173.2159801086
 20
162.5862913544
 11
173.2159801086
 21
123.0229715183
  0
LINE
  5
2F7
100
AcDbEntity
  8
0
100
AcDbLine
 62
7
  6
CONTINUOUS
 10
190.1532634024
 20
165.971430299
 11
175.4038201312
 21
157.4558860869
  0
LINE
  5
2F8
100
AcDbEntity
  8
0
100
AcDbLine
 62
7
  6
CONTINUOUS
 10
194.7494766158
 20
163.3178653946
 11
180.0000333447
 21
154.8023211826
  0
LINE
  5
2F9
100
AcDbEntity
  8
0
100
AcDbLine
 62
7
  6
CONTINUOUS
 10
193.6754898231
 20
161.7272160103
 11
180.9449817526
 21
154.377297622
  0
LINE
  5
2FA
100
AcDbEntity
  8
0
100
AcDbLine
 62
7
  6
CONTINUOUS
 10
137.2133748874
 20
217.8241724138
 11
125.6187468271
 21
224.5181826069
  0
LINE
  5
2FB
100
AcDbEntity
  8
0
100
AcDbLine
 62
7
  6
CONTINUOUS
 10
149.6859334322
 20
215.8080906348
 11
148.3890361859
 21
216.5568376701
  0
LINE
  5
2FC
100
AcDbEntity
  8
0
100
AcDbLine
 62
7
  6
CONTINUOUS
 10
139.509198853
 20
221.6834981641
 11
125.6187468271
 21
229.7029729556
  0
LINE
  5
2FD
100
AcDbEntity
  8
0
100
AcDbLine
 62
7
  6
CONTINUOUS
 10
194.523972214
 20
192.3169417782
 11
175.5015541822
 21
203.2992914955
  0
LINE
  5
2FE
100
AcDbEntity
  8
0
100
AcDbLine
 62
7
  6
CONTINUOUS
 10
99.579201294
 20
247.1320907427
 11
97.0012029709
 21
248.620465097
  0
LINE
  5
2FF
100
AcDbEntity
  8
0
100
AcDbLine
 62
7
  6
CONTINUOUS
 10
140.6915748387
 20
219.6675201905
 11
138.8797144583
 21
221.3216154803
  0
LINE
  5
300
100
AcDbEntity
  8
0
100
AcDbLine
 62
7
  6
CONTINUOUS
 10
175.4445316317
 20
207.0386108744
 11
175.5015541822
 21
203.2992914955
  0
LINE
  5
301
100
AcDbEntity
  8
0
100
AcDbLine
 62
7
  6
CONTINUOUS
 10
177.5021599201
 20
182.6527530139
 11
177.7514792966
 21
166.3033479378
  0
LINE
  5
302
100
AcDbEntity
  8
0
100
AcDbLine
 62
7
  6
CONTINUOUS
 10
179.1415319404
 20
165.5008188253
 11
178.892212564
 21
181.8502239014
  0
LINE
  5
303
100
AcDbEntity
  8
0
100
AcDbLine
 62
7
  6
CONTINUOUS
 10
174.6060327524
 20
161.7837622419
 11
174.6060327524
 21
122.2204424058
  0
LINE
  5
304
100
AcDbEntity
  8
0
100
AcDbLine
 62
7
  6
CONTINUOUS
 10
175.4038201312
 20
157.4558860869
 11
175.4038201312
 21
140.0725438992
  0
LINE
  5
305
100
AcDbEntity
  8
0
100
AcDbLine
 62
7
  6
CONTINUOUS
 10
176.7658422721
 20
112.5590049034
 11
176.7658422721
 21
113.8654087708
  0
LINE
  5
306
100
AcDbEntity
  8
0
100
AcDbLine
 62
7
  6
CONTINUOUS
 10
177.8343388745
 20
106.998239181
 11
177.8343388745
 21
105.3805845922
  0
LINE
  5
307
100
AcDbEntity
  8
0
100
AcDbLine
 62
7
  6
CONTINUOUS
 10
178.1667563944
 20
113.367818221
 11
178.1667563944
 21
114.6742220884
  0
LINE
  5
308
100
AcDbEntity
  8
0
100
AcDbLine
 62
7
  6
CONTINUOUS
 10
178.2736831187
 20
106.3858729502
 11
178.2736831187
 21
104.7682183614
  0
LINE
  5
309
100
AcDbEntity
  8
0
100
AcDbLine
 62
7
  6
CONTINUOUS
 10
179.4921449095
 20
112.5032460751
 11
179.4921513427
 21
110.883989317
  0
LINE
  5
30A
100
AcDbEntity
  8
0
100
AcDbLine
 62
7
  6
CONTINUOUS
 10
180.0000333447
 20
154.8023211826
 11
180.0000333447
 21
137.4189789948
  0
LINE
  5
30B
100
AcDbEntity
  8
0
100
AcDbLine
 62
7
  6
CONTINUOUS
 10
180.6235226768
 20
112.5000289483
 11
180.6235226768
 21
110.8823743595
  0
LINE
  5
30C
100
AcDbEntity
  8
0
100
AcDbLine
 62
7
  6
CONTINUOUS
 10
180.9449817526
 20
154.377297622
 11
180.9449817526
 21
139.0296257312
  0
LINE
  5
30D
100
AcDbEntity
  8
0
100
AcDbLine
 62
7
  6
CONTINUOUS
 10
181.4440480224
 20
111.3222143089
 11
181.4440480224
 21
112.0263091361
  0
LINE
  5
30E
100
AcDbEntity
  8
0
100
AcDbLine
 62
7
  6
CONTINUOUS
 10
180.9449817526
 20
144.0961281439
 11
189.2877072984
 21
148.912774232
  0
LINE
  5
30F
100
AcDbEntity
  8
0
100
AcDbLine
 62
7
  6
CONTINUOUS
 10
103.1605039921
 20
232.4796152834
 11
103.4842017062
 21
232.4713779008
  0
LINE
  5
310
100
AcDbEntity
  8
0
100
AcDbLine
 62
7
  6
CONTINUOUS
 10
103.2047867209
 20
232.5375832602
 11
103.528484435
 21
232.5293458776
  0
LINE
  5
311
100
AcDbEntity
  8
0
100
AcDbLine
 62
7
  6
CONTINUOUS
 10
103.528484435
 20
233.0839820107
 11
103.2047867209
 21
233.0922193933
  0
LINE
  5
312
100
AcDbEntity
  8
0
100
AcDbLine
 62
7
  6
CONTINUOUS
 10
29.0489500177
 20
259.3021791372
 11
65.5428829325
 21
247.5001762308
  0
LINE
  5
313
100
AcDbEntity
  8
0
100
AcDbLine
 62
7
  6
CONTINUOUS
 10
175.4445316317
 20
207.0386108744
 11
171.8850938118
 21
209.0936067676
  0
LINE
  5
314
100
AcDbEntity
  8
0
100
AcDbLine
 62
7
  6
CONTINUOUS
 10
127.5634467833
 20
234.6821427204
 11
102.7890821266
 21
248.9853052432
  0
LINE
  5
315
100
AcDbEntity
  8
0
100
AcDbLine
 62
7
  6
CONTINUOUS
 10
171.8850938118
 20
209.8690328633
 11
148.9848858569
 21
223.0901749883
  0
LINE
  5
316
100
AcDbEntity
  8
0
100
AcDbLine
 62
7
  6
CONTINUOUS
 10
145.4779510448
 20
225.1148589417
 11
128.2349950812
 21
235.0698589966
  0
LINE
  5
317
100
AcDbEntity
  8
0
100
AcDbLine
 62
7
  6
CONTINUOUS
 10
147.2488300706
 20
226.1329150841
 11
148.9427800741
 21
224.5763659088
  0
LINE
  5
318
100
AcDbEntity
  8
0
100
AcDbLine
 62
7
  6
CONTINUOUS
 10
207.6885679101
 20
85.9365821685
 11
204.778155734
 21
95.465823339
  0
LINE
  5
319
100
AcDbEntity
  8
0
100
AcDbLine
 62
7
  6
CONTINUOUS
 10
204.665548317
 20
96.2259797001
 11
207.5759604931
 21
86.6967385296
  0
LINE
  5
31A
100
AcDbEntity
  8
0
100
AcDbLine
 62
7
  6
CONTINUOUS
 10
201.4140779672
 20
111.0875572363
 11
201.5864028138
 21
110.5233330223
  0
LINE
  5
31B
100
AcDbEntity
  8
0
100
AcDbLine
 62
7
  6
CONTINUOUS
 10
202.7144486291
 20
110.1691728796
 11
205.6248608052
 21
100.6399317092
  0
LINE
  5
31C
100
AcDbEntity
  8
0
100
AcDbLine
 62
7
  6
CONTINUOUS
 10
207.5759604931
 20
97.6032512166
 11
207.3708532211
 21
98.2748113061
  0
LINE
  5
31D
100
AcDbEntity
  8
0
100
AcDbLine
 62
7
  6
CONTINUOUS
 10
209.527060181
 20
91.8646115451
 11
211.4781598689
 21
85.476341311
  0
LINE
  5
31E
100
AcDbEntity
  8
0
100
AcDbLine
 62
7
  6
CONTINUOUS
 10
209.4144527641
 20
98.5620362628
 11
206.5040405879
 21
108.0912774333
  0
LINE
  5
31F
100
AcDbEntity
  8
0
100
AcDbLine
 62
7
  6
CONTINUOUS
 10
183.7205972103
 20
97.4589239625
 11
183.7205972103
 21
101.6235121871
  0
LINE
  5
320
100
AcDbEntity
  8
0
100
AcDbLine
 62
7
  6
CONTINUOUS
 10
185.2904814838
 20
105.0047087071
 11
185.2904814838
 21
104.3515207804
  0
LINE
  5
321
100
AcDbEntity
  8
0
100
AcDbLine
 62
7
  6
CONTINUOUS
 10
188.5492499286
 20
123.6939192313
 11
188.5492499286
 21
123.8174632461
  0
LINE
  5
322
100
AcDbEntity
  8
0
100
AcDbLine
 62
7
  6
CONTINUOUS
 10
189.2877072984
 20
148.912774232
 11
189.2877072984
 21
159.1939437101
  0
LINE
  5
323
100
AcDbEntity
  8
0
100
AcDbLine
 62
7
  6
CONTINUOUS
 10
189.5612865049
 20
93.9885818798
 11
189.5612865049
 21
92.5657021342
  0
LINE
  5
324
100
AcDbEntity
  8
0
100
AcDbLine
 62
7
  6
CONTINUOUS
 10
189.8613634741
 20
125.9248943318
 11
189.8613634741
 21
126.5699312413
  0
LINE
  5
325
100
AcDbEntity
  8
0
100
AcDbLine
 62
7
  6
CONTINUOUS
 10
190.2820939464
 20
97.8353159806
 11
190.2820939464
 21
99.4529705695
  0
LINE
  5
326
100
AcDbEntity
  8
0
100
AcDbLine
 62
7
  6
CONTINUOUS
 10
190.8694210083
 20
131.6100579449
 11
190.8694210083
 21
143.6943854292
  0
LINE
  5
327
100
AcDbEntity
  8
0
100
AcDbLine
 62
7
  6
CONTINUOUS
 10
190.8694210083
 20
165.5579658662
 11
190.8694210083
 21
171.173377781
  0
LINE
  5
328
100
AcDbEntity
  8
0
100
AcDbLine
 62
7
  6
CONTINUOUS
 10
190.8935760389
 20
131.6100579449
 11
190.8935760389
 21
143.7083312594
  0
LINE
  5
329
100
AcDbEntity
  8
0
100
AcDbLine
 62
7
  6
CONTINUOUS
 10
190.8935760389
 20
165.5440202683
 11
190.8935760389
 21
182.464171118
  0
LINE
  5
32A
100
AcDbEntity
  8
0
100
AcDbLine
 62
7
  6
CONTINUOUS
 10
191.0250154118
 20
119.1584883784
 11
191.0250154118
 21
118.5053004517
  0
LINE
  5
32B
100
AcDbEntity
  8
0
100
AcDbLine
 62
7
  6
CONTINUOUS
 10
191.603228119
 20
99.2124810869
 11
191.603228119
 21
97.5948264981
  0
LINE
  5
32C
100
AcDbEntity
  8
0
100
AcDbLine
 62
7
  6
CONTINUOUS
 10
191.7953606078
 20
96.2341897462
 11
191.7953606078
 21
97.6143862489
  0
LINE
  5
32D
100
AcDbEntity
  8
0
100
AcDbLine
 62
7
  6
CONTINUOUS
 10
191.7953606078
 20
102.5386390974
 11
191.7953606078
 21
104.5298543042
  0
LINE
  5
32E
100
AcDbEntity
  8
0
100
AcDbLine
 62
7
  6
CONTINUOUS
 10
186.5832411968
 20
186.2906148474
 11
186.3339218203
 21
169.6533222715
  0
LINE
  5
32F
100
AcDbEntity
  8
0
100
AcDbLine
 62
7
  6
CONTINUOUS
 10
180.9449817526
 20
139.0296257312
 11
193.6754898231
 21
146.3795441196
  0
LINE
  5
330
100
AcDbEntity
  8
0
100
AcDbLine
 62
7
  6
CONTINUOUS
 10
180.0000333447
 20
137.4189789948
 11
194.7494766158
 21
145.9345232069
  0
LINE
  5
331
100
AcDbEntity
  8
0
100
AcDbLine
 62
7
  6
CONTINUOUS
 10
29.0489500177
 20
215.4259367154
 11
31.5634465222
 21
216.1104431557
  0
LINE
  5
332
100
AcDbEntity
  8
0
100
AcDbLine
 62
7
  6
CONTINUOUS
 10
32.8528794034
 20
216.854893133
 11
30.3383828989
 21
216.1703866927
  0
LINE
  5
333
100
AcDbEntity
  8
0
100
AcDbLine
 62
7
  6
CONTINUOUS
 10
91.9349754869
 20
262.7375670166
 11
100.9579741516
 21
257.6183895353
  0
LINE
  5
334
100
AcDbEntity
  8
0
100
AcDbLine
 62
7
  6
CONTINUOUS
 10
214.1331020151
 20
81.8388286028
 11
213.5142941572
 21
84.0659722232
  0
LINE
  5
335
100
AcDbEntity
  8
0
100
AcDbLine
 62
7
  6
CONTINUOUS
 10
201.4020949972
 20
111.1677628501
 11
201.4140779672
 21
111.0875572363
  0
LINE
  5
336
100
AcDbEntity
  8
0
100
AcDbLine
 62
7
  6
CONTINUOUS
 10
204.665548317
 20
96.2259797001
 11
204.7781696128
 21
95.4658275834
  0
LINE
  5
337
100
AcDbEntity
  8
0
100
AcDbLine
 62
7
  6
CONTINUOUS
 10
194.523972214
 20
192.3169417782
 11
194.6412263762
 21
184.6278651335
  0
LINE
  5
338
100
AcDbEntity
  8
0
100
AcDbLine
 62
7
  6
CONTINUOUS
 10
193.1393340769
 20
107.9185642263
 11
193.1393340769
 21
109.5362188151
  0
LINE
  5
339
100
AcDbEntity
  8
0
100
AcDbLine
 62
7
  6
CONTINUOUS
 10
193.1962829786
 20
104.1948376208
 11
193.1962829786
 21
103.3474571773
  0
LINE
  5
33A
100
AcDbEntity
  8
0
100
AcDbLine
 62
7
  6
CONTINUOUS
 10
193.1962829786
 20
97.7570049834
 11
193.1962829786
 21
95.8991730628
  0
LINE
  5
33B
100
AcDbEntity
  8
0
100
AcDbLine
 62
7
  6
CONTINUOUS
 10
193.6754898231
 20
146.3795441196
 11
193.6754898231
 21
161.7272160103
  0
LINE
  5
33C
100
AcDbEntity
  8
0
100
AcDbLine
 62
7
  6
CONTINUOUS
 10
194.2352817881
 20
107.9289808681
 11
194.2352817881
 21
104.2481868826
  0
LINE
  5
33D
100
AcDbEntity
  8
0
100
AcDbLine
 62
7
  6
CONTINUOUS
 10
194.2707049268
 20
109.5362215346
 11
194.2707049268
 21
107.9185669457
  0
LINE
  5
33E
100
AcDbEntity
  8
0
100
AcDbLine
 62
7
  6
CONTINUOUS
 10
194.7494766158
 20
145.9345232069
 11
194.7494766158
 21
163.3178653946
  0
LINE
  5
33F
100
AcDbEntity
  8
0
100
AcDbLine
 62
7
  6
CONTINUOUS
 10
194.8889136199
 20
124.3287064345
 11
194.8889136199
 21
123.0223025671
  0
LINE
  5
340
100
AcDbEntity
  8
0
100
AcDbLine
 62
7
  6
CONTINUOUS
 10
196.2898277422
 20
125.1375197522
 11
196.2898277422
 21
123.8311158848
  0
LINE
  5
341
100
AcDbEntity
  8
0
100
AcDbLine
 62
7
  6
CONTINUOUS
 10
198.5275054721
 20
106.4254242656
 11
198.5275054721
 21
107.0786121923
  0
LINE
  5
342
100
AcDbEntity
  8
0
100
AcDbLine
 62
7
  6
CONTINUOUS
 10
199.8002353251
 20
92.0864656528
 11
199.8002353251
 21
89.808423909
  0
LINE
  5
343
100
AcDbEntity
  8
0
100
AcDbLine
 62
7
  6
CONTINUOUS
 10
201.6362358112
 20
111.4943552448
 11
201.6362358112
 21
110.4692600561
  0
LINE
  5
344
100
AcDbEntity
  8
0
100
AcDbLine
 62
7
  6
CONTINUOUS
 10
169.224258
 20
122.2865663961
 11
167.8233438777
 21
121.4777530785
  0
LINE
  5
345
100
AcDbEntity
  8
0
100
AcDbLine
 62
7
  6
CONTINUOUS
 10
174.6060327524
 20
122.2204424058
 11
190.8694210083
 21
131.6100579449
  0
LINE
  5
346
100
AcDbEntity
  8
0
100
AcDbLine
 62
7
  6
CONTINUOUS
 10
91.9349754869
 20
262.7375670166
 11
55.1225674963
 21
274.3556993498
  0
LINE
  5
347
100
AcDbEntity
  8
0
100
AcDbLine
 62
7
  6
CONTINUOUS
 10
207.5759604931
 20
97.6032512166
 11
207.5196289928
 21
97.983320928
  0
LINE
  5
348
100
AcDbEntity
  8
0
100
AcDbLine
 62
7
  6
CONTINUOUS
 10
209.527060181
 20
86.8953672147
 11
209.5833916814
 21
86.5152975033
  0
LINE
  5
349
100
AcDbEntity
  8
0
100
AcDbLine
 62
7
  6
CONTINUOUS
 10
207.688558386
 20
85.936579259
 11
207.5759604931
 21
86.6967385296
  0
LINE
  5
34A
100
AcDbEntity
  8
0
100
AcDbLine
 62
7
  6
CONTINUOUS
 10
209.4144622882
 20
98.5620391723
 11
209.527060181
 21
97.8018799017
  0
LINE
  5
34B
100
AcDbEntity
  8
0
100
AcDbLine
 62
7
  6
CONTINUOUS
 10
204.382306344
 20
82.9662013957
 11
204.382306344
 21
98.8957807858
  0
LINE
  5
34C
100
AcDbEntity
  8
0
100
AcDbLine
 62
7
  6
CONTINUOUS
 10
204.4449806797
 20
96.7569413756
 11
204.4449806797
 21
95.1392867868
  0
LINE
  5
34D
100
AcDbEntity
  8
0
100
AcDbLine
 62
7
  6
CONTINUOUS
 10
204.665548317
 20
98.9246157967
 11
204.665548317
 21
96.2259797001
  0
LINE
  5
34E
100
AcDbEntity
  8
0
100
AcDbLine
 62
7
  6
CONTINUOUS
 10
205.7832204663
 20
83.7750147133
 11
205.7832204663
 21
92.1750508825
  0
LINE
  5
34F
100
AcDbEntity
  8
0
100
AcDbLine
 62
7
  6
CONTINUOUS
 10
205.7832204663
 20
109.2319348676
 11
205.7832204663
 21
110.6542742853
  0
LINE
  5
350
100
AcDbEntity
  8
0
100
AcDbLine
 62
7
  6
CONTINUOUS
 10
207.5759604931
 20
97.6032512166
 11
207.5759604931
 21
86.6967385296
  0
LINE
  5
351
100
AcDbEntity
  8
0
100
AcDbLine
 62
7
  6
CONTINUOUS
 10
209.527060181
 20
97.8018799017
 11
209.527060181
 21
86.8953672147
  0
LINE
  5
352
100
AcDbEntity
  8
0
100
AcDbLine
 62
7
  6
CONTINUOUS
 10
210.4444011381
 20
99.8998079892
 11
210.4444011381
 21
97.6185002357
  0
LINE
  5
353
100
AcDbEntity
  8
0
100
AcDbLine
 62
7
  6
CONTINUOUS
 10
181.5921371311
 20
111.4911268646
 11
181.6782584603
 21
111.6997137828
  0
LINE
  5
354
100
AcDbEntity
  8
0
100
AcDbLine
 62
7
  6
CONTINUOUS
 10
174.6445130967
 20
117.5396382857
 11
176.045427219
 21
118.3484516034
  0
LINE
  5
355
100
AcDbEntity
  8
0
100
AcDbLine
 62
7
  6
CONTINUOUS
 10
192.7675844445
 20
128.0029359495
 11
194.1684985668
 21
128.8117492671
  0
LINE
  5
356
100
AcDbEntity
  8
0
100
AcDbLine
 62
7
  6
CONTINUOUS
 10
171.8017724342
 20
114.1483603232
 11
172.0098840591
 21
114.2685129087
  0
LINE
  5
357
100
AcDbEntity
  8
0
100
AcDbLine
 62
7
  6
CONTINUOUS
 10
177.1858758441
 20
117.2568553211
 11
189.1823419263
 21
124.1829768996
  0
LINE
  5
358
100
AcDbEntity
  8
0
100
AcDbLine
 62
7
  6
CONTINUOUS
 10
171.6494682192
 20
113.7772816797
 11
172.1505639931
 21
114.0665877327
  0
LINE
  5
359
100
AcDbEntity
  8
0
100
AcDbLine
 62
7
  6
CONTINUOUS
 10
196.2898277422
 20
125.1375197522
 11
194.8889136199
 21
124.3287064345
  0
LINE
  5
35A
100
AcDbEntity
  8
0
100
AcDbLine
 62
7
  6
CONTINUOUS
 10
178.1667563944
 20
114.6742220884
 11
176.7658422721
 21
113.8654087708
  0
LINE
  5
35B
100
AcDbEntity
  8
0
100
AcDbLine
 62
7
  6
CONTINUOUS
 10
191.0250154118
 20
119.1584883784
 11
193.4747059455
 21
120.5728094251
  0
LINE
  5
35C
100
AcDbEntity
  8
0
100
AcDbLine
 62
7
  6
CONTINUOUS
 10
193.4747059455
 20
118.9551548363
 11
191.9157588181
 21
118.0551016653
  0
LINE
  5
35D
100
AcDbEntity
  8
0
100
AcDbLine
 62
7
  6
CONTINUOUS
 10
38.9828581302
 20
244.9636267742
 11
36.6811827753
 21
244.7580147814
  0
LINE
  5
35E
100
AcDbEntity
  8
0
100
AcDbLine
 62
7
  6
CONTINUOUS
 10
35.8385344925
 20
246.9298085838
 11
38.6323217578
 21
247.1793816462
  0
LINE
  5
35F
100
AcDbEntity
  8
0
100
AcDbLine
 62
7
  6
CONTINUOUS
 10
212.963537721
 20
102.7572273305
 11
212.963537721
 21
102.4461797395
  0
LINE
  5
360
100
AcDbEntity
  8
0
100
AcDbLine
 62
7
  6
CONTINUOUS
 10
214.7877993439
 20
101.3929656273
 11
214.7878085406
 21
100.1176392956
  0
LINE
  5
361
100
AcDbEntity
  8
0
100
AcDbLine
 62
7
  6
CONTINUOUS
 10
216.1348321538
 20
100.3663636991
 11
216.1348321538
 21
102.1706707405
  0
LINE
  5
362
100
AcDbEntity
  8
0
100
AcDbLine
 62
7
  6
CONTINUOUS
 10
218.0741573805
 20
84.5301820439
 11
218.0741573805
 21
86.1478366327
  0
LINE
  5
363
100
AcDbEntity
  8
0
100
AcDbLine
 62
7
  6
CONTINUOUS
 10
218.3438029324
 20
99.3399524436
 11
218.3437937356
 21
102.1706760502
  0
LINE
  5
364
100
AcDbEntity
  8
0
100
AcDbLine
 62
7
  6
CONTINUOUS
 10
219.7408011381
 20
84.8886444181
 11
219.7408011381
 21
84.6565243638
  0
LINE
  5
365
100
AcDbEntity
  8
0
100
AcDbLine
 62
7
  6
CONTINUOUS
 10
220.1680645552
 20
97.0423886478
 11
220.1680645552
 21
96.4824312901
  0
LINE
  5
366
100
AcDbEntity
  8
0
100
AcDbLine
 62
7
  6
CONTINUOUS
 10
177.9960160397
 20
107.3893397092
 11
181.5921371311
 21
111.4911268646
  0
LINE
  5
367
100
AcDbEntity
  8
0
100
AcDbLine
 62
7
  6
CONTINUOUS
 10
192.8352161905
 20
118.129721745
 11
192.8210741137
 21
118.121556862
  0
LINE
  5
368
100
AcDbEntity
  8
0
100
AcDbLine
 62
7
  6
CONTINUOUS
 10
185.2904814838
 20
105.0047087071
 11
193.1393340769
 21
109.5362188151
  0
LINE
  5
369
100
AcDbEntity
  8
0
100
AcDbLine
 62
7
  6
CONTINUOUS
 10
221.5150973651
 20
97.2601364033
 11
221.5150973651
 21
97.8200937609
  0
LINE
  5
36A
100
AcDbEntity
  8
0
100
AcDbLine
 62
7
  6
CONTINUOUS
 10
222.6872011381
 20
99.8998079892
 11
222.6872011381
 21
97.6185002357
  0
LINE
  5
36B
100
AcDbEntity
  8
0
100
AcDbLine
 62
7
  6
CONTINUOUS
 10
225.2518734513
 20
91.0864808987
 11
225.2518734513
 21
89.4688263099
  0
LINE
  5
36C
100
AcDbEntity
  8
0
100
AcDbLine
 62
7
  6
CONTINUOUS
 10
186.1257484102
 20
103.8692928245
 11
193.1393340769
 21
107.9185642263
  0
LINE
  5
36D
100
AcDbEntity
  8
0
100
AcDbLine
 62
7
  6
CONTINUOUS
 10
201.6362358112
 20
111.4943552448
 11
202.9822407463
 21
112.2714669177
  0
LINE
  5
36E
100
AcDbEntity
  8
0
100
AcDbLine
 62
7
  6
CONTINUOUS
 10
202.1574112512
 20
110.1775996404
 11
202.9822407463
 21
110.6538123289
  0
LINE
  5
36F
100
AcDbEntity
  8
0
100
AcDbLine
 62
7
  6
CONTINUOUS
 10
193.669594008
 20
103.9215775526
 11
194.2352866758
 21
104.248178417
  0
LINE
  5
370
100
AcDbEntity
  8
0
100
AcDbLine
 62
7
  6
CONTINUOUS
 10
198.5275101825
 20
106.4254242656
 11
190.6786575894
 21
101.8939141577
  0
LINE
  5
371
100
AcDbEntity
  8
0
100
AcDbLine
 62
7
  6
CONTINUOUS
 10
191.2728685726
 20
95.4840741099
 11
189.8719544503
 21
94.6752607923
  0
LINE
  5
372
100
AcDbEntity
  8
0
100
AcDbLine
 62
7
  6
CONTINUOUS
 10
191.9723797826
 20
95.4375466454
 11
190.5714656603
 21
94.6287333278
  0
LINE
  5
373
100
AcDbEntity
  8
0
100
AcDbLine
 62
7
  6
CONTINUOUS
 10
218.9985002611
 20
81.8388286028
 11
219.7007226884
 21
84.3661885563
  0
LINE
  5
374
100
AcDbEntity
  8
0
100
AcDbLine
 62
7
  6
CONTINUOUS
 10
204.382306344
 20
82.9662013957
 11
205.7832204663
 21
83.7750147133
  0
LINE
  5
375
100
AcDbEntity
  8
0
100
AcDbLine
 62
7
  6
CONTINUOUS
 10
205.4725525209
 20
83.0883358009
 11
204.0716383986
 21
82.2795224833
  0
ARC
  5
376
100
AcDbEntity
  8
0
100
AcDbCircle
 62
7
  6
CONTINUOUS
 10
175.9904047581
 20
156.862237792
 40
9.4203509741
100
AcDbArc
 50
333.2801721396
 51
337.9132621587
  0
ARC
  5
377
100
AcDbEntity
  8
0
100
AcDbCircle
 62
7
  6
CONTINUOUS
 10
176.4177218659
 20
156.4925378713
 40
8.8601989367
100
AcDbArc
 50
318.2174033257
 51
322.8004998329
  0
ARC
  5
378
100
AcDbEntity
  8
0
100
AcDbCircle
 62
7
  6
CONTINUOUS
 10
178.8422895432
 20
156.1049186254
 40
6.4594193379
100
AcDbArc
 50
351.6994751652
 51
355.0231049274
  0
ARC
  5
379
100
AcDbEntity
  8
0
100
AcDbCircle
 62
7
  6
CONTINUOUS
 10
216.9887860711
 20
93.9871230009
 40
5.2489844106
100
AcDbArc
 50
288.8973537485
 51
291.0768745351
  0
ARC
  5
37A
100
AcDbEntity
  8
0
100
AcDbCircle
 62
7
  6
CONTINUOUS
 10
215.843495013
 20
93.2717577446
 40
4.473334486
100
AcDbArc
 50
242.5859341547
 51
247.0308997179
  0
ARC
  5
37B
100
AcDbEntity
  8
0
100
AcDbCircle
 62
7
  6
CONTINUOUS
 10
181.0240011753
 20
156.090121071
 40
4.2728026957
100
AcDbArc
 50
5.2791206135
 51
9.1729415301
  0
ARC
  5
37C
100
AcDbEntity
  8
0
100
AcDbCircle
 62
7
  6
CONTINUOUS
 10
215.6497375481
 20
92.8977009897
 40
4.0520740487
100
AcDbArc
 50
240.0089575997
 51
242.582775348
  0
ARC
  5
37D
100
AcDbEntity
  8
0
100
AcDbCircle
 62
7
  6
CONTINUOUS
 10
217.4818647281
 20
89.2752608075
 40
4.0520740489
100
AcDbArc
 50
60.0089575997
 51
62.582775348
  0
ARC
  5
37E
100
AcDbEntity
  8
0
100
AcDbCircle
 62
7
  6
CONTINUOUS
 10
186.6637933208
 20
126.105318901
 40
3.1959139349
100
AcDbArc
 50
317.3085065466
 51
322.5215548311
  0
ARC
  5
37F
100
AcDbEntity
  8
0
100
AcDbCircle
 62
7
  6
CONTINUOUS
 10
173.5914392874
 20
115.0771210509
 40
1.7963228458
100
AcDbArc
 50
207.3228539959
 51
209.2894670761
  0
ARC
  5
380
100
AcDbEntity
  8
0
100
AcDbCircle
 62
7
  6
CONTINUOUS
 10
154.8576328958
 20
124.6084323616
 40
1.2696960687
100
AcDbArc
 50
177.8582790125
 51
179.9994617732
  0
ARC
  5
381
100
AcDbEntity
  8
0
100
AcDbCircle
 62
7
  6
CONTINUOUS
 10
105.1840768532
 20
232.7731649515
 40
0.9358076337
100
AcDbArc
 50
350.9205942648
 51
359.9916797297
  0
ARC
  5
382
100
AcDbEntity
  8
0
100
AcDbCircle
 62
7
  6
CONTINUOUS
 10
188.3598520834
 20
124.191326358
 40
0.6370924423
100
AcDbArc
 50
328.4235750584
 51
335.093546252
  0
SPLINE
  5
383
100
AcDbEntity
  8
0
100
AcDbSpline
 62
7
  6
CONTINUOUS
 70
0
 71
3
 72
15
 73
11
 74
0
 42
0.0000001
 43
0.0000001
 44
0.0000000001
 40
0.0
 40
0.0
 40
0.0
 40
0.0
 40
0.1131749917
 40
0.2349270706
 40
0.3630629583
 40
0.4948737541
 40
0.6273886113
 40
0.7575876594
 40
0.8826107738
 40
1.0
 40
1.0
 40
1.0
 40
1.0
 10
101.3560573183
 20
233.9122582174
 30
0.0
 10
101.4834526033
 20
233.9858094805
 30
0.0
 10
101.7608288094
 20
234.1166282078
 30
0.0
 10
102.2118384245
 20
234.2592870146
 30
0.0
 10
102.7003292373
 20
234.3520682297
 30
0.0
 10
103.2098745004
 20
234.3918107294
 30
0.0
 10
103.723428489
 20
234.3772279068
 30
0.0
 10
104.2237868979
 20
234.3087716987
 30
0.0
 10
104.6940920921
 20
234.1887943032
 30
0.0
 10
104.9882634708
 20
234.072672901
 30
0.0
 10
105.1255182502
 20
234.00602441
 30
0.0
  0
SPLINE
  5
384
100
AcDbEntity
  8
0
100
AcDbSpline
 62
7
  6
CONTINUOUS
 70
0
 71
3
 72
14
 73
10
 74
0
 42
0.0000001
 43
0.0000001
 44
0.0000000001
 40
0.0
 40
0.0
 40
0.0
 40
0.0
 40
0.1080469124
 40
0.2181311405
 40
0.3321046651
 40
0.4515011518
 40
0.5774628328
 40
0.7107209061
 40
1.0
 40
1.0
 40
1.0
 40
1.0
 10
100.5387250157
 20
232.7730290557
 30
0.0
 10
100.5387267505
 20
232.8258580595
 30
0.0
 10
100.5478979161
 20
232.9327268757
 30
0.0
 10
100.5888509479
 20
233.0905740849
 30
0.0
 10
100.6564425218
 20
233.2450232169
 30
0.0
 10
100.7498191114
 20
233.3945045
 30
0.0
 10
100.8679467952
 20
233.5376790447
 30
0.0
 10
101.0620219232
 20
233.7234319613
 30
0.0
 10
101.2335651312
 20
233.8415377424
 30
0.0
 10
101.3560573183
 20
233.9122582174
 30
0.0
  0
SPLINE
  5
385
100
AcDbEntity
  8
0
100
AcDbSpline
 62
7
  6
CONTINUOUS
 70
0
 71
3
 72
14
 73
10
 74
0
 42
0.0000001
 43
0.0000001
 44
0.0000000001
 40
0.0
 40
0.0
 40
0.0
 40
0.0
 40
0.2841965502
 40
0.4160997209
 40
0.5416672052
 40
0.6616619227
 40
0.7771288998
 40
0.8893945339
 40
1.0
 40
1.0
 40
1.0
 40
1.0
 10
105.4649309182
 20
233.8100688478
 30
0.0
 10
105.5645339861
 20
233.7416983319
 30
0.0
 10
105.7031778721
 20
233.6297172389
 30
0.0
 10
105.8582349241
 20
233.4590099459
 30
0.0
 10
105.9524713881
 20
233.3286699209
 30
0.0
 10
106.0267060306
 20
233.1938715429
 30
0.0
 10
106.0802746119
 20
233.0555837755
 30
0.0
 10
106.1126412919
 20
232.9149407588
 30
0.0
 10
106.1198860209
 20
232.8200470711
 30
0.0
 10
106.119884477
 20
232.7730290572
 30
0.0
  0
SPLINE
  5
386
100
AcDbEntity
  8
0
100
AcDbSpline
 62
7
  6
CONTINUOUS
 70
0
 71
3
 72
9
 73
5
 74
0
 42
0.0000001
 43
0.0000001
 44
0.0000000001
 40
0.0
 40
0.0
 40
0.0
 40
0.0
 40
0.5036490905
 40
1.0
 40
1.0
 40
1.0
 40
1.0
 10
100.5803795371
 20
232.4956947633
 30
0.0
 10
100.5667021335
 20
232.5408802374
 30
0.0
 10
100.5458110399
 20
232.632636659
 30
0.0
 10
100.538723488
 20
232.7265030076
 30
0.0
 10
100.5387250157
 20
232.7730290557
 30
0.0
  0
SPLINE
  5
387
100
AcDbEntity
  8
0
100
AcDbSpline
 62
7
  6
CONTINUOUS
 70
0
 71
3
 72
14
 73
10
 74
0
 42
0.0000001
 43
0.0000001
 44
0.0000000001
 40
0.0
 40
0.0
 40
0.0
 40
0.0
 40
0.2892805266
 40
0.4225397869
 40
0.5484942561
 40
0.6678937318
 40
0.7818665049
 40
0.8919504171
 40
1.0
 40
1.0
 40
1.0
 40
1.0
 10
220.8943026096
 20
95.119495281
 30
0.0
 10
221.1630016868
 20
95.2746278395
 30
0.0
 10
221.5392951959
 20
95.5337086172
 30
0.0
 10
221.9650249775
 20
95.9411614183
 30
0.0
 10
222.2241194663
 20
96.2552465522
 30
0.0
 10
222.4289732329
 20
96.5831245715
 30
0.0
 10
222.5772412887
 20
96.9219283409
 30
0.0
 10
222.6670541588
 20
97.2681852773
 30
0.0
 10
222.6871977577
 20
97.5026121499
 30
0.0
 10
222.6871989063
 20
97.618500236
 30
0.0
  0
SPLINE
  5
388
100
AcDbEntity
  8
0
100
AcDbSpline
 62
7
  6
CONTINUOUS
 70
0
 71
3
 72
17
 73
13
 74
0
 42
0.0000001
 43
0.0000001
 44
0.0000000001
 40
0.0
 40
0.0
 40
0.0
 40
0.0
 40
0.0437476278
 40
0.0904318527
 40
0.1408510059
 40
0.1953910019
 40
0.3164691304
 40
0.4510854151
 40
0.5936343711
 40
0.7371911285
 40
0.8746747014
 40
1.0
 40
1.0
 40
1.0
 40
1.0
 10
214.1331092663
 20
81.8388292445
 30
0.0
 10
214.151385765
 20
81.773023729
 30
0.0
 10
214.2052564165
 20
81.6411020677
 30
0.0
 10
214.3286229531
 20
81.4576042949
 30
0.0
 10
214.4936418177
 20
81.286380933
 30
0.0
 10
214.7744853908
 20
81.0709905173
 30
0.0
 10
215.2128847222
 20
80.854520205
 30
0.0
 10
215.8157489507
 20
80.6909672265
 30
0.0
 10
216.472099969
 20
80.6252726
 30
0.0
 10
217.1351281005
 20
80.6623316722
 30
0.0
 10
217.7573628122
 20
80.7991938617
 30
0.0
 10
218.1385391336
 20
80.9604805817
 30
0.0
 10
218.3079780789
 20
81.0583056184
 30
0.0
  0
SPLINE
  5
389
100
AcDbEntity
  8
0
100
AcDbSpline
 62
7
  6
CONTINUOUS
 70
0
 71
3
 72
9
 73
5
 74
0
 42
0.0000001
 43
0.0000001
 44
0.0000000001
 40
0.0
 40
0.0
 40
0.0
 40
0.0
 40
0.2529890272
 40
1.0
 40
1.0
 40
1.0
 40
1.0
 10
219.7007155779
 20
84.3661892147
 30
0.0
 10
219.7073425523
 20
84.390044473
 30
0.0
 10
219.7304785107
 20
84.485157137
 30
0.0
 10
219.740801703
 20
84.5834185294
 30
0.0
 10
219.7407952081
 20
84.6565243636
 30
0.0
  0
SPLINE
  5
38A
100
AcDbEntity
  8
0
100
AcDbSpline
 62
7
  6
CONTINUOUS
 70
0
 71
3
 72
13
 73
9
 74
0
 42
0.0000001
 43
0.0000001
 44
0.0000000001
 40
0.0
 40
0.0
 40
0.0
 40
0.0
 40
0.1143833188
 40
0.2379317704
 40
0.5007588669
 40
0.7628826967
 40
0.885869191
 40
1.0
 40
1.0
 40
1.0
 40
1.0
 10
220.1680645552
 20
97.0423886478
 30
0.0
 10
220.1680645552
 20
97.1283844514
 30
0.0
 10
220.1519719364
 20
97.3074522397
 30
0.0
 10
220.0648231772
 20
97.6746599786
 30
0.0
 10
219.8634113414
 20
98.1238389621
 30
0.0
 10
219.5700525588
 20
98.5184442063
 30
0.0
 10
219.2938974078
 20
98.7739405546
 30
0.0
 10
219.1469253849
 20
98.8762799692
 30
0.0
 10
219.0726148223
 20
98.9191822219
 30
0.0
  0
SPLINE
  5
38B
100
AcDbEntity
  8
0
100
AcDbSpline
 62
7
  6
CONTINUOUS
 70
0
 71
3
 72
21
 73
17
 74
0
 42
0.0000001
 43
0.0000001
 44
0.0000000001
 40
0.0
 40
0.0
 40
0.0
 40
0.0
 40
0.1299459581
 40
0.1972791749
 40
0.2654611214
 40
0.4016742089
 40
0.4685607053
 40
0.5338820388
 40
0.6584735277
 40
0.7178908563
 40
0.7756901651
 40
0.8323558053
 40
0.8883923546
 40
0.9163471392
 40
0.9442580749
 40
1.0
 40
1.0
 40
1.0
 40
1.0
 10
213.3409862301
 20
103.4802085442
 30
0.0
 10
213.8015224034
 20
103.667745843
 30
0.0
 10
214.5324088619
 20
103.8791845716
 30
0.0
 10
215.5372435607
 20
104.0328612584
 30
0.0
 10
216.5757119101
 20
104.1030999317
 30
0.0
 10
217.6178642032
 20
104.0453339554
 30
0.0
 10
218.6290021321
 20
103.8578899375
 30
0.0
 10
219.5759274134
 20
103.5923116101
 30
0.0
 10
220.4567986013
 20
103.2031103415
 30
0.0
 10
221.2232335334
 20
102.6806758647
 30
0.0
 10
221.7185918788
 20
102.2327965829
 30
0.0
 10
222.1307215122
 20
101.7233061703
 30
0.0
 10
222.3926056674
 20
101.2492068971
 30
0.0
 10
222.5433098253
 20
100.8476916415
 30
0.0
 10
222.6532734664
 20
100.4344929365
 30
0.0
 10
222.6872011381
 20
100.1131122161
 30
0.0
 10
222.6872011381
 20
99.8998079892
 30
0.0
  0
SPLINE
  5
38C
100
AcDbEntity
  8
0
100
AcDbSpline
 62
7
  6
CONTINUOUS
 70
0
 71
3
 72
12
 73
8
 74
0
 42
0.0000001
 43
0.0000001
 44
0.0000000001
 40
0.0
 40
0.0
 40
0.0
 40
0.0
 40
0.1094891177
 40
0.2194773473
 40
0.4500622629
 40
0.7080791351
 40
1.0
 40
1.0
 40
1.0
 40
1.0
 10
211.8645652496
 20
102.6260526741
 30
0.0
 10
211.890102483
 20
102.6467222136
 30
0.0
 10
211.9454133764
 20
102.6833677512
 30
0.0
 10
212.070972491
 20
102.7351023417
 30
0.0
 10
212.2535982457
 20
102.7540828337
 30
0.0
 10
212.4854130181
 20
102.7057280689
 30
0.0
 10
212.636094357
 20
102.6352249771
 30
0.0
 10
212.7119546441
 20
102.5914280107
 30
0.0
  0
SPLINE
  5
38D
100
AcDbEntity
  8
0
100
AcDbSpline
 62
7
  6
CONTINUOUS
 70
0
 71
3
 72
13
 73
9
 74
0
 42
0.0000001
 43
0.0000001
 44
0.0000000001
 40
0.0
 40
0.0
 40
0.0
 40
0.0
 40
0.1237860579
 40
0.2474108153
 40
0.3712635498
 40
0.4953285195
 40
0.7450102213
 40
1.0
 40
1.0
 40
1.0
 40
1.0
 10
210.4444011381
 20
99.8998079892
 30
0.0
 10
210.4444011381
 20
100.0308867582
 30
0.0
 10
210.4612840207
 20
100.2931912729
 30
0.0
 10
210.5367052566
 20
100.6800337522
 30
0.0
 10
210.6595472071
 20
101.0548671009
 30
0.0
 10
210.8828891657
 20
101.5333054495
 30
0.0
 10
211.2662249307
 20
102.0843421976
 30
0.0
 10
211.6546651685
 20
102.4562076344
 30
0.0
 10
211.8645636925
 20
102.6260581566
 30
0.0
  0
SPLINE
  5
38E
100
AcDbEntity
  8
0
100
AcDbSpline
 62
7
  6
CONTINUOUS
 70
0
 71
3
 72
12
 73
8
 74
0
 42
0.0000001
 43
0.0000001
 44
0.0000000001
 40
0.0
 40
0.0
 40
0.0
 40
0.0
 40
0.2918107245
 40
0.5496586795
 40
0.7804276268
 40
0.8905351127
 40
1.0
 40
1.0
 40
1.0
 40
1.0
 10
212.963537721
 20
102.7572273305
 30
0.0
 10
212.963537721
 20
102.8412800933
 30
0.0
 10
212.9774559411
 20
103.0003227859
 30
0.0
 10
213.0492587164
 20
103.2159749323
 30
0.0
 10
213.1526191789
 20
103.3585878853
 30
0.0
 10
213.2552579778
 20
103.4389928198
 30
0.0
 10
213.311792796
 20
103.468297179
 30
0.0
 10
213.3409931232
 20
103.4801921002
 30
0.0
  0
SPLINE
  5
38F
100
AcDbEntity
  8
0
100
AcDbSpline
 62
7
  6
CONTINUOUS
 70
0
 71
3
 72
23
 73
19
 74
0
 42
0.0000001
 43
0.0000001
 44
0.0000000001
 40
0.0
 40
0.0
 40
0.0
 40
0.0
 40
0.0428144062
 40
0.0873963725
 40
0.1351793763
 40
0.1870887707
 40
0.2435354907
 40
0.3044930105
 40
0.369590962
 40
0.4381989944
 40
0.5094967585
 40
0.5825327092
 40
0.6562765581
 40
0.7296654408
 40
0.8016527634
 40
0.8712556043
 40
0.9376072376
 40
1.0
 40
1.0
 40
1.0
 40
1.0
 10
210.4444033699
 20
97.6185002355
 30
0.0
 10
210.4444016427
 20
97.4442367787
 30
0.0
 10
210.4909939527
 20
97.0870001766
 30
0.0
 10
210.6958772635
 20
96.5711862197
 30
0.0
 10
211.0283307882
 20
96.0822054998
 30
0.0
 10
211.4789246718
 20
95.6297298295
 30
0.0
 10
212.0372647857
 20
95.2217512809
 30
0.0
 10
212.6914633153
 20
94.8659435686
 30
0.0
 10
213.4278197835
 20
94.5692950074
 30
0.0
 10
214.2308651582
 20
94.3378601252
 30
0.0
 10
215.0836243213
 20
94.1764667469
 30
0.0
 10
215.9679833577
 20
94.0885230166
 30
0.0
 10
216.8650952247
 20
94.0759037717
 30
0.0
 10
217.7558234777
 20
94.1388689696
 30
0.0
 10
218.6211592673
 20
94.2760873398
 30
0.0
 10
219.4427652861
 20
94.4846541744
 30
0.0
 10
220.2030545731
 20
94.7601381581
 30
0.0
 10
220.6743739167
 20
94.9925201489
 30
0.0
 10
220.8943026096
 20
95.119495281
 30
0.0
  0
SPLINE
  5
390
100
AcDbEntity
  8
0
100
AcDbSpline
 62
7
  6
CONTINUOUS
 70
0
 71
3
 72
11
 73
7
 74
0
 42
0.0000001
 43
0.0000001
 44
0.0000000001
 40
0.0
 40
0.0
 40
0.0
 40
0.0
 40
0.2832502178
 40
0.542808096
 40
0.7801485404
 40
1.0
 40
1.0
 40
1.0
 40
1.0
 10
218.3079780789
 20
81.0583056184
 30
0.0
 10
218.3951904935
 20
81.1086574289
 30
0.0
 10
218.5564129118
 20
81.2161473098
 30
0.0
 10
218.7609727529
 20
81.4055067387
 30
0.0
 10
218.9128069224
 20
81.6123165747
 30
0.0
 10
218.9775774796
 20
81.7635162989
 30
0.0
 10
218.9984962162
 20
81.8388289753
 30
0.0
  0
SPLINE
  5
391
100
AcDbEntity
  8
0
100
AcDbSpline
 62
7
  6
CONTINUOUS
 70
0
 71
3
 72
9
 73
5
 74
0
 42
0.0000001
 43
0.0000001
 44
0.0000000001
 40
0.0
 40
0.0
 40
0.0
 40
0.0
 40
0.2432849683
 40
1.0
 40
1.0
 40
1.0
 40
1.0
 10
220.8943026096
 20
96.8408456768
 30
0.0
 10
220.8374039772
 20
96.8079954321
 30
0.0
 10
220.6012292423
 20
96.6769672836
 30
0.0
 10
220.3564630132
 20
96.5615984672
 30
0.0
 10
220.1680645552
 20
96.4824312901
 30
0.0
  0
SPLINE
  5
392
100
AcDbEntity
  8
0
100
AcDbSpline
 62
7
  6
CONTINUOUS
 70
0
 71
3
 72
22
 73
18
 74
0
 42
0.0000001
 43
0.0000001
 44
0.0000000001
 40
0.0
 40
0.0
 40
0.0
 40
0.0
 40
0.0664591873
 40
0.1359664337
 40
0.2077597777
 40
0.2809945375
 40
0.428019818
 40
0.5000890736
 40
0.5699925086
 40
0.6369584028
 40
0.7003462258
 40
0.7596951319
 40
0.8147815368
 40
0.8656866375
 40
0.9128676713
 40
0.9572087002
 40
1.0
 40
1.0
 40
1.0
 40
1.0
 10
220.1680645552
 20
97.0423886478
 30
0.0
 10
219.9352314001
 20
96.9445495051
 30
0.0
 10
219.4480771918
 20
96.769413532
 30
0.0
 10
218.682675815
 20
96.5719298514
 30
0.0
 10
217.8777021659
 20
96.4364572493
 30
0.0
 10
216.771030116
 20
96.3419169309
 30
0.0
 10
215.6550712846
 20
96.3785915763
 30
0.0
 10
214.5688996088
 20
96.5473002424
 30
0.0
 10
213.7964501833
 20
96.7356243024
 30
0.0
 10
213.0755506892
 20
96.9829674125
 30
0.0
 10
212.4194127569
 20
97.2848798795
 30
0.0
 10
211.8401000034
 20
97.6360010322
 30
0.0
 10
211.3482521527
 20
98.030329842
 30
0.0
 10
210.9531347103
 20
98.4613578681
 30
0.0
 10
210.662882314
 20
98.9222741384
 30
0.0
 10
210.4847523228
 20
99.4048308095
 30
0.0
 10
210.444413105
 20
99.7371948759
 30
0.0
 10
210.4444053489
 20
99.8998079892
 30
0.0
  0
SPLINE
  5
393
100
AcDbEntity
  8
0
100
AcDbSpline
 62
7
  6
CONTINUOUS
 70
0
 71
3
 72
16
 73
12
 74
0
 42
0.0000001
 43
0.0000001
 44
0.0000000001
 40
0.0
 40
0.0
 40
0.0
 40
0.0
 40
0.095495583
 40
0.1488451957
 40
0.2059441981
 40
0.3302575338
 40
0.4651003043
 40
0.6052897261
 40
0.7449135754
 40
0.8781266652
 40
1.0
 40
1.0
 40
1.0
 40
1.0
 10
213.5575628188
 20
84.0702657224
 30
0.0
 10
213.6493538991
 20
83.9132725879
 30
0.0
 10
213.8407250882
 20
83.6958135806
 30
0.0
 10
214.1527111426
 20
83.4577345443
 30
0.0
 10
214.5385509827
 20
83.2297695055
 30
0.0
 10
215.1026809391
 20
83.0080795666
 30
0.0
 10
215.8497548398
 20
82.8509685479
 30
0.0
 10
216.6408690971
 20
82.8047244305
 30
0.0
 10
217.4274129277
 20
82.8723154902
 30
0.0
 10
218.1608961029
 20
83.0493289889
 30
0.0
 10
218.6098773871
 20
83.2443149147
 30
0.0
 10
218.8108745155
 20
83.3603599682
 30
0.0
  0
SPLINE
  5
394
100
AcDbEntity
  8
0
100
AcDbSpline
 62
7
  6
CONTINUOUS
 70
0
 71
3
 72
26
 73
22
 74
0
 42
0.0000001
 43
0.0000001
 44
0.0000000001
 40
0.0
 40
0.0
 40
0.0
 40
0.0
 40
0.0719762105
 40
0.1473377903
 40
0.2247482046
 40
0.3027386205
 40
0.3798120715
 40
0.4545217478
 40
0.5255678861
 40
0.5918981782
 40
0.6528277912
 40
0.7081866602
 40
0.7584922841
 40
0.7821913003
 40
0.8052062405
 40
0.827828696
 40
0.850377742
 40
0.873177821
 40
0.8965341762
 40
0.9458539075
 40
1.0
 40
1.0
 40
1.0
 40
1.0
 10
214.058987454
 20
103.3691331238
 30
0.0
 10
214.2841134185
 20
103.4536782833
 30
0.0
 10
214.756127539
 20
103.5979565364
 30
0.0
 10
215.4950517737
 20
103.7384757238
 30
0.0
 10
216.2644256655
 20
103.8054397666
 30
0.0
 10
217.0423198298
 20
103.7968870585
 30
0.0
 10
217.8067098909
 20
103.7130859789
 30
0.0
 10
218.535952296
 20
103.5563911575
 30
0.0
 10
219.2095137887
 20
103.331165965
 30
0.0
 10
219.8085837523
 20
103.0435667212
 30
0.0
 10
220.3166030088
 20
102.700962095
 30
0.0
 10
220.7192813429
 20
102.3119710116
 30
0.0
 10
220.9615026705
 20
101.948542528
 30
0.0
 10
221.0853021171
 20
101.6479947734
 30
0.0
 10
221.1434069022
 20
101.4229248284
 30
0.0
 10
221.1679400804
 20
101.1956088747
 30
0.0
 10
221.1586743476
 20
100.9678687119
 30
0.0
 10
221.1156512744
 20
100.7415585412
 30
0.0
 10
221.0121966021
 20
100.4388087148
 30
0.0
 10
220.794452226
 20
100.0698487413
 30
0.0
 10
220.5549459349
 20
99.81697639
 30
0.0
 10
220.4196476322
 20
99.696887335
 30
0.0
  0
SPLINE
  5
395
100
AcDbEntity
  8
0
100
AcDbSpline
 62
7
  6
CONTINUOUS
 70
0
 71
3
 72
12
 73
8
 74
0
 42
0.0000001
 43
0.0000001
 44
0.0000000001
 40
0.0
 40
0.0
 40
0.0
 40
0.0
 40
0.1127978748
 40
0.2269718105
 40
0.464028488
 40
0.720020725
 40
1.0
 40
1.0
 40
1.0
 40
1.0
 10
222.6871969273
 20
99.8998079891
 30
0.0
 10
222.6872013519
 20
99.8070422223
 30
0.0
 10
222.6743655533
 20
99.6201208621
 30
0.0
 10
222.5970711484
 20
99.2454271757
 30
0.0
 10
222.3993019492
 20
98.7806816673
 30
0.0
 10
222.0209104762
 20
98.264399846
 30
0.0
 10
221.6954908985
 20
97.963189624
 30
0.0
 10
221.5150973651
 20
97.8200937609
 30
0.0
  0
SPLINE
  5
396
100
AcDbEntity
  8
0
100
AcDbSpline
 62
7
  6
CONTINUOUS
 70
0
 71
3
 72
11
 73
7
 74
0
 42
0.0000001
 43
0.0000001
 44
0.0000000001
 40
0.0
 40
0.0
 40
0.0
 40
0.0
 40
0.2180437738
 40
0.4534221944
 40
0.7132600567
 40
1.0
 40
1.0
 40
1.0
 40
1.0
 10
213.3409931232
 20
103.4801921002
 30
0.0
 10
213.3914925747
 20
103.5007633422
 30
0.0
 10
213.5038581794
 20
103.5268364406
 30
0.0
 10
213.6837652963
 20
103.5180651872
 30
0.0
 10
213.8733543383
 20
103.4651066148
 30
0.0
 10
213.9968859505
 20
103.4049866325
 30
0.0
 10
214.058987454
 20
103.3691331238
 30
0.0
  0
SPLINE
  5
397
100
AcDbEntity
  8
0
100
AcDbSpline
 62
7
  6
CONTINUOUS
 70
0
 71
3
 72
14
 73
10
 74
0
 42
0.0000001
 43
0.0000001
 44
0.0000000001
 40
0.0
 40
0.0
 40
0.0
 40
0.0
 40
0.1143295229
 40
0.2378182672
 40
0.3677845615
 40
0.5009874072
 40
0.7629945427
 40
0.8859229687
 40
1.0
 40
1.0
 40
1.0
 40
1.0
 10
221.5150973651
 20
97.8200937609
 30
0.0
 10
221.5150973651
 20
97.9060883426
 30
0.0
 10
221.4989963939
 20
98.0851398297
 30
0.0
 10
221.4350319096
 20
98.3550240208
 30
0.0
 10
221.3328096347
 20
98.628129289
 30
0.0
 10
221.1521344215
 20
98.9800199827
 30
0.0
 10
220.9170301469
 20
99.2962189455
 30
0.0
 10
220.6409340748
 20
99.5516333825
 30
0.0
 10
220.4939570734
 20
99.6539857297
 30
0.0
 10
220.4196476322
 20
99.696887335
 30
0.0
  0
SPLINE
  5
398
100
AcDbEntity
  8
0
100
AcDbSpline
 62
7
  6
CONTINUOUS
 70
0
 71
3
 72
26
 73
22
 74
0
 42
0.0000001
 43
0.0000001
 44
0.0000000001
 40
0.0
 40
0.0
 40
0.0
 40
0.0
 40
0.0719762105
 40
0.1473377903
 40
0.2247482046
 40
0.3027386205
 40
0.3798120715
 40
0.4545217478
 40
0.5255678861
 40
0.5918981782
 40
0.6528277912
 40
0.7081866602
 40
0.7584922841
 40
0.7821913003
 40
0.8052062405
 40
0.827828696
 40
0.850377742
 40
0.873177821
 40
0.8965341762
 40
0.9458539075
 40
1.0
 40
1.0
 40
1.0
 40
1.0
 10
219.0726148223
 20
98.9191822219
 30
0.0
 10
218.8474888577
 20
98.8346370624
 30
0.0
 10
218.3754747372
 20
98.6903588094
 30
0.0
 10
217.6365505025
 20
98.5498396219
 30
0.0
 10
216.8671766107
 20
98.4828755791
 30
0.0
 10
216.0892824464
 20
98.4914282873
 30
0.0
 10
215.3248923854
 20
98.5752293668
 30
0.0
 10
214.5956499803
 20
98.7319241882
 30
0.0
 10
213.9220884875
 20
98.9571493808
 30
0.0
 10
213.3230185239
 20
99.2447486246
 30
0.0
 10
212.8149992675
 20
99.5873532508
 30
0.0
 10
212.4123209334
 20
99.9763443341
 30
0.0
 10
212.1700996057
 20
100.3397728178
 30
0.0
 10
212.0463001591
 20
100.6403205724
 30
0.0
 10
211.988195374
 20
100.8653905174
 30
0.0
 10
211.9636621958
 20
101.0927064711
 30
0.0
 10
211.9729279286
 20
101.3204466338
 30
0.0
 10
212.0159510018
 20
101.5467568045
 30
0.0
 10
212.1194056741
 20
101.849506631
 30
0.0
 10
212.3371500503
 20
102.2184666045
 30
0.0
 10
212.5766563413
 20
102.4713389558
 30
0.0
 10
212.7119546441
 20
102.5914280107
 30
0.0
  0
SPLINE
  5
399
100
AcDbEntity
  8
0
100
AcDbSpline
 62
7
  6
CONTINUOUS
 70
0
 71
3
 72
11
 73
7
 74
0
 42
0.0000001
 43
0.0000001
 44
0.0000000001
 40
0.0
 40
0.0
 40
0.0
 40
0.0
 40
0.283266525
 40
0.5428019377
 40
0.780149927
 40
1.0
 40
1.0
 40
1.0
 40
1.0
 10
218.8108745155
 20
83.3603599682
 30
0.0
 10
218.9232682439
 20
83.4252501302
 30
0.0
 10
219.1310329064
 20
83.5637595485
 30
0.0
 10
219.3946302985
 20
83.8077904381
 30
0.0
 10
219.5903023327
 20
84.0742841115
 30
0.0
 10
219.6737549062
 20
84.2691383214
 30
0.0
 10
219.7007155779
 20
84.3661892147
 30
0.0
  0
SPLINE
  5
39A
100
AcDbEntity
  8
0
100
AcDbSpline
 62
7
  6
CONTINUOUS
 70
0
 71
3
 72
9
 73
5
 74
0
 42
0.0000001
 43
0.0000001
 44
0.0000000001
 40
0.0
 40
0.0
 40
0.0
 40
0.0
 40
0.2422246443
 40
1.0
 40
1.0
 40
1.0
 40
1.0
 10
221.5150973651
 20
97.2601364033
 30
0.0
 10
221.4676857692
 20
97.2225274984
 30
0.0
 10
221.2688223435
 20
97.0712247657
 30
0.0
 10
221.0582595274
 20
96.9355056823
 30
0.0
 10
220.8943026096
 20
96.8408456768
 30
0.0
  0
SPLINE
  5
39B
100
AcDbEntity
  8
0
100
AcDbSpline
 62
7
  6
CONTINUOUS
 70
0
 71
3
 72
15
 73
11
 74
0
 42
0.0000001
 43
0.0000001
 44
0.0000000001
 40
0.0
 40
0.0
 40
0.0
 40
0.0
 40
0.1064010785
 40
0.2247621164
 40
0.3527278456
 40
0.4867685471
 40
0.6227084293
 40
0.756188078
 40
0.8830834771
 40
1.0
 40
1.0
 40
1.0
 40
1.0
 10
185.2265528596
 20
156.8609978437
 30
0.0
 10
185.285213892
 20
156.5458837467
 30
0.0
 10
185.3273213309
 20
155.8642300294
 30
0.0
 10
185.1991385854
 20
154.8051415599
 30
0.0
 10
184.8908070306
 20
153.6974587664
 30
0.0
 10
184.4166036742
 20
152.5928493869
 30
0.0
 10
183.7987877429
 20
151.5424850328
 30
0.0
 10
183.0660575907
 20
150.5955074457
 30
0.0
 10
182.2530317179
 20
149.7962541755
 30
0.0
 10
181.6526931131
 20
149.3656083308
 30
0.0
 10
181.3476742366
 20
149.1895066515
 30
0.0
  0
SPLINE
  5
39C
100
AcDbEntity
  8
0
100
AcDbSpline
 62
7
  6
CONTINUOUS
 70
0
 71
3
 72
11
 73
7
 74
0
 42
0.0000001
 43
0.0000001
 44
0.0000000001
 40
0.0
 40
0.0
 40
0.0
 40
0.0
 40
0.2227040876
 40
0.4621435563
 40
0.7210497838
 40
1.0
 40
1.0
 40
1.0
 40
1.0
 10
180.9107166851
 20
147.7434429351
 30
0.0
 10
181.0681329811
 20
147.7250930805
 30
0.0
 10
181.3995528655
 20
147.7224893728
 30
0.0
 10
181.9069909069
 20
147.8128633572
 30
0.0
 10
182.4315229257
 20
147.9944174357
 30
0.0
 10
182.7742439502
 20
148.1673889655
 30
0.0
 10
182.9461575691
 20
148.2666427472
 30
0.0
  0
SPLINE
  5
39D
100
AcDbEntity
  8
0
100
AcDbSpline
 62
7
  6
CONTINUOUS
 70
0
 71
3
 72
18
 73
14
 74
0
 42
0.0000001
 43
0.0000001
 44
0.0000000001
 40
0.0
 40
0.0
 40
0.0
 40
0.0
 40
0.1256684075
 40
0.2635805104
 40
0.4075192674
 40
0.5502689907
 40
0.684797307
 40
0.7472162413
 40
0.8056702377
 40
0.8599203433
 40
0.9100302954
 40
0.9564364735
 40
1.0
 40
1.0
 40
1.0
 40
1.0
 10
182.9461575691
 20
148.2666427472
 30
0.0
 10
183.3336555203
 20
148.4903634582
 30
0.0
 10
184.0886379032
 20
149.0618134695
 30
0.0
 10
185.0691018288
 20
150.1398513582
 30
0.0
 10
185.8964705225
 20
151.4130304393
 30
0.0
 10
186.5098366009
 20
152.7881473841
 30
0.0
 10
186.8139277269
 20
153.9666780338
 30
0.0
 10
186.9044831256
 20
154.8730987899
 30
0.0
 10
186.8956994775
 20
155.4981234609
 30
0.0
 10
186.8118561743
 20
156.0736437017
 30
0.0
 10
186.6537149518
 20
156.5892435567
 30
0.0
 10
186.423305529
 20
157.0348970613
 30
0.0
 10
186.2182661596
 20
157.2850638138
 30
0.0
 10
186.1064443503
 20
157.3925555291
 30
0.0
  0
SPLINE
  5
39E
100
AcDbEntity
  8
0
100
AcDbSpline
 62
7
  6
CONTINUOUS
 70
0
 71
3
 72
9
 73
5
 74
0
 42
0.0000001
 43
0.0000001
 44
0.0000000001
 40
0.0
 40
0.0
 40
0.0
 40
0.0
 40
0.255518415
 40
1.0
 40
1.0
 40
1.0
 40
1.0
 10
188.9376927519
 20
123.9230225342
 30
0.0
 10
188.9428035445
 20
123.9340644255
 30
0.0
 10
188.9614922819
 20
123.9778684967
 30
0.0
 10
188.9746822765
 20
124.0240594737
 30
0.0
 10
188.9808448166
 20
124.0589705767
 30
0.0
  0
SPLINE
  5
39F
100
AcDbEntity
  8
0
100
AcDbSpline
 62
7
  6
CONTINUOUS
 70
0
 71
3
 72
11
 73
7
 74
0
 42
0.0000001
 43
0.0000001
 44
0.0000000001
 40
0.0
 40
0.0
 40
0.0
 40
0.0
 40
0.2177434119
 40
0.4508805377
 40
0.710457812
 40
1.0
 40
1.0
 40
1.0
 40
1.0
 10
185.0562140263
 20
104.6781161038
 30
0.0
 10
185.0562140357
 20
104.6476513252
 30
0.0
 10
185.0674013935
 20
104.5841351116
 30
0.0
 10
185.1155838005
 20
104.4956227089
 30
0.0
 10
185.1917388504
 20
104.4156735075
 30
0.0
 10
185.2554030956
 20
104.3717755585
 30
0.0
 10
185.2904861941
 20
104.3515207804
 30
0.0
  0
SPLINE
  5
3A0
100
AcDbEntity
  8
0
100
AcDbSpline
 62
7
  6
CONTINUOUS
 70
0
 71
3
 72
9
 73
5
 74
0
 42
0.0000001
 43
0.0000001
 44
0.0000000001
 40
0.0
 40
0.0
 40
0.0
 40
0.0
 40
0.5248241558
 40
1.0
 40
1.0
 40
1.0
 40
1.0
 10
156.8974909272
 20
120.8152371604
 30
0.0
 10
157.0556881323
 20
120.8033505004
 30
0.0
 10
157.3557553639
 20
120.753069094
 30
0.0
 10
157.6401688609
 20
120.6406491948
 30
0.0
 10
157.7645615756
 20
120.5688326522
 30
0.0
  0
SPLINE
  5
3A1
100
AcDbEntity
  8
0
100
AcDbSpline
 62
7
  6
CONTINUOUS
 70
0
 71
3
 72
11
 73
7
 74
0
 42
0.0000001
 43
0.0000001
 44
0.0000000001
 40
0.0
 40
0.0
 40
0.0
 40
0.0
 40
0.2372405738
 40
0.5000004574
 40
0.7627600882
 40
1.0
 40
1.0
 40
1.0
 40
1.0
 10
169.5281478757
 20
113.7772765807
 30
0.0
 10
169.678732614
 20
113.6903384083
 30
0.0
 10
170.0289142732
 20
113.5634756232
 30
0.0
 10
170.5888095863
 20
113.502695958
 30
0.0
 10
171.1487041357
 20
113.5634781303
 30
0.0
 10
171.4988845279
 20
113.690342664
 30
0.0
 10
171.6494682192
 20
113.7772816797
 30
0.0
  0
SPLINE
  5
3A2
100
AcDbEntity
  8
0
100
AcDbSpline
 62
7
  6
CONTINUOUS
 70
0
 71
3
 72
11
 73
7
 74
0
 42
0.0000001
 43
0.0000001
 44
0.0000000001
 40
0.0
 40
0.0
 40
0.0
 40
0.0
 40
0.2463316055
 40
0.5090296966
 40
0.7668997917
 40
1.0
 40
1.0
 40
1.0
 40
1.0
 10
179.5879829908
 20
110.9295980001
 30
0.0
 10
179.6687704995
 20
110.9634447461
 30
0.0
 10
179.8455398249
 20
111.0106449125
 30
0.0
 10
180.1195169452
 20
111.0254230112
 30
0.0
 10
180.386436031
 20
110.9869912833
 30
0.0
 10
180.551740563
 20
110.9238168446
 30
0.0
 10
180.6235226768
 20
110.8823743595
 30
0.0
  0
SPLINE
  5
3A3
100
AcDbEntity
  8
0
100
AcDbSpline
 62
7
  6
CONTINUOUS
 70
0
 71
3
 72
9
 73
5
 74
0
 42
0.0000001
 43
0.0000001
 44
0.0000000001
 40
0.0
 40
0.0
 40
0.0
 40
0.0
 40
0.4756592517
 40
1.0
 40
1.0
 40
1.0
 40
1.0
 10
190.2820939464
 20
97.8353159806
 30
0.0
 10
190.4685592362
 20
97.7276626308
 30
0.0
 10
190.9092881031
 20
97.5864937573
 30
0.0
 10
191.3671022039
 20
97.5707880646
 30
0.0
 10
191.6032281191
 20
97.5948264981
 30
0.0
  0
SPLINE
  5
3A4
100
AcDbEntity
  8
0
100
AcDbSpline
 62
7
  6
CONTINUOUS
 70
0
 71
3
 72
17
 73
13
 74
0
 42
0.0000001
 43
0.0000001
 44
0.0000000001
 40
0.0
 40
0.0
 40
0.0
 40
0.0
 40
0.0253816225
 40
0.0526718343
 40
0.0929458233
 40
0.1454968053
 40
0.2085148817
 40
0.3578777919
 40
0.5259941748
 40
0.6985326403
 40
0.8614239152
 40
1.0
 40
1.0
 40
1.0
 40
1.0
 10
219.5258011381
 20
90.1066779981
 30
0.0
 10
219.5258011381
 20
90.0577640788
 30
0.0
 10
219.4866743243
 20
89.9587054777
 30
0.0
 10
219.3832256033
 20
89.8131702884
 30
0.0
 10
219.2155862905
 20
89.6509243108
 30
0.0
 10
218.970291732
 20
89.4763939565
 30
0.0
 10
218.5175081407
 20
89.2375418411
 30
0.0
 10
217.8138942598
 20
89.0119266351
 30
0.0
 10
216.8739203424
 20
88.8859455159
 30
0.0
 10
215.899301932
 20
88.9151754582
 30
0.0
 10
214.9994915145
 20
89.0941254161
 30
0.0
 10
214.4555170678
 20
89.3140932434
 30
0.0
 10
214.2242389961
 20
89.4476186794
 30
0.0
  0
SPLINE
  5
3A5
100
AcDbEntity
  8
0
100
AcDbSpline
 62
7
  6
CONTINUOUS
 70
0
 71
3
 72
11
 73
7
 74
0
 42
0.0000001
 43
0.0000001
 44
0.0000000001
 40
0.0
 40
0.0
 40
0.0
 40
0.0
 40
0.1951268515
 40
0.4220265325
 40
0.6924081383
 40
1.0
 40
1.0
 40
1.0
 40
1.0
 10
204.4450178297
 20
95.1392869805
 30
0.0
 10
204.4450526373
 20
95.0894364415
 30
0.0
 10
204.4780936776
 20
94.9806870068
 30
0.0
 10
204.6040089663
 20
94.8505429852
 30
0.0
 10
204.786663646
 20
94.7515503127
 30
0.0
 10
204.9302540413
 20
94.7121252139
 30
0.0
 10
205.0075971212
 20
94.6982215419
 30
0.0
  0
SPLINE
  5
3A6
100
AcDbEntity
  8
0
100
AcDbSpline
 62
7
  6
CONTINUOUS
 70
0
 71
3
 72
10
 73
6
 74
0
 42
0.0000001
 43
0.0000001
 44
0.0000000001
 40
0.0
 40
0.0
 40
0.0
 40
0.0
 40
0.2204395487
 40
0.4551488572
 40
1.0
 40
1.0
 40
1.0
 40
1.0
 10
204.4450178216
 20
96.7569415689
 30
0.0
 10
204.4449976133
 20
96.7858665951
 30
0.0
 10
204.4550676379
 20
96.8459845492
 30
0.0
 10
204.5157715119
 20
96.9640568134
 30
0.0
 10
204.597158924
 20
97.0327447085
 30
0.0
 10
204.6577933705
 20
97.070621909
 30
0.0
  0
SPLINE
  5
3A7
100
AcDbEntity
  8
0
100
AcDbSpline
 62
7
  6
CONTINUOUS
 70
0
 71
3
 72
11
 73
7
 74
0
 42
0.0000001
 43
0.0000001
 44
0.0000000001
 40
0.0
 40
0.0
 40
0.0
 40
0.0
 40
0.2372524156
 40
0.4999996414
 40
0.7627470637
 40
1.0
 40
1.0
 40
1.0
 40
1.0
 10
193.1393340769
 20
107.9185642263
 30
0.0
 10
193.2196493394
 20
107.9649339879
 30
0.0
 10
193.4064101351
 20
108.0326093953
 30
0.0
 10
193.7050187766
 20
108.0649647903
 30
0.0
 10
194.003627765
 20
108.0326106939
 30
0.0
 10
194.1903891536
 20
107.96493623
 30
0.0
 10
194.2707049268
 20
107.9185669457
 30
0.0
  0
SPLINE
  5
3A8
100
AcDbEntity
  8
0
100
AcDbSpline
 62
7
  6
CONTINUOUS
 70
0
 71
3
 72
10
 73
6
 74
0
 42
0.0000001
 43
0.0000001
 44
0.0000000001
 40
0.0
 40
0.0
 40
0.0
 40
0.0
 40
0.2449986135
 40
0.4950295015
 40
1.0
 40
1.0
 40
1.0
 40
1.0
 10
189.0128388695
 20
123.9383276945
 30
0.0
 10
188.9700917394
 20
123.8921050025
 30
0.0
 10
188.8720266389
 20
123.8087145677
 30
0.0
 10
188.6403029336
 20
123.6931631718
 30
0.0
 10
188.4402825105
 20
123.6694971913
 30
0.0
 10
188.3107853717
 20
123.6778476199
 30
0.0
  0
SPLINE
  5
3A9
100
AcDbEntity
  8
0
100
AcDbSpline
 62
7
  6
CONTINUOUS
 70
0
 71
3
 72
10
 73
6
 74
0
 42
0.0000001
 43
0.0000001
 44
0.0000000001
 40
0.0
 40
0.0
 40
0.0
 40
0.0
 40
0.2281301726
 40
0.4774153608
 40
1.0
 40
1.0
 40
1.0
 40
1.0
 10
189.8613634741
 20
125.9248943318
 30
0.0
 10
189.8613634741
 20
125.779597
 30
0.0
 10
189.8267391689
 20
125.4750706436
 30
0.0
 10
189.6468978659
 20
124.8623854731
 30
0.0
 10
189.4026197044
 20
124.4247907914
 30
0.0
 10
189.2000140578
 20
124.1607237627
 30
0.0
  0
SPLINE
  5
3AA
100
AcDbEntity
  8
0
100
AcDbSpline
 62
7
  6
CONTINUOUS
 70
0
 71
3
 72
13
 73
9
 74
0
 42
0.0000001
 43
0.0000001
 44
0.0000000001
 40
0.0
 40
0.0
 40
0.0
 40
0.0
 40
0.1135753464
 40
0.2287996
 40
0.3471031181
 40
0.4694624015
 40
0.7268892046
 40
1.0
 40
1.0
 40
1.0
 40
1.0
 10
206.5040427893
 20
108.0912781067
 30
0.0
 10
206.4524424162
 20
108.2602695418
 30
0.0
 10
206.3125357767
 20
108.5908435248
 30
0.0
 10
206.0032086462
 20
109.0376758637
 30
0.0
 10
205.6030768607
 20
109.4253120291
 30
0.0
 10
204.9541404602
 20
109.8556614849
 30
0.0
 10
203.9743559224
 20
110.1870675663
 30
0.0
 10
203.1371534692
 20
110.2122056919
 30
0.0
 10
202.7144486291
 20
110.1691728797
 30
0.0
  0
SPLINE
  5
3AB
100
AcDbEntity
  8
0
100
AcDbSpline
 62
7
  6
CONTINUOUS
 70
0
 71
3
 72
13
 73
9
 74
0
 42
0.0000001
 43
0.0000001
 44
0.0000000001
 40
0.0
 40
0.0
 40
0.0
 40
0.0
 40
0.1142494128
 40
0.2375488016
 40
0.500001607
 40
0.7624535328
 40
0.8857518943
 40
1.0
 40
1.0
 40
1.0
 40
1.0
 10
196.2898277422
 20
123.8311158848
 30
0.0
 10
196.2898277422
 20
123.6085985112
 30
0.0
 10
196.2490725634
 20
123.145469893
 30
0.0
 10
196.0277318211
 20
122.1947339136
 30
0.0
 10
195.5136043341
 20
121.0286250761
 30
0.0
 10
194.760794619
 20
120.000320696
 30
0.0
 10
194.0481096936
 20
119.3332684249
 30
0.0
 10
193.6674097266
 20
119.0664117521
 30
0.0
 10
193.4747059455
 20
118.9551548363
 30
0.0
  0
SPLINE
  5
3AC
100
AcDbEntity
  8
0
100
AcDbSpline
 62
7
  6
CONTINUOUS
 70
0
 71
3
 72
11
 73
7
 74
0
 42
0.0000001
 43
0.0000001
 44
0.0000000001
 40
0.0
 40
0.0
 40
0.0
 40
0.0
 40
0.2177731171
 40
0.4509285976
 40
0.710222822
 40
1.0
 40
1.0
 40
1.0
 40
1.0
 10
204.9627925827
 20
112.467631557
 30
0.0
 10
205.093454568
 20
112.3921955243
 30
0.0
 10
205.3379679822
 20
112.1866905486
 30
0.0
 10
205.5981711897
 20
111.7611531292
 30
0.0
 10
205.7528651212
 20
111.2367398242
 30
0.0
 10
205.7832204663
 20
110.8550337763
 30
0.0
 10
205.7832204663
 20
110.6542742853
 30
0.0
  0
SPLINE
  5
3AD
100
AcDbEntity
  8
0
100
AcDbSpline
 62
7
  6
CONTINUOUS
 70
0
 71
3
 72
11
 73
7
 74
0
 42
0.0000001
 43
0.0000001
 44
0.0000000001
 40
0.0
 40
0.0
 40
0.0
 40
0.0
 40
0.2177745347
 40
0.4509306045
 40
0.7102242968
 40
1.0
 40
1.0
 40
1.0
 40
1.0
 10
194.8157680268
 20
118.3258863843
 30
0.0
 10
194.6851103671
 20
118.4013199197
 30
0.0
 10
194.3848906157
 20
118.5103141871
 30
0.0
 10
193.8862817781
 20
118.5228855105
 30
0.0
 10
193.3548016686
 20
118.3946531854
 30
0.0
 10
193.0090714968
 20
118.2300965538
 30
0.0
 10
192.8352161905
 20
118.129721745
 30
0.0
  0
SPLINE
  5
3AE
100
AcDbEntity
  8
0
100
AcDbSpline
 62
7
  6
CONTINUOUS
 70
0
 71
3
 72
11
 73
7
 74
0
 42
0.0000001
 43
0.0000001
 44
0.0000000001
 40
0.0
 40
0.0
 40
0.0
 40
0.0
 40
0.2415177857
 40
0.5042974746
 40
0.764758518
 40
1.0
 40
1.0
 40
1.0
 40
1.0
 10
190.5467179111
 20
90.775107104
 30
0.0
 10
190.4048280183
 20
90.8686760303
 30
0.0
 10
190.139028976
 20
91.1110251633
 30
0.0
 10
189.8298288541
 20
91.5560119413
 30
0.0
 10
189.6205498218
 20
92.0510295492
 30
0.0
 10
189.5612865049
 20
92.4001546191
 30
0.0
 10
189.5612865049
 20
92.5657021342
 30
0.0
  0
SPLINE
  5
3AF
100
AcDbEntity
  8
0
100
AcDbSpline
 62
7
  6
CONTINUOUS
 70
0
 71
3
 72
11
 73
7
 74
0
 42
0.0000001
 43
0.0000001
 44
0.0000000001
 40
0.0
 40
0.0
 40
0.0
 40
0.0
 40
0.2897214313
 40
0.5490843358
 40
0.7822156463
 40
1.0
 40
1.0
 40
1.0
 40
1.0
 10
189.5612865049
 20
93.9885818798
 30
0.0
 10
189.5612865049
 20
94.0645888892
 30
0.0
 10
189.5728021877
 20
94.2091284852
 30
0.0
 10
189.6313485788
 20
94.4077178347
 30
0.0
 10
189.7299052479
 20
94.5688527822
 30
0.0
 10
189.8224732295
 20
94.6466954308
 30
0.0
 10
189.8719588468
 20
94.6752531588
 30
0.0
  0
SPLINE
  5
3B0
100
AcDbEntity
  8
0
100
AcDbSpline
 62
7
  6
CONTINUOUS
 70
0
 71
3
 72
14
 73
10
 74
0
 42
0.0000001
 43
0.0000001
 44
0.0000000001
 40
0.0
 40
0.0
 40
0.0
 40
0.0
 40
0.0926834567
 40
0.1909612311
 40
0.298933661
 40
0.4186494591
 40
0.5503236359
 40
0.692734254
 40
1.0
 40
1.0
 40
1.0
 40
1.0
 10
153.5879368272
 20
122.9907897001
 30
0.0
 10
153.5879363013
 20
122.8581506675
 30
0.0
 10
153.632316934
 20
122.5832405254
 30
0.0
 10
153.824259156
 20
122.1951637984
 30
0.0
 10
154.1305581922
 20
121.8380678607
 30
0.0
 10
154.5391075974
 20
121.5211516374
 30
0.0
 10
155.0368972626
 20
121.2522876889
 30
0.0
 10
155.8181022468
 20
120.9608829465
 30
0.0
 10
156.4589998523
 20
120.848184609
 30
0.0
 10
156.8974909272
 20
120.8152371604
 30
0.0
  0
SPLINE
  5
3B1
100
AcDbEntity
  8
0
100
AcDbSpline
 62
7
  6
CONTINUOUS
 70
0
 71
3
 72
11
 73
7
 74
0
 42
0.0000001
 43
0.0000001
 44
0.0000000001
 40
0.0
 40
0.0
 40
0.0
 40
0.0
 40
0.2868920262
 40
0.5452896391
 40
0.7795647103
 40
1.0
 40
1.0
 40
1.0
 40
1.0
 10
191.9723797826
 20
95.4375466454
 30
0.0
 10
191.9105245943
 20
95.4698544348
 30
0.0
 10
191.7877112149
 20
95.5221556815
 30
0.0
 10
191.600272637
 20
95.560034877
 30
0.0
 10
191.4248957965
 20
95.5505578752
 30
0.0
 10
191.3193137999
 20
95.5108671058
 30
0.0
 10
191.2728729659
 20
95.484066482
 30
0.0
  0
SPLINE
  5
3B2
100
AcDbEntity
  8
0
100
AcDbSpline
 62
7
  6
CONTINUOUS
 70
0
 71
3
 72
9
 73
5
 74
0
 42
0.0000001
 43
0.0000001
 44
0.0000000001
 40
0.0
 40
0.0
 40
0.0
 40
0.0
 40
0.5255657768
 40
1.0
 40
1.0
 40
1.0
 40
1.0
 10
191.7953606078
 20
96.2341897462
 30
0.0
 10
192.0497475124
 20
96.2341903576
 30
0.0
 10
192.5350747657
 20
96.1815804916
 30
0.0
 10
192.9974095457
 20
96.0139900953
 30
0.0
 10
193.1962829786
 20
95.8991730628
 30
0.0
  0
SPLINE
  5
3B3
100
AcDbEntity
  8
0
100
AcDbSpline
 62
7
  6
CONTINUOUS
 70
0
 71
3
 72
12
 73
8
 74
0
 42
0.0000001
 43
0.0000001
 44
0.0000000001
 40
0.0
 40
0.0
 40
0.0
 40
0.0
 40
0.2723992935
 40
0.5320134546
 40
0.7724653032
 40
0.8873123159
 40
1.0
 40
1.0
 40
1.0
 40
1.0
 10
185.2205972103
 20
96.2341739424
 30
0.0
 10
185.0267329462
 20
96.2341734764
 30
0.0
 10
184.6450913276
 20
96.2944928572
 30
0.0
 10
184.1497150428
 20
96.5564179241
 30
0.0
 10
183.8581009264
 20
96.9017087672
 30
0.0
 10
183.7404658886
 20
97.2161355625
 30
0.0
 10
183.7205972103
 20
97.3787250946
 30
0.0
 10
183.7205972103
 20
97.4589239625
 30
0.0
  0
SPLINE
  5
3B4
100
AcDbEntity
  8
0
100
AcDbSpline
 62
7
  6
CONTINUOUS
 70
0
 71
3
 72
11
 73
7
 74
0
 42
0.0000001
 43
0.0000001
 44
0.0000000001
 40
0.0
 40
0.0
 40
0.0
 40
0.0
 40
0.2177727583
 40
0.4509112391
 40
0.7102674308
 40
1.0
 40
1.0
 40
1.0
 40
1.0
 10
177.834341022
 20
105.3805845725
 30
0.0
 10
177.834342992
 20
105.3234542801
 30
0.0
 10
177.8554751025
 20
105.2043757411
 30
0.0
 10
177.9457262206
 20
105.0384529118
 30
0.0
 10
178.0884426161
 20
104.8884623985
 30
0.0
 10
178.20785775
 20
104.806221796
 30
0.0
 10
178.2736831187
 20
104.7682183614
 30
0.0
  0
SPLINE
  5
3B5
100
AcDbEntity
  8
0
100
AcDbSpline
 62
7
  6
CONTINUOUS
 70
0
 71
3
 72
9
 73
5
 74
0
 42
0.0000001
 43
0.0000001
 44
0.0000000001
 40
0.0
 40
0.0
 40
0.0
 40
0.0
 40
0.4768313824
 40
1.0
 40
1.0
 40
1.0
 40
1.0
 10
177.8343410204
 20
106.9982391615
 30
0.0
 10
177.8343386548
 20
107.0666355042
 30
0.0
 10
177.8653649563
 20
107.2111738264
 30
0.0
 10
177.9465449666
 20
107.3329122955
 30
0.0
 10
177.9960160397
 20
107.3893397092
 30
0.0
  0
SPLINE
  5
3B6
100
AcDbEntity
  8
0
100
AcDbSpline
 62
7
  6
CONTINUOUS
 70
0
 71
3
 72
9
 73
5
 74
0
 42
0.0000001
 43
0.0000001
 44
0.0000000001
 40
0.0
 40
0.0
 40
0.0
 40
0.0
 40
0.5189555288
 40
1.0
 40
1.0
 40
1.0
 40
1.0
 10
191.7953523593
 20
105.6736843052
 30
0.0
 10
192.2352711888
 20
105.6736853627
 30
0.0
 10
193.0848226378
 20
105.5934384594
 30
0.0
 10
193.9036534525
 20
105.3422252478
 30
0.0
 10
194.2737203249
 20
105.1709466709
 30
0.0
  0
SPLINE
  5
3B7
100
AcDbEntity
  8
0
100
AcDbSpline
 62
7
  6
CONTINUOUS
 70
0
 71
3
 72
11
 73
7
 74
0
 42
0.0000001
 43
0.0000001
 44
0.0000000001
 40
0.0
 40
0.0
 40
0.0
 40
0.0
 40
0.2281277718
 40
0.4683104026
 40
0.7262839525
 40
1.0
 40
1.0
 40
1.0
 40
1.0
 10
207.5196435737
 20
97.9833253776
 30
0.0
 10
207.4679850661
 20
98.152684788
 30
0.0
 10
207.2852882645
 20
98.4808791436
 30
0.0
 10
206.8318825598
 20
98.8362966739
 30
0.0
 10
206.2550532817
 20
99.0310611518
 30
0.0
 10
205.8362147434
 20
99.043793681
 30
0.0
 10
205.6248608052
 20
99.0222771203
 30
0.0
  0
SPLINE
  5
3B8
100
AcDbEntity
  8
0
100
AcDbSpline
 62
7
  6
CONTINUOUS
 70
0
 71
3
 72
11
 73
7
 74
0
 42
0.0000001
 43
0.0000001
 44
0.0000000001
 40
0.0
 40
0.0
 40
0.0
 40
0.0
 40
0.2139224372
 40
0.4454922677
 40
0.706407511
 40
1.0
 40
1.0
 40
1.0
 40
1.0
 10
204.0716312974
 20
82.2795347267
 30
0.0
 10
204.0176097576
 20
82.2483244995
 30
0.0
 10
203.8914811825
 20
82.2049875161
 30
0.0
 10
203.6823219936
 20
82.2085115277
 30
0.0
 10
203.460598225
 20
82.2748007458
 30
0.0
 10
203.3178896699
 20
82.3531906039
 30
0.0
 10
203.2464085747
 20
82.400328629
 30
0.0
  0
SPLINE
  5
3B9
100
AcDbEntity
  8
0
100
AcDbSpline
 62
7
  6
CONTINUOUS
 70
0
 71
3
 72
11
 73
7
 74
0
 42
0.0000001
 43
0.0000001
 44
0.0000000001
 40
0.0
 40
0.0
 40
0.0
 40
0.0
 40
0.2177785013
 40
0.4509024435
 40
0.7103266706
 40
1.0
 40
1.0
 40
1.0
 40
1.0
 10
205.4725454132
 20
83.0883480551
 30
0.0
 10
205.522015749
 20
83.116928901
 30
0.0
 10
205.6146117249
 20
83.1947202995
 30
0.0
 10
205.7131629465
 20
83.355887839
 30
0.0
 10
205.7716851832
 20
83.5544794532
 30
0.0
 10
205.7832204663
 20
83.6990205075
 30
0.0
 10
205.7832204663
 20
83.7750147133
 30
0.0
  0
SPLINE
  5
3BA
100
AcDbEntity
  8
0
100
AcDbSpline
 62
7
  6
CONTINUOUS
 70
0
 71
3
 72
11
 73
7
 74
0
 42
0.0000001
 43
0.0000001
 44
0.0000000001
 40
0.0
 40
0.0
 40
0.0
 40
0.0
 40
0.217745073
 40
0.4508830113
 40
0.7104597664
 40
1.0
 40
1.0
 40
1.0
 40
1.0
 10
194.0695698359
 20
103.8819968946
 30
0.0
 10
194.0959539516
 20
103.8972296925
 30
0.0
 10
194.1453685632
 20
103.938677166
 30
0.0
 10
194.1979336918
 20
104.0246621401
 30
0.0
 10
194.2290961966
 20
104.1305907772
 30
0.0
 10
194.2352817881
 20
104.2076759785
 30
0.0
 10
194.2352817881
 20
104.2481868826
 30
0.0
  0
SPLINE
  5
3BB
100
AcDbEntity
  8
0
100
AcDbSpline
 62
7
  6
CONTINUOUS
 70
0
 71
3
 72
11
 73
7
 74
0
 42
0.0000001
 43
0.0000001
 44
0.0000000001
 40
0.0
 40
0.0
 40
0.0
 40
0.0
 40
0.2177839237
 40
0.4509111717
 40
0.7102971901
 40
1.0
 40
1.0
 40
1.0
 40
1.0
 10
203.9722190091
 20
110.7518689839
 30
0.0
 10
203.906907605
 20
110.7895756546
 30
0.0
 10
203.7568446163
 20
110.844033421
 30
0.0
 10
203.5075930628
 20
110.850342292
 30
0.0
 10
203.2419496218
 20
110.786191782
 30
0.0
 10
203.069119585
 20
110.7039715503
 30
0.0
 10
202.9822407463
 20
110.6538123289
 30
0.0
  0
SPLINE
  5
3BC
100
AcDbEntity
  8
0
100
AcDbSpline
 62
7
  6
CONTINUOUS
 70
0
 71
3
 72
9
 73
5
 74
0
 42
0.0000001
 43
0.0000001
 44
0.0000000001
 40
0.0
 40
0.0
 40
0.0
 40
0.0
 40
0.2581627974
 40
1.0
 40
1.0
 40
1.0
 40
1.0
 10
179.5879809796
 20
110.9295977823
 30
0.0
 10
179.5795553244
 20
110.9260677646
 30
0.0
 10
179.5470764834
 20
110.9120225411
 30
0.0
 10
179.5152371811
 20
110.896476777
 30
0.0
 10
179.4921481261
 20
110.8839877224
 30
0.0
  0
SPLINE
  5
3BD
100
AcDbEntity
  8
0
100
AcDbSpline
 62
7
  6
CONTINUOUS
 70
0
 71
3
 72
11
 73
7
 74
0
 42
0.0000001
 43
0.0000001
 44
0.0000000001
 40
0.0
 40
0.0
 40
0.0
 40
0.0
 40
0.2177434119
 40
0.4508805377
 40
0.710457812
 40
1.0
 40
1.0
 40
1.0
 40
1.0
 10
190.7907479543
 20
118.8318957751
 30
0.0
 10
190.7907479638
 20
118.8014309965
 30
0.0
 10
190.8019353216
 20
118.737914783
 30
0.0
 10
190.8501177286
 20
118.6494023802
 30
0.0
 10
190.9262727785
 20
118.5694531788
 30
0.0
 10
190.9899370237
 20
118.5255552299
 30
0.0
 10
191.0250201222
 20
118.5053004517
 30
0.0
  0
SPLINE
  5
3BE
100
AcDbEntity
  8
0
100
AcDbSpline
 62
7
  6
CONTINUOUS
 70
0
 71
3
 72
11
 73
7
 74
0
 42
0.0000001
 43
0.0000001
 44
0.0000000001
 40
0.0
 40
0.0
 40
0.0
 40
0.0
 40
0.2372531816
 40
0.5000006935
 40
0.7627478297
 40
1.0
 40
1.0
 40
1.0
 40
1.0
 10
191.6897032638
 20
118.1215541425
 30
0.0
 10
191.77001912
 20
118.0751848103
 30
0.0
 10
191.9567806503
 20
118.0075103302
 30
0.0
 10
192.2553897421
 20
117.9751562979
 30
0.0
 10
192.5539982802
 20
118.007511757
 30
0.0
 10
192.7407589342
 20
118.0751871482
 30
0.0
 10
192.8210741137
 20
118.121556862
 30
0.0
  0
SPLINE
  5
3BF
100
AcDbEntity
  8
0
100
AcDbSpline
 62
7
  6
CONTINUOUS
 70
0
 71
3
 72
11
 73
7
 74
0
 42
0.0000001
 43
0.0000001
 44
0.0000000001
 40
0.0
 40
0.0
 40
0.0
 40
0.0
 40
0.4222628218
 40
0.5589033005
 40
0.7031367705
 40
1.0
 40
1.0
 40
1.0
 40
1.0
 10
201.5864028138
 20
110.5233330223
 30
0.0
 10
201.6296322514
 20
110.3817916488
 30
0.0
 10
201.8218415284
 20
110.2505613587
 30
0.0
 10
202.0533993615
 20
110.1774078293
 30
0.0
 10
202.2536108252
 20
110.1397788283
 30
0.0
 10
202.4096598778
 20
110.1381443324
 30
0.0
 10
202.5131702602
 20
110.1486820467
 30
0.0
  0
SPLINE
  5
3C0
100
AcDbEntity
  8
0
100
AcDbSpline
 62
7
  6
CONTINUOUS
 70
0
 71
3
 72
11
 73
7
 74
0
 42
0.0000001
 43
0.0000001
 44
0.0000000001
 40
0.0
 40
0.0
 40
0.0
 40
0.0
 40
0.2895416688
 40
0.549118971
 40
0.7822562702
 40
1.0
 40
1.0
 40
1.0
 40
1.0
 10
198.5275101825
 20
106.4254242656
 30
0.0
 10
198.5625926195
 20
106.4456789992
 30
0.0
 10
198.6262556428
 20
106.4895768293
 30
0.0
 10
198.7024092051
 20
106.5695254134
 30
0.0
 10
198.7505905266
 20
106.6580369854
 30
0.0
 10
198.7617776495
 20
106.7215524387
 30
0.0
 10
198.76177764
 20
106.7520168689
 30
0.0
  0
SPLINE
  5
3C1
100
AcDbEntity
  8
0
100
AcDbSpline
 62
7
  6
CONTINUOUS
 70
0
 71
3
 72
11
 73
7
 74
0
 42
0.0000001
 43
0.0000001
 44
0.0000000001
 40
0.0
 40
0.0
 40
0.0
 40
0.0
 40
0.2372531816
 40
0.5000006935
 40
0.7627478297
 40
1.0
 40
1.0
 40
1.0
 40
1.0
 10
189.5472867395
 20
101.8939114382
 30
0.0
 10
189.6276025957
 20
101.847542106
 30
0.0
 10
189.814364126
 20
101.7798676259
 30
0.0
 10
190.1129732178
 20
101.7475135936
 30
0.0
 10
190.4115817559
 20
101.7798690527
 30
0.0
 10
190.5983424099
 20
101.8475444439
 30
0.0
 10
190.6786575894
 20
101.8939141577
 30
0.0
  0
SPLINE
  5
3C2
100
AcDbEntity
  8
0
100
AcDbSpline
 62
7
  6
CONTINUOUS
 70
0
 71
3
 72
9
 73
5
 74
0
 42
0.0000001
 43
0.0000001
 44
0.0000000001
 40
0.0
 40
0.0
 40
0.0
 40
0.0
 40
0.4770243686
 40
1.0
 40
1.0
 40
1.0
 40
1.0
 10
188.19965562
 20
127.5292970144
 30
0.0
 10
187.8805171337
 20
127.7135475371
 30
0.0
 10
187.2580612906
 20
128.181902901
 30
0.0
 10
186.7325202406
 20
128.7532845876
 30
0.0
 10
186.482816109
 20
129.0708819231
 30
0.0
  0
SPLINE
  5
3C3
100
AcDbEntity
  8
0
100
AcDbSpline
 62
7
  6
CONTINUOUS
 70
0
 71
3
 72
11
 73
7
 74
0
 42
0.0000001
 43
0.0000001
 44
0.0000000001
 40
0.0
 40
0.0
 40
0.0
 40
0.0
 40
0.2372294888
 40
0.5000010919
 40
0.7627721007
 40
1.0
 40
1.0
 40
1.0
 40
1.0
 10
196.2898277422
 20
125.1375197522
 30
0.0
 10
196.2898277422
 20
125.485262819
 30
0.0
 10
196.1594007816
 20
126.2186647331
 30
0.0
 10
195.7047577462
 20
127.2492255283
 30
0.0
 10
195.0395847029
 20
128.1582334435
 30
0.0
 10
194.469652582
 20
128.6378818488
 30
0.0
 10
194.1684985668
 20
128.8117492671
 30
0.0
  0
SPLINE
  5
3C4
100
AcDbEntity
  8
0
100
AcDbSpline
 62
7
  6
CONTINUOUS
 70
0
 71
3
 72
11
 73
7
 74
0
 42
0.0000001
 43
0.0000001
 44
0.0000000001
 40
0.0
 40
0.0
 40
0.0
 40
0.0
 40
0.2897278079
 40
0.5490838982
 40
0.7822164835
 40
1.0
 40
1.0
 40
1.0
 40
1.0
 10
178.1667563944
 20
113.367818221
 30
0.0
 10
178.1667563944
 20
113.2664731739
 30
0.0
 10
178.1821075997
 20
113.0737531466
 30
0.0
 10
178.2601736513
 20
112.8089676912
 30
0.0
 10
178.3915810607
 20
112.5941231581
 30
0.0
 10
178.5150054777
 20
112.4903316741
 30
0.0
 10
178.5809875955
 20
112.4522573264
 30
0.0
  0
SPLINE
  5
3C5
100
AcDbEntity
  8
0
100
AcDbSpline
 62
7
  6
CONTINUOUS
 70
0
 71
3
 72
11
 73
7
 74
0
 42
0.0000001
 43
0.0000001
 44
0.0000000001
 40
0.0
 40
0.0
 40
0.0
 40
0.0
 40
0.2879299812
 40
0.5465658838
 40
0.7804695945
 40
1.0
 40
1.0
 40
1.0
 40
1.0
 10
179.4921513427
 20
110.883989317
 30
0.0
 10
179.3243556808
 20
110.7932285282
 30
0.0
 10
178.9911127677
 20
110.6456103169
 30
0.0
 10
178.4812307546
 20
110.5358490862
 30
0.0
 10
178.0038244639
 20
110.556988634
 30
0.0
 10
177.716372432
 20
110.6637594074
 30
0.0
 10
177.5904109265
 20
110.7364893054
 30
0.0
  0
SPLINE
  5
3C6
100
AcDbEntity
  8
0
100
AcDbSpline
 62
7
  6
CONTINUOUS
 70
0
 71
3
 72
14
 73
10
 74
0
 42
0.0000001
 43
0.0000001
 44
0.0000000001
 40
0.0
 40
0.0
 40
0.0
 40
0.0
 40
0.3072978949
 40
0.4492165523
 40
0.580365947
 40
0.6997745837
 40
0.8078109341
 40
0.9065630244
 40
1.0
 40
1.0
 40
1.0
 40
1.0
 10
218.0741573805
 20
84.5301820439
 30
0.0
 10
219.0347385768
 20
84.6279725265
 30
0.0
 10
220.4336817171
 20
84.9086106967
 30
0.0
 10
222.1311126627
 20
85.5857509629
 30
0.0
 10
223.2072069465
 20
86.1976776477
 30
0.0
 10
224.0876533951
 20
86.910300402
 30
0.0
 10
224.7458673256
 20
87.7069762954
 30
0.0
 10
225.1571018953
 20
88.5679520049
 30
0.0
 10
225.2518221818
 20
89.1752424738
 30
0.0
 10
225.2518433837
 20
89.4688263409
 30
0.0
  0
SPLINE
  5
3C7
100
AcDbEntity
  8
0
100
AcDbSpline
 62
7
  6
CONTINUOUS
 70
0
 71
3
 72
11
 73
7
 74
0
 42
0.0000001
 43
0.0000001
 44
0.0000000001
 40
0.0
 40
0.0
 40
0.0
 40
0.0
 40
0.2372294888
 40
0.5000010919
 40
0.7627721007
 40
1.0
 40
1.0
 40
1.0
 40
1.0
 10
178.1667563944
 20
114.6742220884
 30
0.0
 10
178.1667563944
 20
115.0219651553
 30
0.0
 10
178.0363294338
 20
115.7553670694
 30
0.0
 10
177.5816863984
 20
116.7859278646
 30
0.0
 10
176.9165133551
 20
117.6949357798
 30
0.0
 10
176.3465812342
 20
118.174584185
 30
0.0
 10
176.045427219
 20
118.3484516034
 30
0.0
  0
SPLINE
  5
3C8
100
AcDbEntity
  8
0
100
AcDbSpline
 62
7
  6
CONTINUOUS
 70
0
 71
3
 72
9
 73
5
 74
0
 42
0.0000001
 43
0.0000001
 44
0.0000000001
 40
0.0
 40
0.0
 40
0.0
 40
0.0
 40
0.2462142208
 40
1.0
 40
1.0
 40
1.0
 40
1.0
 10
209.1918743723
 20
99.2864212871
 30
0.0
 10
209.2916202321
 20
99.3099016122
 30
0.0
 10
209.6982830092
 20
99.3986167387
 30
0.0
 10
210.1105413687
 20
99.4613899176
 30
0.0
 10
210.4224794703
 20
99.494771797
 30
0.0
  0
SPLINE
  5
3C9
100
AcDbEntity
  8
0
100
AcDbSpline
 62
7
  6
CONTINUOUS
 70
0
 71
3
 72
12
 73
8
 74
0
 42
0.0000001
 43
0.0000001
 44
0.0000000001
 40
0.0
 40
0.0
 40
0.0
 40
0.0
 40
0.2895898366
 40
0.5486334356
 40
0.7816383642
 40
0.8918393162
 40
1.0
 40
1.0
 40
1.0
 40
1.0
 10
222.7077562012
 20
94.6325191406
 30
0.0
 10
223.0890388005
 20
94.4123905092
 30
0.0
 10
223.7806309831
 20
93.9361003246
 30
0.0
 10
224.6068248698
 20
93.0682496561
 30
0.0
 10
225.0504662787
 20
92.2505157051
 30
0.0
 10
225.2232536649
 20
91.5835830724
 30
0.0
 10
225.2518552553
 20
91.2509181039
 30
0.0
 10
225.2518433831
 20
91.0864809297
 30
0.0
  0
SPLINE
  5
3CA
100
AcDbEntity
  8
0
100
AcDbSpline
 62
7
  6
CONTINUOUS
 70
0
 71
3
 72
11
 73
7
 74
0
 42
0.0000001
 43
0.0000001
 44
0.0000000001
 40
0.0
 40
0.0
 40
0.0
 40
0.0
 40
0.2895901934
 40
0.5491247728
 40
0.7822527677
 40
1.0
 40
1.0
 40
1.0
 40
1.0
 10
169.224258
 20
122.2865663961
 30
0.0
 10
169.1803966392
 20
122.3118891917
 30
0.0
 10
169.0930884619
 20
122.3533837121
 30
0.0
 10
168.958936768
 20
122.3858297416
 30
0.0
 10
168.8330158555
 20
122.3826651854
 30
0.0
 10
168.7572633944
 20
122.3550910942
 30
0.0
 10
168.7242784936
 20
122.3360589616
 30
0.0
  0
SPLINE
  5
3CB
100
AcDbEntity
  8
0
100
AcDbSpline
 62
7
  6
CONTINUOUS
 70
0
 71
3
 72
13
 73
9
 74
0
 42
0.0000001
 43
0.0000001
 44
0.0000000001
 40
0.0
 40
0.0
 40
0.0
 40
0.0
 40
0.2731107954
 40
0.5305375985
 40
0.6528968819
 40
0.7712004
 40
0.8864246536
 40
1.0
 40
1.0
 40
1.0
 40
1.0
 10
211.4781598689
 20
83.8586867222
 30
0.0
 10
211.0554550289
 20
83.8156539099
 30
0.0
 10
210.2182525756
 20
83.8407920355
 30
0.0
 10
209.2384680379
 20
84.1721981169
 30
0.0
 10
208.5895316374
 20
84.6025475727
 30
0.0
 10
208.1893998518
 20
84.9901837381
 30
0.0
 10
207.8800727213
 20
85.437016077
 30
0.0
 10
207.7401660818
 20
85.7675900601
 30
0.0
 10
207.6885657087
 20
85.9365814951
 30
0.0
  0
SPLINE
  5
3CC
100
AcDbEntity
  8
0
100
AcDbSpline
 62
7
  6
CONTINUOUS
 70
0
 71
3
 72
12
 73
8
 74
0
 42
0.0000001
 43
0.0000001
 44
0.0000000001
 40
0.0
 40
0.0
 40
0.0
 40
0.0
 40
0.3075517747
 40
0.5787329351
 40
0.8052728596
 40
0.9050779937
 40
1.0
 40
1.0
 40
1.0
 40
1.0
 10
167.2160014533
 20
120.5937371643
 30
0.0
 10
167.1776713303
 20
120.6900963198
 30
0.0
 10
167.1223770512
 20
120.8790508362
 30
0.0
 10
167.1065554382
 20
121.1526598316
 30
0.0
 10
167.1594823072
 20
121.3533194753
 30
0.0
 10
167.2433247656
 20
121.4698506387
 30
0.0
 10
167.2956415885
 20
121.5112497287
 30
0.0
 10
167.3233643713
 20
121.527245644
 30
0.0
  0
SPLINE
  5
3CD
100
AcDbEntity
  8
0
100
AcDbSpline
 62
7
  6
CONTINUOUS
 70
0
 71
3
 72
11
 73
7
 74
0
 42
0.0000001
 43
0.0000001
 44
0.0000000001
 40
0.0
 40
0.0
 40
0.0
 40
0.0
 40
0.2279170389
 40
0.4772447318
 40
0.7383697793
 40
1.0
 40
1.0
 40
1.0
 40
1.0
 10
170.0765842722
 20
117.0659993507
 30
0.0
 10
169.7729171119
 20
117.2413177012
 30
0.0
 10
169.179124814
 20
117.6829362214
 30
0.0
 10
168.3967771794
 20
118.5127386566
 30
0.0
 10
167.7207442022
 20
119.4946084623
 30
0.0
 10
167.3647748546
 20
120.2197315988
 30
0.0
 10
167.2160014533
 20
120.5937371643
 30
0.0
  0
SPLINE
  5
3CE
100
AcDbEntity
  8
0
100
AcDbSpline
 62
7
  6
CONTINUOUS
 70
0
 71
3
 72
9
 73
5
 74
0
 42
0.0000001
 43
0.0000001
 44
0.0000000001
 40
0.0
 40
0.0
 40
0.0
 40
0.0
 40
0.2738210268
 40
1.0
 40
1.0
 40
1.0
 40
1.0
 10
171.7382921263
 20
115.461596668
 30
0.0
 10
171.7382921263
 20
115.3482210317
 30
0.0
 10
171.7568887866
 20
114.9352338111
 30
0.0
 10
171.8574840418
 20
114.5197158778
 30
0.0
 10
171.9955246064
 20
114.252601738
 30
0.0
  0
SPLINE
  5
3CF
100
AcDbEntity
  8
0
100
AcDbSpline
 62
7
  6
CONTINUOUS
 70
0
 71
3
 72
9
 73
5
 74
0
 42
0.0000001
 43
0.0000001
 44
0.0000000001
 40
0.0
 40
0.0
 40
0.0
 40
0.0
 40
0.5124858807
 40
1.0
 40
1.0
 40
1.0
 40
1.0
 10
172.0247597501
 20
114.1983201669
 30
0.0
 10
172.0902296266
 20
114.0816351212
 30
0.0
 10
172.2447557274
 20
113.8672717172
 30
0.0
 10
172.4526391559
 20
113.7027272011
 30
0.0
 10
172.56287037
 20
113.6390977668
 30
0.0
  0
SPLINE
  5
3D0
100
AcDbEntity
  8
0
100
AcDbSpline
 62
7
  6
CONTINUOUS
 70
0
 71
3
 72
9
 73
5
 74
0
 42
0.0000001
 43
0.0000001
 44
0.0000000001
 40
0.0
 40
0.0
 40
0.0
 40
0.0
 40
0.2400550237
 40
1.0
 40
1.0
 40
1.0
 40
1.0
 10
179.4921481261
 20
112.5032468599
 30
0.0
 10
179.4996837869
 20
112.5070499429
 30
0.0
 10
179.5312290701
 20
112.5225868235
 30
0.0
 10
179.5633549151
 20
112.5369354568
 30
0.0
 10
179.5880011306
 20
112.547260599
 30
0.0
  0
SPLINE
  5
3D1
100
AcDbEntity
  8
0
100
AcDbSpline
 62
7
  6
CONTINUOUS
 70
0
 71
3
 72
11
 73
7
 74
0
 42
0.0000001
 43
0.0000001
 44
0.0000000001
 40
0.0
 40
0.0
 40
0.0
 40
0.0
 40
0.2895416688
 40
0.549118971
 40
0.7822562702
 40
1.0
 40
1.0
 40
1.0
 40
1.0
 10
191.0250154118
 20
119.1584883784
 30
0.0
 10
190.9899329748
 20
119.1382336449
 30
0.0
 10
190.9262699516
 20
119.0943358148
 30
0.0
 10
190.8501163892
 20
119.0143872307
 30
0.0
 10
190.8019350678
 20
118.9258756587
 30
0.0
 10
190.7907479449
 20
118.8623602053
 30
0.0
 10
190.7907479543
 20
118.8318957751
 30
0.0
  0
SPLINE
  5
3D2
100
AcDbEntity
  8
0
100
AcDbSpline
 62
7
  6
CONTINUOUS
 70
0
 71
3
 72
11
 73
7
 74
0
 42
0.0000001
 43
0.0000001
 44
0.0000000001
 40
0.0
 40
0.0
 40
0.0
 40
0.0
 40
0.2894522804
 40
0.5489694137
 40
0.7820618402
 40
1.0
 40
1.0
 40
1.0
 40
1.0
 10
201.6362358112
 20
111.4943552448
 30
0.0
 10
201.6011641508
 20
111.4741067331
 30
0.0
 10
201.5375278685
 20
111.4302085219
 30
0.0
 10
201.4613696565
 20
111.3503082487
 30
0.0
 10
201.4131482158
 20
111.2617973334
 30
0.0
 10
201.401983391
 20
111.1982545311
 30
0.0
 10
201.4019824965
 20
111.1677628512
 30
0.0
  0
SPLINE
  5
3D3
100
AcDbEntity
  8
0
100
AcDbSpline
 62
7
  6
CONTINUOUS
 70
0
 71
3
 72
9
 73
5
 74
0
 42
0.0000001
 43
0.0000001
 44
0.0000000001
 40
0.0
 40
0.0
 40
0.0
 40
0.0
 40
0.5243407483
 40
1.0
 40
1.0
 40
1.0
 40
1.0
 10
191.6032281191
 20
99.2124810869
 30
0.0
 10
191.3671022039
 20
99.1884426535
 30
0.0
 10
190.9092881031
 20
99.2041483462
 30
0.0
 10
190.4685592362
 20
99.3453172196
 30
0.0
 10
190.2820939464
 20
99.4529705695
 30
0.0
  0
SPLINE
  5
3D4
100
AcDbEntity
  8
0
100
AcDbSpline
 62
7
  6
CONTINUOUS
 70
0
 71
3
 72
11
 73
7
 74
0
 42
0.0000001
 43
0.0000001
 44
0.0000000001
 40
0.0
 40
0.0
 40
0.0
 40
0.0
 40
0.2897325862
 40
0.5490888427
 40
0.7822272857
 40
1.0
 40
1.0
 40
1.0
 40
1.0
 10
178.2736831187
 20
106.3858729502
 30
0.0
 10
178.2078577462
 20
106.423876387
 30
0.0
 10
178.0884426076
 20
106.5061170197
 30
0.0
 10
177.9457261965
 20
106.6561075316
 30
0.0
 10
177.8554750829
 20
106.8220303625
 30
0.0
 10
177.8343429963
 20
106.9411088807
 30
0.0
 10
177.8343410204
 20
106.9982391615
 30
0.0
  0
SPLINE
  5
3D5
100
AcDbEntity
  8
0
100
AcDbSpline
 62
7
  6
CONTINUOUS
 70
0
 71
3
 72
11
 73
7
 74
0
 42
0.0000001
 43
0.0000001
 44
0.0000000001
 40
0.0
 40
0.0
 40
0.0
 40
0.0
 40
0.2895391946
 40
0.5491157945
 40
0.7822541179
 40
1.0
 40
1.0
 40
1.0
 40
1.0
 10
193.669594008
 20
103.9215775526
 30
0.0
 10
193.7046766143
 20
103.9013230586
 30
0.0
 10
193.7745254608
 20
103.8681390115
 30
0.0
 10
193.8818408092
 20
103.8421637576
 30
0.0
 10
193.9825859382
 20
103.8446945215
 30
0.0
 10
194.0431863279
 20
103.8667644475
 30
0.0
 10
194.0695698359
 20
103.8819968946
 30
0.0
  0
SPLINE
  5
3D6
100
AcDbEntity
  8
0
100
AcDbSpline
 62
7
  6
CONTINUOUS
 70
0
 71
3
 72
11
 73
7
 74
0
 42
0.0000001
 43
0.0000001
 44
0.0000000001
 40
0.0
 40
0.0
 40
0.0
 40
0.0
 40
0.2331003142
 40
0.4909703618
 40
0.7536684946
 40
1.0
 40
1.0
 40
1.0
 40
1.0
 10
180.6235226768
 20
112.5000289483
 30
0.0
 10
180.5517405307
 20
112.5414714521
 30
0.0
 10
180.3864359512
 20
112.6046459698
 30
0.0
 10
180.1195169484
 20
112.6430772955
 30
0.0
 10
179.8455394015
 20
112.6283004718
 30
0.0
 10
179.6687711776
 20
112.5810978125
 30
0.0
 10
179.5879829124
 20
112.5472529655
 30
0.0
  0
SPLINE
  5
3D7
100
AcDbEntity
  8
0
100
AcDbSpline
 62
7
  6
CONTINUOUS
 70
0
 71
3
 72
9
 73
5
 74
0
 42
0.0000001
 43
0.0000001
 44
0.0000000001
 40
0.0
 40
0.0
 40
0.0
 40
0.0
 40
0.2589348003
 40
1.0
 40
1.0
 40
1.0
 40
1.0
 10
169.7718716581
 20
115.28100506
 30
0.0
 10
169.7501170689
 20
115.2891667807
 30
0.0
 10
169.6667057973
 20
115.322250288
 30
0.0
 10
169.5857377365
 20
115.3616824
 30
0.0
 10
169.5281478757
 20
115.3949311695
 30
0.0
  0
SPLINE
  5
3D8
100
AcDbEntity
  8
0
100
AcDbSpline
 62
7
  6
CONTINUOUS
 70
0
 71
3
 72
9
 73
5
 74
0
 42
0.0000001
 43
0.0000001
 44
0.0000000001
 40
0.0
 40
0.0
 40
0.0
 40
0.0
 40
0.4751758442
 40
1.0
 40
1.0
 40
1.0
 40
1.0
 10
157.7645615756
 20
122.186487241
 30
0.0
 10
157.6401688609
 20
122.2583037836
 30
0.0
 10
157.3557553638
 20
122.3707236829
 30
0.0
 10
157.0556881321
 20
122.4210050893
 30
0.0
 10
156.897490927
 20
122.4328917492
 30
0.0
  0
SPLINE
  5
3D9
100
AcDbEntity
  8
0
100
AcDbSpline
 62
7
  6
CONTINUOUS
 70
0
 71
3
 72
14
 73
10
 74
0
 42
0.0000001
 43
0.0000001
 44
0.0000000001
 40
0.0
 40
0.0
 40
0.0
 40
0.0
 40
0.307265746
 40
0.4496763641
 40
0.5813505409
 40
0.701066339
 40
0.8090387689
 40
0.9073165433
 40
1.0
 40
1.0
 40
1.0
 40
1.0
 10
156.897490927
 20
122.4328917492
 30
0.0
 10
156.458999852
 20
122.4658391978
 30
0.0
 10
155.8181022466
 20
122.5785375354
 30
0.0
 10
155.0368972625
 20
122.8699422778
 30
0.0
 10
154.5391075973
 20
123.1388062263
 30
0.0
 10
154.1305581922
 20
123.4557224496
 30
0.0
 10
153.824259156
 20
123.8128183873
 30
0.0
 10
153.632316934
 20
124.2008951143
 30
0.0
 10
153.5879363013
 20
124.4758052564
 30
0.0
 10
153.5879368272
 20
124.6084442889
 30
0.0
  0
SPLINE
  5
3DA
100
AcDbEntity
  8
0
100
AcDbSpline
 62
7
  6
CONTINUOUS
 70
0
 71
3
 72
11
 73
7
 74
0
 42
0.0000001
 43
0.0000001
 44
0.0000000001
 40
0.0
 40
0.0
 40
0.0
 40
0.0
 40
0.2176923795
 40
0.4508359711
 40
0.7104297109
 40
1.0
 40
1.0
 40
1.0
 40
1.0
 10
181.6783506761
 20
111.6997137877
 30
0.0
 10
181.6783457939
 20
111.730171591
 30
0.0
 10
181.6671179364
 20
111.7936731899
 30
0.0
 10
181.618960678
 20
111.8821880556
 30
0.0
 10
181.542806503
 20
111.9621539433
 30
0.0
 10
181.479134716
 20
112.0060522823
 30
0.0
 10
181.4440480224
 20
112.0263091361
 30
0.0
  0
SPLINE
  5
3DB
100
AcDbEntity
  8
0
100
AcDbSpline
 62
7
  6
CONTINUOUS
 70
0
 71
3
 72
11
 73
7
 74
0
 42
0.0000001
 43
0.0000001
 44
0.0000000001
 40
0.0
 40
0.0
 40
0.0
 40
0.0
 40
0.2896733363
 40
0.549097475
 40
0.782221442
 40
1.0
 40
1.0
 40
1.0
 40
1.0
 10
204.382306344
 20
82.9662013957
 30
0.0
 10
204.382306344
 20
82.8902071876
 30
0.0
 10
204.3707710946
 20
82.7456661507
 30
0.0
 10
204.3122488344
 20
82.5470745532
 30
0.0
 10
204.2136976172
 20
82.3859070247
 30
0.0
 10
204.1211016534
 20
82.3081155679
 30
0.0
 10
204.0716312974
 20
82.2795347267
 30
0.0
  0
SPLINE
  5
3DC
100
AcDbEntity
  8
0
100
AcDbSpline
 62
7
  6
CONTINUOUS
 70
0
 71
3
 72
11
 73
7
 74
0
 42
0.0000001
 43
0.0000001
 44
0.0000000001
 40
0.0
 40
0.0
 40
0.0
 40
0.0
 40
0.2177434119
 40
0.4508805377
 40
0.710457812
 40
1.0
 40
1.0
 40
1.0
 40
1.0
 10
198.76177764
 20
106.7520168689
 30
0.0
 10
198.7617776305
 20
106.7824816476
 30
0.0
 10
198.7505902727
 20
106.8459978611
 30
0.0
 10
198.7024078658
 20
106.9345102639
 30
0.0
 10
198.6262528159
 20
107.0144594652
 30
0.0
 10
198.5625885706
 20
107.0583574142
 30
0.0
 10
198.5275054721
 20
107.0786121923
 30
0.0
  0
SPLINE
  5
3DD
100
AcDbEntity
  8
0
100
AcDbSpline
 62
7
  6
CONTINUOUS
 70
0
 71
3
 72
11
 73
7
 74
0
 42
0.0000001
 43
0.0000001
 44
0.0000000001
 40
0.0
 40
0.0
 40
0.0
 40
0.0
 40
0.2372531816
 40
0.5000006935
 40
0.7627478297
 40
1.0
 40
1.0
 40
1.0
 40
1.0
 10
194.2707049268
 20
109.5362215346
 30
0.0
 10
194.1903890705
 20
109.5825908668
 30
0.0
 10
194.0036275403
 20
109.6502653468
 30
0.0
 10
193.7050184485
 20
109.6826193791
 30
0.0
 10
193.4064099104
 20
109.65026392
 30
0.0
 10
193.2196492564
 20
109.5825885288
 30
0.0
 10
193.1393340769
 20
109.5362188151
 30
0.0
  0
SPLINE
  5
3DE
100
AcDbEntity
  8
0
100
AcDbSpline
 62
7
  6
CONTINUOUS
 70
0
 71
3
 72
11
 73
7
 74
0
 42
0.0000001
 43
0.0000001
 44
0.0000000001
 40
0.0
 40
0.0
 40
0.0
 40
0.0
 40
0.2895416688
 40
0.549118971
 40
0.7822562702
 40
1.0
 40
1.0
 40
1.0
 40
1.0
 10
185.2904814838
 20
105.0047087071
 30
0.0
 10
185.2553990467
 20
104.9844539735
 30
0.0
 10
185.1917360235
 20
104.9405561435
 30
0.0
 10
185.1155824611
 20
104.8606075593
 30
0.0
 10
185.0674011397
 20
104.7720959873
 30
0.0
 10
185.0562140168
 20
104.708580534
 30
0.0
 10
185.0562140263
 20
104.6781161038
 30
0.0
  0
SPLINE
  5
3DF
100
AcDbEntity
  8
0
100
AcDbSpline
 62
7
  6
CONTINUOUS
 70
0
 71
3
 72
9
 73
5
 74
0
 42
0.0000001
 43
0.0000001
 44
0.0000000001
 40
0.0
 40
0.0
 40
0.0
 40
0.0
 40
0.4744342232
 40
1.0
 40
1.0
 40
1.0
 40
1.0
 10
193.1962829786
 20
104.1948376208
 30
0.0
 10
192.9974095457
 20
104.3096546533
 30
0.0
 10
192.5350747657
 20
104.4772450496
 30
0.0
 10
192.0497475124
 20
104.5298549157
 30
0.0
 10
191.7953606078
 20
104.5298543042
 30
0.0
  0
SPLINE
  5
3E0
100
AcDbEntity
  8
0
100
AcDbSpline
 62
7
  6
CONTINUOUS
 70
0
 71
3
 72
11
 73
7
 74
0
 42
0.0000001
 43
0.0000001
 44
0.0000000001
 40
0.0
 40
0.0
 40
0.0
 40
0.0
 40
0.2372278993
 40
0.4999989081
 40
0.7627705112
 40
1.0
 40
1.0
 40
1.0
 40
1.0
 10
192.7675844445
 20
128.0029359495
 30
0.0
 10
193.0687384597
 20
127.8290685311
 30
0.0
 10
193.6386705806
 20
127.3494201259
 30
0.0
 10
194.3038436239
 20
126.4404122107
 30
0.0
 10
194.7584866593
 20
125.4098514155
 30
0.0
 10
194.8889136199
 20
124.6764495013
 30
0.0
 10
194.8889136199
 20
124.3287064345
 30
0.0
  0
SPLINE
  5
3E1
100
AcDbEntity
  8
0
100
AcDbSpline
 62
7
  6
CONTINUOUS
 70
0
 71
3
 72
11
 73
7
 74
0
 42
0.0000001
 43
0.0000001
 44
0.0000000001
 40
0.0
 40
0.0
 40
0.0
 40
0.0
 40
0.2372392641
 40
0.4999983132
 40
0.7627582764
 40
1.0
 40
1.0
 40
1.0
 40
1.0
 10
193.4747059455
 20
120.5728094251
 30
0.0
 10
193.6754838893
 20
120.6887279331
 30
0.0
 10
194.0554284616
 20
121.008504039
 30
0.0
 10
194.4988749076
 20
121.6144944083
 30
0.0
 10
194.8019521935
 20
122.3015292417
 30
0.0
 10
194.8889136199
 20
122.7904621098
 30
0.0
 10
194.8889136199
 20
123.0223025671
 30
0.0
  0
SPLINE
  5
3E2
100
AcDbEntity
  8
0
100
AcDbSpline
 62
7
  6
CONTINUOUS
 70
0
 71
3
 72
11
 73
7
 74
0
 42
0.0000001
 43
0.0000001
 44
0.0000000001
 40
0.0
 40
0.0
 40
0.0
 40
0.0
 40
0.2177472323
 40
0.4508752272
 40
0.7104098066
 40
1.0
 40
1.0
 40
1.0
 40
1.0
 10
167.3233643713
 20
121.527245644
 30
0.0
 10
167.3563492721
 20
121.5462777765
 30
0.0
 10
167.4321017332
 20
121.5738518677
 30
0.0
 10
167.5580226458
 20
121.5770164239
 30
0.0
 10
167.6921743396
 20
121.5445703944
 30
0.0
 10
167.7794825169
 20
121.503075874
 30
0.0
 10
167.8233438777
 20
121.4777530785
 30
0.0
  0
SPLINE
  5
3E3
100
AcDbEntity
  8
0
100
AcDbSpline
 62
7
  6
CONTINUOUS
 70
0
 71
3
 72
14
 73
10
 74
0
 42
0.0000001
 43
0.0000001
 44
0.0000000001
 40
0.0
 40
0.0
 40
0.0
 40
0.0
 40
0.0934369721
 40
0.1921890595
 40
0.3002254075
 40
0.4196340424
 40
0.5507834373
 40
0.692702095
 40
1.0
 40
1.0
 40
1.0
 40
1.0
 10
225.2518433831
 20
91.0864809297
 30
0.0
 10
225.2518221867
 20
90.7928970737
 30
0.0
 10
225.1571018957
 20
90.185606626
 30
0.0
 10
224.7458673528
 20
89.3246309379
 30
0.0
 10
224.0876534469
 20
88.5279550532
 30
0.0
 10
223.2072070208
 20
87.8153322925
 30
0.0
 10
222.1311127468
 20
87.2034056001
 30
0.0
 10
220.4336817815
 20
86.5262652967
 30
0.0
 10
219.0347386078
 20
86.2456271184
 30
0.0
 10
218.0741573805
 20
86.1478366327
 30
0.0
  0
SPLINE
  5
3E4
100
AcDbEntity
  8
0
100
AcDbSpline
 62
7
  6
CONTINUOUS
 70
0
 71
3
 72
11
 73
7
 74
0
 42
0.0000001
 43
0.0000001
 44
0.0000000001
 40
0.0
 40
0.0
 40
0.0
 40
0.0
 40
0.2855300012
 40
0.5432409575
 40
0.7781246976
 40
1.0
 40
1.0
 40
1.0
 40
1.0
 10
204.378467412
 20
109.9625055995
 30
0.0
 10
204.3726155414
 20
110.050103009
 30
0.0
 10
204.3484867739
 20
110.2164442111
 30
0.0
 10
204.2667112785
 20
110.4433844716
 30
0.0
 10
204.1423620283
 20
110.6276218021
 30
0.0
 10
204.0313001112
 20
110.7177592952
 30
0.0
 10
203.9722190091
 20
110.7518689839
 30
0.0
  0
SPLINE
  5
3E5
100
AcDbEntity
  8
0
100
AcDbSpline
 62
7
  6
CONTINUOUS
 70
0
 71
3
 72
11
 73
7
 74
0
 42
0.0000001
 43
0.0000001
 44
0.0000000001
 40
0.0
 40
0.0
 40
0.0
 40
0.0
 40
0.2897757032
 40
0.5490693955
 40
0.7822254653
 40
1.0
 40
1.0
 40
1.0
 40
1.0
 10
202.9822407463
 20
112.2714669177
 30
0.0
 10
203.1560960527
 20
112.3718417264
 30
0.0
 10
203.5018262244
 20
112.5363983581
 30
0.0
 10
204.033306334
 20
112.6646306832
 30
0.0
 10
204.5319151716
 20
112.6520593597
 30
0.0
 10
204.832134923
 20
112.5430650923
 30
0.0
 10
204.9627925827
 20
112.467631557
 30
0.0
  0
SPLINE
  5
3E6
100
AcDbEntity
  8
0
100
AcDbSpline
 62
7
  6
CONTINUOUS
 70
0
 71
3
 72
10
 73
6
 74
0
 42
0.0000001
 43
0.0000001
 44
0.0000000001
 40
0.0
 40
0.0
 40
0.0
 40
0.0
 40
0.5427170015
 40
0.7781010687
 40
1.0
 40
1.0
 40
1.0
 40
1.0
 10
204.6452998929
 20
96.4512413816
 30
0.0
 10
204.5879197091
 20
96.488756703
 30
0.0
 10
204.511294087
 20
96.556401884
 30
0.0
 10
204.4544212395
 20
96.6707829053
 30
0.0
 10
204.4450374046
 20
96.7289114277
 30
0.0
 10
204.4450178216
 20
96.7569415689
 30
0.0
  0
SPLINE
  5
3E7
100
AcDbEntity
  8
0
100
AcDbSpline
 62
7
  6
CONTINUOUS
 70
0
 71
3
 72
11
 73
7
 74
0
 42
0.0000001
 43
0.0000001
 44
0.0000000001
 40
0.0
 40
0.0
 40
0.0
 40
0.0
 40
0.2204352477
 40
0.454710299
 40
0.7131079768
 40
1.0
 40
1.0
 40
1.0
 40
1.0
 10
189.8719588468
 20
94.6752531588
 30
0.0
 10
189.9183996779
 20
94.7020537666
 30
0.0
 10
190.0239816432
 20
94.7417445625
 30
0.0
 10
190.199358491
 20
94.7512215631
 30
0.0
 10
190.3867970721
 20
94.7133423496
 30
0.0
 10
190.5096104728
 20
94.6610411167
 30
0.0
 10
190.5714656603
 20
94.6287333278
 30
0.0
  0
SPLINE
  5
3E8
100
AcDbEntity
  8
0
100
AcDbSpline
 62
7
  6
CONTINUOUS
 70
0
 71
3
 72
11
 73
7
 74
0
 42
0.0000001
 43
0.0000001
 44
0.0000000001
 40
0.0
 40
0.0
 40
0.0
 40
0.0
 40
0.2212902017
 40
0.4559478271
 40
0.7140369421
 40
1.0
 40
1.0
 40
1.0
 40
1.0
 10
178.5809875955
 20
112.4522573264
 30
0.0
 10
178.6416134182
 20
112.4172737773
 30
0.0
 10
178.7789874016
 20
112.3650632627
 30
0.0
 10
179.0071309218
 20
112.3506210609
 30
0.0
 10
179.2511513182
 20
112.3968255485
 30
0.0
 10
179.4113939326
 20
112.4624933963
 30
0.0
 10
179.4921449095
 20
112.5032460751
 30
0.0
  0
SPLINE
  5
3E9
100
AcDbEntity
  8
0
100
AcDbSpline
 62
7
  6
CONTINUOUS
 70
0
 71
3
 72
11
 73
7
 74
0
 42
0.0000001
 43
0.0000001
 44
0.0000000001
 40
0.0
 40
0.0
 40
0.0
 40
0.0
 40
0.2394171612
 40
0.4952621971
 40
0.7536009606
 40
1.0
 40
1.0
 40
1.0
 40
1.0
 10
214.0978449324
 20
89.153089608
 30
0.0
 10
214.4416054469
 20
89.0068499851
 30
0.0
 10
215.1881404726
 20
88.7849736783
 30
0.0
 10
216.3619968526
 20
88.6544147362
 30
0.0
 10
217.5521865889
 20
88.7189962429
 30
0.0
 10
218.3250740431
 20
88.8964650804
 30
0.0
 10
218.6887941896
 20
89.0210571797
 30
0.0
  0
SPLINE
  5
3EA
100
AcDbEntity
  8
0
100
AcDbSpline
 62
7
  6
CONTINUOUS
 70
0
 71
3
 72
15
 73
11
 74
0
 42
0.0000001
 43
0.0000001
 44
0.0000000001
 40
0.0
 40
0.0
 40
0.0
 40
0.0
 40
0.1561212613
 40
0.2967247284
 40
0.4216215554
 40
0.5337534383
 40
0.6396175591
 40
0.7479460389
 40
0.8665204002
 40
1.0
 40
1.0
 40
1.0
 40
1.0
 10
218.8764270222
 20
89.0893021607
 30
0.0
 10
219.1054494528
 20
89.1776221239
 30
0.0
 10
219.5298599141
 20
89.376999565
 30
0.0
 10
220.0735703558
 20
89.7635783063
 30
0.0
 10
220.4728171453
 20
90.211632494
 30
0.0
 10
220.7058190097
 20
90.7082616227
 30
0.0
 10
220.7501071952
 20
91.2311864956
 30
0.0
 10
220.5993202111
 20
91.7434616762
 30
0.0
 10
220.2720525978
 20
92.2151396772
 30
0.0
 10
219.9691129541
 20
92.4764456182
 30
0.0
 10
219.7982183599
 20
92.5982562806
 30
0.0
  0
SPLINE
  5
3EB
100
AcDbEntity
  8
0
100
AcDbSpline
 62
7
  6
CONTINUOUS
 70
0
 71
3
 72
9
 73
5
 74
0
 42
0.0000001
 43
0.0000001
 44
0.0000000001
 40
0.0
 40
0.0
 40
0.0
 40
0.0
 40
0.2450880246
 40
1.0
 40
1.0
 40
1.0
 40
1.0
 10
219.7982183599
 20
92.5982562806
 30
0.0
 10
219.7752264942
 20
92.6146444783
 30
0.0
 10
219.6805703
 20
92.6803199078
 30
0.0
 10
219.5826696929
 20
92.7412935079
 30
0.0
 10
219.5073531009
 20
92.7847765788
 30
0.0
  0
SPLINE
  5
3EC
100
AcDbEntity
  8
0
100
AcDbSpline
 62
7
  6
CONTINUOUS
 70
0
 71
3
 72
21
 73
17
 74
0
 42
0.0000001
 43
0.0000001
 44
0.0000000001
 40
0.0
 40
0.0
 40
0.0
 40
0.0
 40
0.0681417275
 40
0.1411481257
 40
0.2950535499
 40
0.4473978576
 40
0.5185653649
 40
0.5843748004
 40
0.6440008498
 40
0.6974071764
 40
0.7456284225
 40
0.7909263596
 40
0.836452386
 40
0.8852742504
 40
0.9395088539
 40
1.0
 40
1.0
 40
1.0
 40
1.0
 10
219.3477097523
 20
92.8721937292
 30
0.0
 10
219.1402890829
 20
92.9799021354
 30
0.0
 10
218.6919253846
 20
93.1679835131
 30
0.0
 10
217.7127352159
 20
93.4321729122
 30
0.0
 10
216.4050328157
 20
93.5429119278
 30
0.0
 10
215.1093104186
 20
93.3747329105
 30
0.0
 10
214.1636365
 20
93.0653743142
 30
0.0
 10
213.556408242
 20
92.765992934
 30
0.0
 10
213.0568093989
 20
92.4039970687
 30
0.0
 10
212.6828500536
 20
91.9896621687
 30
0.0
 10
212.4512573951
 20
91.5339446947
 30
0.0
 10
212.3789659978
 20
91.0532926568
 30
0.0
 10
212.4739237808
 20
90.5746814262
 30
0.0
 10
212.7260273363
 20
90.1238003014
 30
0.0
 10
213.1181184446
 20
89.7161158311
 30
0.0
 10
213.4445668994
 20
89.491922482
 30
0.0
 10
213.6242491753
 20
89.3881852186
 30
0.0
  0
SPLINE
  5
3ED
100
AcDbEntity
  8
0
100
AcDbSpline
 62
7
  6
CONTINUOUS
 70
0
 71
3
 72
13
 73
9
 74
0
 42
0.0000001
 43
0.0000001
 44
0.0000000001
 40
0.0
 40
0.0
 40
0.0
 40
0.0
 40
0.2731107954
 40
0.5305375985
 40
0.6528968819
 40
0.7712004
 40
0.8864246536
 40
1.0
 40
1.0
 40
1.0
 40
1.0
 10
205.6248608052
 20
100.6399317092
 30
0.0
 10
206.0475656453
 20
100.6829645214
 30
0.0
 10
206.8847680985
 20
100.6578263958
 30
0.0
 10
207.8645526363
 20
100.3264203145
 30
0.0
 10
208.5134890368
 20
99.8960708586
 30
0.0
 10
208.9136208223
 20
99.5084346932
 30
0.0
 10
209.2229479529
 20
99.0616023544
 30
0.0
 10
209.3628545924
 20
98.7310283713
 30
0.0
 10
209.4144549655
 20
98.5620369362
 30
0.0
  0
SPLINE
  5
3EE
100
AcDbEntity
  8
0
100
AcDbSpline
 62
7
  6
CONTINUOUS
 70
0
 71
3
 72
11
 73
7
 74
0
 42
0.0000001
 43
0.0000001
 44
0.0000000001
 40
0.0
 40
0.0
 40
0.0
 40
0.0
 40
0.2281277718
 40
0.4683104026
 40
0.7262839525
 40
1.0
 40
1.0
 40
1.0
 40
1.0
 10
209.5833771005
 20
86.5152930537
 30
0.0
 10
209.6350356081
 20
86.3459336434
 30
0.0
 10
209.8177324096
 20
86.0177392878
 30
0.0
 10
210.2711381144
 20
85.6623217574
 30
0.0
 10
210.8479673924
 20
85.4675572795
 30
0.0
 10
211.2668059308
 20
85.4548247503
 30
0.0
 10
211.4781598689
 20
85.476341311
 30
0.0
  0
SPLINE
  5
3EF
100
AcDbEntity
  8
0
100
AcDbSpline
 62
7
  6
CONTINUOUS
 70
0
 71
3
 72
11
 73
7
 74
0
 42
0.0000001
 43
0.0000001
 44
0.0000000001
 40
0.0
 40
0.0
 40
0.0
 40
0.0
 40
0.2372278993
 40
0.4999989081
 40
0.7627705112
 40
1.0
 40
1.0
 40
1.0
 40
1.0
 10
174.6445130967
 20
117.5396382857
 30
0.0
 10
174.9456671119
 20
117.3657708674
 30
0.0
 10
175.5155992328
 20
116.8861224621
 30
0.0
 10
176.1807722761
 20
115.9771145469
 30
0.0
 10
176.6354153115
 20
114.9465537517
 30
0.0
 10
176.7658422721
 20
114.2131518376
 30
0.0
 10
176.7658422721
 20
113.8654087708
 30
0.0
  0
SPLINE
  5
3F0
100
AcDbEntity
  8
0
100
AcDbSpline
 62
7
  6
CONTINUOUS
 70
0
 71
3
 72
11
 73
7
 74
0
 42
0.0000001
 43
0.0000001
 44
0.0000000001
 40
0.0
 40
0.0
 40
0.0
 40
0.0
 40
0.2177722485
 40
0.4509320388
 40
0.7102172843
 40
1.0
 40
1.0
 40
1.0
 40
1.0
 10
177.5904109265
 20
110.7364893054
 30
0.0
 10
177.4590929645
 20
110.8123120096
 30
0.0
 10
177.2133315507
 20
111.0188416254
 30
0.0
 10
176.9518312746
 20
111.4465376546
 30
0.0
 10
176.7963437076
 20
111.9735940345
 30
0.0
 10
176.7658422721
 20
112.3572275661
 30
0.0
 10
176.7658422721
 20
112.5590049034
 30
0.0
  0
SPLINE
  5
3F1
100
AcDbEntity
  8
0
100
AcDbSpline
 62
7
  6
CONTINUOUS
 70
0
 71
3
 72
11
 73
7
 74
0
 42
0.0000001
 43
0.0000001
 44
0.0000000001
 40
0.0
 40
0.0
 40
0.0
 40
0.0
 40
0.2359787063
 40
0.4973154514
 40
0.7601056629
 40
1.0
 40
1.0
 40
1.0
 40
1.0
 10
42.7329312755
 20
212.8058392283
 30
0.0
 10
42.7329346221
 20
213.1773203665
 30
0.0
 10
42.597463916
 20
213.9607773511
 30
0.0
 10
42.1216828877
 20
215.0679135187
 30
0.0
 10
41.4210696958
 20
216.0559441123
 30
0.0
 10
40.8196939849
 20
216.5878296483
 30
0.0
 10
40.499844367
 20
216.7886083951
 30
0.0
  0
SPLINE
  5
3F2
100
AcDbEntity
  8
0
100
AcDbSpline
 62
7
  6
CONTINUOUS
 70
0
 71
3
 72
9
 73
5
 74
0
 42
0.0000001
 43
0.0000001
 44
0.0000000001
 40
0.0
 40
0.0
 40
0.0
 40
0.0
 40
0.2330340373
 40
1.0
 40
1.0
 40
1.0
 40
1.0
 10
42.5449101753
 20
211.8955534396
 30
0.0
 10
42.4833263601
 20
211.9030282018
 30
0.0
 10
42.2208568192
 20
211.9499618617
 30
0.0
 10
41.9699065995
 20
212.0508241083
 30
0.0
 10
41.789277123
 20
212.1460067662
 30
0.0
  0
SPLINE
  5
3F3
100
AcDbEntity
  8
0
100
AcDbSpline
 62
7
  6
CONTINUOUS
 70
0
 71
3
 72
11
 73
7
 74
0
 42
0.0000001
 43
0.0000001
 44
0.0000000001
 40
0.0
 40
0.0
 40
0.0
 40
0.0
 40
0.2177836957
 40
0.4509143123
 40
0.710279411
 40
1.0
 40
1.0
 40
1.0
 40
1.0
 10
42.0490473921
 20
211.2942374732
 30
0.0
 10
42.1579810775
 20
211.3571037438
 30
0.0
 10
42.3617543284
 20
211.528460789
 30
0.0
 10
42.5787092264
 20
211.8831760407
 30
0.0
 10
42.7075843615
 20
212.3203407053
 30
0.0
 10
42.7329328169
 20
212.6385224059
 30
0.0
 10
42.7329312755
 20
212.8058392283
 30
0.0
  0
SPLINE
  5
3F4
100
AcDbEntity
  8
0
100
AcDbSpline
 62
7
  6
CONTINUOUS
 70
0
 71
3
 72
11
 73
7
 74
0
 42
0.0000001
 43
0.0000001
 44
0.0000000001
 40
0.0
 40
0.0
 40
0.0
 40
0.0
 40
0.2871341094
 40
0.5456140304
 40
0.7797896483
 40
1.0
 40
1.0
 40
1.0
 40
1.0
 10
40.4998442396
 20
211.40155679
 30
0.0
 10
40.6367528782
 20
211.3294128168
 30
0.0
 10
40.9086249187
 20
211.21248592
 30
0.0
 10
41.3238018096
 20
211.1271915638
 30
0.0
 10
41.7123454642
 20
211.1472389781
 30
0.0
 10
41.9462526842
 20
211.2349140426
 30
0.0
 10
42.0490473921
 20
211.2942374732
 30
0.0
  0
SPLINE
  5
3F5
100
AcDbEntity
  8
0
100
AcDbSpline
 62
7
  6
CONTINUOUS
 70
0
 71
3
 72
11
 73
7
 74
0
 42
0.0000001
 43
0.0000001
 44
0.0000000001
 40
0.0
 40
0.0
 40
0.0
 40
0.0
 40
0.2177822878
 40
0.4509146108
 40
0.7103059136
 40
1.0
 40
1.0
 40
1.0
 40
1.0
 10
172.0873097183
 20
187.9078783277
 30
0.0
 10
172.0873290713
 20
187.766159944
 30
0.0
 10
172.1396707549
 20
187.4707703624
 30
0.0
 10
172.3636194174
 20
187.0591966271
 30
0.0
 10
172.7176289082
 20
186.6871655644
 30
0.0
 10
173.0138299269
 20
186.4831555187
 30
0.0
 10
173.1770886355
 20
186.3889001916
 30
0.0
  0
SPLINE
  5
3F6
100
AcDbEntity
  8
0
100
AcDbSpline
 62
7
  6
CONTINUOUS
 70
0
 71
3
 72
17
 73
13
 74
0
 42
0.0000001
 43
0.0000001
 44
0.0000000001
 40
0.0
 40
0.0
 40
0.0
 40
0.0
 40
0.1286930255
 40
0.2702801155
 40
0.4174389234
 40
0.5617808058
 40
0.6954504305
 40
0.8127136056
 40
0.8646759876
 40
0.9125114232
 40
0.9571388406
 40
1.0
 40
1.0
 40
1.0
 40
1.0
 10
173.1770886355
 20
186.3889001916
 30
0.0
 10
173.4525217928
 20
186.2298823816
 30
0.0
 10
174.0761272798
 20
185.9725763631
 30
0.0
 10
175.092493308
 20
185.7692744777
 30
0.0
 10
176.1674629403
 20
185.7395060423
 30
0.0
 10
177.2133273189
 20
185.8864869529
 30
0.0
 10
178.1452780573
 20
186.19777971
 30
0.0
 10
178.7934702923
 20
186.5923092211
 30
0.0
 10
179.1738350457
 20
186.9740872521
 30
0.0
 10
179.3759541668
 20
187.2712892806
 30
0.0
 10
179.5003997612
 20
187.5848328658
 30
0.0
 10
179.5288078943
 20
187.8019548138
 30
0.0
 10
179.5287934295
 20
187.9078782429
 30
0.0
  0
SPLINE
  5
3F7
100
AcDbEntity
  8
0
100
AcDbSpline
 62
7
  6
CONTINUOUS
 70
0
 71
3
 72
16
 73
12
 74
0
 42
0.0000001
 43
0.0000001
 44
0.0000000001
 40
0.0
 40
0.0
 40
0.0
 40
0.0
 40
0.128744869
 40
0.2704010644
 40
0.41762129
 40
0.5620263509
 40
0.6957531645
 40
0.8130654258
 40
0.912471327
 40
0.957120632
 40
1.0
 40
1.0
 40
1.0
 40
1.0
 10
101.0096633189
 20
232.1855591824
 30
0.0
 10
101.2524971904
 20
232.045362153
 30
0.0
 10
101.8023283314
 20
231.8185212324
 30
0.0
 10
102.6984086461
 20
231.6392212289
 30
0.0
 10
103.6462476164
 20
231.6130465005
 30
0.0
 10
104.5681524322
 20
231.7423822168
 30
0.0
 10
105.3904795513
 20
232.0176430809
 30
0.0
 10
106.0493520098
 20
232.4175131985
 30
0.0
 10
106.4331898705
 20
232.8582810739
 30
0.0
 10
106.5847877363
 20
233.2399566127
 30
0.0
 10
106.6097680536
 20
233.4314077305
 30
0.0
 10
106.6097270397
 20
233.5247964844
 30
0.0
  0
SPLINE
  5
3F8
100
AcDbEntity
  8
0
100
AcDbSpline
 62
7
  6
CONTINUOUS
 70
0
 71
3
 72
11
 73
7
 74
0
 42
0.0000001
 43
0.0000001
 44
0.0000000001
 40
0.0
 40
0.0
 40
0.0
 40
0.0
 40
0.2177682872
 40
0.4509031366
 40
0.710373774
 40
1.0
 40
1.0
 40
1.0
 40
1.0
 10
100.048882453
 20
233.5247970972
 30
0.0
 10
100.0489373234
 20
233.3998570981
 30
0.0
 10
100.0949236607
 20
233.1394114581
 30
0.0
 10
100.2924798342
 20
232.7765195678
 30
0.0
 10
100.6046361568
 20
232.4485627293
 30
0.0
 10
100.8657576581
 20
232.2686412748
 30
0.0
 10
101.0096633189
 20
232.1855591824
 30
0.0
  0
SPLINE
  5
3F9
100
AcDbEntity
  8
0
100
AcDbSpline
 62
7
  6
CONTINUOUS
 70
0
 71
3
 72
17
 73
13
 74
0
 42
0.0000001
 43
0.0000001
 44
0.0000000001
 40
0.0
 40
0.0
 40
0.0
 40
0.0
 40
0.1286930255
 40
0.2702801155
 40
0.4174389234
 40
0.5617808058
 40
0.6954504305
 40
0.8127136056
 40
0.8646759876
 40
0.9125114232
 40
0.9571388406
 40
1.0
 40
1.0
 40
1.0
 40
1.0
 10
178.4390145123
 20
189.4268563789
 30
0.0
 10
178.1635813551
 20
189.5858741889
 30
0.0
 10
177.5399758681
 20
189.8431802075
 30
0.0
 10
176.5236098399
 20
190.0464820928
 30
0.0
 10
175.4486402075
 20
190.0762505282
 30
0.0
 10
174.4027758289
 20
189.9292696177
 30
0.0
 10
173.4708250906
 20
189.6179768606
 30
0.0
 10
172.8226328556
 20
189.2234473495
 30
0.0
 10
172.4422681021
 20
188.8416693185
 30
0.0
 10
172.2401489811
 20
188.5444672899
 30
0.0
 10
172.1157033867
 20
188.2309237048
 30
0.0
 10
172.0872952536
 20
188.0138017567
 30
0.0
 10
172.0873097183
 20
187.9078783277
 30
0.0
  0
SPLINE
  5
3FA
100
AcDbEntity
  8
0
100
AcDbSpline
 62
7
  6
CONTINUOUS
 70
0
 71
3
 72
9
 73
5
 74
0
 42
0.0000001
 43
0.0000001
 44
0.0000000001
 40
0.0
 40
0.0
 40
0.0
 40
0.0
 40
0.2451333134
 40
1.0
 40
1.0
 40
1.0
 40
1.0
 10
180.9367596375
 20
148.9770939185
 30
0.0
 10
180.9711512907
 20
148.9927924574
 30
0.0
 10
181.11063687
 20
149.0586034037
 30
0.0
 10
181.2468534095
 20
149.1312980673
 30
0.0
 10
181.3476742366
 20
149.1895066515
 30
0.0
  0
SPLINE
  5
3FB
100
AcDbEntity
  8
0
100
AcDbSpline
 62
7
  6
CONTINUOUS
 70
0
 71
3
 72
11
 73
7
 74
0
 42
0.0000001
 43
0.0000001
 44
0.0000000001
 40
0.0
 40
0.0
 40
0.0
 40
0.0
 40
0.2177822878
 40
0.4509146108
 40
0.7103059136
 40
1.0
 40
1.0
 40
1.0
 40
1.0
 10
179.5287934295
 20
187.9078782429
 30
0.0
 10
179.5287740766
 20
188.0495966266
 30
0.0
 10
179.476432393
 20
188.3449862082
 30
0.0
 10
179.2524837305
 20
188.7565599435
 30
0.0
 10
178.8984742397
 20
189.1285910062
 30
0.0
 10
178.602273221
 20
189.3326010519
 30
0.0
 10
178.4390145123
 20
189.4268563789
 30
0.0
  0
SPLINE
  5
3FC
100
AcDbEntity
  8
0
100
AcDbSpline
 62
7
  6
CONTINUOUS
 70
0
 71
3
 72
11
 73
7
 74
0
 42
0.0000001
 43
0.0000001
 44
0.0000000001
 40
0.0
 40
0.0
 40
0.0
 40
0.0
 40
0.2177682872
 40
0.4509031366
 40
0.710373774
 40
1.0
 40
1.0
 40
1.0
 40
1.0
 10
106.6097270397
 20
233.5247964844
 30
0.0
 10
106.6096721694
 20
233.6497364834
 30
0.0
 10
106.5636858321
 20
233.9101821234
 30
0.0
 10
106.3661296585
 20
234.2730740137
 30
0.0
 10
106.0539733359
 20
234.6010308522
 30
0.0
 10
105.7928518346
 20
234.7809523067
 30
0.0
 10
105.6489461738
 20
234.8640343992
 30
0.0
  0
SPLINE
  5
3FD
100
AcDbEntity
  8
0
100
AcDbSpline
 62
7
  6
CONTINUOUS
 70
0
 71
3
 72
16
 73
12
 74
0
 42
0.0000001
 43
0.0000001
 44
0.0000000001
 40
0.0
 40
0.0
 40
0.0
 40
0.0
 40
0.128744869
 40
0.2704010644
 40
0.41762129
 40
0.5620263509
 40
0.6957531645
 40
0.8130654258
 40
0.912471327
 40
0.957120632
 40
1.0
 40
1.0
 40
1.0
 40
1.0
 10
105.6489461738
 20
234.8640343992
 30
0.0
 10
105.4061123023
 20
235.0042314285
 30
0.0
 10
104.8562811613
 20
235.2310723491
 30
0.0
 10
103.9602008466
 20
235.4103723527
 30
0.0
 10
103.0123618763
 20
235.4365470811
 30
0.0
 10
102.0904570605
 20
235.3072113647
 30
0.0
 10
101.2681299414
 20
235.0319505007
 30
0.0
 10
100.609257483
 20
234.632080383
 30
0.0
 10
100.2254196223
 20
234.1913125077
 30
0.0
 10
100.0738217565
 20
233.8096369689
 30
0.0
 10
100.0488414392
 20
233.618185851
 30
0.0
 10
100.048882453
 20
233.5247970972
 30
0.0
  0
SPLINE
  5
3FE
100
AcDbEntity
  8
0
100
AcDbSpline
 62
7
  6
CONTINUOUS
 70
0
 71
3
 72
9
 73
5
 74
0
 42
0.0000001
 43
0.0000001
 44
0.0000000001
 40
0.0
 40
0.0
 40
0.0
 40
0.0
 40
0.2341865641
 40
1.0
 40
1.0
 40
1.0
 40
1.0
 10
181.3476742366
 20
149.1895066515
 30
0.0
 10
181.4956858109
 20
149.2749606637
 30
0.0
 10
182.1097629585
 20
149.6707747545
 30
0.0
 10
182.6520807477
 20
150.1722805038
 30
0.0
 10
183.0245810224
 20
150.5889341173
 30
0.0
  0
SPLINE
  5
3FF
100
AcDbEntity
  8
0
100
AcDbSpline
 62
7
  6
CONTINUOUS
 70
0
 71
3
 72
9
 73
5
 74
0
 42
0.0000001
 43
0.0000001
 44
0.0000000001
 40
0.0
 40
0.0
 40
0.0
 40
0.0
 40
0.2596467805
 40
1.0
 40
1.0
 40
1.0
 40
1.0
 10
185.277355341
 20
155.5445380754
 30
0.0
 10
185.2843478195
 20
155.6255403876
 30
0.0
 10
185.3050231225
 20
155.9379814134
 30
0.0
 10
185.3000828653
 20
156.2524141829
 30
0.0
 10
185.2786798948
 20
156.4832519275
 30
0.0
  0
SPLINE
  5
400
100
AcDbEntity
  8
0
100
AcDbSpline
 62
7
  6
CONTINUOUS
 70
0
 71
3
 72
9
 73
5
 74
0
 42
0.0000001
 43
0.0000001
 44
0.0000000001
 40
0.0
 40
0.0
 40
0.0
 40
0.0
 40
0.2474024314
 40
1.0
 40
1.0
 40
1.0
 40
1.0
 10
182.3177226
 20
155.1245208428
 30
0.0
 10
182.2394264732
 20
154.9061700708
 30
0.0
 10
181.8883496761
 20
154.0363725789
 30
0.0
 10
181.4078943999
 20
153.2189487193
 30
0.0
 10
180.9851088587
 20
152.6539956152
 30
0.0
  0
ENDSEC
  0
SECTION
  2
OBJECTS
  0
DICTIONARY
  5
C
100
AcDbDictionary
280
0
281
1
  3
ACAD_GROUP
350
D
  3
ACAD_MLINESTYLE
350
17
  3
ACAD_LAYOUT
350
1A
  3
ACAD_PLOTSETTINGS
350
19
  3
ACAD_PLOTSTYLENAME
350
E
  0
DICTIONARY
  5
D
102
{ACAD_REACTORS
330
C
102
}
100
AcDbDictionary
280
0
281
1
  0
ACDBDICTIONARYWDFLT
  5
E
102
{ACAD_REACTORS
330
C
102
}
100
AcDbDictionary
281
1
  3
Normal
350
F
100
AcDbDictionaryWithDefault
340
F
  0
DICTIONARY
  5
17
102
{ACAD_REACTORS
330
C
102
}
100
AcDbDictionary
280
0
281
1
  3
Standard
350
18
  0
DICTIONARY
  5
19
102
{ACAD_REACTORS
330
C
102
}
100
AcDbDictionary
281
1
  0
DICTIONARY
  5
1A
102
{ACAD_REACTORS
330
C
102
}
100
AcDbDictionary
281
1
  3
Model
350
401
  3
Layout1
350
402
  0
ACDBPLACEHOLDER
  5
F
102
{ACAD_REACTORS
330
E
102
}
  0
MLINESTYLE
  5
18
102
{ACAD_REACTORS
330
17
102
}
100
AcDbMlineStyle
  2
STANDARD
 70
0
  3

 62
256
 51
90.0
 52
90.0
 71
2
 49
0.5
 62
256
  6
BYLAYER
 49
-0.5
 62
256
  6
BYLAYER
  0
LAYOUT
  5
401
102
{ACAD_REACTORS
330
1A
102
}
100
AcDbPlotSettings
  1

  2
none_device
  4

  6

 40
0.0
 41
0.0
 42
0.0
 43
0.0
 44
210.0
 45
297.0
 46
0.0
 47
0.0
 48
0.0
 49
0.0
140
0.0
141
0.0
142
1.0
143
1.0
 70
1024
 72
1
 73
0
 74
0
  7

 75
0
147
1.0
148
0.0
149
0.0
100
AcDbLayout
  1
Model
 70
0
 71
0
 10
0.0
 20
0.0
 11
210.0
 21
297.0
 12
0.0
 22
0.0
 32
0.0
 14
0.0
 24
0.0
 34
0.0
 15
0.0
 25
0.0
 35
0.0
146
0.0
 13
0.0
 23
0.0
 33
0.0
 16
1.0
 26
0.0
 36
0.0
 17
0.0
 27
1.0
 37
0.0
 76
0
330
210
345
0
346
0
  0
LAYOUT
  5
402
102
{ACAD_REACTORS
330
1A
102
}
100
AcDbPlotSettings
  1

  2
none_device
  4

  6

 40
0.0
 41
0.0
 42
0.0
 43
0.0
 44
210.0
 45
297.0
 46
0.0
 47
0.0
 48
0.0
 49
0.0
140
0.0
141
0.0
142
1.0
143
1.0
 70
0
 72
1
 73
0
 74
0
  7

 75
0
147
1.0
148
0.0
149
0.0
100
AcDbLayout
  1
Layout1
 70
0
 71
1
 10
0.0
 20
0.0
 11
210.0
 21
297.0
 12
0.0
 22
0.0
 32
0.0
 14
0.0
 24
0.0
 34
0.0
 15
0.0
 25
0.0
 35
0.0
146
0.0
 13
0.0
 23
0.0
 33
0.0
 16
1.0
 26
0.0
 36
0.0
 17
0.0
 27
1.0
 37
0.0
 76
0
330
211
345
0
346
0
  0
ENDSEC
  0
EOF
