999
DXF file: C:\Users\sesa63760\Dev\_Creo\CAD\MCADPP0003050_3D-CAD\drw0001_4.dxf
999
Pro/ENGINEER 2019471 by Parametric Technology Corporation
  0
SECTION
  2
HEADER
  9
$ACADVER
  1
AC1024
  9
$DWGCODEPAGE
  3
ANSI_1252
  9
$EXTMAX
 10
80.9245471961
 20
114.4504310345
 30
0.0
  9
$EXTMIN
 10
0.0
 20
0.0
 30
0.0
  9
$LIMMIN
 10
0.0
 20
0.0
  9
$LIMMAX
 10
80.9245471961
 20
114.4504310345
  9
$VIEWCTR
 10
40.462273598
 20
57.2252155172
  9
$VIEWSIZE
 40
114.4504310345
  9
$CLAYER
  8
0
  9
$LTSCALE
 40
7.4604725415
  9
$CELTYPE
  6
BYLAYER
  9
$DIMSCALE
 40
1.0
  9
$DIMASZ
 40
0.9633874666
  9
$DIMEXO
 40
1.0
  9
$DIMDLI
 40
5.1545083014
  9
$DIMEXE
 40
1.0
  9
$DIMCEN
 40
1.2208045977
  9
$DIMLFAC
 40
1.0
  9
$DIMBLK
  1
_FILLED
  9
$DIMALT
 70
0
  9
$DIMALTF
 40
0.0393700787
  9
$DIMTXT
 40
1.3487424533
  9
$DIMTOL
 70
1
  9
$DIMLIM
 70
0
  9
$DIMTFAC
 40
1.0
  9
$DIMTP
 40
0.01
  9
$DIMTM
 40
0.01
  9
$DIMGAP
 40
0.625
  9
$DIMDSEP
 70
46
  9
$AUNITS
 70
0
  9
$PDMODE
 70
3
  9
$PDSIZE
 40
0.3125
  9
$HANDSEED
  5
360
  9
$TILEMODE
 70
1
  9
$MEASUREMENT
 70
1
  9
$INSUNITS
 70
4
  0
ENDSEC
  0
SECTION
  2
CLASSES
  0
CLASS
  1
ACDBDICTIONARYWDFLT
  2
AcDbDictionaryWithDefault
  3
AutoCAD 2000
 90
0
 91
1
280
0
281
0
  0
CLASS
  1
ACDBPLACEHOLDER
  2
AcDbPlaceHolder
  3
AutoCAD 2000
 90
0
 91
1
280
0
281
0
  0
CLASS
  1
LAYOUT
  2
AcDbLayout
  3
AutoCAD 2000
 90
0
 91
0
280
0
281
0
  0
ENDSEC
  0
SECTION
  2
TABLES
  0
TABLE
  2
VPORT
  5
8
100
AcDbSymbolTable
 70
2
  0
VPORT
  5
1F4
100
AcDbSymbolTableRecord
100
AcDbViewportTableRecord
  2
*ACTIVE
 70
0
 10
0.0
 20
0.0
 11
1.0
 21
1.0
 12
40.462273598
 22
57.2252155172
 13
0.0
 23
0.0
 14
1.0
 24
1.0
 15
0.0
 25
0.0
 16
0.0
 26
0.0
 36
1.0
 17
0.0
 27
0.0
 37
0.0
 40
114.4504310345
 41
0.7070707071
 42
50.0
 43
0.0
 44
0.0
 50
0.0
 51
0.0
 71
0
 72
100
 73
1
 74
1
 75
0
 76
0
 77
0
 78
0
  0
ENDTAB
  0
TABLE
  2
LTYPE
  5
5
100
AcDbSymbolTable
 70
6
  0
LTYPE
  5
14
100
AcDbSymbolTableRecord
100
AcDbLinetypeTableRecord
  2
BYBLOCK
 70
0
  3

 72
65
 73
0
 40
0.0
  0
LTYPE
  5
15
100
AcDbSymbolTableRecord
100
AcDbLinetypeTableRecord
  2
BYLAYER
 70
0
  3

 72
65
 73
0
 40
0.0
  0
LTYPE
  5
16
100
AcDbSymbolTableRecord
100
AcDbLinetypeTableRecord
  2
CONTINUOUS
 70
64
  3
Solid line
 72
65
 73
0
 40
0.0
  0
LTYPE
  5
1F5
100
AcDbSymbolTableRecord
100
AcDbLinetypeTableRecord
  2
CENTER
 70
64
  3
____ _ ____ _ ____ _ ____ _ ____ _ ____ _ ____
 72
65
 73
4
 40
0.6
 49
0.375
 74
0
 49
-0.075
 74
0
 49
0.075
 74
0
 49
-0.075
 74
0
  0
LTYPE
  5
1F6
100
AcDbSymbolTableRecord
100
AcDbLinetypeTableRecord
  2
HIDDEN
 70
64
  3
- - - - - - - - - - - - - - - - - - - -
 72
65
 73
2
 40
0.2
 49
0.1
 74
0
 49
-0.1
 74
0
  0
LTYPE
  5
1F7
100
AcDbSymbolTableRecord
100
AcDbLinetypeTableRecord
  2
PHANTOM
 70
64
  3
_____ _ _ _____ _ _ _____ _ _ _____
 72
65
 73
6
 40
0.8
 49
0.45
 74
0
 49
-0.05
 74
0
 49
0.1
 74
0
 49
-0.05
 74
0
 49
0.1
 74
0
 49
-0.05
 74
0
  0
LTYPE
  5
1F8
100
AcDbSymbolTableRecord
100
AcDbLinetypeTableRecord
  2
DOT
 70
64
  3
. . . . . . . . . . . . . . . . . . . .
 72
65
 73
2
 40
0.2
 49
0.1
 74
0
 49
-0.1
 74
0
  0
LTYPE
  5
1F9
100
AcDbSymbolTableRecord
100
AcDbLinetypeTableRecord
  2
DASHED
 70
64
  3
- - - - - - - - - - - - - - - - - - - -
 72
65
 73
2
 40
0.2
 49
0.1
 74
0
 49
-0.1
 74
0
  0
ENDTAB
  0
TABLE
  2
LAYER
  5
2
100
AcDbSymbolTable
 70
36
  0
LAYER
  5
10
100
AcDbSymbolTableRecord
100
AcDbLayerTableRecord
  2
0
 70
0
 62
7
  6
CONTINUOUS
370
-3
390
F
  0
LAYER
  5
1FA
100
AcDbSymbolTableRecord
100
AcDbLayerTableRecord
  2
DEFAULT_1
 70
0
 62
7
  6
CENTER
370
-3
390
F
  0
LAYER
  5
1FB
100
AcDbSymbolTableRecord
100
AcDbLayerTableRecord
  2
DEFAULT_2
 70
0
 62
8
  6
HIDDEN
370
-3
390
F
  0
LAYER
  5
1FC
100
AcDbSymbolTableRecord
100
AcDbLayerTableRecord
  2
DEFAULT_3
 70
0
 62
7
  6
PHANTOM
370
-3
390
F
  0
LAYER
  5
1FD
100
AcDbSymbolTableRecord
100
AcDbLayerTableRecord
  2
00_COMPONENTS
 70
0
 62
7
  6
CONTINUOUS
370
-3
390
F
  0
LAYER
  5
1FE
100
AcDbSymbolTableRecord
100
AcDbLayerTableRecord
  2
01_1_DEFAULT_DATUMS
 70
0
 62
7
  6
CONTINUOUS
370
-3
390
F
  0
LAYER
  5
1FF
100
AcDbSymbolTableRecord
100
AcDbLayerTableRecord
  2
01_PLANES
 70
0
 62
7
  6
CONTINUOUS
370
-3
390
F
  0
LAYER
  5
200
100
AcDbSymbolTableRecord
100
AcDbLayerTableRecord
  2
02_COORD_SYS
 70
0
 62
7
  6
CONTINUOUS
370
-3
390
F
  0
LAYER
  5
201
100
AcDbSymbolTableRecord
100
AcDbLayerTableRecord
  2
03_AXES
 70
0
 62
7
  6
CONTINUOUS
370
-3
390
F
  0
LAYER
  5
202
100
AcDbSymbolTableRecord
100
AcDbLayerTableRecord
  2
04_POINTS
 70
0
 62
7
  6
CONTINUOUS
370
-3
390
F
  0
LAYER
  5
203
100
AcDbSymbolTableRecord
100
AcDbLayerTableRecord
  2
05_CURVES
 70
0
 62
7
  6
CONTINUOUS
370
-3
390
F
  0
LAYER
  5
204
100
AcDbSymbolTableRecord
100
AcDbLayerTableRecord
  2
06_SURFS
 70
0
 62
7
  6
CONTINUOUS
370
-3
390
F
  0
LAYER
  5
205
100
AcDbSymbolTableRecord
100
AcDbLayerTableRecord
  2
07_COSMETICS
 70
0
 62
7
  6
CONTINUOUS
370
-3
390
F
  0
LAYER
  5
206
100
AcDbSymbolTableRecord
100
AcDbLayerTableRecord
  2
10_NOTES
 70
0
 62
7
  6
CONTINUOUS
370
-3
390
F
  0
LAYER
  5
207
100
AcDbSymbolTableRecord
100
AcDbLayerTableRecord
  2
11_NOTES_PUB
 70
0
 62
7
  6
CONTINUOUS
370
-3
390
F
  0
LAYER
  5
208
100
AcDbSymbolTableRecord
100
AcDbLayerTableRecord
  2
13_REF_GTOL
 70
0
 62
7
  6
CONTINUOUS
370
-3
390
F
  0
LAYER
  5
209
100
AcDbSymbolTableRecord
100
AcDbLayerTableRecord
  2
16_MISC
 70
0
 62
7
  6
CONTINUOUS
370
-3
390
F
  0
LAYER
  5
20A
100
AcDbSymbolTableRecord
100
AcDbLayerTableRecord
  2
17_NO_PRINT
 70
0
 62
7
  6
CONTINUOUS
370
-3
390
F
  0
LAYER
  5
20B
100
AcDbSymbolTableRecord
100
AcDbLayerTableRecord
  2
18_DATUM_CAMS_JOINTS
 70
0
 62
7
  6
CONTINUOUS
370
-3
390
F
  0
LAYER
  5
20C
100
AcDbSymbolTableRecord
100
AcDbLayerTableRecord
  2
19_DATUM_FUNCTIONAL
 70
0
 62
7
  6
CONTINUOUS
370
-3
390
F
  0
LAYER
  5
20D
100
AcDbSymbolTableRecord
100
AcDbLayerTableRecord
  2
20_DATUM_KINEMATIC_SCHEME
 70
0
 62
7
  6
CONTINUOUS
370
-3
390
F
  0
LAYER
  5
20E
100
AcDbSymbolTableRecord
100
AcDbLayerTableRecord
  2
INTFCLR_48444
 70
0
 62
7
  6
CONTINUOUS
370
-3
390
F
  0
ENDTAB
  0
TABLE
  2
STYLE
  5
3
100
AcDbSymbolTable
 70
1
  0
STYLE
  5
11
100
AcDbSymbolTableRecord
100
AcDbTextStyleTableRecord
  2
STANDARD
 70
0
 40
0.0
 41
0.8
 50
0.0
 71
0
 42
0.2
  3
txt
  4

  0
STYLE
  5
20F
100
AcDbSymbolTableRecord
100
AcDbTextStyleTableRecord
  2
TEXTSTYLE_1
 70
0
 40
0.0
 41
0.8
 50
0.0
 71
0
 42
0.2
  3
gdt
  4

  0
ENDTAB
  0
TABLE
  2
VIEW
  5
6
100
AcDbSymbolTable
 70
0
  0
ENDTAB
  0
TABLE
  2
UCS
  5
7
100
AcDbSymbolTable
 70
0
  0
ENDTAB
  0
TABLE
  2
APPID
  5
9
100
AcDbSymbolTable
 70
1
  0
APPID
  5
210
100
AcDbSymbolTableRecord
100
AcDbRegAppTableRecord
  2
ACAD
 70
0
  0
ENDTAB
  0
TABLE
  2
BLOCK_RECORD
  5
1
100
AcDbSymbolTable
 70
0
  0
BLOCK_RECORD
  5
211
100
AcDbSymbolTableRecord
100
AcDbBlockTableRecord
  2
*Model_Space
  0
BLOCK_RECORD
  5
212
100
AcDbSymbolTableRecord
100
AcDbBlockTableRecord
  2
*Paper_Space
  0
BLOCK_RECORD
  5
213
100
AcDbSymbolTableRecord
100
AcDbBlockTableRecord
  2
_FILLED
  0
ENDTAB
  0
TABLE
  2
DIMSTYLE
  5
A
100
AcDbSymbolTable
 70
1
100
AcDbDimStyleTable
 71
0
  0
DIMSTYLE
105
214
100
AcDbSymbolTableRecord
100
AcDbDimStyleTableRecord
  2
STANDARD
 70
0
  3

  4

 40
1.0
 41
0.9633874666
 42
1.0
 43
0.38
 44
1.0
 45
0.0
 46
0.0
 47
0.01
 48
0.01
140
1.3487424533
141
0.09
142
0.0
143
25.4
144
1.0
145
0.0
146
1.0
147
0.625
 71
1
 72
0
 73
0
 74
0
 75
0
 76
0
 77
1
 78
8
 79
2
170
0
171
1
172
0
173
0
174
0
175
0
176
0
177
0
178
0
270
2
179
2
271
2
272
2
273
2
274
2
275
0
280
0
281
0
282
0
283
1
284
8
285
0
286
0
287
3
288
0
340
11
278
46
341
213
342
213
343
213
344
213
  0
ENDTAB
  0
ENDSEC
  0
SECTION
  2
BLOCKS
  0
BLOCK
  5
20
100
AcDbEntity
  8
0
100
AcDbBlockBegin
  2
*Model_Space
 70
0
 10
0.0
 20
0.0
 30
0.0
  3
*Model_Space
  1

  0
ENDBLK
  5
21
100
AcDbEntity
  8
0
100
AcDbBlockEnd
  0
BLOCK
  5
1C
100
AcDbEntity
  8
0
100
AcDbBlockBegin
  2
*Paper_Space
 70
0
 10
0.0
 20
0.0
 30
0.0
  3
*Paper_Space
  1

  0
ENDBLK
  5
1D
100
AcDbEntity
  8
0
100
AcDbBlockEnd
  0
BLOCK
  5
215
100
AcDbEntity
  8
0
100
AcDbBlockBegin
  2
_FILLED
 70
64
 10
0.0
 20
0.0
  3
_FILLED
  1

  0
SOLID
  5
216
100
AcDbEntity
  8
0
  6
BYBLOCK
 62
0
100
AcDbTrace
 10
0.0
 20
0.0
 11
-1.0
 21
0.25
 12
-1.0
 22
-0.25
 13
-1.0
 23
-0.25
  0
ENDBLK
  5
217
100
AcDbEntity
  8
0
  6
BYBLOCK
 62
0
100
AcDbBlockEnd
  0
ENDSEC
  0
SECTION
  2
ENTITIES
  0
LINE
  5
218
100
AcDbEntity
  8
0
100
AcDbLine
 62
7
  6
CONTINUOUS
 10
74.0129201498
 20
10.1770460159
 11
9.0129201498
 21
10.1770460159
  0
LINE
  5
219
100
AcDbEntity
  8
0
100
AcDbLine
 62
7
  6
CONTINUOUS
 10
38.8085037903
 20
15.4004138489
 11
44.2173365093
 21
15.4004138489
  0
LINE
  5
21A
100
AcDbEntity
  8
0
100
AcDbLine
 62
7
  6
CONTINUOUS
 10
35.8084474419
 20
15.4070460159
 11
38.8085616683
 21
15.4070460159
  0
LINE
  5
21B
100
AcDbEntity
  8
0
100
AcDbLine
 62
7
  6
CONTINUOUS
 10
44.2172786312
 20
15.4070460159
 11
47.2173928577
 21
15.4070460159
  0
LINE
  5
21C
100
AcDbEntity
  8
0
100
AcDbLine
 62
7
  6
CONTINUOUS
 10
9.0586195464
 20
15.4136781828
 11
35.8085053199
 21
15.4136781828
  0
LINE
  5
21D
100
AcDbEntity
  8
0
100
AcDbLine
 62
7
  6
CONTINUOUS
 10
47.2173349796
 20
15.4136781828
 11
73.9672207532
 21
15.4136781828
  0
LINE
  5
21E
100
AcDbEntity
  8
0
100
AcDbLine
 62
7
  6
CONTINUOUS
 10
9.8185906079
 20
16.1670460159
 11
73.2072496917
 21
16.1670460159
  0
LINE
  5
21F
100
AcDbEntity
  8
0
100
AcDbLine
 62
7
  6
CONTINUOUS
 10
57.0129201498
 20
16.6770460159
 11
48.0129201498
 21
16.6770460159
  0
LINE
  5
220
100
AcDbEntity
  8
0
100
AcDbLine
 62
7
  6
CONTINUOUS
 10
35.0129201498
 20
16.6770460159
 11
26.0129201498
 21
16.6770460159
  0
LINE
  5
221
100
AcDbEntity
  8
0
100
AcDbLine
 62
7
  6
CONTINUOUS
 10
73.1876990815
 20
17.6539562126
 11
71.5427322489
 21
17.6539562126
  0
LINE
  5
222
100
AcDbEntity
  8
0
100
AcDbLine
 62
7
  6
CONTINUOUS
 10
11.4831080506
 20
17.6539562126
 11
9.8381412181
 21
17.6539562126
  0
LINE
  5
223
100
AcDbEntity
  8
0
100
AcDbLine
 62
7
  6
CONTINUOUS
 10
71.5422904269
 20
17.6670460159
 11
57.5129201498
 21
17.6670460159
  0
LINE
  5
224
100
AcDbEntity
  8
0
100
AcDbLine
 62
7
  6
CONTINUOUS
 10
47.2629201498
 20
17.6670460159
 11
35.7629201498
 21
17.6670460159
  0
LINE
  5
225
100
AcDbEntity
  8
0
100
AcDbLine
 62
7
  6
CONTINUOUS
 10
25.5129201498
 20
17.6670460159
 11
11.4835498727
 21
17.6670460159
  0
LINE
  5
226
100
AcDbEntity
  8
0
100
AcDbLine
 62
7
  6
CONTINUOUS
 10
26.0129201498
 20
18.0770460159
 11
35.0129201498
 21
18.0770460159
  0
LINE
  5
227
100
AcDbEntity
  8
0
100
AcDbLine
 62
7
  6
CONTINUOUS
 10
48.0129201498
 20
18.0770460159
 11
57.0129201498
 21
18.0770460159
  0
LINE
  5
228
100
AcDbEntity
  8
0
100
AcDbLine
 62
7
  6
CONTINUOUS
 10
9.2629201498
 20
92.0270460159
 11
9.2629201498
 21
82.0270460159
  0
LINE
  5
229
100
AcDbEntity
  8
0
100
AcDbLine
 62
7
  6
CONTINUOUS
 10
9.2629201498
 20
75.1270460159
 11
9.2629201498
 21
74.306796806
  0
LINE
  5
22A
100
AcDbEntity
  8
0
100
AcDbLine
 62
7
  6
CONTINUOUS
 10
9.4129201498
 20
102.1770460159
 11
9.4129201498
 21
99.6770460159
  0
LINE
  5
22B
100
AcDbEntity
  8
0
100
AcDbLine
 62
7
  6
CONTINUOUS
 10
9.7629201498
 20
102.6540156166
 11
9.7629201498
 21
102.9770460159
  0
LINE
  5
22C
100
AcDbEntity
  8
0
100
AcDbLine
 62
7
  6
CONTINUOUS
 10
9.0129201498
 20
10.1770460159
 11
9.8201554204
 21
102.6770460159
  0
LINE
  5
22D
100
AcDbEntity
  8
0
100
AcDbLine
 62
7
  6
CONTINUOUS
 10
10.5801264819
 20
102.6770460159
 11
9.8381412181
 21
17.6539562126
  0
LINE
  5
22E
100
AcDbEntity
  8
0
100
AcDbLine
 62
7
  6
CONTINUOUS
 10
9.8381412181
 20
17.6539562126
 11
9.8185906079
 21
16.1670460159
  0
LINE
  5
22F
100
AcDbEntity
  8
0
100
AcDbLine
 62
7
  6
CONTINUOUS
 10
14.808400604
 20
15.4136781828
 11
14.808400604
 21
16.1670460159
  0
LINE
  5
230
100
AcDbEntity
  8
0
100
AcDbLine
 62
7
  6
CONTINUOUS
 10
14.808400604
 20
15.4136781828
 11
14.7627012074
 21
10.1770460159
  0
LINE
  5
231
100
AcDbEntity
  8
0
100
AcDbLine
 62
7
  6
CONTINUOUS
 10
12.7729201498
 20
55.8670460159
 11
13.5899917391
 21
102.6770460159
  0
LINE
  5
232
100
AcDbEntity
  8
0
100
AcDbLine
 62
7
  6
CONTINUOUS
 10
15.0902201615
 20
102.6770460159
 11
14.2731485722
 21
55.8670460159
  0
LINE
  5
233
100
AcDbEntity
  8
0
100
AcDbLine
 62
7
  6
CONTINUOUS
 10
12.7729201498
 20
55.8670460159
 11
11.4329201498
 21
16.1670460159
  0
LINE
  5
234
100
AcDbEntity
  8
0
100
AcDbLine
 62
7
  6
CONTINUOUS
 10
16.0129201498
 20
102.6770460159
 11
16.0129201498
 21
66.3770460159
  0
LINE
  5
235
100
AcDbEntity
  8
0
100
AcDbLine
 62
7
  6
CONTINUOUS
 10
16.3956323247
 20
88.3870461017
 11
16.3956323247
 21
87.7770460159
  0
LINE
  5
236
100
AcDbEntity
  8
0
100
AcDbLine
 62
7
  6
CONTINUOUS
 10
16.5679201498
 20
66.3770460159
 11
16.5679201498
 21
55.8670460159
  0
LINE
  5
237
100
AcDbEntity
  8
0
100
AcDbLine
 62
7
  6
CONTINUOUS
 10
17.4129201498
 20
85.7770460159
 11
17.4129201498
 21
68.6770460159
  0
LINE
  5
238
100
AcDbEntity
  8
0
100
AcDbLine
 62
7
  6
CONTINUOUS
 10
17.5129201498
 20
61.2770460159
 11
17.5129201498
 21
68.1770460159
  0
LINE
  5
239
100
AcDbEntity
  8
0
100
AcDbLine
 62
7
  6
CONTINUOUS
 10
17.6627980834
 20
62.1270460159
 11
17.6627980834
 21
66.7270460159
  0
LINE
  5
23A
100
AcDbEntity
  8
0
100
AcDbLine
 62
7
  6
CONTINUOUS
 10
17.7629201498
 20
68.943007633
 11
17.7629201498
 21
71.7270460159
  0
LINE
  5
23B
100
AcDbEntity
  8
0
100
AcDbLine
 62
7
  6
CONTINUOUS
 10
18.1630422162
 20
66.7270460159
 11
18.1630422162
 21
62.1270460159
  0
LINE
  5
23C
100
AcDbEntity
  8
0
100
AcDbLine
 62
7
  6
CONTINUOUS
 10
18.3129201498
 20
61.2770460159
 11
18.3129201498
 21
68.1770460159
  0
LINE
  5
23D
100
AcDbEntity
  8
0
100
AcDbLine
 62
7
  6
CONTINUOUS
 10
18.3629201498
 20
69.4770460159
 11
18.3629201498
 21
69.3306938101
  0
LINE
  5
23E
100
AcDbEntity
  8
0
100
AcDbLine
 62
7
  6
CONTINUOUS
 10
19.2629201498
 20
71.7270460159
 11
19.2629201498
 21
69.4770460159
  0
LINE
  5
23F
100
AcDbEntity
  8
0
100
AcDbLine
 62
7
  6
CONTINUOUS
 10
18.3129201498
 20
67.5770460159
 11
18.1630422162
 21
66.7270460159
  0
LINE
  5
240
100
AcDbEntity
  8
0
100
AcDbLine
 62
7
  6
CONTINUOUS
 10
17.5129201498
 20
61.2770460159
 11
17.6627980834
 21
62.1270460159
  0
LINE
  5
241
100
AcDbEntity
  8
0
100
AcDbLine
 62
7
  6
CONTINUOUS
 10
26.0129201498
 20
36.7924402634
 11
35.0129201498
 21
36.7924402634
  0
LINE
  5
242
100
AcDbEntity
  8
0
100
AcDbLine
 62
7
  6
CONTINUOUS
 10
48.0129201498
 20
36.7924402634
 11
57.0129201498
 21
36.7924402634
  0
LINE
  5
243
100
AcDbEntity
  8
0
100
AcDbLine
 62
7
  6
CONTINUOUS
 10
18.1630422162
 20
62.1270460159
 11
18.3129201498
 21
61.2770460159
  0
LINE
  5
244
100
AcDbEntity
  8
0
100
AcDbLine
 62
7
  6
CONTINUOUS
 10
17.6627980834
 20
66.7270460159
 11
17.5129201498
 21
67.5770460159
  0
LINE
  5
245
100
AcDbEntity
  8
0
100
AcDbLine
 62
7
  6
CONTINUOUS
 10
23.7629201498
 20
69.4770460159
 11
23.7629201498
 21
71.7270460159
  0
LINE
  5
246
100
AcDbEntity
  8
0
100
AcDbLine
 62
7
  6
CONTINUOUS
 10
24.6629201498
 20
69.3307083135
 11
24.6629201498
 21
69.4770460159
  0
LINE
  5
247
100
AcDbEntity
  8
0
100
AcDbLine
 62
7
  6
CONTINUOUS
 10
24.7129201498
 20
68.1770460159
 11
24.7129201498
 21
61.2770460159
  0
LINE
  5
248
100
AcDbEntity
  8
0
100
AcDbLine
 62
7
  6
CONTINUOUS
 10
24.8627980834
 20
62.1270460159
 11
24.8627980834
 21
66.7270460159
  0
LINE
  5
249
100
AcDbEntity
  8
0
100
AcDbLine
 62
7
  6
CONTINUOUS
 10
25.2629201498
 20
71.7270460159
 11
25.2629201498
 21
68.9430241754
  0
LINE
  5
24A
100
AcDbEntity
  8
0
100
AcDbLine
 62
7
  6
CONTINUOUS
 10
25.3630422162
 20
66.7270460159
 11
25.3630422162
 21
62.1270460159
  0
LINE
  5
24B
100
AcDbEntity
  8
0
100
AcDbLine
 62
7
  6
CONTINUOUS
 10
25.5129201498
 20
55.8670460159
 11
25.5129201498
 21
54.3670460159
  0
LINE
  5
24C
100
AcDbEntity
  8
0
100
AcDbLine
 62
7
  6
CONTINUOUS
 10
25.5129201498
 20
17.6670460159
 11
25.5129201498
 21
16.1670460159
  0
LINE
  5
24D
100
AcDbEntity
  8
0
100
AcDbLine
 62
7
  6
CONTINUOUS
 10
25.5129201498
 20
61.2770460159
 11
25.5129201498
 21
68.1770460159
  0
LINE
  5
24E
100
AcDbEntity
  8
0
100
AcDbLine
 62
7
  6
CONTINUOUS
 10
25.6129201498
 20
68.6770460159
 11
25.6129201498
 21
85.7770460159
  0
LINE
  5
24F
100
AcDbEntity
  8
0
100
AcDbLine
 62
7
  6
CONTINUOUS
 10
26.0129201498
 20
16.1670460159
 11
26.0129201498
 21
38.8807570142
  0
LINE
  5
250
100
AcDbEntity
  8
0
100
AcDbLine
 62
7
  6
CONTINUOUS
 10
26.4579201498
 20
55.8670460159
 11
26.4579201498
 21
66.3770460159
  0
LINE
  5
251
100
AcDbEntity
  8
0
100
AcDbLine
 62
7
  6
CONTINUOUS
 10
26.6302079748
 20
88.3870460159
 11
26.6302079748
 21
87.7770460159
  0
LINE
  5
252
100
AcDbEntity
  8
0
100
AcDbLine
 62
7
  6
CONTINUOUS
 10
25.5129201498
 20
67.5770460159
 11
25.3630422162
 21
66.7270460159
  0
LINE
  5
253
100
AcDbEntity
  8
0
100
AcDbLine
 62
7
  6
CONTINUOUS
 10
24.7129201498
 20
61.2770460159
 11
24.8627980834
 21
62.1270460159
  0
LINE
  5
254
100
AcDbEntity
  8
0
100
AcDbLine
 62
7
  6
CONTINUOUS
 10
57.0129201498
 20
38.8807570142
 11
48.0129201498
 21
38.8807570142
  0
LINE
  5
255
100
AcDbEntity
  8
0
100
AcDbLine
 62
7
  6
CONTINUOUS
 10
35.0129201498
 20
38.8807570142
 11
26.0129201498
 21
38.8807570142
  0
LINE
  5
256
100
AcDbEntity
  8
0
100
AcDbLine
 62
7
  6
CONTINUOUS
 10
25.3630422162
 20
62.1270460159
 11
25.5129201498
 21
61.2770460159
  0
LINE
  5
257
100
AcDbEntity
  8
0
100
AcDbLine
 62
7
  6
CONTINUOUS
 10
24.8627980834
 20
66.7270460159
 11
24.7129201498
 21
67.5770460159
  0
LINE
  5
258
100
AcDbEntity
  8
0
100
AcDbLine
 62
7
  6
CONTINUOUS
 10
27.0129201498
 20
66.3770460159
 11
27.0129201498
 21
102.6770460159
  0
LINE
  5
259
100
AcDbEntity
  8
0
100
AcDbLine
 62
7
  6
CONTINUOUS
 10
27.5129201498
 20
16.6770460159
 11
27.5129201498
 21
16.1670460159
  0
LINE
  5
25A
100
AcDbEntity
  8
0
100
AcDbLine
 62
7
  6
CONTINUOUS
 10
28.7129201498
 20
102.9770460159
 11
28.7129201498
 21
103.5729539841
  0
LINE
  5
25B
100
AcDbEntity
  8
0
100
AcDbLine
 62
7
  6
CONTINUOUS
 10
28.7629201498
 20
102.6770460159
 11
28.7629201498
 21
55.8670460159
  0
LINE
  5
25C
100
AcDbEntity
  8
0
100
AcDbLine
 62
7
  6
CONTINUOUS
 10
30.2629201498
 20
102.6770460159
 11
30.2629201498
 21
55.8670460159
  0
LINE
  5
25D
100
AcDbEntity
  8
INTFCLR_48444
100
AcDbLine
 62
7
  6
CONTINUOUS
 10
54.0222201498
 20
42.8370460159
 11
50.2536201498
 21
42.8370460159
  0
LINE
  5
25E
100
AcDbEntity
  8
INTFCLR_48444
100
AcDbLine
 62
7
  6
CONTINUOUS
 10
32.7722201498
 20
42.8370460159
 11
29.0036201498
 21
42.8370460159
  0
LINE
  5
25F
100
AcDbEntity
  8
0
100
AcDbLine
 62
7
  6
CONTINUOUS
 10
32.7629201498
 20
55.8670460159
 11
32.7629201498
 21
102.6770460159
  0
LINE
  5
260
100
AcDbEntity
  8
0
100
AcDbLine
 62
7
  6
CONTINUOUS
 10
33.5129201498
 20
16.6770460159
 11
33.5129201498
 21
16.1670460159
  0
LINE
  5
261
100
AcDbEntity
  8
0
100
AcDbLine
 62
7
  6
CONTINUOUS
 10
34.2629201498
 20
55.8670460159
 11
34.2629201498
 21
102.6770460159
  0
LINE
  5
262
100
AcDbEntity
  8
0
100
AcDbLine
 62
7
  6
CONTINUOUS
 10
34.3129201498
 20
102.9770460159
 11
34.3129201498
 21
103.5729539841
  0
LINE
  5
263
100
AcDbEntity
  8
0
100
AcDbLine
 62
7
  6
CONTINUOUS
 10
35.0129201498
 20
38.8807570142
 11
35.0129201498
 21
16.1670460159
  0
LINE
  5
264
100
AcDbEntity
  8
0
100
AcDbLine
 62
7
  6
CONTINUOUS
 10
35.7629201498
 20
16.1670460159
 11
35.7629201498
 21
17.6670460159
  0
LINE
  5
265
100
AcDbEntity
  8
0
100
AcDbLine
 62
7
  6
CONTINUOUS
 10
35.7629201498
 20
54.3670460159
 11
35.7629201498
 21
55.8670460159
  0
LINE
  5
266
100
AcDbEntity
  8
0
100
AcDbLine
 62
7
  6
CONTINUOUS
 10
36.0129201498
 20
102.6770460159
 11
36.0129201498
 21
66.3770460159
  0
LINE
  5
267
100
AcDbEntity
  8
0
100
AcDbLine
 62
7
  6
CONTINUOUS
 10
36.3956323247
 20
88.3870461017
 11
36.3956323247
 21
87.7770460159
  0
LINE
  5
268
100
AcDbEntity
  8
0
100
AcDbLine
 62
7
  6
CONTINUOUS
 10
36.5679201498
 20
66.3770460159
 11
36.5679201498
 21
55.8670460159
  0
LINE
  5
269
100
AcDbEntity
  8
0
100
AcDbLine
 62
7
  6
CONTINUOUS
 10
37.4129201498
 20
85.7770460159
 11
37.4129201498
 21
68.6770460159
  0
LINE
  5
26A
100
AcDbEntity
  8
0
100
AcDbLine
 62
7
  6
CONTINUOUS
 10
37.5129201498
 20
61.2770460159
 11
37.5129201498
 21
68.1770460159
  0
LINE
  5
26B
100
AcDbEntity
  8
0
100
AcDbLine
 62
7
  6
CONTINUOUS
 10
37.6627980834
 20
62.1270460159
 11
37.6627980834
 21
66.7270460159
  0
LINE
  5
26C
100
AcDbEntity
  8
0
100
AcDbLine
 62
7
  6
CONTINUOUS
 10
37.7629201498
 20
68.943007633
 11
37.7629201498
 21
71.7270460159
  0
LINE
  5
26D
100
AcDbEntity
  8
0
100
AcDbLine
 62
7
  6
CONTINUOUS
 10
38.1630422162
 20
66.7270460159
 11
38.1630422162
 21
62.1270460159
  0
LINE
  5
26E
100
AcDbEntity
  8
0
100
AcDbLine
 62
7
  6
CONTINUOUS
 10
35.7628059233
 20
10.1770460159
 11
35.8085053199
 21
15.4136781828
  0
LINE
  5
26F
100
AcDbEntity
  8
0
100
AcDbLine
 62
7
  6
CONTINUOUS
 10
38.3129201498
 20
67.5770460159
 11
38.1630422162
 21
66.7270460159
  0
LINE
  5
270
100
AcDbEntity
  8
0
100
AcDbLine
 62
7
  6
CONTINUOUS
 10
37.5129201498
 20
61.2770460159
 11
37.6627980834
 21
62.1270460159
  0
LINE
  5
271
100
AcDbEntity
  8
0
100
AcDbLine
 62
7
  6
CONTINUOUS
 10
38.3129201498
 20
61.2770460159
 11
38.3129201498
 21
68.1770460159
  0
LINE
  5
272
100
AcDbEntity
  8
0
100
AcDbLine
 62
7
  6
CONTINUOUS
 10
38.3629201498
 20
69.4770460159
 11
38.3629201498
 21
69.3306938101
  0
LINE
  5
273
100
AcDbEntity
  8
0
100
AcDbLine
 62
7
  6
CONTINUOUS
 10
39.2629201498
 20
71.7270460159
 11
39.2629201498
 21
69.4770460159
  0
LINE
  5
274
100
AcDbEntity
  8
0
100
AcDbLine
 62
7
  6
CONTINUOUS
 10
38.8085037903
 20
15.4004138489
 11
38.7629201498
 21
10.1770460159
  0
LINE
  5
275
100
AcDbEntity
  8
0
100
AcDbLine
 62
7
  6
CONTINUOUS
 10
12.7222904269
 20
54.3670460159
 11
25.5129201498
 21
54.3670460159
  0
LINE
  5
276
100
AcDbEntity
  8
0
100
AcDbLine
 62
7
  6
CONTINUOUS
 10
35.7629201498
 20
54.3670460159
 11
47.2629201498
 21
54.3670460159
  0
LINE
  5
277
100
AcDbEntity
  8
0
100
AcDbLine
 62
7
  6
CONTINUOUS
 10
57.5129201498
 20
54.3670460159
 11
70.3035498727
 21
54.3670460159
  0
LINE
  5
278
100
AcDbEntity
  8
0
100
AcDbLine
 62
7
  6
CONTINUOUS
 10
12.7729201498
 20
55.8670460159
 11
70.2529201498
 21
55.8670460159
  0
LINE
  5
279
100
AcDbEntity
  8
0
100
AcDbLine
 62
7
  6
CONTINUOUS
 10
38.1630422162
 20
62.1270460159
 11
38.3129201498
 21
61.2770460159
  0
LINE
  5
27A
100
AcDbEntity
  8
0
100
AcDbLine
 62
7
  6
CONTINUOUS
 10
37.6627980834
 20
66.7270460159
 11
37.5129201498
 21
67.5770460159
  0
LINE
  5
27B
100
AcDbEntity
  8
0
100
AcDbLine
 62
7
  6
CONTINUOUS
 10
44.2629201498
 20
10.1770460159
 11
44.2173365093
 21
15.4004138489
  0
LINE
  5
27C
100
AcDbEntity
  8
0
100
AcDbLine
 62
7
  6
CONTINUOUS
 10
43.7629201498
 20
69.4770460159
 11
43.7629201498
 21
71.7270460159
  0
LINE
  5
27D
100
AcDbEntity
  8
0
100
AcDbLine
 62
7
  6
CONTINUOUS
 10
44.2294095385
 20
101.1770460159
 11
44.2294095385
 21
99.6770460159
  0
LINE
  5
27E
100
AcDbEntity
  8
0
100
AcDbLine
 62
7
  6
CONTINUOUS
 10
44.6584792441
 20
99.6770460159
 11
44.6584792441
 21
101.1770460159
  0
LINE
  5
27F
100
AcDbEntity
  8
0
100
AcDbLine
 62
7
  6
CONTINUOUS
 10
44.6629201498
 20
69.3307083135
 11
44.6629201498
 21
69.4770460159
  0
LINE
  5
280
100
AcDbEntity
  8
0
100
AcDbLine
 62
7
  6
CONTINUOUS
 10
44.7129201498
 20
68.1770460159
 11
44.7129201498
 21
61.2770460159
  0
LINE
  5
281
100
AcDbEntity
  8
0
100
AcDbLine
 62
7
  6
CONTINUOUS
 10
44.8627980834
 20
62.1270460159
 11
44.8627980834
 21
66.7270460159
  0
LINE
  5
282
100
AcDbEntity
  8
0
100
AcDbLine
 62
7
  6
CONTINUOUS
 10
45.2629201498
 20
71.7270460159
 11
45.2629201498
 21
68.9430241754
  0
LINE
  5
283
100
AcDbEntity
  8
0
100
AcDbLine
 62
7
  6
CONTINUOUS
 10
45.3630422162
 20
66.7270460159
 11
45.3630422162
 21
62.1270460159
  0
LINE
  5
284
100
AcDbEntity
  8
0
100
AcDbLine
 62
7
  6
CONTINUOUS
 10
45.5129201498
 20
61.2770460159
 11
45.5129201498
 21
68.1770460159
  0
LINE
  5
285
100
AcDbEntity
  8
0
100
AcDbLine
 62
7
  6
CONTINUOUS
 10
45.5129201498
 20
96.262843417
 11
45.5129201498
 21
99.6770460159
  0
LINE
  5
286
100
AcDbEntity
  8
0
100
AcDbLine
 62
7
  6
CONTINUOUS
 10
45.6129201498
 20
68.6770460159
 11
45.6129201498
 21
85.7770460159
  0
LINE
  5
287
100
AcDbEntity
  8
0
100
AcDbLine
 62
7
  6
CONTINUOUS
 10
45.5129201498
 20
67.5770460159
 11
45.3630422162
 21
66.7270460159
  0
LINE
  5
288
100
AcDbEntity
  8
0
100
AcDbLine
 62
7
  6
CONTINUOUS
 10
44.7129201498
 20
61.2770460159
 11
44.8627980834
 21
62.1270460159
  0
LINE
  5
289
100
AcDbEntity
  8
0
100
AcDbLine
 62
7
  6
CONTINUOUS
 10
47.2173349796
 20
15.4136781828
 11
47.2630343762
 21
10.1770460159
  0
LINE
  5
28A
100
AcDbEntity
  8
0
100
AcDbLine
 62
7
  6
CONTINUOUS
 10
46.0129201498
 20
95.3911200192
 11
46.0129201498
 21
99.6770460159
  0
LINE
  5
28B
100
AcDbEntity
  8
0
100
AcDbLine
 62
7
  6
CONTINUOUS
 10
46.4579201498
 20
55.8670460159
 11
46.4579201498
 21
66.3770460159
  0
LINE
  5
28C
100
AcDbEntity
  8
0
100
AcDbLine
 62
7
  6
CONTINUOUS
 10
46.6302079748
 20
88.3870460159
 11
46.6302079748
 21
87.7770460159
  0
LINE
  5
28D
100
AcDbEntity
  8
0
100
AcDbLine
 62
7
  6
CONTINUOUS
 10
47.0129201498
 20
66.3770460159
 11
47.0129201498
 21
102.6770460159
  0
LINE
  5
28E
100
AcDbEntity
  8
0
100
AcDbLine
 62
7
  6
CONTINUOUS
 10
47.2629201498
 20
55.8670460159
 11
47.2629201498
 21
54.3670460159
  0
LINE
  5
28F
100
AcDbEntity
  8
0
100
AcDbLine
 62
7
  6
CONTINUOUS
 10
47.2629201498
 20
17.6670460159
 11
47.2629201498
 21
16.1670460159
  0
LINE
  5
290
100
AcDbEntity
  8
0
100
AcDbLine
 62
7
  6
CONTINUOUS
 10
48.0129201498
 20
16.1670460159
 11
48.0129201498
 21
38.8807570142
  0
LINE
  5
291
100
AcDbEntity
  8
0
100
AcDbLine
 62
7
  6
CONTINUOUS
 10
48.7129201498
 20
102.6770460159
 11
48.7129201498
 21
103.5729539841
  0
LINE
  5
292
100
AcDbEntity
  8
0
100
AcDbLine
 62
7
  6
CONTINUOUS
 10
48.7629201498
 20
102.6770460159
 11
48.7629201498
 21
55.8670460159
  0
LINE
  5
293
100
AcDbEntity
  8
0
100
AcDbLine
 62
7
  6
CONTINUOUS
 10
49.5129201498
 20
16.6770460159
 11
49.5129201498
 21
16.1670460159
  0
LINE
  5
294
100
AcDbEntity
  8
0
100
AcDbLine
 62
7
  6
CONTINUOUS
 10
65.5129201498
 20
61.2770460159
 11
64.7129201498
 21
61.2770460159
  0
LINE
  5
295
100
AcDbEntity
  8
0
100
AcDbLine
 62
7
  6
CONTINUOUS
 10
58.3129201498
 20
61.2770460159
 11
57.5129201498
 21
61.2770460159
  0
LINE
  5
296
100
AcDbEntity
  8
0
100
AcDbLine
 62
7
  6
CONTINUOUS
 10
45.5129201498
 20
61.2770460159
 11
44.7129201498
 21
61.2770460159
  0
LINE
  5
297
100
AcDbEntity
  8
0
100
AcDbLine
 62
7
  6
CONTINUOUS
 10
38.3129201498
 20
61.2770460159
 11
37.5129201498
 21
61.2770460159
  0
LINE
  5
298
100
AcDbEntity
  8
0
100
AcDbLine
 62
7
  6
CONTINUOUS
 10
25.5129201498
 20
61.2770460159
 11
24.7129201498
 21
61.2770460159
  0
LINE
  5
299
100
AcDbEntity
  8
0
100
AcDbLine
 62
7
  6
CONTINUOUS
 10
18.3129201498
 20
61.2770460159
 11
17.5129201498
 21
61.2770460159
  0
LINE
  5
29A
100
AcDbEntity
  8
0
100
AcDbLine
 62
7
  6
CONTINUOUS
 10
17.6627980834
 20
62.1270460159
 11
18.1630422162
 21
62.1270460159
  0
LINE
  5
29B
100
AcDbEntity
  8
0
100
AcDbLine
 62
7
  6
CONTINUOUS
 10
24.8627980834
 20
62.1270460159
 11
25.3630422162
 21
62.1270460159
  0
LINE
  5
29C
100
AcDbEntity
  8
0
100
AcDbLine
 62
7
  6
CONTINUOUS
 10
37.6627980834
 20
62.1270460159
 11
38.1630422162
 21
62.1270460159
  0
LINE
  5
29D
100
AcDbEntity
  8
0
100
AcDbLine
 62
7
  6
CONTINUOUS
 10
44.8627980834
 20
62.1270460159
 11
45.3630422162
 21
62.1270460159
  0
LINE
  5
29E
100
AcDbEntity
  8
0
100
AcDbLine
 62
7
  6
CONTINUOUS
 10
57.6627980834
 20
62.1270460159
 11
58.1630422162
 21
62.1270460159
  0
LINE
  5
29F
100
AcDbEntity
  8
0
100
AcDbLine
 62
7
  6
CONTINUOUS
 10
64.8627980834
 20
62.1270460159
 11
65.3630422162
 21
62.1270460159
  0
LINE
  5
2A0
100
AcDbEntity
  8
0
100
AcDbLine
 62
7
  6
CONTINUOUS
 10
45.3630422162
 20
62.1270460159
 11
45.5129201498
 21
61.2770460159
  0
LINE
  5
2A1
100
AcDbEntity
  8
0
100
AcDbLine
 62
7
  6
CONTINUOUS
 10
44.8627980834
 20
66.7270460159
 11
44.7129201498
 21
67.5770460159
  0
LINE
  5
2A2
100
AcDbEntity
  8
0
100
AcDbLine
 62
7
  6
CONTINUOUS
 10
50.2629201498
 20
102.6770460159
 11
50.2629201498
 21
55.8670460159
  0
LINE
  5
2A3
100
AcDbEntity
  8
0
100
AcDbLine
 62
7
  6
CONTINUOUS
 10
52.7629201498
 20
55.8670460159
 11
52.7629201498
 21
102.6770460159
  0
LINE
  5
2A4
100
AcDbEntity
  8
0
100
AcDbLine
 62
7
  6
CONTINUOUS
 10
52.7629201498
 20
66.2670460159
 11
50.2629201498
 21
66.2670460159
  0
LINE
  5
2A5
100
AcDbEntity
  8
0
100
AcDbLine
 62
7
  6
CONTINUOUS
 10
32.7629201498
 20
66.2670460159
 11
30.2629201498
 21
66.2670460159
  0
LINE
  5
2A6
100
AcDbEntity
  8
0
100
AcDbLine
 62
7
  6
CONTINUOUS
 10
64.7129201498
 20
66.3770460159
 11
58.3129201498
 21
66.3770460159
  0
LINE
  5
2A7
100
AcDbEntity
  8
0
100
AcDbLine
 62
7
  6
CONTINUOUS
 10
52.7629201498
 20
66.3770460159
 11
50.2629201498
 21
66.3770460159
  0
LINE
  5
2A8
100
AcDbEntity
  8
0
100
AcDbLine
 62
7
  6
CONTINUOUS
 10
44.7129201498
 20
66.3770460159
 11
38.3129201498
 21
66.3770460159
  0
LINE
  5
2A9
100
AcDbEntity
  8
0
100
AcDbLine
 62
7
  6
CONTINUOUS
 10
32.7629201498
 20
66.3770460159
 11
30.2629201498
 21
66.3770460159
  0
LINE
  5
2AA
100
AcDbEntity
  8
0
100
AcDbLine
 62
7
  6
CONTINUOUS
 10
24.7129201498
 20
66.3770460159
 11
18.3129201498
 21
66.3770460159
  0
LINE
  5
2AB
100
AcDbEntity
  8
0
100
AcDbLine
 62
7
  6
CONTINUOUS
 10
16.0129201498
 20
66.3770460159
 11
17.5129201498
 21
66.3770460159
  0
LINE
  5
2AC
100
AcDbEntity
  8
0
100
AcDbLine
 62
7
  6
CONTINUOUS
 10
25.5129201498
 20
66.3770460159
 11
27.0129201498
 21
66.3770460159
  0
LINE
  5
2AD
100
AcDbEntity
  8
0
100
AcDbLine
 62
7
  6
CONTINUOUS
 10
36.0129201498
 20
66.3770460159
 11
37.5129201498
 21
66.3770460159
  0
LINE
  5
2AE
100
AcDbEntity
  8
0
100
AcDbLine
 62
7
  6
CONTINUOUS
 10
45.5129201498
 20
66.3770460159
 11
47.0129201498
 21
66.3770460159
  0
LINE
  5
2AF
100
AcDbEntity
  8
0
100
AcDbLine
 62
7
  6
CONTINUOUS
 10
56.0129201498
 20
66.3770460159
 11
57.5129201498
 21
66.3770460159
  0
LINE
  5
2B0
100
AcDbEntity
  8
0
100
AcDbLine
 62
7
  6
CONTINUOUS
 10
65.5129201498
 20
66.3770460159
 11
67.0129201498
 21
66.3770460159
  0
LINE
  5
2B1
100
AcDbEntity
  8
0
100
AcDbLine
 62
7
  6
CONTINUOUS
 10
16.0129201498
 20
66.6770460159
 11
17.5129201498
 21
66.6770460159
  0
LINE
  5
2B2
100
AcDbEntity
  8
0
100
AcDbLine
 62
7
  6
CONTINUOUS
 10
18.3129201498
 20
66.6770460159
 11
24.7129201498
 21
66.6770460159
  0
LINE
  5
2B3
100
AcDbEntity
  8
0
100
AcDbLine
 62
7
  6
CONTINUOUS
 10
25.5129201498
 20
66.6770460159
 11
27.0129201498
 21
66.6770460159
  0
LINE
  5
2B4
100
AcDbEntity
  8
0
100
AcDbLine
 62
7
  6
CONTINUOUS
 10
36.0129201498
 20
66.6770460159
 11
37.5129201498
 21
66.6770460159
  0
LINE
  5
2B5
100
AcDbEntity
  8
0
100
AcDbLine
 62
7
  6
CONTINUOUS
 10
38.3129201498
 20
66.6770460159
 11
44.7129201498
 21
66.6770460159
  0
LINE
  5
2B6
100
AcDbEntity
  8
0
100
AcDbLine
 62
7
  6
CONTINUOUS
 10
45.5129201498
 20
66.6770460159
 11
47.0129201498
 21
66.6770460159
  0
LINE
  5
2B7
100
AcDbEntity
  8
0
100
AcDbLine
 62
7
  6
CONTINUOUS
 10
56.0129201498
 20
66.6770460159
 11
57.5129201498
 21
66.6770460159
  0
LINE
  5
2B8
100
AcDbEntity
  8
0
100
AcDbLine
 62
7
  6
CONTINUOUS
 10
58.3129201498
 20
66.6770460159
 11
64.7129201498
 21
66.6770460159
  0
LINE
  5
2B9
100
AcDbEntity
  8
0
100
AcDbLine
 62
7
  6
CONTINUOUS
 10
65.5129201498
 20
66.6770460159
 11
67.0129201498
 21
66.6770460159
  0
LINE
  5
2BA
100
AcDbEntity
  8
0
100
AcDbLine
 62
7
  6
CONTINUOUS
 10
65.3630422162
 20
66.7270460159
 11
64.8627980834
 21
66.7270460159
  0
LINE
  5
2BB
100
AcDbEntity
  8
0
100
AcDbLine
 62
7
  6
CONTINUOUS
 10
58.1630422162
 20
66.7270460159
 11
57.6627980834
 21
66.7270460159
  0
LINE
  5
2BC
100
AcDbEntity
  8
0
100
AcDbLine
 62
7
  6
CONTINUOUS
 10
45.3630422162
 20
66.7270460159
 11
44.8627980834
 21
66.7270460159
  0
LINE
  5
2BD
100
AcDbEntity
  8
0
100
AcDbLine
 62
7
  6
CONTINUOUS
 10
38.1630422162
 20
66.7270460159
 11
37.6627980834
 21
66.7270460159
  0
LINE
  5
2BE
100
AcDbEntity
  8
0
100
AcDbLine
 62
7
  6
CONTINUOUS
 10
25.3630422162
 20
66.7270460159
 11
24.8627980834
 21
66.7270460159
  0
LINE
  5
2BF
100
AcDbEntity
  8
0
100
AcDbLine
 62
7
  6
CONTINUOUS
 10
18.1630422162
 20
66.7270460159
 11
17.6627980834
 21
66.7270460159
  0
LINE
  5
2C0
100
AcDbEntity
  8
0
100
AcDbLine
 62
7
  6
CONTINUOUS
 10
17.5129201498
 20
67.5770460159
 11
18.3129201498
 21
67.5770460159
  0
LINE
  5
2C1
100
AcDbEntity
  8
0
100
AcDbLine
 62
7
  6
CONTINUOUS
 10
24.7129201498
 20
67.5770460159
 11
25.5129201498
 21
67.5770460159
  0
LINE
  5
2C2
100
AcDbEntity
  8
0
100
AcDbLine
 62
7
  6
CONTINUOUS
 10
37.5129201498
 20
67.5770460159
 11
38.3129201498
 21
67.5770460159
  0
LINE
  5
2C3
100
AcDbEntity
  8
0
100
AcDbLine
 62
7
  6
CONTINUOUS
 10
44.7129201498
 20
67.5770460159
 11
45.5129201498
 21
67.5770460159
  0
LINE
  5
2C4
100
AcDbEntity
  8
0
100
AcDbLine
 62
7
  6
CONTINUOUS
 10
57.5129201498
 20
67.5770460159
 11
58.3129201498
 21
67.5770460159
  0
LINE
  5
2C5
100
AcDbEntity
  8
0
100
AcDbLine
 62
7
  6
CONTINUOUS
 10
64.7129201498
 20
67.5770460159
 11
65.5129201498
 21
67.5770460159
  0
LINE
  5
2C6
100
AcDbEntity
  8
0
100
AcDbLine
 62
7
  6
CONTINUOUS
 10
64.2129201498
 20
68.6770460159
 11
58.8129201498
 21
68.6770460159
  0
LINE
  5
2C7
100
AcDbEntity
  8
0
100
AcDbLine
 62
7
  6
CONTINUOUS
 10
44.2129201498
 20
68.6770460159
 11
38.8129201498
 21
68.6770460159
  0
LINE
  5
2C8
100
AcDbEntity
  8
0
100
AcDbLine
 62
7
  6
CONTINUOUS
 10
24.2129201498
 20
68.6770460159
 11
18.8129201498
 21
68.6770460159
  0
LINE
  5
2C9
100
AcDbEntity
  8
0
100
AcDbLine
 62
7
  6
CONTINUOUS
 10
17.4129201498
 20
68.6770460159
 11
17.6755175968
 21
68.6770460159
  0
LINE
  5
2CA
100
AcDbEntity
  8
0
100
AcDbLine
 62
7
  6
CONTINUOUS
 10
25.3503065878
 20
68.6770460159
 11
25.6129201498
 21
68.6770460159
  0
LINE
  5
2CB
100
AcDbEntity
  8
0
100
AcDbLine
 62
7
  6
CONTINUOUS
 10
37.4129201498
 20
68.6770460159
 11
37.6755175968
 21
68.6770460159
  0
LINE
  5
2CC
100
AcDbEntity
  8
0
100
AcDbLine
 62
7
  6
CONTINUOUS
 10
45.3503065878
 20
68.6770460159
 11
45.6129201498
 21
68.6770460159
  0
LINE
  5
2CD
100
AcDbEntity
  8
0
100
AcDbLine
 62
7
  6
CONTINUOUS
 10
57.4129201498
 20
68.6770460159
 11
57.6755175968
 21
68.6770460159
  0
LINE
  5
2CE
100
AcDbEntity
  8
0
100
AcDbLine
 62
7
  6
CONTINUOUS
 10
65.3503065878
 20
68.6770460159
 11
65.6129201498
 21
68.6770460159
  0
LINE
  5
2CF
100
AcDbEntity
  8
0
100
AcDbLine
 62
7
  6
CONTINUOUS
 10
54.2629201498
 20
55.8670460159
 11
54.2629201498
 21
102.6770460159
  0
LINE
  5
2D0
100
AcDbEntity
  8
0
100
AcDbLine
 62
7
  6
CONTINUOUS
 10
54.3129201498
 20
102.6770460159
 11
54.3129201498
 21
103.5729539841
  0
LINE
  5
2D1
100
AcDbEntity
  8
0
100
AcDbLine
 62
7
  6
CONTINUOUS
 10
55.5129201498
 20
16.6770460159
 11
55.5129201498
 21
16.1670460159
  0
LINE
  5
2D2
100
AcDbEntity
  8
0
100
AcDbLine
 62
7
  6
CONTINUOUS
 10
56.0129201498
 20
102.6770460159
 11
56.0129201498
 21
66.3770460159
  0
LINE
  5
2D3
100
AcDbEntity
  8
0
100
AcDbLine
 62
7
  6
CONTINUOUS
 10
56.3956323247
 20
88.3870461017
 11
56.3956323247
 21
87.7770460159
  0
LINE
  5
2D4
100
AcDbEntity
  8
0
100
AcDbLine
 62
7
  6
CONTINUOUS
 10
56.5679201498
 20
66.3770460159
 11
56.5679201498
 21
55.8670460159
  0
LINE
  5
2D5
100
AcDbEntity
  8
0
100
AcDbLine
 62
7
  6
CONTINUOUS
 10
57.0129201498
 20
99.6770460159
 11
57.0129201498
 21
95.3911200192
  0
LINE
  5
2D6
100
AcDbEntity
  8
0
100
AcDbLine
 62
7
  6
CONTINUOUS
 10
57.0129201498
 20
16.1670460159
 11
57.0129201498
 21
38.8807570142
  0
LINE
  5
2D7
100
AcDbEntity
  8
0
100
AcDbLine
 62
7
  6
CONTINUOUS
 10
58.3129201498
 20
67.5770460159
 11
58.1630422162
 21
66.7270460159
  0
LINE
  5
2D8
100
AcDbEntity
  8
0
100
AcDbLine
 62
7
  6
CONTINUOUS
 10
57.5129201498
 20
61.2770460159
 11
57.6627980834
 21
62.1270460159
  0
LINE
  5
2D9
100
AcDbEntity
  8
0
100
AcDbLine
 62
7
  6
CONTINUOUS
 10
17.4129201498
 20
69.4770460159
 11
25.6129201498
 21
69.4770460159
  0
LINE
  5
2DA
100
AcDbEntity
  8
0
100
AcDbLine
 62
7
  6
CONTINUOUS
 10
37.4129201498
 20
69.4770460159
 11
45.6129201498
 21
69.4770460159
  0
LINE
  5
2DB
100
AcDbEntity
  8
0
100
AcDbLine
 62
7
  6
CONTINUOUS
 10
57.4129201498
 20
69.4770460159
 11
65.6129201498
 21
69.4770460159
  0
LINE
  5
2DC
100
AcDbEntity
  8
0
100
AcDbLine
 62
7
  6
CONTINUOUS
 10
17.4129201498
 20
71.7270460159
 11
25.6129201498
 21
71.7270460159
  0
LINE
  5
2DD
100
AcDbEntity
  8
0
100
AcDbLine
 62
7
  6
CONTINUOUS
 10
37.4129201498
 20
71.7270460159
 11
45.6129201498
 21
71.7270460159
  0
LINE
  5
2DE
100
AcDbEntity
  8
0
100
AcDbLine
 62
7
  6
CONTINUOUS
 10
57.4129201498
 20
71.7270460159
 11
65.6129201498
 21
71.7270460159
  0
LINE
  5
2DF
100
AcDbEntity
  8
0
100
AcDbLine
 62
7
  6
CONTINUOUS
 10
57.4129201498
 20
85.7770460159
 11
57.4129201498
 21
68.6770460159
  0
LINE
  5
2E0
100
AcDbEntity
  8
0
100
AcDbLine
 62
7
  6
CONTINUOUS
 10
57.5129201498
 20
99.6770460159
 11
57.5129201498
 21
96.262843417
  0
LINE
  5
2E1
100
AcDbEntity
  8
0
100
AcDbLine
 62
7
  6
CONTINUOUS
 10
57.5129201498
 20
16.1670460159
 11
57.5129201498
 21
17.6670460159
  0
LINE
  5
2E2
100
AcDbEntity
  8
0
100
AcDbLine
 62
7
  6
CONTINUOUS
 10
57.5129201498
 20
54.3670460159
 11
57.5129201498
 21
55.8670460159
  0
LINE
  5
2E3
100
AcDbEntity
  8
0
100
AcDbLine
 62
7
  6
CONTINUOUS
 10
57.5129201498
 20
61.2770460159
 11
57.5129201498
 21
68.1770460159
  0
LINE
  5
2E4
100
AcDbEntity
  8
0
100
AcDbLine
 62
7
  6
CONTINUOUS
 10
57.6627980834
 20
62.1270460159
 11
57.6627980834
 21
66.7270460159
  0
LINE
  5
2E5
100
AcDbEntity
  8
0
100
AcDbLine
 62
7
  6
CONTINUOUS
 10
57.7629201498
 20
68.943007633
 11
57.7629201498
 21
71.7270460159
  0
LINE
  5
2E6
100
AcDbEntity
  8
0
100
AcDbLine
 62
7
  6
CONTINUOUS
 10
58.1630422162
 20
66.7270460159
 11
58.1630422162
 21
62.1270460159
  0
LINE
  5
2E7
100
AcDbEntity
  8
0
100
AcDbLine
 62
7
  6
CONTINUOUS
 10
58.3129201498
 20
61.2770460159
 11
58.3129201498
 21
68.1770460159
  0
LINE
  5
2E8
100
AcDbEntity
  8
0
100
AcDbLine
 62
7
  6
CONTINUOUS
 10
58.3629201498
 20
69.4770460159
 11
58.3629201498
 21
69.3306938101
  0
LINE
  5
2E9
100
AcDbEntity
  8
0
100
AcDbLine
 62
7
  6
CONTINUOUS
 10
58.3673610554
 20
101.1770460159
 11
58.3673610554
 21
99.6770460159
  0
LINE
  5
2EA
100
AcDbEntity
  8
0
100
AcDbLine
 62
7
  6
CONTINUOUS
 10
58.7964307611
 20
99.6770460159
 11
58.7964307611
 21
101.1770460159
  0
LINE
  5
2EB
100
AcDbEntity
  8
0
100
AcDbLine
 62
7
  6
CONTINUOUS
 10
59.2629201498
 20
71.7270460159
 11
59.2629201498
 21
69.4770460159
  0
LINE
  5
2EC
100
AcDbEntity
  8
0
100
AcDbLine
 62
7
  6
CONTINUOUS
 10
58.1630422162
 20
62.1270460159
 11
58.3129201498
 21
61.2770460159
  0
LINE
  5
2ED
100
AcDbEntity
  8
0
100
AcDbLine
 62
7
  6
CONTINUOUS
 10
57.6627980834
 20
66.7270460159
 11
57.5129201498
 21
67.5770460159
  0
LINE
  5
2EE
100
AcDbEntity
  8
0
100
AcDbLine
 62
7
  6
CONTINUOUS
 10
63.7629201498
 20
69.4770460159
 11
63.7629201498
 21
71.7270460159
  0
LINE
  5
2EF
100
AcDbEntity
  8
0
100
AcDbLine
 62
7
  6
CONTINUOUS
 10
64.6629201498
 20
69.3307083135
 11
64.6629201498
 21
69.4770460159
  0
LINE
  5
2F0
100
AcDbEntity
  8
0
100
AcDbLine
 62
7
  6
CONTINUOUS
 10
64.7129201498
 20
68.1770460159
 11
64.7129201498
 21
61.2770460159
  0
LINE
  5
2F1
100
AcDbEntity
  8
0
100
AcDbLine
 62
7
  6
CONTINUOUS
 10
65.5129201498
 20
67.5770460159
 11
65.3630422162
 21
66.7270460159
  0
LINE
  5
2F2
100
AcDbEntity
  8
0
100
AcDbLine
 62
7
  6
CONTINUOUS
 10
64.7129201498
 20
61.2770460159
 11
64.8627980834
 21
62.1270460159
  0
LINE
  5
2F3
100
AcDbEntity
  8
0
100
AcDbLine
 62
7
  6
CONTINUOUS
 10
68.2631390922
 20
10.1770460159
 11
68.2174396956
 21
15.4136781828
  0
LINE
  5
2F4
100
AcDbEntity
  8
0
100
AcDbLine
 62
7
  6
CONTINUOUS
 10
64.8627980834
 20
62.1270460159
 11
64.8627980834
 21
66.7270460159
  0
LINE
  5
2F5
100
AcDbEntity
  8
0
100
AcDbLine
 62
7
  6
CONTINUOUS
 10
65.2629201498
 20
71.7270460159
 11
65.2629201498
 21
68.9430241754
  0
LINE
  5
2F6
100
AcDbEntity
  8
0
100
AcDbLine
 62
7
  6
CONTINUOUS
 10
65.3630422162
 20
66.7270460159
 11
65.3630422162
 21
62.1270460159
  0
LINE
  5
2F7
100
AcDbEntity
  8
0
100
AcDbLine
 62
7
  6
CONTINUOUS
 10
65.5129201498
 20
61.2770460159
 11
65.5129201498
 21
68.1770460159
  0
LINE
  5
2F8
100
AcDbEntity
  8
0
100
AcDbLine
 62
7
  6
CONTINUOUS
 10
65.6129201498
 20
68.6770460159
 11
65.6129201498
 21
85.7770460159
  0
LINE
  5
2F9
100
AcDbEntity
  8
0
100
AcDbLine
 62
7
  6
CONTINUOUS
 10
66.4579201498
 20
55.8670460159
 11
66.4579201498
 21
66.3770460159
  0
LINE
  5
2FA
100
AcDbEntity
  8
0
100
AcDbLine
 62
7
  6
CONTINUOUS
 10
66.6302079748
 20
88.3870460159
 11
66.6302079748
 21
87.7770460159
  0
LINE
  5
2FB
100
AcDbEntity
  8
0
100
AcDbLine
 62
7
  6
CONTINUOUS
 10
67.0129201498
 20
66.3770460159
 11
67.0129201498
 21
102.6770460159
  0
LINE
  5
2FC
100
AcDbEntity
  8
0
100
AcDbLine
 62
7
  6
CONTINUOUS
 10
68.2174396956
 20
16.1670460159
 11
68.2174396956
 21
15.4136781828
  0
LINE
  5
2FD
100
AcDbEntity
  8
0
100
AcDbLine
 62
7
  6
CONTINUOUS
 10
65.3630422162
 20
62.1270460159
 11
65.5129201498
 21
61.2770460159
  0
LINE
  5
2FE
100
AcDbEntity
  8
0
100
AcDbLine
 62
7
  6
CONTINUOUS
 10
64.8627980834
 20
66.7270460159
 11
64.7129201498
 21
67.5770460159
  0
LINE
  5
2FF
100
AcDbEntity
  8
0
100
AcDbLine
 62
7
  6
CONTINUOUS
 10
71.5929201498
 20
16.1670460159
 11
70.2529201498
 21
55.8670460159
  0
LINE
  5
300
100
AcDbEntity
  8
0
100
AcDbLine
 62
7
  6
CONTINUOUS
 10
68.7526917273
 20
55.8670460159
 11
67.935620138
 21
102.6770460159
  0
LINE
  5
301
100
AcDbEntity
  8
0
100
AcDbLine
 62
7
  6
CONTINUOUS
 10
69.4358485605
 20
102.6770460159
 11
70.2529201498
 21
55.8670460159
  0
LINE
  5
302
100
AcDbEntity
  8
0
100
AcDbLine
 62
7
  6
CONTINUOUS
 10
65.6129201498
 20
85.7770460159
 11
57.4129201498
 21
85.7770460159
  0
LINE
  5
303
100
AcDbEntity
  8
0
100
AcDbLine
 62
7
  6
CONTINUOUS
 10
45.6129201498
 20
85.7770460159
 11
37.4129201498
 21
85.7770460159
  0
LINE
  5
304
100
AcDbEntity
  8
0
100
AcDbLine
 62
7
  6
CONTINUOUS
 10
25.6129201498
 20
85.7770460159
 11
17.4129201498
 21
85.7770460159
  0
LINE
  5
305
100
AcDbEntity
  8
0
100
AcDbLine
 62
7
  6
CONTINUOUS
 10
73.2072496917
 20
16.1670460159
 11
73.1876990815
 21
17.6539562126
  0
LINE
  5
306
100
AcDbEntity
  8
0
100
AcDbLine
 62
7
  6
CONTINUOUS
 10
73.1876990815
 20
17.6539562126
 11
72.4457138176
 21
102.6770460159
  0
LINE
  5
307
100
AcDbEntity
  8
0
100
AcDbLine
 62
7
  6
CONTINUOUS
 10
73.2056848791
 20
102.6770460159
 11
74.0129201498
 21
10.1770460159
  0
LINE
  5
308
100
AcDbEntity
  8
0
100
AcDbLine
 62
7
  6
CONTINUOUS
 10
73.2629201498
 20
102.9770460159
 11
73.2629201498
 21
102.6540156166
  0
LINE
  5
309
100
AcDbEntity
  8
0
100
AcDbLine
 62
7
  6
CONTINUOUS
 10
73.6129201498
 20
99.6770460159
 11
73.6129201498
 21
102.1770460159
  0
LINE
  5
30A
100
AcDbEntity
  8
0
100
AcDbLine
 62
7
  6
CONTINUOUS
 10
73.7629201498
 20
92.0270460159
 11
73.7629201498
 21
82.0270460159
  0
LINE
  5
30B
100
AcDbEntity
  8
0
100
AcDbLine
 62
7
  6
CONTINUOUS
 10
73.7629201498
 20
75.1270460159
 11
73.7629201498
 21
74.306796806
  0
LINE
  5
30C
100
AcDbEntity
  8
0
100
AcDbLine
 62
7
  6
CONTINUOUS
 10
67.0129201498
 20
87.7770460159
 11
56.0129201498
 21
87.7770460159
  0
LINE
  5
30D
100
AcDbEntity
  8
0
100
AcDbLine
 62
7
  6
CONTINUOUS
 10
47.0129201498
 20
87.7770460159
 11
36.0129201498
 21
87.7770460159
  0
LINE
  5
30E
100
AcDbEntity
  8
0
100
AcDbLine
 62
7
  6
CONTINUOUS
 10
27.0129201498
 20
87.7770460159
 11
16.0129201498
 21
87.7770460159
  0
LINE
  5
30F
100
AcDbEntity
  8
0
100
AcDbLine
 62
7
  6
CONTINUOUS
 10
16.3956323247
 20
88.3870460159
 11
26.6302079748
 21
88.3870460159
  0
LINE
  5
310
100
AcDbEntity
  8
0
100
AcDbLine
 62
7
  6
CONTINUOUS
 10
36.3956323247
 20
88.3870460159
 11
46.6302079748
 21
88.3870460159
  0
LINE
  5
311
100
AcDbEntity
  8
0
100
AcDbLine
 62
7
  6
CONTINUOUS
 10
56.3956323247
 20
88.3870460159
 11
66.6302079748
 21
88.3870460159
  0
LINE
  5
312
100
AcDbEntity
  8
0
100
AcDbLine
 62
7
  6
CONTINUOUS
 10
57.0129201498
 20
95.3911200192
 11
56.0129201498
 21
95.3911200192
  0
LINE
  5
313
100
AcDbEntity
  8
0
100
AcDbLine
 62
7
  6
CONTINUOUS
 10
47.0129201498
 20
95.3911200192
 11
46.0129201498
 21
95.3911200192
  0
LINE
  5
314
100
AcDbEntity
  8
0
100
AcDbLine
 62
7
  6
CONTINUOUS
 10
73.6129201498
 20
99.6770460159
 11
73.2318654825
 21
99.6770460159
  0
LINE
  5
315
100
AcDbEntity
  8
0
100
AcDbLine
 62
7
  6
CONTINUOUS
 10
9.793974817
 20
99.6770460159
 11
9.4129201498
 21
99.6770460159
  0
LINE
  5
316
100
AcDbEntity
  8
0
100
AcDbLine
 62
7
  6
CONTINUOUS
 10
16.0129201498
 20
99.6770460159
 11
27.0129201498
 21
99.6770460159
  0
LINE
  5
317
100
AcDbEntity
  8
0
100
AcDbLine
 62
7
  6
CONTINUOUS
 10
36.0129201498
 20
99.6770460159
 11
47.0129201498
 21
99.6770460159
  0
LINE
  5
318
100
AcDbEntity
  8
0
100
AcDbLine
 62
7
  6
CONTINUOUS
 10
50.2629201498
 20
99.6770460159
 11
52.7629201498
 21
99.6770460159
  0
LINE
  5
319
100
AcDbEntity
  8
0
100
AcDbLine
 62
7
  6
CONTINUOUS
 10
56.0129201498
 20
99.6770460159
 11
67.0129201498
 21
99.6770460159
  0
LINE
  5
31A
100
AcDbEntity
  8
0
100
AcDbLine
 62
7
  6
CONTINUOUS
 10
44.2294095385
 20
101.1770460159
 11
47.0129201498
 21
101.1770460159
  0
LINE
  5
31B
100
AcDbEntity
  8
0
100
AcDbLine
 62
7
  6
CONTINUOUS
 10
50.2629201498
 20
101.1770460159
 11
52.7629201498
 21
101.1770460159
  0
LINE
  5
31C
100
AcDbEntity
  8
0
100
AcDbLine
 62
7
  6
CONTINUOUS
 10
56.0129201498
 20
101.1770460159
 11
58.7964307611
 21
101.1770460159
  0
LINE
  5
31D
100
AcDbEntity
  8
0
100
AcDbLine
 62
7
  6
CONTINUOUS
 10
52.7629201498
 20
101.6770460159
 11
52.0397028374
 21
101.6770460159
  0
LINE
  5
31E
100
AcDbEntity
  8
0
100
AcDbLine
 62
7
  6
CONTINUOUS
 10
50.9861374621
 20
101.6770460159
 11
50.2629201498
 21
101.6770460159
  0
LINE
  5
31F
100
AcDbEntity
  8
0
100
AcDbLine
 62
7
  6
CONTINUOUS
 10
45.0955760602
 20
101.6770460159
 11
47.0129201498
 21
101.6770460159
  0
LINE
  5
320
100
AcDbEntity
  8
0
100
AcDbLine
 62
7
  6
CONTINUOUS
 10
56.0129201498
 20
101.6770460159
 11
57.9302642393
 21
101.6770460159
  0
LINE
  5
321
100
AcDbEntity
  8
0
100
AcDbLine
 62
7
  6
CONTINUOUS
 10
9.4129201498
 20
102.1770460159
 11
9.8249131487
 21
102.1770460159
  0
LINE
  5
322
100
AcDbEntity
  8
0
100
AcDbLine
 62
7
  6
CONTINUOUS
 10
16.0129201498
 20
102.1770460159
 11
27.0129201498
 21
102.1770460159
  0
LINE
  5
323
100
AcDbEntity
  8
0
100
AcDbLine
 62
7
  6
CONTINUOUS
 10
36.0129201498
 20
102.1770460159
 11
47.0129201498
 21
102.1770460159
  0
LINE
  5
324
100
AcDbEntity
  8
0
100
AcDbLine
 62
7
  6
CONTINUOUS
 10
56.0129201498
 20
102.1770460159
 11
67.0129201498
 21
102.1770460159
  0
LINE
  5
325
100
AcDbEntity
  8
0
100
AcDbLine
 62
7
  6
CONTINUOUS
 10
73.2140231123
 20
102.1770460159
 11
73.6129201498
 21
102.1770460159
  0
LINE
  5
326
100
AcDbEntity
  8
0
100
AcDbLine
 62
7
  6
CONTINUOUS
 10
9.8201554204
 20
102.6770460159
 11
50.2629201498
 21
102.6770460159
  0
LINE
  5
327
100
AcDbEntity
  8
0
100
AcDbLine
 62
7
  6
CONTINUOUS
 10
52.7629201498
 20
102.6770460159
 11
73.2056859727
 21
102.6770460159
  0
LINE
  5
328
100
AcDbEntity
  8
0
100
AcDbLine
 62
7
  6
CONTINUOUS
 10
73.2629201498
 20
102.9770460159
 11
54.3129201498
 21
102.9770460159
  0
LINE
  5
329
100
AcDbEntity
  8
0
100
AcDbLine
 62
7
  6
CONTINUOUS
 10
48.7129201498
 20
102.9770460159
 11
9.7629201498
 21
102.9770460159
  0
LINE
  5
32A
100
AcDbEntity
  8
0
100
AcDbLine
 62
7
  6
CONTINUOUS
 10
28.7129201498
 20
103.5729539841
 11
34.3129202388
 21
103.5729539841
  0
LINE
  5
32B
100
AcDbEntity
  8
0
100
AcDbLine
 62
7
  6
CONTINUOUS
 10
48.7129201498
 20
103.5729539841
 11
54.3129202388
 21
103.5729539841
  0
ARC
  5
32C
100
AcDbEntity
  8
0
100
AcDbCircle
 62
7
  6
CONTINUOUS
 10
9.8185906079
 20
15.4070460159
 40
0.76
100
AcDbArc
 50
90.0
 51
179.5
  0
ARC
  5
32D
100
AcDbEntity
  8
0
100
AcDbCircle
 62
7
  6
CONTINUOUS
 10
38.0485327287
 20
15.4070460159
 40
0.76
100
AcDbArc
 50
359.5
 51
90.0
  0
ARC
  5
32E
100
AcDbEntity
  8
0
100
AcDbCircle
 62
7
  6
CONTINUOUS
 10
11.2629201498
 20
92.0270460159
 40
2.0
100
AcDbArc
 50
143.6640284163
 51
180.0
  0
ARC
  5
32F
100
AcDbEntity
  8
0
100
AcDbCircle
 62
7
  6
CONTINUOUS
 10
18.8129201498
 20
68.1770460159
 40
1.3
100
AcDbArc
 50
90.0
 51
180.0
  0
ARC
  5
330
100
AcDbEntity
  8
0
100
AcDbCircle
 62
7
  6
CONTINUOUS
 10
24.2129201498
 20
68.1770460159
 40
1.3
100
AcDbArc
 50
0.0
 51
90.0
  0
ARC
  5
331
100
AcDbEntity
  8
0
100
AcDbCircle
 62
7
  6
CONTINUOUS
 10
38.8129201498
 20
68.1770460159
 40
1.3
100
AcDbArc
 50
90.0
 51
180.0
  0
ARC
  5
332
100
AcDbEntity
  8
0
100
AcDbCircle
 62
7
  6
CONTINUOUS
 10
9.9629201498
 20
74.306796806
 40
0.7
100
AcDbArc
 50
180.0
 51
235.3834568359
  0
ARC
  5
333
100
AcDbEntity
  8
0
100
AcDbCircle
 62
7
  6
CONTINUOUS
 10
9.9629201498
 20
75.1270460159
 40
0.7
100
AcDbArc
 50
124.5196547803
 51
180.0
  0
ARC
  5
334
100
AcDbEntity
  8
0
100
AcDbCircle
 62
7
  6
CONTINUOUS
 10
9.9629201498
 20
82.0270460159
 40
0.7
100
AcDbArc
 50
180.0
 51
240.0850612179
  0
ARC
  5
335
100
AcDbEntity
  8
0
100
AcDbCircle
 62
7
  6
CONTINUOUS
 10
18.8129201498
 20
68.1770460159
 40
0.5
100
AcDbArc
 50
90.0
 51
180.0
  0
ARC
  5
336
100
AcDbEntity
  8
0
100
AcDbCircle
 62
7
  6
CONTINUOUS
 10
24.2129201498
 20
68.1770460159
 40
0.5
100
AcDbArc
 50
0.0
 51
90.0
  0
ARC
  5
337
100
AcDbEntity
  8
0
100
AcDbCircle
 62
7
  6
CONTINUOUS
 10
38.8129201498
 20
68.1770460159
 40
0.5
100
AcDbArc
 50
90.0
 51
180.0
  0
ARC
  5
338
100
AcDbEntity
  8
0
100
AcDbCircle
 62
7
  6
CONTINUOUS
 10
9.9129201498
 20
102.1770460159
 40
0.5
100
AcDbArc
 50
99.9826074474
 51
180.0
  0
ARC
  5
339
100
AcDbEntity
  8
INTFCLR_48444
100
AcDbCircle
 62
7
  6
CONTINUOUS
 10
29.0036201498
 20
42.3370460159
 40
0.5
100
AcDbArc
 50
87.6019769481
 51
90.0
  0
ARC
  5
33A
100
AcDbEntity
  8
INTFCLR_48444
100
AcDbCircle
 62
7
  6
CONTINUOUS
 10
32.7722201498
 20
42.3370460159
 40
0.5
100
AcDbArc
 50
90.0
 51
92.3980230519
  0
ARC
  5
33B
100
AcDbEntity
  8
0
100
AcDbCircle
 62
7
  6
CONTINUOUS
 10
73.7571087508
 20
-41.2773000628
 40
58.9340071056
100
AcDbArc
 50
90.0314282677
 51
90.5535900252
  0
ARC
  5
33C
100
AcDbEntity
  8
0
100
AcDbCircle
 62
7
  6
CONTINUOUS
 10
44.9773075708
 20
15.4070460159
 40
0.76
100
AcDbArc
 50
90.0
 51
180.5
  0
ARC
  5
33D
100
AcDbEntity
  8
0
100
AcDbCircle
 62
7
  6
CONTINUOUS
 10
73.2072496917
 20
15.4070460159
 40
0.76
100
AcDbArc
 50
0.5
 51
90.0
  0
ARC
  5
33E
100
AcDbEntity
  8
0
100
AcDbCircle
 62
7
  6
CONTINUOUS
 10
71.7629201498
 20
92.0270460159
 40
2.0
100
AcDbArc
 50
0.0
 51
36.3343831999
  0
ARC
  5
33F
100
AcDbEntity
  8
0
100
AcDbCircle
 62
7
  6
CONTINUOUS
 10
64.2129201498
 20
68.1770460159
 40
1.3
100
AcDbArc
 50
0.0
 51
90.0
  0
ARC
  5
340
100
AcDbEntity
  8
0
100
AcDbCircle
 62
7
  6
CONTINUOUS
 10
58.8129201498
 20
68.1770460159
 40
1.3
100
AcDbArc
 50
90.0
 51
180.0
  0
ARC
  5
341
100
AcDbEntity
  8
0
100
AcDbCircle
 62
7
  6
CONTINUOUS
 10
44.2129201498
 20
68.1770460159
 40
1.3
100
AcDbArc
 50
0.0
 51
90.0
  0
ARC
  5
342
100
AcDbEntity
  8
0
100
AcDbCircle
 62
7
  6
CONTINUOUS
 10
73.0629201498
 20
82.0270460159
 40
0.7
100
AcDbArc
 50
299.9149387821
 51
360.0
  0
ARC
  5
343
100
AcDbEntity
  8
0
100
AcDbCircle
 62
7
  6
CONTINUOUS
 10
73.0629201498
 20
74.306796806
 40
0.7
100
AcDbArc
 50
304.6165431641
 51
360.0
  0
ARC
  5
344
100
AcDbEntity
  8
0
100
AcDbCircle
 62
7
  6
CONTINUOUS
 10
73.0629201498
 20
75.1270460159
 40
0.7
100
AcDbArc
 50
0.0
 51
55.4803452197
  0
ARC
  5
345
100
AcDbEntity
  8
0
100
AcDbCircle
 62
7
  6
CONTINUOUS
 10
64.2129201498
 20
68.1770460159
 40
0.5
100
AcDbArc
 50
0.0
 51
90.0
  0
ARC
  5
346
100
AcDbEntity
  8
0
100
AcDbCircle
 62
7
  6
CONTINUOUS
 10
58.8129201498
 20
68.1770460159
 40
0.5
100
AcDbArc
 50
90.0
 51
180.0
  0
ARC
  5
347
100
AcDbEntity
  8
0
100
AcDbCircle
 62
7
  6
CONTINUOUS
 10
44.2129201498
 20
68.1770460159
 40
0.5
100
AcDbArc
 50
0.0
 51
90.0
  0
ARC
  5
348
100
AcDbEntity
  8
0
100
AcDbCircle
 62
7
  6
CONTINUOUS
 10
73.1129201498
 20
102.1770460159
 40
0.5
100
AcDbArc
 50
0.0
 51
78.568590202
  0
ARC
  5
349
100
AcDbEntity
  8
INTFCLR_48444
100
AcDbCircle
 62
7
  6
CONTINUOUS
 10
50.2536201498
 20
42.3370460159
 40
0.5
100
AcDbArc
 50
83.5204091668
 51
90.0
  0
ARC
  5
34A
100
AcDbEntity
  8
INTFCLR_48444
100
AcDbCircle
 62
7
  6
CONTINUOUS
 10
54.0222201498
 20
42.3370460159
 40
0.5
100
AcDbArc
 50
90.0
 51
96.4795908332
  0
SPLINE
  5
34B
100
AcDbEntity
  8
0
100
AcDbSpline
 62
7
  6
CONTINUOUS
 70
0
 71
3
 72
9
 73
5
 74
0
 42
0.0000001
 43
0.0000001
 44
0.0000000001
 40
0.0
 40
0.0
 40
0.0
 40
0.0
 40
0.5093475952
 40
1.0
 40
1.0
 40
1.0
 40
1.0
 10
44.6584792441
 20
101.1770460159
 30
0.0
 10
44.6584792441
 20
101.2417495453
 30
0.0
 10
44.679653538
 20
101.3697420285
 30
0.0
 10
44.7435607443
 20
101.4832992749
 30
0.0
 10
44.7841508513
 20
101.5305994065
 30
0.0
  0
SPLINE
  5
34C
100
AcDbEntity
  8
0
100
AcDbSpline
 62
7
  6
CONTINUOUS
 70
0
 71
3
 72
9
 73
5
 74
0
 42
0.0000001
 43
0.0000001
 44
0.0000000001
 40
0.0
 40
0.0
 40
0.0
 40
0.0
 40
0.5111734278
 40
1.0
 40
1.0
 40
1.0
 40
1.0
 10
44.7841508513
 20
101.5305994065
 30
0.0
 10
44.8199977762
 20
101.5723722518
 30
0.0
 10
44.9054869212
 20
101.6426522821
 30
0.0
 10
45.0125826584
 20
101.6731582822
 30
0.0
 10
45.0651238242
 20
101.6763626537
 30
0.0
  0
SPLINE
  5
34D
100
AcDbEntity
  8
0
100
AcDbSpline
 62
7
  6
CONTINUOUS
 70
0
 71
3
 72
11
 73
7
 74
0
 42
0.0000001
 43
0.0000001
 44
0.0000000001
 40
0.0
 40
0.0
 40
0.0
 40
0.0
 40
0.2500606078
 40
0.5002010345
 40
0.750217403
 40
1.0
 40
1.0
 40
1.0
 40
1.0
 10
45.0651238242
 20
101.6763626537
 30
0.0
 10
44.9822120064
 20
101.6726389485
 30
0.0
 10
44.8169816505
 20
101.6344389058
 30
0.0
 10
44.5978935374
 20
101.5119793647
 30
0.0
 10
44.4058679899
 20
101.3524535078
 30
0.0
 10
44.2880308985
 20
101.2356673759
 30
0.0
 10
44.2294095385
 20
101.1770460159
 30
0.0
  0
SPLINE
  5
34E
100
AcDbEntity
  8
0
100
AcDbSpline
 62
7
  6
CONTINUOUS
 70
0
 71
3
 72
9
 73
5
 74
0
 42
0.0000001
 43
0.0000001
 44
0.0000000001
 40
0.0
 40
0.0
 40
0.0
 40
0.0
 40
0.7479805399
 40
1.0
 40
1.0
 40
1.0
 40
1.0
 10
57.9607164754
 20
101.6763626537
 30
0.0
 10
57.9869337378
 20
101.6747637198
 30
0.0
 10
58.0219038613
 20
101.6688021049
 30
0.0
 10
58.0553820725
 20
101.6581727812
 30
0.0
 10
58.0637196251
 20
101.655205364
 30
0.0
  0
SPLINE
  5
34F
100
AcDbEntity
  8
0
100
AcDbSpline
 62
7
  6
CONTINUOUS
 70
0
 71
3
 72
9
 73
5
 74
0
 42
0.0000001
 43
0.0000001
 44
0.0000000001
 40
0.0
 40
0.0
 40
0.0
 40
0.0
 40
0.4912878425
 40
1.0
 40
1.0
 40
1.0
 40
1.0
 10
58.0637196251
 20
101.655205364
 30
0.0
 10
58.0975233968
 20
101.6431742687
 30
0.0
 10
58.1631230133
 20
101.6088193107
 30
0.0
 10
58.2174940637
 20
101.5587945741
 30
0.0
 10
58.2416894483
 20
101.5305994065
 30
0.0
  0
SPLINE
  5
350
100
AcDbEntity
  8
0
100
AcDbSpline
 62
7
  6
CONTINUOUS
 70
0
 71
3
 72
9
 73
5
 74
0
 42
0.0000001
 43
0.0000001
 44
0.0000000001
 40
0.0
 40
0.0
 40
0.0
 40
0.0
 40
0.4906524048
 40
1.0
 40
1.0
 40
1.0
 40
1.0
 10
58.2416894483
 20
101.5305994065
 30
0.0
 10
58.2822795553
 20
101.4832992749
 30
0.0
 10
58.3461867616
 20
101.3697420285
 30
0.0
 10
58.3673610554
 20
101.2417495453
 30
0.0
 10
58.3673610554
 20
101.1770460159
 30
0.0
  0
SPLINE
  5
351
100
AcDbEntity
  8
0
100
AcDbSpline
 62
7
  6
CONTINUOUS
 70
0
 71
3
 72
11
 73
7
 74
0
 42
0.0000001
 43
0.0000001
 44
0.0000000001
 40
0.0
 40
0.0
 40
0.0
 40
0.0
 40
0.250065958
 40
0.5002080218
 40
0.7502258977
 40
1.0
 40
1.0
 40
1.0
 40
1.0
 10
57.9607164754
 20
101.6763626537
 30
0.0
 10
58.0436121738
 20
101.6726396725
 30
0.0
 10
58.2087890218
 20
101.6341847546
 30
0.0
 10
58.4275869887
 20
101.5113860033
 30
0.0
 10
58.6196931159
 20
101.3520948973
 30
0.0
 10
58.7378240451
 20
101.2356527319
 30
0.0
 10
58.7964307611
 20
101.1770460159
 30
0.0
  0
SPLINE
  5
352
100
AcDbEntity
  8
0
100
AcDbSpline
 62
7
  6
CONTINUOUS
 70
0
 71
3
 72
9
 73
5
 74
0
 42
0.0000001
 43
0.0000001
 44
0.0000000001
 40
0.0
 40
0.0
 40
0.0
 40
0.0
 40
0.2762005503
 40
1.0
 40
1.0
 40
1.0
 40
1.0
 10
9.8381412181
 20
17.6539562122
 30
0.0
 10
9.7886948643
 20
17.6543876911
 30
0.0
 10
9.6096702768
 20
17.6557774774
 30
0.0
 10
9.4306403769
 20
17.6567126122
 30
0.0
 10
9.3010584264
 20
17.6566981767
 30
0.0
  0
SPLINE
  5
353
100
AcDbEntity
  8
0
100
AcDbSpline
 62
7
  6
CONTINUOUS
 70
0
 71
3
 72
18
 73
14
 74
0
 42
0.0000001
 43
0.0000001
 44
0.0000000001
 40
0.0
 40
0.0
 40
0.0
 40
0.0
 40
0.2223797133
 40
0.4198319869
 40
0.5909034908
 40
0.7341414801
 40
0.8480944865
 40
0.8936364973
 40
0.9313148782
 40
0.9609506384
 40
0.9823681339
 40
0.9954039257
 40
1.0
 40
1.0
 40
1.0
 40
1.0
 10
9.3010584264
 20
17.6566981745
 30
0.0
 10
9.2845297793
 20
17.6566963331
 30
0.0
 10
9.2533250046
 20
17.656667305
 30
0.0
 10
9.2094064532
 20
17.6565337226
 30
0.0
 10
9.171366976
 20
17.6563190805
 30
0.0
 10
9.1395448286
 20
17.656020228
 30
0.0
 10
9.1170278599
 20
17.6557047604
 30
0.0
 10
9.10240419
 20
17.6553759334
 30
0.0
 10
9.093958969
 20
17.6551669764
 30
0.0
 10
9.0875265253
 20
17.6548457707
 30
0.0
 10
9.0824064465
 20
17.6547497638
 30
0.0
 10
9.0801645965
 20
17.654206081
 30
0.0
 10
9.0781731376
 20
17.6542978049
 30
0.0
 10
9.0781701565
 20
17.653956209
 30
0.0
  0
SPLINE
  5
354
100
AcDbEntity
  8
0
100
AcDbSpline
 62
7
  6
CONTINUOUS
 70
0
 71
3
 72
10
 73
6
 74
0
 42
0.0000001
 43
0.0000001
 44
0.0000000001
 40
0.0
 40
0.0
 40
0.0
 40
0.0
 40
0.4611039169
 40
0.7253207863
 40
1.0
 40
1.0
 40
1.0
 40
1.0
 10
35.7157918164
 20
15.9454991808
 30
0.0
 10
35.7481956317
 20
15.8675746193
 30
0.0
 10
35.781458752
 20
15.7375874336
 30
0.0
 10
35.8045195453
 20
15.5560635844
 30
0.0
 10
35.8089150912
 20
15.4573171737
 30
0.0
 10
35.8084763814
 20
15.4070460159
 30
0.0
  0
SPLINE
  5
355
100
AcDbEntity
  8
0
100
AcDbSpline
 62
7
  6
CONTINUOUS
 70
0
 71
3
 72
11
 73
7
 74
0
 42
0.0000001
 43
0.0000001
 44
0.0000000001
 40
0.0
 40
0.0
 40
0.0
 40
0.0
 40
0.188322023
 40
0.4072586185
 40
0.6755195847
 40
1.0
 40
1.0
 40
1.0
 40
1.0
 10
35.493674074
 20
16.1670460159
 30
0.0
 10
35.5143834805
 20
16.1670460159
 30
0.0
 10
35.5594942088
 20
16.1555010889
 30
0.0
 10
35.6192737644
 20
16.1092157806
 30
0.0
 10
35.6731912956
 20
16.0372233461
 30
0.0
 10
35.702091117
 20
15.9784465663
 30
0.0
 10
35.7157918164
 20
15.9454991808
 30
0.0
  0
SPLINE
  5
356
100
AcDbEntity
  8
0
100
AcDbSpline
 62
7
  6
CONTINUOUS
 70
0
 71
3
 72
11
 73
7
 74
0
 42
0.0000001
 43
0.0000001
 44
0.0000000001
 40
0.0
 40
0.0
 40
0.0
 40
0.0
 40
0.3244796771
 40
0.5927404748
 40
0.8116770411
 40
1.0
 40
1.0
 40
1.0
 40
1.0
 10
47.3100511881
 20
15.9455062592
 30
0.0
 10
47.3237518535
 20
15.9784526922
 30
0.0
 10
47.3526517269
 20
16.0372276805
 30
0.0
 10
47.4065686951
 20
16.1092178327
 30
0.0
 10
47.4663473692
 20
16.1555015898
 30
0.0
 10
47.511457187
 20
16.1670460159
 30
0.0
 10
47.5321662255
 20
16.1670460159
 30
0.0
  0
SPLINE
  5
357
100
AcDbEntity
  8
0
100
AcDbSpline
 62
7
  6
CONTINUOUS
 70
0
 71
3
 72
9
 73
5
 74
0
 42
0.0000001
 43
0.0000001
 44
0.0000000001
 40
0.0
 40
0.0
 40
0.0
 40
0.0
 40
0.538658014
 40
1.0
 40
1.0
 40
1.0
 40
1.0
 10
47.2176194889
 20
15.4070460159
 30
0.0
 10
47.2167596155
 20
15.5055777424
 30
0.0
 10
47.2320123543
 20
15.6887331404
 30
0.0
 10
47.2776470872
 20
15.8675830698
 30
0.0
 10
47.3100511881
 20
15.9455062592
 30
0.0
  0
SPLINE
  5
358
100
AcDbEntity
  8
0
100
AcDbSpline
 62
7
  6
CONTINUOUS
 70
0
 71
3
 72
18
 73
14
 74
0
 42
0.0000001
 43
0.0000001
 44
0.0000000001
 40
0.0
 40
0.0
 40
0.0
 40
0.0
 40
0.0045960743
 40
0.0176318661
 40
0.0390493616
 40
0.0686851218
 40
0.1063635027
 40
0.1519055135
 40
0.2658585199
 40
0.4090965092
 40
0.5801680131
 40
0.7776202867
 40
1.0
 40
1.0
 40
1.0
 40
1.0
 10
73.947670143
 20
17.653956209
 30
0.0
 10
73.947667162
 20
17.6542978049
 30
0.0
 10
73.945675703
 20
17.654206081
 30
0.0
 10
73.9434338531
 20
17.6547497638
 30
0.0
 10
73.9383137743
 20
17.6548457707
 30
0.0
 10
73.9318813305
 20
17.6551669764
 30
0.0
 10
73.9234361096
 20
17.6553759334
 30
0.0
 10
73.9088124396
 20
17.6557047604
 30
0.0
 10
73.886295471
 20
17.656020228
 30
0.0
 10
73.8544733235
 20
17.6563190805
 30
0.0
 10
73.8164338464
 20
17.6565337226
 30
0.0
 10
73.7725152949
 20
17.656667305
 30
0.0
 10
73.7413105202
 20
17.6566963331
 30
0.0
 10
73.7247818731
 20
17.6566981745
 30
0.0
  0
SPLINE
  5
359
100
AcDbEntity
  8
0
100
AcDbSpline
 62
7
  6
CONTINUOUS
 70
0
 71
3
 72
9
 73
5
 74
0
 42
0.0000001
 43
0.0000001
 44
0.0000000001
 40
0.0
 40
0.0
 40
0.0
 40
0.0
 40
0.5
 40
1.0
 40
1.0
 40
1.0
 40
1.0
 10
52.0397028374
 20
101.6770460159
 30
0.0
 10
51.8641069385
 20
101.6770460159
 30
0.0
 10
51.5129201498
 20
101.6724515218
 30
0.0
 10
51.161733361
 20
101.6770460159
 30
0.0
 10
50.9861374621
 20
101.6770460159
 30
0.0
  0
ELLIPSE
  5
35A
100
AcDbEntity
  8
0
100
AcDbEllipse
 62
7
  6
CONTINUOUS
 10
45.0955760602
 20
101.1770460159
 30
0.0
 11
0.5826559105
 21
-0.0
 31
0.0
 40
0.8581394113
 41
1.5707963268
 42
1.6230846781
  0
ELLIPSE
  5
35B
100
AcDbEntity
  8
0
100
AcDbEllipse
 62
7
  6
CONTINUOUS
 10
46.0129201498
 20
96.262843417
 30
0.0
 11
-0.0
 21
0.8717233978
 31
0.0
 40
0.5735764364
 41
-4.7123889804
 42
-3.1415926536
  0
ELLIPSE
  5
35C
100
AcDbEntity
  8
0
100
AcDbEllipse
 62
7
  6
CONTINUOUS
 10
57.9302642393
 20
101.1770460159
 30
0.0
 11
0.5826559105
 21
-0.0
 31
0.0
 40
0.8581394113
 41
1.5185079755
 42
1.5707963268
  0
ELLIPSE
  5
35D
100
AcDbEntity
  8
0
100
AcDbEllipse
 62
7
  6
CONTINUOUS
 10
57.0129201498
 20
96.262843417
 30
0.0
 11
0.0
 21
0.8717233978
 31
0.0
 40
0.5735764364
 41
-3.1415926536
 42
-1.5707963268
  0
ENDSEC
  0
SECTION
  2
OBJECTS
  0
DICTIONARY
  5
C
100
AcDbDictionary
280
0
281
1
  3
ACAD_GROUP
350
D
  3
ACAD_MLINESTYLE
350
17
  3
ACAD_LAYOUT
350
1A
  3
ACAD_PLOTSETTINGS
350
19
  3
ACAD_PLOTSTYLENAME
350
E
  0
DICTIONARY
  5
D
102
{ACAD_REACTORS
330
C
102
}
100
AcDbDictionary
280
0
281
1
  0
ACDBDICTIONARYWDFLT
  5
E
102
{ACAD_REACTORS
330
C
102
}
100
AcDbDictionary
281
1
  3
Normal
350
F
100
AcDbDictionaryWithDefault
340
F
  0
DICTIONARY
  5
17
102
{ACAD_REACTORS
330
C
102
}
100
AcDbDictionary
280
0
281
1
  3
Standard
350
18
  0
DICTIONARY
  5
19
102
{ACAD_REACTORS
330
C
102
}
100
AcDbDictionary
281
1
  0
DICTIONARY
  5
1A
102
{ACAD_REACTORS
330
C
102
}
100
AcDbDictionary
281
1
  3
Model
350
35E
  3
Layout1
350
35F
  0
ACDBPLACEHOLDER
  5
F
102
{ACAD_REACTORS
330
E
102
}
  0
MLINESTYLE
  5
18
102
{ACAD_REACTORS
330
17
102
}
100
AcDbMlineStyle
  2
STANDARD
 70
0
  3

 62
256
 51
90.0
 52
90.0
 71
2
 49
0.5
 62
256
  6
BYLAYER
 49
-0.5
 62
256
  6
BYLAYER
  0
LAYOUT
  5
35E
102
{ACAD_REACTORS
330
1A
102
}
100
AcDbPlotSettings
  1

  2
none_device
  4

  6

 40
0.0
 41
0.0
 42
0.0
 43
0.0
 44
210.0
 45
297.0
 46
0.0
 47
0.0
 48
0.0
 49
0.0
140
0.0
141
0.0
142
1.0
143
1.0
 70
1024
 72
1
 73
0
 74
0
  7

 75
0
147
1.0
148
0.0
149
0.0
100
AcDbLayout
  1
Model
 70
0
 71
0
 10
0.0
 20
0.0
 11
210.0
 21
297.0
 12
0.0
 22
0.0
 32
0.0
 14
0.0
 24
0.0
 34
0.0
 15
0.0
 25
0.0
 35
0.0
146
0.0
 13
0.0
 23
0.0
 33
0.0
 16
1.0
 26
0.0
 36
0.0
 17
0.0
 27
1.0
 37
0.0
 76
0
330
211
345
0
346
0
  0
LAYOUT
  5
35F
102
{ACAD_REACTORS
330
1A
102
}
100
AcDbPlotSettings
  1

  2
none_device
  4

  6

 40
0.0
 41
0.0
 42
0.0
 43
0.0
 44
210.0
 45
297.0
 46
0.0
 47
0.0
 48
0.0
 49
0.0
140
0.0
141
0.0
142
1.0
143
1.0
 70
0
 72
1
 73
0
 74
0
  7

 75
0
147
1.0
148
0.0
149
0.0
100
AcDbLayout
  1
Layout1
 70
0
 71
1
 10
0.0
 20
0.0
 11
210.0
 21
297.0
 12
0.0
 22
0.0
 32
0.0
 14
0.0
 24
0.0
 34
0.0
 15
0.0
 25
0.0
 35
0.0
146
0.0
 13
0.0
 23
0.0
 33
0.0
 16
1.0
 26
0.0
 36
0.0
 17
0.0
 27
1.0
 37
0.0
 76
0
330
212
345
0
346
0
  0
ENDSEC
  0
EOF
