999
DXF file: C:\Users\sesa63760\Dev\_Creo\CAD\MCADPP0000419_3D-CAD\drw0001_5.dxf
999
Pro/ENGINEER 2019471 by Parametric Technology Corporation
  0
SECTION
  2
HEADER
  9
$ACADVER
  1
AC1024
  9
$DWGCODEPAGE
  3
ANSI_1252
  9
$EXTMAX
 10
105.71862415
 20
149.5163398693
 30
0.0
  9
$EXTMIN
 10
0.0
 20
0.0
 30
0.0
  9
$LIMMIN
 10
0.0
 20
0.0
  9
$LIMMAX
 10
105.71862415
 20
149.5163398693
  9
$VIEWCTR
 10
52.859312075
 20
74.7581699346
  9
$VIEWSIZE
 40
149.5163398693
  9
$CLAYER
  8
0
  9
$LTSCALE
 40
9.7462503026
  9
$CELTYPE
  6
BYLAYER
  9
$DIMSCALE
 40
1.0
  9
$DIMASZ
 40
1.2585550494
  9
$DIMEXO
 40
1.0
  9
$DIMDLI
 40
6.7337729363
  9
$DIMEXE
 40
1.0
  9
$DIMCEN
 40
1.5948409586
  9
$DIMLFAC
 40
1.0
  9
$DIMBLK
  1
_FILLED
  9
$DIMALT
 70
0
  9
$DIMALTF
 40
0.0393700787
  9
$DIMTXT
 40
1.7619770692
  9
$DIMTOL
 70
1
  9
$DIMLIM
 70
0
  9
$DIMTFAC
 40
1.0
  9
$DIMTP
 40
0.01
  9
$DIMTM
 40
0.01
  9
$DIMGAP
 40
0.625
  9
$DIMDSEP
 70
46
  9
$AUNITS
 70
0
  9
$PDMODE
 70
3
  9
$PDSIZE
 40
0.3125
  9
$HANDSEED
  5
25B
  9
$TILEMODE
 70
1
  9
$MEASUREMENT
 70
1
  9
$INSUNITS
 70
4
  0
ENDSEC
  0
SECTION
  2
CLASSES
  0
CLASS
  1
ACDBDICTIONARYWDFLT
  2
AcDbDictionaryWithDefault
  3
AutoCAD 2000
 90
0
 91
1
280
0
281
0
  0
CLASS
  1
ACDBPLACEHOLDER
  2
AcDbPlaceHolder
  3
AutoCAD 2000
 90
0
 91
1
280
0
281
0
  0
CLASS
  1
LAYOUT
  2
AcDbLayout
  3
AutoCAD 2000
 90
0
 91
0
280
0
281
0
  0
ENDSEC
  0
SECTION
  2
TABLES
  0
TABLE
  2
VPORT
  5
8
100
AcDbSymbolTable
 70
2
  0
VPORT
  5
1F4
100
AcDbSymbolTableRecord
100
AcDbViewportTableRecord
  2
*ACTIVE
 70
0
 10
0.0
 20
0.0
 11
1.0
 21
1.0
 12
52.859312075
 22
74.7581699346
 13
0.0
 23
0.0
 14
1.0
 24
1.0
 15
0.0
 25
0.0
 16
0.0
 26
0.0
 36
1.0
 17
0.0
 27
0.0
 37
0.0
 40
149.5163398693
 41
0.7070707071
 42
50.0
 43
0.0
 44
0.0
 50
0.0
 51
0.0
 71
0
 72
100
 73
1
 74
1
 75
0
 76
0
 77
0
 78
0
  0
ENDTAB
  0
TABLE
  2
LTYPE
  5
5
100
AcDbSymbolTable
 70
6
  0
LTYPE
  5
14
100
AcDbSymbolTableRecord
100
AcDbLinetypeTableRecord
  2
BYBLOCK
 70
0
  3

 72
65
 73
0
 40
0.0
  0
LTYPE
  5
15
100
AcDbSymbolTableRecord
100
AcDbLinetypeTableRecord
  2
BYLAYER
 70
0
  3

 72
65
 73
0
 40
0.0
  0
LTYPE
  5
16
100
AcDbSymbolTableRecord
100
AcDbLinetypeTableRecord
  2
CONTINUOUS
 70
64
  3
Solid line
 72
65
 73
0
 40
0.0
  0
LTYPE
  5
1F5
100
AcDbSymbolTableRecord
100
AcDbLinetypeTableRecord
  2
CENTER
 70
64
  3
____ _ ____ _ ____ _ ____ _ ____ _ ____ _ ____
 72
65
 73
4
 40
0.6
 49
0.375
 74
0
 49
-0.075
 74
0
 49
0.075
 74
0
 49
-0.075
 74
0
  0
LTYPE
  5
1F6
100
AcDbSymbolTableRecord
100
AcDbLinetypeTableRecord
  2
HIDDEN
 70
64
  3
- - - - - - - - - - - - - - - - - - - -
 72
65
 73
2
 40
0.2
 49
0.1
 74
0
 49
-0.1
 74
0
  0
LTYPE
  5
1F7
100
AcDbSymbolTableRecord
100
AcDbLinetypeTableRecord
  2
PHANTOM
 70
64
  3
_____ _ _ _____ _ _ _____ _ _ _____
 72
65
 73
6
 40
0.8
 49
0.45
 74
0
 49
-0.05
 74
0
 49
0.1
 74
0
 49
-0.05
 74
0
 49
0.1
 74
0
 49
-0.05
 74
0
  0
LTYPE
  5
1F8
100
AcDbSymbolTableRecord
100
AcDbLinetypeTableRecord
  2
DOT
 70
64
  3
. . . . . . . . . . . . . . . . . . . .
 72
65
 73
2
 40
0.2
 49
0.1
 74
0
 49
-0.1
 74
0
  0
LTYPE
  5
1F9
100
AcDbSymbolTableRecord
100
AcDbLinetypeTableRecord
  2
DASHED
 70
64
  3
- - - - - - - - - - - - - - - - - - - -
 72
65
 73
2
 40
0.2
 49
0.1
 74
0
 49
-0.1
 74
0
  0
ENDTAB
  0
TABLE
  2
LAYER
  5
2
100
AcDbSymbolTable
 70
36
  0
LAYER
  5
10
100
AcDbSymbolTableRecord
100
AcDbLayerTableRecord
  2
0
 70
0
 62
7
  6
CONTINUOUS
370
-3
390
F
  0
LAYER
  5
1FA
100
AcDbSymbolTableRecord
100
AcDbLayerTableRecord
  2
DEFAULT_1
 70
0
 62
7
  6
CENTER
370
-3
390
F
  0
LAYER
  5
1FB
100
AcDbSymbolTableRecord
100
AcDbLayerTableRecord
  2
DEFAULT_2
 70
0
 62
8
  6
HIDDEN
370
-3
390
F
  0
LAYER
  5
1FC
100
AcDbSymbolTableRecord
100
AcDbLayerTableRecord
  2
DEFAULT_3
 70
0
 62
7
  6
PHANTOM
370
-3
390
F
  0
LAYER
  5
1FD
100
AcDbSymbolTableRecord
100
AcDbLayerTableRecord
  2
00_COMPONENTS
 70
0
 62
7
  6
CONTINUOUS
370
-3
390
F
  0
LAYER
  5
1FE
100
AcDbSymbolTableRecord
100
AcDbLayerTableRecord
  2
01_1_DEFAULT_DATUMS
 70
0
 62
7
  6
CONTINUOUS
370
-3
390
F
  0
LAYER
  5
1FF
100
AcDbSymbolTableRecord
100
AcDbLayerTableRecord
  2
01_PLANES
 70
0
 62
7
  6
CONTINUOUS
370
-3
390
F
  0
LAYER
  5
200
100
AcDbSymbolTableRecord
100
AcDbLayerTableRecord
  2
02_COORD_SYS
 70
0
 62
7
  6
CONTINUOUS
370
-3
390
F
  0
LAYER
  5
201
100
AcDbSymbolTableRecord
100
AcDbLayerTableRecord
  2
03_AXES
 70
0
 62
7
  6
CONTINUOUS
370
-3
390
F
  0
LAYER
  5
202
100
AcDbSymbolTableRecord
100
AcDbLayerTableRecord
  2
04_POINTS
 70
0
 62
7
  6
CONTINUOUS
370
-3
390
F
  0
LAYER
  5
203
100
AcDbSymbolTableRecord
100
AcDbLayerTableRecord
  2
05_CURVES
 70
0
 62
7
  6
CONTINUOUS
370
-3
390
F
  0
LAYER
  5
204
100
AcDbSymbolTableRecord
100
AcDbLayerTableRecord
  2
06_SURFS
 70
0
 62
7
  6
CONTINUOUS
370
-3
390
F
  0
LAYER
  5
205
100
AcDbSymbolTableRecord
100
AcDbLayerTableRecord
  2
07_COSMETICS
 70
0
 62
7
  6
CONTINUOUS
370
-3
390
F
  0
LAYER
  5
206
100
AcDbSymbolTableRecord
100
AcDbLayerTableRecord
  2
10_NOTES
 70
0
 62
7
  6
CONTINUOUS
370
-3
390
F
  0
LAYER
  5
207
100
AcDbSymbolTableRecord
100
AcDbLayerTableRecord
  2
11_NOTES_PUB
 70
0
 62
7
  6
CONTINUOUS
370
-3
390
F
  0
LAYER
  5
208
100
AcDbSymbolTableRecord
100
AcDbLayerTableRecord
  2
13_REF_GTOL
 70
0
 62
7
  6
CONTINUOUS
370
-3
390
F
  0
LAYER
  5
209
100
AcDbSymbolTableRecord
100
AcDbLayerTableRecord
  2
16_MISC
 70
0
 62
7
  6
CONTINUOUS
370
-3
390
F
  0
LAYER
  5
20A
100
AcDbSymbolTableRecord
100
AcDbLayerTableRecord
  2
17_NO_PRINT
 70
0
 62
7
  6
CONTINUOUS
370
-3
390
F
  0
LAYER
  5
20B
100
AcDbSymbolTableRecord
100
AcDbLayerTableRecord
  2
18_DATUM_CAMS_JOINTS
 70
0
 62
7
  6
CONTINUOUS
370
-3
390
F
  0
LAYER
  5
20C
100
AcDbSymbolTableRecord
100
AcDbLayerTableRecord
  2
19_DATUM_FUNCTIONAL
 70
0
 62
7
  6
CONTINUOUS
370
-3
390
F
  0
LAYER
  5
20D
100
AcDbSymbolTableRecord
100
AcDbLayerTableRecord
  2
20_DATUM_KINEMATIC_SCHEME
 70
0
 62
7
  6
CONTINUOUS
370
-3
390
F
  0
ENDTAB
  0
TABLE
  2
STYLE
  5
3
100
AcDbSymbolTable
 70
1
  0
STYLE
  5
11
100
AcDbSymbolTableRecord
100
AcDbTextStyleTableRecord
  2
STANDARD
 70
0
 40
0.0
 41
0.8
 50
0.0
 71
0
 42
0.2
  3
txt
  4

  0
STYLE
  5
20E
100
AcDbSymbolTableRecord
100
AcDbTextStyleTableRecord
  2
TEXTSTYLE_1
 70
0
 40
0.0
 41
0.8
 50
0.0
 71
0
 42
0.2
  3
gdt
  4

  0
ENDTAB
  0
TABLE
  2
VIEW
  5
6
100
AcDbSymbolTable
 70
0
  0
ENDTAB
  0
TABLE
  2
UCS
  5
7
100
AcDbSymbolTable
 70
0
  0
ENDTAB
  0
TABLE
  2
APPID
  5
9
100
AcDbSymbolTable
 70
1
  0
APPID
  5
20F
100
AcDbSymbolTableRecord
100
AcDbRegAppTableRecord
  2
ACAD
 70
0
  0
ENDTAB
  0
TABLE
  2
BLOCK_RECORD
  5
1
100
AcDbSymbolTable
 70
0
  0
BLOCK_RECORD
  5
210
100
AcDbSymbolTableRecord
100
AcDbBlockTableRecord
  2
*Model_Space
  0
BLOCK_RECORD
  5
211
100
AcDbSymbolTableRecord
100
AcDbBlockTableRecord
  2
*Paper_Space
  0
BLOCK_RECORD
  5
212
100
AcDbSymbolTableRecord
100
AcDbBlockTableRecord
  2
_FILLED
  0
ENDTAB
  0
TABLE
  2
DIMSTYLE
  5
A
100
AcDbSymbolTable
 70
1
100
AcDbDimStyleTable
 71
0
  0
DIMSTYLE
105
213
100
AcDbSymbolTableRecord
100
AcDbDimStyleTableRecord
  2
STANDARD
 70
0
  3

  4

 40
1.0
 41
1.2585550494
 42
1.0
 43
0.38
 44
1.0
 45
0.0
 46
0.0
 47
0.01
 48
0.01
140
1.7619770692
141
0.09
142
0.0
143
25.4
144
1.0
145
0.0
146
1.0
147
0.625
 71
1
 72
0
 73
0
 74
0
 75
0
 76
0
 77
1
 78
8
 79
2
170
0
171
1
172
0
173
0
174
0
175
0
176
0
177
0
178
0
270
2
179
2
271
2
272
2
273
2
274
2
275
0
280
0
281
0
282
0
283
1
284
8
285
0
286
0
287
3
288
0
340
11
278
46
341
212
342
212
343
212
344
212
  0
ENDTAB
  0
ENDSEC
  0
SECTION
  2
BLOCKS
  0
BLOCK
  5
20
100
AcDbEntity
  8
0
100
AcDbBlockBegin
  2
*Model_Space
 70
0
 10
0.0
 20
0.0
 30
0.0
  3
*Model_Space
  1

  0
ENDBLK
  5
21
100
AcDbEntity
  8
0
100
AcDbBlockEnd
  0
BLOCK
  5
1C
100
AcDbEntity
  8
0
100
AcDbBlockBegin
  2
*Paper_Space
 70
0
 10
0.0
 20
0.0
 30
0.0
  3
*Paper_Space
  1

  0
ENDBLK
  5
1D
100
AcDbEntity
  8
0
100
AcDbBlockEnd
  0
BLOCK
  5
214
100
AcDbEntity
  8
0
100
AcDbBlockBegin
  2
_FILLED
 70
64
 10
0.0
 20
0.0
  3
_FILLED
  1

  0
SOLID
  5
215
100
AcDbEntity
  8
0
  6
BYBLOCK
 62
0
100
AcDbTrace
 10
0.0
 20
0.0
 11
-1.0
 21
0.25
 12
-1.0
 22
-0.25
 13
-1.0
 23
-0.25
  0
ENDBLK
  5
216
100
AcDbEntity
  8
0
  6
BYBLOCK
 62
0
100
AcDbBlockEnd
  0
ENDSEC
  0
SECTION
  2
ENTITIES
  0
LINE
  5
217
100
AcDbEntity
  8
0
100
AcDbLine
 62
7
  6
CONTINUOUS
 10
12.3233643626
 20
28.9411764706
 11
26.7733643626
 21
28.9411764706
  0
LINE
  5
218
100
AcDbEntity
  8
0
100
AcDbLine
 62
7
  6
CONTINUOUS
 10
12.3233643626
 20
120.9411764706
 11
12.3233643626
 21
28.9411764706
  0
LINE
  5
219
100
AcDbEntity
  8
0
100
AcDbLine
 62
7
  6
CONTINUOUS
 10
26.7733643626
 20
30.9411764706
 11
61.8233643626
 21
30.9411764706
  0
LINE
  5
21A
100
AcDbEntity
  8
0
100
AcDbLine
 62
7
  6
CONTINUOUS
 10
62.2233643626
 20
39.9411764706
 11
68.0286898408
 21
39.9411764706
  0
LINE
  5
21B
100
AcDbEntity
  8
0
100
AcDbLine
 62
7
  6
CONTINUOUS
 10
21.8233643626
 20
110.9411764706
 11
21.8233643626
 21
120.9411764706
  0
LINE
  5
21C
100
AcDbEntity
  8
0
100
AcDbLine
 62
7
  6
CONTINUOUS
 10
24.1233643626
 20
79.2411764706
 11
24.1233643626
 21
72.2411764706
  0
LINE
  5
21D
100
AcDbEntity
  8
0
100
AcDbLine
 62
7
  6
CONTINUOUS
 10
24.6233643626
 20
73.1411942253
 11
24.6233643626
 21
73.1897063062
  0
LINE
  5
21E
100
AcDbEntity
  8
0
100
AcDbLine
 62
7
  6
CONTINUOUS
 10
24.6233643626
 20
75.2411764706
 11
24.6233643626
 21
76.2411764706
  0
LINE
  5
21F
100
AcDbEntity
  8
0
100
AcDbLine
 62
7
  6
CONTINUOUS
 10
24.6233643626
 20
78.292646635
 11
24.6233643626
 21
78.3411587159
  0
LINE
  5
220
100
AcDbEntity
  8
0
100
AcDbLine
 62
7
  6
CONTINUOUS
 10
25.1233643626
 20
73.1897063062
 11
25.1233643626
 21
75.2411764706
  0
LINE
  5
221
100
AcDbEntity
  8
0
100
AcDbLine
 62
7
  6
CONTINUOUS
 10
25.1233643626
 20
76.2411764706
 11
25.1233643626
 21
78.292646635
  0
LINE
  5
222
100
AcDbEntity
  8
0
100
AcDbLine
 62
7
  6
CONTINUOUS
 10
26.7733643626
 20
28.9411764706
 11
26.7733643626
 21
110.9411764706
  0
LINE
  5
223
100
AcDbEntity
  8
0
100
AcDbLine
 62
7
  6
CONTINUOUS
 10
61.8233643626
 20
54.9411764706
 11
62.2233643626
 21
54.9411764706
  0
LINE
  5
224
100
AcDbEntity
  8
0
100
AcDbLine
 62
7
  6
CONTINUOUS
 10
24.1233643626
 20
72.2411764706
 11
26.7733643626
 21
72.2411764706
  0
LINE
  5
225
100
AcDbEntity
  8
0
100
AcDbLine
 62
7
  6
CONTINUOUS
 10
24.1233643626
 20
73.1411764706
 11
24.6233643626
 21
73.1411764706
  0
LINE
  5
226
100
AcDbEntity
  8
0
100
AcDbLine
 62
7
  6
CONTINUOUS
 10
25.1233643626
 20
73.1897063062
 11
24.6233643626
 21
73.1897063062
  0
LINE
  5
227
100
AcDbEntity
  8
0
100
AcDbLine
 62
7
  6
CONTINUOUS
 10
24.6233643626
 20
75.2411764706
 11
25.1233643626
 21
75.2411764706
  0
LINE
  5
228
100
AcDbEntity
  8
0
100
AcDbLine
 62
7
  6
CONTINUOUS
 10
25.1233643626
 20
76.2411764706
 11
24.6233643626
 21
76.2411764706
  0
LINE
  5
229
100
AcDbEntity
  8
0
100
AcDbLine
 62
7
  6
CONTINUOUS
 10
24.6233643626
 20
78.292646635
 11
25.1233643626
 21
78.292646635
  0
LINE
  5
22A
100
AcDbEntity
  8
0
100
AcDbLine
 62
7
  6
CONTINUOUS
 10
24.1233643626
 20
78.3411764706
 11
24.6233643626
 21
78.3411764706
  0
LINE
  5
22B
100
AcDbEntity
  8
0
100
AcDbLine
 62
7
  6
CONTINUOUS
 10
24.1233643626
 20
79.2411764706
 11
26.7733643626
 21
79.2411764706
  0
LINE
  5
22C
100
AcDbEntity
  8
0
100
AcDbLine
 62
7
  6
CONTINUOUS
 10
61.8233643626
 20
30.9411764706
 11
61.8233643626
 21
103.9411764706
  0
LINE
  5
22D
100
AcDbEntity
  8
0
100
AcDbLine
 62
7
  6
CONTINUOUS
 10
62.2233643626
 20
94.9411673072
 11
62.2233643626
 21
39.941185634
  0
LINE
  5
22E
100
AcDbEntity
  8
0
100
AcDbLine
 62
7
  6
CONTINUOUS
 10
61.8233643626
 20
79.9411764706
 11
62.2233643626
 21
79.9411764706
  0
LINE
  5
22F
100
AcDbEntity
  8
0
100
AcDbLine
 62
7
  6
CONTINUOUS
 10
68.517662975
 20
94.7719421907
 11
68.5210572915
 21
94.348225356
  0
LINE
  5
230
100
AcDbEntity
  8
0
100
AcDbLine
 62
7
  6
CONTINUOUS
 10
68.5176635481
 20
85.6466150373
 11
68.5210587242
 21
87.5579017787
  0
LINE
  5
231
100
AcDbEntity
  8
0
100
AcDbLine
 62
7
  6
CONTINUOUS
 10
62.2233643626
 20
94.9411764706
 11
68.5313965268
 21
94.9411764706
  0
LINE
  5
232
100
AcDbEntity
  8
0
100
AcDbLine
 62
7
  6
CONTINUOUS
 10
61.8233643626
 20
103.9411764706
 11
26.7733643626
 21
103.9411764706
  0
LINE
  5
233
100
AcDbEntity
  8
0
100
AcDbLine
 62
7
  6
CONTINUOUS
 10
26.7733643626
 20
110.9411764706
 11
21.8233643626
 21
110.9411764706
  0
LINE
  5
234
100
AcDbEntity
  8
0
100
AcDbLine
 62
7
  6
CONTINUOUS
 10
93.1962531017
 20
86.9142567873
 11
93.1962531017
 21
80.5048390271
  0
LINE
  5
235
100
AcDbEntity
  8
0
100
AcDbLine
 62
7
  6
CONTINUOUS
 10
93.1962531017
 20
79.761752423
 11
93.1962531017
 21
75.2031061484
  0
LINE
  5
236
100
AcDbEntity
  8
0
100
AcDbLine
 62
7
  6
CONTINUOUS
 10
93.1962531017
 20
74.4600195443
 11
93.1962531017
 21
69.9013732697
  0
LINE
  5
237
100
AcDbEntity
  8
0
100
AcDbLine
 62
7
  6
CONTINUOUS
 10
93.1962531017
 20
69.1582866657
 11
93.1962531017
 21
62.7488689055
  0
LINE
  5
238
100
AcDbEntity
  8
0
100
AcDbLine
 62
7
  6
CONTINUOUS
 10
96.3233643626
 20
47.8184432729
 11
96.3233643626
 21
87.0208385825
  0
LINE
  5
239
100
AcDbEntity
  8
0
100
AcDbLine
 62
7
  6
CONTINUOUS
 10
21.8233643626
 20
116.5211764706
 11
12.3233643626
 21
116.5211764706
  0
LINE
  5
23A
100
AcDbEntity
  8
0
100
AcDbLine
 62
7
  6
CONTINUOUS
 10
12.3233643626
 20
120.9411764706
 11
21.8233643626
 21
120.9411764706
  0
SPLINE
  5
23B
100
AcDbEntity
  8
0
100
AcDbSpline
 62
7
  6
CONTINUOUS
 70
0
 71
3
 72
11
 73
7
 74
0
 42
0.0000001
 43
0.0000001
 44
0.0000000001
 40
0.0
 40
0.0
 40
0.0
 40
0.0
 40
0.2552691405
 40
0.5082603975
 40
0.7570453611
 40
1.0
 40
1.0
 40
1.0
 40
1.0
 10
89.0233643626
 20
69.378747865
 30
0.0
 10
88.7762624053
 20
69.378747865
 30
0.0
 10
88.2830044498
 20
69.3313043343
 30
0.0
 10
87.5756285772
 20
69.1255855847
 30
0.0
 10
86.9256821195
 20
68.8062894302
 30
0.0
 10
86.5349262523
 20
68.5308910329
 30
0.0
 10
86.3528948626
 20
68.3819786829
 30
0.0
  0
SPLINE
  5
23C
100
AcDbEntity
  8
0
100
AcDbSpline
 62
7
  6
CONTINUOUS
 70
0
 71
3
 72
11
 73
7
 74
0
 42
0.0000001
 43
0.0000001
 44
0.0000000001
 40
0.0
 40
0.0
 40
0.0
 40
0.0
 40
0.2411745005
 40
0.4896701588
 40
0.7434023962
 40
1.0
 40
1.0
 40
1.0
 40
1.0
 10
91.9586840947
 20
78.7525909661
 30
0.0
 10
91.7683371231
 20
78.9321981885
 30
0.0
 10
91.3528236397
 20
79.2676132342
 30
0.0
 10
90.6446334877
 20
79.6628315715
 30
0.0
 10
89.857371339
 20
79.9218735052
 30
0.0
 10
89.3018078645
 20
79.9822136223
 30
0.0
 10
89.0233643626
 20
79.9822136223
 30
0.0
  0
SPLINE
  5
23D
100
AcDbEntity
  8
0
100
AcDbSpline
 62
7
  6
CONTINUOUS
 70
0
 71
3
 72
11
 73
7
 74
0
 42
0.0000001
 43
0.0000001
 44
0.0000000001
 40
0.0
 40
0.0
 40
0.0
 40
0.0
 40
0.2552691405
 40
0.5082603975
 40
0.7570453611
 40
1.0
 40
1.0
 40
1.0
 40
1.0
 10
89.0233643626
 20
74.6804807437
 30
0.0
 10
88.7762624053
 20
74.6804807437
 30
0.0
 10
88.2830044498
 20
74.633037213
 30
0.0
 10
87.5756285773
 20
74.4273184634
 30
0.0
 10
86.9256821195
 20
74.1080223088
 30
0.0
 10
86.5349262523
 20
73.8326239115
 30
0.0
 10
86.3528948626
 20
73.6837115616
 30
0.0
  0
SPLINE
  5
23E
100
AcDbEntity
  8
0
100
AcDbSpline
 62
7
  6
CONTINUOUS
 70
0
 71
3
 72
11
 73
7
 74
0
 42
0.0000001
 43
0.0000001
 44
0.0000000001
 40
0.0
 40
0.0
 40
0.0
 40
0.0
 40
0.2552691405
 40
0.5082603975
 40
0.7570453611
 40
1.0
 40
1.0
 40
1.0
 40
1.0
 10
89.0233643626
 20
79.9822136223
 30
0.0
 10
88.7762624053
 20
79.9822136223
 30
0.0
 10
88.2830044498
 20
79.9347700917
 30
0.0
 10
87.5756285772
 20
79.7290513421
 30
0.0
 10
86.9256821195
 20
79.4097551875
 30
0.0
 10
86.5349262523
 20
79.1343567902
 30
0.0
 10
86.3528948626
 20
78.9854444403
 30
0.0
  0
SPLINE
  5
23F
100
AcDbEntity
  8
0
100
AcDbSpline
 62
7
  6
CONTINUOUS
 70
0
 71
3
 72
11
 73
7
 74
0
 42
0.0000001
 43
0.0000001
 44
0.0000000001
 40
0.0
 40
0.0
 40
0.0
 40
0.0
 40
0.2411745005
 40
0.4896701588
 40
0.7434023962
 40
1.0
 40
1.0
 40
1.0
 40
1.0
 10
91.9586840947
 20
68.1491252087
 30
0.0
 10
91.7683371231
 20
68.3287324312
 30
0.0
 10
91.3528236397
 20
68.6641474768
 30
0.0
 10
90.6446334877
 20
69.0593658142
 30
0.0
 10
89.857371339
 20
69.3184077479
 30
0.0
 10
89.3018078645
 20
69.378747865
 30
0.0
 10
89.0233643626
 20
69.378747865
 30
0.0
  0
SPLINE
  5
240
100
AcDbEntity
  8
0
100
AcDbSpline
 62
7
  6
CONTINUOUS
 70
0
 71
3
 72
11
 73
7
 74
0
 42
0.0000001
 43
0.0000001
 44
0.0000000001
 40
0.0
 40
0.0
 40
0.0
 40
0.0
 40
0.2411745005
 40
0.4896701588
 40
0.7434023962
 40
1.0
 40
1.0
 40
1.0
 40
1.0
 10
91.9586840947
 20
73.4508580874
 30
0.0
 10
91.7683371231
 20
73.6304653098
 30
0.0
 10
91.3528236397
 20
73.9658803555
 30
0.0
 10
90.6446334877
 20
74.3610986928
 30
0.0
 10
89.857371339
 20
74.6201406265
 30
0.0
 10
89.3018078645
 20
74.6804807437
 30
0.0
 10
89.0233643626
 20
74.6804807437
 30
0.0
  0
SPLINE
  5
241
100
AcDbEntity
  8
0
100
AcDbSpline
 62
7
  6
CONTINUOUS
 70
0
 71
3
 72
36
 73
32
 74
0
 42
0.0000001
 43
0.0000001
 44
0.0000000001
 40
0.0
 40
0.0
 40
0.0
 40
0.0
 40
0.0001482059
 40
0.0003900208
 40
0.0012202715
 40
0.0025438644
 40
0.0043792499
 40
0.0067466992
 40
0.009668749
 40
0.0131727222
 40
0.0172947054
 40
0.0220752147
 40
0.0275451284
 40
0.0406491145
 40
0.0567756526
 40
0.0760312939
 40
0.0984336472
 40
0.1238923172
 40
0.1522109589
 40
0.1831094404
 40
0.2162594768
 40
0.251321665
 40
0.3259215308
 40
0.4048100803
 40
0.4865395231
 40
0.570160099
 40
0.6550313436
 40
0.7407210638
 40
0.8269288585
 40
0.9134247204
 40
1.0
 40
1.0
 40
1.0
 40
1.0
 10
68.0286898638
 20
39.9411764706
 30
0.0
 10
68.0300666457
 20
39.9411764713
 30
0.0
 10
68.0334485346
 20
39.9432091318
 30
0.0
 10
68.0405055829
 20
39.9519530307
 30
0.0
 10
68.0513059032
 20
39.9716631526
 30
0.0
 10
68.0674392526
 20
40.0049046299
 30
0.0
 10
68.089187601
 20
40.0514626689
 30
0.0
 10
68.1179936573
 20
40.1110364119
 30
0.0
 10
68.1552881208
 20
40.1837339459
 30
0.0
 10
68.2027697843
 20
40.2694702875
 30
0.0
 10
68.2626273318
 20
40.3680017889
 30
0.0
 10
68.3369270629
 20
40.4789846674
 30
0.0
 10
68.4651386073
 20
40.6540711023
 30
0.0
 10
68.6715579035
 20
40.9021050124
 30
0.0
 10
68.9833279657
 20
41.2276236246
 30
0.0
 10
69.3790098272
 20
41.5908907729
 30
0.0
 10
69.8627033552
 20
41.9848432058
 30
0.0
 10
70.4352422875
 20
42.401345992
 30
0.0
 10
71.0940156202
 20
42.8317531627
 30
0.0
 10
71.8334446428
 20
43.2676284456
 30
0.0
 10
72.6458662608
 20
43.7013807706
 30
0.0
 10
73.8398035763
 20
44.2804499936
 30
0.0
 10
75.4562969507
 20
44.9586400043
 30
0.0
 10
77.5196867558
 20
45.6810958687
 30
0.0
 10
79.6999433098
 20
46.3129549611
 30
0.0
 10
81.9636939999
 20
46.8449399878
 30
0.0
 10
84.2866189155
 20
47.2736339256
 30
0.0
 10
86.6507916711
 20
47.5965003737
 30
0.0
 10
89.042363277
 20
47.8124419546
 30
0.0
 10
91.4497539962
 20
47.9123908796
 30
0.0
 10
93.0581635278
 20
47.9064971037
 30
0.0
 10
93.8621254723
 20
47.8847969925
 30
0.0
  0
SPLINE
  5
242
100
AcDbEntity
  8
0
100
AcDbSpline
 62
7
  6
CONTINUOUS
 70
0
 71
3
 72
26
 73
22
 74
0
 42
0.0000001
 43
0.0000001
 44
0.0000000001
 40
0.0
 40
0.0
 40
0.0
 40
0.0
 40
0.0835234306
 40
0.1669832006
 40
0.2501601481
 40
0.3328181327
 40
0.4146637316
 40
0.4952955539
 40
0.5741471292
 40
0.6504210377
 40
0.7229850223
 40
0.7902383523
 40
0.8501983848
 40
0.9008932778
 40
0.9410003797
 40
0.9569754194
 40
0.9703011101
 40
0.9810934079
 40
0.9895007549
 40
0.9957388306
 40
1.0
 40
1.0
 40
1.0
 40
1.0
 10
93.1962531017
 20
86.9142567873
 30
0.0
 10
92.4528384506
 20
86.8888709719
 30
0.0
 10
90.9650889053
 20
86.8739233427
 30
0.0
 10
88.7380314924
 20
86.9622293943
 30
0.0
 10
86.526012919
 20
87.1630039298
 30
0.0
 10
84.3406248245
 20
87.4686769128
 30
0.0
 10
82.1950317042
 20
87.8766133046
 30
0.0
 10
80.1053286818
 20
88.3829095258
 30
0.0
 10
78.0921330855
 20
88.9825738472
 30
0.0
 10
76.1820182221
 20
89.666346378
 30
0.0
 10
74.4094264203
 20
90.4187577577
 30
0.0
 10
72.8188600852
 20
91.2191430142
 30
0.0
 10
71.4585139521
 20
92.0348142169
 30
0.0
 10
70.3684226504
 20
92.8216491102
 30
0.0
 10
69.6534795236
 20
93.4517651733
 30
0.0
 10
69.2284066826
 20
93.9010293077
 30
0.0
 10
68.9992791569
 20
94.1751827316
 30
0.0
 10
68.8282742334
 20
94.4092965512
 30
0.0
 10
68.708849932
 20
94.6020637187
 30
0.0
 10
68.6302334065
 20
94.7510784538
 30
0.0
 10
68.5904525569
 20
94.8357062371
 30
0.0
 10
68.5742136908
 20
94.8700057192
 30
0.0
  0
SPLINE
  5
243
100
AcDbEntity
  8
0
100
AcDbSpline
 62
7
  6
CONTINUOUS
 70
0
 71
3
 72
11
 73
7
 74
0
 42
0.0000001
 43
0.0000001
 44
0.0000000001
 40
0.0
 40
0.0
 40
0.0
 40
0.0
 40
0.4111590034
 40
0.7107518886
 40
0.9028648843
 40
1.0
 40
1.0
 40
1.0
 40
1.0
 10
68.5742136908
 20
94.8700057192
 30
0.0
 10
68.5692824728
 20
94.8804213617
 30
0.0
 10
68.5607870997
 20
94.898298761
 30
0.0
 10
68.5488898212
 20
94.921100827
 30
0.0
 10
68.5406864204
 20
94.9345413267
 30
0.0
 10
68.53411937
 20
94.9411764598
 30
0.0
 10
68.5313968592
 20
94.9411764721
 30
0.0
  0
SPLINE
  5
244
100
AcDbEntity
  8
0
100
AcDbSpline
 62
7
  6
CONTINUOUS
 70
0
 71
3
 72
11
 73
7
 74
0
 42
0.0000001
 43
0.0000001
 44
0.0000000001
 40
0.0
 40
0.0
 40
0.0
 40
0.0
 40
0.3459796618
 40
0.6312598891
 40
0.8506080637
 40
1.0
 40
1.0
 40
1.0
 40
1.0
 10
68.5203668575
 20
87.5579059334
 30
0.0
 10
68.5218081004
 20
88.3410103812
 30
0.0
 10
68.5240276011
 20
89.7698303743
 30
0.0
 10
68.5254493917
 20
91.6951348891
 30
0.0
 10
68.5245704425
 20
93.1754727102
 30
0.0
 10
68.5224212042
 20
94.0100958156
 30
0.0
 10
68.5203668575
 20
94.3482299365
 30
0.0
  0
SPLINE
  5
245
100
AcDbEntity
  8
0
100
AcDbSpline
 62
7
  6
CONTINUOUS
 70
0
 71
3
 72
26
 73
22
 74
0
 42
0.0000001
 43
0.0000001
 44
0.0000000001
 40
0.0
 40
0.0
 40
0.0
 40
0.0
 40
0.0186171143
 40
0.0384480855
 40
0.0598455497
 40
0.0830405497
 40
0.1351719833
 40
0.1949267741
 40
0.2614667435
 40
0.3335248743
 40
0.4095797473
 40
0.4879474508
 40
0.5668449931
 40
0.644455372
 40
0.7189975672
 40
0.7888101493
 40
0.8524688268
 40
0.9089507791
 40
0.9343859173
 40
0.9579707643
 40
1.0
 40
1.0
 40
1.0
 40
1.0
 10
84.7733643626
 20
80.7416976998
 30
0.0
 10
84.7733643626
 20
80.6799917679
 30
0.0
 10
84.7866390431
 20
80.552308522
 30
0.0
 10
84.8426164861
 20
80.3610984434
 30
0.0
 10
84.9342805357
 20
80.1673907632
 30
0.0
 10
85.1092705544
 20
79.8978561472
 30
0.0
 10
85.4170471251
 20
79.5681257308
 30
0.0
 10
85.8888648014
 20
79.2083045336
 30
0.0
 10
86.462877804
 20
78.8840255886
 30
0.0
 10
87.1210540064
 20
78.6098964328
 30
0.0
 10
87.8429048086
 20
78.3986868521
 30
0.0
 10
88.605260211
 20
78.2606746487
 30
0.0
 10
89.3830107948
 20
78.2024598252
 30
0.0
 10
90.1499460667
 20
78.2268038722
 30
0.0
 10
90.8797372767
 20
78.3316611192
 30
0.0
 10
91.5476118018
 20
78.5099304627
 30
0.0
 10
92.1312641366
 20
78.7511075037
 30
0.0
 10
92.546040763
 20
79.0029081014
 30
0.0
 10
92.8146979925
 20
79.2279442972
 30
0.0
 10
93.0229481554
 20
79.4466071775
 30
0.0
 10
93.1432018181
 20
79.6329448718
 30
0.0
 10
93.1962531017
 20
79.761752423
 30
0.0
  0
SPLINE
  5
246
100
AcDbEntity
  8
0
100
AcDbSpline
 62
7
  6
CONTINUOUS
 70
0
 71
3
 72
26
 73
22
 74
0
 42
0.0000001
 43
0.0000001
 44
0.0000000001
 40
0.0
 40
0.0
 40
0.0
 40
0.0
 40
0.0186171143
 40
0.0384480855
 40
0.0598455497
 40
0.0830405497
 40
0.1351719833
 40
0.1949267741
 40
0.2614667435
 40
0.3335248743
 40
0.4095797473
 40
0.4879474508
 40
0.5668449931
 40
0.644455372
 40
0.7189975672
 40
0.7888101493
 40
0.8524688268
 40
0.9089507791
 40
0.9343859173
 40
0.9579707643
 40
1.0
 40
1.0
 40
1.0
 40
1.0
 10
84.7733643626
 20
75.4399648212
 30
0.0
 10
84.7733643626
 20
75.3782588893
 30
0.0
 10
84.7866390431
 20
75.2505756434
 30
0.0
 10
84.8426164861
 20
75.0593655647
 30
0.0
 10
84.9342805357
 20
74.8656578845
 30
0.0
 10
85.1092705544
 20
74.5961232685
 30
0.0
 10
85.4170471251
 20
74.2663928522
 30
0.0
 10
85.8888648014
 20
73.9065716549
 30
0.0
 10
86.462877804
 20
73.5822927099
 30
0.0
 10
87.1210540064
 20
73.3081635541
 30
0.0
 10
87.8429048086
 20
73.0969539735
 30
0.0
 10
88.605260211
 20
72.9589417701
 30
0.0
 10
89.3830107948
 20
72.9007269465
 30
0.0
 10
90.1499460667
 20
72.9250709935
 30
0.0
 10
90.8797372767
 20
73.0299282405
 30
0.0
 10
91.5476118018
 20
73.208197584
 30
0.0
 10
92.1312641366
 20
73.4493746251
 30
0.0
 10
92.546040763
 20
73.7011752228
 30
0.0
 10
92.8146979925
 20
73.9262114185
 30
0.0
 10
93.0229481554
 20
74.1448742988
 30
0.0
 10
93.1432018181
 20
74.3312119932
 30
0.0
 10
93.1962531017
 20
74.4600195443
 30
0.0
  0
SPLINE
  5
247
100
AcDbEntity
  8
0
100
AcDbSpline
 62
7
  6
CONTINUOUS
 70
0
 71
3
 72
26
 73
22
 74
0
 42
0.0000001
 43
0.0000001
 44
0.0000000001
 40
0.0
 40
0.0
 40
0.0
 40
0.0
 40
0.0186171143
 40
0.0384480855
 40
0.0598455497
 40
0.0830405497
 40
0.1351719833
 40
0.1949267741
 40
0.2614667435
 40
0.3335248743
 40
0.4095797473
 40
0.4879474508
 40
0.5668449931
 40
0.644455372
 40
0.7189975672
 40
0.7888101493
 40
0.8524688268
 40
0.9089507791
 40
0.9343859173
 40
0.9579707643
 40
1.0
 40
1.0
 40
1.0
 40
1.0
 10
84.7733643626
 20
70.1382319425
 30
0.0
 10
84.7733643626
 20
70.0765260106
 30
0.0
 10
84.7866390431
 20
69.9488427647
 30
0.0
 10
84.8426164861
 20
69.757632686
 30
0.0
 10
84.9342805357
 20
69.5639250059
 30
0.0
 10
85.1092705544
 20
69.2943903898
 30
0.0
 10
85.4170471251
 20
68.9646599735
 30
0.0
 10
85.8888648014
 20
68.6048387763
 30
0.0
 10
86.462877804
 20
68.2805598312
 30
0.0
 10
87.1210540064
 20
68.0064306755
 30
0.0
 10
87.8429048086
 20
67.7952210948
 30
0.0
 10
88.605260211
 20
67.6572088914
 30
0.0
 10
89.3830107948
 20
67.5989940678
 30
0.0
 10
90.1499460667
 20
67.6233381149
 30
0.0
 10
90.8797372767
 20
67.7281953618
 30
0.0
 10
91.5476118018
 20
67.9064647054
 30
0.0
 10
92.1312641366
 20
68.1476417464
 30
0.0
 10
92.546040763
 20
68.3994423441
 30
0.0
 10
92.8146979925
 20
68.6244785398
 30
0.0
 10
93.0229481554
 20
68.8431414202
 30
0.0
 10
93.1432018181
 20
69.0294791145
 30
0.0
 10
93.1962531017
 20
69.1582866657
 30
0.0
  0
SPLINE
  5
248
100
AcDbEntity
  8
0
100
AcDbSpline
 62
7
  6
CONTINUOUS
 70
0
 71
3
 72
11
 73
7
 74
0
 42
0.0000001
 43
0.0000001
 44
0.0000000001
 40
0.0
 40
0.0
 40
0.0
 40
0.0
 40
0.2390674815
 40
0.4872974006
 40
0.7419260728
 40
1.0
 40
1.0
 40
1.0
 40
1.0
 10
85.993788328
 20
68.5910648139
 30
0.0
 10
86.1886141952
 20
68.7738979661
 30
0.0
 10
86.6161700455
 20
69.115677763
 30
0.0
 10
87.3461482526
 20
69.5181329462
 30
0.0
 10
88.1601428
 20
69.7824837943
 30
0.0
 10
88.7349430496
 20
69.8440795636
 30
0.0
 10
89.0233643626
 20
69.8440795636
 30
0.0
  0
SPLINE
  5
249
100
AcDbEntity
  8
0
100
AcDbSpline
 62
7
  6
CONTINUOUS
 70
0
 71
3
 72
11
 73
7
 74
0
 42
0.0000001
 43
0.0000001
 44
0.0000000001
 40
0.0
 40
0.0
 40
0.0
 40
0.0
 40
0.2390674815
 40
0.4872974006
 40
0.7419260728
 40
1.0
 40
1.0
 40
1.0
 40
1.0
 10
85.993788328
 20
73.8927976926
 30
0.0
 10
86.1886141952
 20
74.0756308447
 30
0.0
 10
86.6161700455
 20
74.4174106417
 30
0.0
 10
87.3461482526
 20
74.8198658249
 30
0.0
 10
88.1601428
 20
75.0842166729
 30
0.0
 10
88.7349430496
 20
75.1458124422
 30
0.0
 10
89.0233643626
 20
75.1458124422
 30
0.0
  0
SPLINE
  5
24A
100
AcDbEntity
  8
0
100
AcDbSpline
 62
7
  6
CONTINUOUS
 70
0
 71
3
 72
11
 73
7
 74
0
 42
0.0000001
 43
0.0000001
 44
0.0000000001
 40
0.0
 40
0.0
 40
0.0
 40
0.0
 40
0.2390674815
 40
0.4872974006
 40
0.7419260728
 40
1.0
 40
1.0
 40
1.0
 40
1.0
 10
85.993788328
 20
79.1945305712
 30
0.0
 10
86.1886141952
 20
79.3773637234
 30
0.0
 10
86.6161700455
 20
79.7191435203
 30
0.0
 10
87.3461482526
 20
80.1215987036
 30
0.0
 10
88.1601428
 20
80.3859495516
 30
0.0
 10
88.7349430496
 20
80.4475453209
 30
0.0
 10
89.0233643626
 20
80.4475453209
 30
0.0
  0
SPLINE
  5
24B
100
AcDbEntity
  8
0
100
AcDbSpline
 62
7
  6
CONTINUOUS
 70
0
 71
3
 72
11
 73
7
 74
0
 42
0.0000001
 43
0.0000001
 44
0.0000000001
 40
0.0
 40
0.0
 40
0.0
 40
0.0
 40
0.2603533193
 40
0.5163263363
 40
0.7641622518
 40
1.0
 40
1.0
 40
1.0
 40
1.0
 10
89.0233643626
 20
80.4475453209
 30
0.0
 10
89.3495464868
 20
80.4475453209
 30
0.0
 10
89.9990090766
 20
80.3686272012
 30
0.0
 10
90.9042092077
 20
80.0343766078
 30
0.0
 10
91.6930292814
 20
79.5370807192
 30
0.0
 10
92.1402309512
 20
79.1227857525
 30
0.0
 10
92.3386121744
 20
78.9038195657
 30
0.0
  0
SPLINE
  5
24C
100
AcDbEntity
  8
0
100
AcDbSpline
 62
7
  6
CONTINUOUS
 70
0
 71
3
 72
11
 73
7
 74
0
 42
0.0000001
 43
0.0000001
 44
0.0000000001
 40
0.0
 40
0.0
 40
0.0
 40
0.0
 40
0.2603533193
 40
0.5163263363
 40
0.7641622518
 40
1.0
 40
1.0
 40
1.0
 40
1.0
 10
89.0233643626
 20
75.1458124422
 30
0.0
 10
89.3495464868
 20
75.1458124422
 30
0.0
 10
89.9990090766
 20
75.0668943225
 30
0.0
 10
90.9042092077
 20
74.7326437292
 30
0.0
 10
91.6930292814
 20
74.2353478406
 30
0.0
 10
92.1402309512
 20
73.8210528739
 30
0.0
 10
92.3386121744
 20
73.602086687
 30
0.0
  0
SPLINE
  5
24D
100
AcDbEntity
  8
0
100
AcDbSpline
 62
7
  6
CONTINUOUS
 70
0
 71
3
 72
11
 73
7
 74
0
 42
0.0000001
 43
0.0000001
 44
0.0000000001
 40
0.0
 40
0.0
 40
0.0
 40
0.0
 40
0.2603533193
 40
0.5163263363
 40
0.7641622518
 40
1.0
 40
1.0
 40
1.0
 40
1.0
 10
89.0233643626
 20
69.8440795636
 30
0.0
 10
89.3495464868
 20
69.8440795636
 30
0.0
 10
89.9990090766
 20
69.7651614438
 30
0.0
 10
90.9042092077
 20
69.4309108505
 30
0.0
 10
91.6930292814
 20
68.9336149619
 30
0.0
 10
92.1402309512
 20
68.5193199952
 30
0.0
 10
92.3386121744
 20
68.3003538083
 30
0.0
  0
SPLINE
  5
24E
100
AcDbEntity
  8
0
100
AcDbSpline
 62
7
  6
CONTINUOUS
 70
0
 71
3
 72
30
 73
26
 74
0
 42
0.0000001
 43
0.0000001
 44
0.0000000001
 40
0.0
 40
0.0
 40
0.0
 40
0.0
 40
0.065185168
 40
0.0977828085
 40
0.1303772211
 40
0.1629688877
 40
0.1955560514
 40
0.2607035579
 40
0.3258401188
 40
0.3909793249
 40
0.4561338243
 40
0.5212864353
 40
0.586333787
 40
0.6187684751
 40
0.6510576197
 40
0.6831298554
 40
0.7149036559
 40
0.7462937027
 40
0.777217079
 40
0.8075979909
 40
0.8373678766
 40
0.8664690238
 40
0.8948455587
 40
0.949203946
 40
1.0
 40
1.0
 40
1.0
 40
1.0
 10
93.1962531017
 20
62.7488689055
 30
0.0
 10
92.3485707145
 20
62.708475459
 30
0.0
 10
91.0738868647
 20
62.696722699
 30
0.0
 10
89.3783249005
 20
62.781864372
 30
0.0
 10
88.1101648385
 20
62.8975234822
 30
0.0
 10
86.8479193445
 20
63.0646644848
 30
0.0
 10
85.1757956385
 20
63.3546353423
 30
0.0
 10
83.1100976132
 20
63.845077135
 30
0.0
 10
80.6920749894
 20
64.6474566774
 30
0.0
 10
78.3615541638
 20
65.6792703699
 30
0.0
 10
76.1550793718
 20
66.957816316
 30
0.0
 10
74.1214165233
 20
68.4970271581
 30
0.0
 10
72.6266403347
 20
70.0095461836
 30
0.0
 10
71.5916581276
 20
71.3469921129
 30
0.0
 10
70.904775325
 20
72.4053360036
 30
0.0
 10
70.3128932828
 20
73.5097510655
 30
0.0
 10
69.818309798
 20
74.6481796914
 30
0.0
 10
69.4192952315
 20
75.807531949
 30
0.0
 10
69.11038485
 20
76.975110359
 30
0.0
 10
68.8829237275
 20
78.1395653082
 30
0.0
 10
68.7275607932
 20
79.2916807608
 30
0.0
 10
68.6304908988
 20
80.4237130931
 30
0.0
 10
68.5545117546
 20
81.8778943306
 30
0.0
 10
68.520964444
 20
83.6163222005
 30
0.0
 10
68.5176588459
 20
84.9853024313
 30
0.0
 10
68.5176631607
 20
85.6466151251
 30
0.0
  0
SPLINE
  5
24F
100
AcDbEntity
  8
0
100
AcDbSpline
 62
7
  6
CONTINUOUS
 70
0
 71
3
 72
27
 73
23
 74
0
 42
0.0000001
 43
0.0000001
 44
0.0000000001
 40
0.0
 40
0.0
 40
0.0
 40
0.0
 40
0.0424641454
 40
0.0663253959
 40
0.0921951208
 40
0.1502562616
 40
0.2165490223
 40
0.2899456323
 40
0.3686727233
 40
0.4504907155
 40
0.532947641
 40
0.6135660107
 40
0.6900271736
 40
0.7603234893
 40
0.8229330447
 40
0.8770223018
 40
0.9009316593
 40
0.9229282253
 40
0.9433210596
 40
0.9625685123
 40
0.9812533456
 40
1.0
 40
1.0
 40
1.0
 40
1.0
 10
93.1962531017
 20
80.5048390271
 30
0.0
 10
93.1434748357
 20
80.6286664757
 30
0.0
 10
93.0227930168
 20
80.8064680013
 30
0.0
 10
92.8142213112
 20
81.0114127521
 30
0.0
 10
92.5441865859
 20
81.2220358294
 30
0.0
 10
92.1276798217
 20
81.457628953
 30
0.0
 10
91.544507602
 20
81.6908499178
 30
0.0
 10
90.8779311446
 20
81.8815615596
 30
0.0
 10
90.1503191379
 20
82.027990789
 30
0.0
 10
89.3861181417
 20
82.1287652015
 30
0.0
 10
88.6111684132
 20
82.182076961
 30
0.0
 10
87.8513232891
 20
82.185991435
 30
0.0
 10
87.1314147609
 20
82.1393959708
 30
0.0
 10
86.4740277747
 20
82.0409370867
 30
0.0
 10
85.8994720777
 20
81.890089221
 30
0.0
 10
85.4871331065
 20
81.7133772555
 30
0.0
 10
85.2203588838
 20
81.5408095594
 30
0.0
 10
85.0600661678
 20
81.4037408743
 30
0.0
 10
84.932987257
 20
81.2540710562
 30
0.0
 10
84.8407911263
 20
81.0924118877
 30
0.0
 10
84.7853195345
 20
80.920179387
 30
0.0
 10
84.7733643626
 20
80.8011222484
 30
0.0
 10
84.7733643626
 20
80.7416976998
 30
0.0
  0
SPLINE
  5
250
100
AcDbEntity
  8
0
100
AcDbSpline
 62
7
  6
CONTINUOUS
 70
0
 71
3
 72
14
 73
10
 74
0
 42
0.0000001
 43
0.0000001
 44
0.0000000001
 40
0.0
 40
0.0
 40
0.0
 40
0.0
 40
0.0280236077
 40
0.0775448654
 40
0.1555232996
 40
0.2634418593
 40
0.4017512616
 40
0.5706024391
 40
1.0
 40
1.0
 40
1.0
 40
1.0
 10
68.5313968592
 20
94.9411764721
 30
0.0
 10
68.5297870503
 20
94.9411764793
 30
0.0
 10
68.5259224055
 20
94.9376526823
 30
0.0
 10
68.5237630426
 20
94.9290376419
 30
0.0
 10
68.5214037977
 20
94.9156725063
 30
0.0
 10
68.5199801648
 20
94.8970978107
 30
0.0
 10
68.5188458199
 20
94.8732787069
 30
0.0
 10
68.5178119993
 20
94.8309774224
 30
0.0
 10
68.5176624124
 20
94.7966089615
 30
0.0
 10
68.5176634566
 20
94.7719423295
 30
0.0
  0
SPLINE
  5
251
100
AcDbEntity
  8
0
100
AcDbSpline
 62
7
  6
CONTINUOUS
 70
0
 71
3
 72
27
 73
23
 74
0
 42
0.0000001
 43
0.0000001
 44
0.0000000001
 40
0.0
 40
0.0
 40
0.0
 40
0.0
 40
0.0424641454
 40
0.0663253959
 40
0.0921951208
 40
0.1502562616
 40
0.2165490223
 40
0.2899456323
 40
0.3686727233
 40
0.4504907155
 40
0.532947641
 40
0.6135660107
 40
0.6900271736
 40
0.7603234893
 40
0.8229330447
 40
0.8770223018
 40
0.9009316593
 40
0.9229282253
 40
0.9433210596
 40
0.9625685123
 40
0.9812533456
 40
1.0
 40
1.0
 40
1.0
 40
1.0
 10
93.1962531017
 20
75.2031061484
 30
0.0
 10
93.1434748357
 20
75.326933597
 30
0.0
 10
93.0227930168
 20
75.5047351227
 30
0.0
 10
92.8142213112
 20
75.7096798735
 30
0.0
 10
92.5441865859
 20
75.9203029507
 30
0.0
 10
92.1276798217
 20
76.1558960744
 30
0.0
 10
91.544507602
 20
76.3891170392
 30
0.0
 10
90.8779311446
 20
76.579828681
 30
0.0
 10
90.1503191379
 20
76.7262579103
 30
0.0
 10
89.3861181417
 20
76.8270323229
 30
0.0
 10
88.6111684133
 20
76.8803440823
 30
0.0
 10
87.8513232891
 20
76.8842585563
 30
0.0
 10
87.1314147609
 20
76.8376630922
 30
0.0
 10
86.4740277747
 20
76.7392042081
 30
0.0
 10
85.8994720777
 20
76.5883563423
 30
0.0
 10
85.4871331065
 20
76.4116443768
 30
0.0
 10
85.2203588838
 20
76.2390766807
 30
0.0
 10
85.0600661678
 20
76.1020079957
 30
0.0
 10
84.932987257
 20
75.9523381775
 30
0.0
 10
84.8407911263
 20
75.790679009
 30
0.0
 10
84.7853195345
 20
75.6184465084
 30
0.0
 10
84.7733643626
 20
75.4993893697
 30
0.0
 10
84.7733643626
 20
75.4399648212
 30
0.0
  0
SPLINE
  5
252
100
AcDbEntity
  8
0
100
AcDbSpline
 62
7
  6
CONTINUOUS
 70
0
 71
3
 72
27
 73
23
 74
0
 42
0.0000001
 43
0.0000001
 44
0.0000000001
 40
0.0
 40
0.0
 40
0.0
 40
0.0
 40
0.0424641454
 40
0.0663253959
 40
0.0921951208
 40
0.1502562616
 40
0.2165490223
 40
0.2899456323
 40
0.3686727233
 40
0.4504907155
 40
0.532947641
 40
0.6135660107
 40
0.6900271736
 40
0.7603234893
 40
0.8229330447
 40
0.8770223018
 40
0.9009316593
 40
0.9229282253
 40
0.9433210596
 40
0.9625685123
 40
0.9812533456
 40
1.0
 40
1.0
 40
1.0
 40
1.0
 10
93.1962531017
 20
69.9013732697
 30
0.0
 10
93.1434748357
 20
70.0252007184
 30
0.0
 10
93.0227930168
 20
70.203002244
 30
0.0
 10
92.8142213112
 20
70.4079469948
 30
0.0
 10
92.5441865859
 20
70.6185700721
 30
0.0
 10
92.1276798217
 20
70.8541631957
 30
0.0
 10
91.544507602
 20
71.0873841605
 30
0.0
 10
90.8779311446
 20
71.2780958023
 30
0.0
 10
90.1503191379
 20
71.4245250317
 30
0.0
 10
89.3861181417
 20
71.5252994442
 30
0.0
 10
88.6111684132
 20
71.5786112037
 30
0.0
 10
87.8513232891
 20
71.5825256776
 30
0.0
 10
87.1314147609
 20
71.5359302135
 30
0.0
 10
86.4740277747
 20
71.4374713294
 30
0.0
 10
85.8994720777
 20
71.2866234637
 30
0.0
 10
85.4871331065
 20
71.1099114982
 30
0.0
 10
85.2203588838
 20
70.9373438021
 30
0.0
 10
85.0600661678
 20
70.800275117
 30
0.0
 10
84.932987257
 20
70.6506052989
 30
0.0
 10
84.8407911263
 20
70.4889461304
 30
0.0
 10
84.7853195345
 20
70.3167136297
 30
0.0
 10
84.7733643626
 20
70.197656491
 30
0.0
 10
84.7733643626
 20
70.1382319425
 30
0.0
  0
ELLIPSE
  5
253
100
AcDbEntity
  8
0
100
AcDbEllipse
 62
7
  6
CONTINUOUS
 10
-87.4995258481
 20
67.4411764706
 30
0.0
 11
596.6611151049
 21
24.4142096119
 31
0.0
 40
0.0212128294
 41
1.2567480272
 42
1.2622521297
  0
ELLIPSE
  5
254
100
AcDbEntity
  8
0
100
AcDbEllipse
 62
7
  6
CONTINUOUS
 10
-137.1480218497
 20
67.4411764706
 30
0.0
 11
752.6249456302
 21
-24.41013007
 31
0.0
 40
0.0168274205
 41
-1.2582752216
 42
-1.254837241
  0
ELLIPSE
  5
255
100
AcDbEntity
  8
0
100
AcDbEllipse
 62
7
  6
CONTINUOUS
 10
89.0233643626
 20
79.9626262148
 30
0.0
 11
4.2487886894
 21
0.2205501321
 31
0.0
 40
0.4600435524
 41
6.0685270837
 42
6.4500918569
  0
ELLIPSE
  5
256
100
AcDbEntity
  8
0
100
AcDbEllipse
 62
7
  6
CONTINUOUS
 10
-87.4995258481
 20
67.4411764706
 30
0.0
 11
596.6611151049
 21
24.4142096119
 31
0.0
 40
0.0212128294
 41
-1.2639881045
 42
-1.258484002
  0
ELLIPSE
  5
257
100
AcDbEntity
  8
0
100
AcDbEllipse
 62
7
  6
CONTINUOUS
 10
89.0233643626
 20
69.3591604575
 30
0.0
 11
4.2487886894
 21
0.2205501321
 31
0.0
 40
0.4600435524
 41
6.0685270837
 42
6.4500918569
  0
ELLIPSE
  5
258
100
AcDbEntity
  8
0
100
AcDbEllipse
 62
7
  6
CONTINUOUS
 10
89.0233643626
 20
74.6608933362
 30
0.0
 11
4.2487886894
 21
0.2205501321
 31
0.0
 40
0.4600435524
 41
6.0685270837
 42
6.4500918569
  0
ENDSEC
  0
SECTION
  2
OBJECTS
  0
DICTIONARY
  5
C
100
AcDbDictionary
280
0
281
1
  3
ACAD_GROUP
350
D
  3
ACAD_MLINESTYLE
350
17
  3
ACAD_LAYOUT
350
1A
  3
ACAD_PLOTSETTINGS
350
19
  3
ACAD_PLOTSTYLENAME
350
E
  0
DICTIONARY
  5
D
102
{ACAD_REACTORS
330
C
102
}
100
AcDbDictionary
280
0
281
1
  0
ACDBDICTIONARYWDFLT
  5
E
102
{ACAD_REACTORS
330
C
102
}
100
AcDbDictionary
281
1
  3
Normal
350
F
100
AcDbDictionaryWithDefault
340
F
  0
DICTIONARY
  5
17
102
{ACAD_REACTORS
330
C
102
}
100
AcDbDictionary
280
0
281
1
  3
Standard
350
18
  0
DICTIONARY
  5
19
102
{ACAD_REACTORS
330
C
102
}
100
AcDbDictionary
281
1
  0
DICTIONARY
  5
1A
102
{ACAD_REACTORS
330
C
102
}
100
AcDbDictionary
281
1
  3
Model
350
259
  3
Layout1
350
25A
  0
ACDBPLACEHOLDER
  5
F
102
{ACAD_REACTORS
330
E
102
}
  0
MLINESTYLE
  5
18
102
{ACAD_REACTORS
330
17
102
}
100
AcDbMlineStyle
  2
STANDARD
 70
0
  3

 62
256
 51
90.0
 52
90.0
 71
2
 49
0.5
 62
256
  6
BYLAYER
 49
-0.5
 62
256
  6
BYLAYER
  0
LAYOUT
  5
259
102
{ACAD_REACTORS
330
1A
102
}
100
AcDbPlotSettings
  1

  2
none_device
  4

  6

 40
0.0
 41
0.0
 42
0.0
 43
0.0
 44
210.0
 45
297.0
 46
0.0
 47
0.0
 48
0.0
 49
0.0
140
0.0
141
0.0
142
1.0
143
1.0
 70
1024
 72
1
 73
0
 74
0
  7

 75
0
147
1.0
148
0.0
149
0.0
100
AcDbLayout
  1
Model
 70
0
 71
0
 10
0.0
 20
0.0
 11
210.0
 21
297.0
 12
0.0
 22
0.0
 32
0.0
 14
0.0
 24
0.0
 34
0.0
 15
0.0
 25
0.0
 35
0.0
146
0.0
 13
0.0
 23
0.0
 33
0.0
 16
1.0
 26
0.0
 36
0.0
 17
0.0
 27
1.0
 37
0.0
 76
0
330
210
345
0
346
0
  0
LAYOUT
  5
25A
102
{ACAD_REACTORS
330
1A
102
}
100
AcDbPlotSettings
  1

  2
none_device
  4

  6

 40
0.0
 41
0.0
 42
0.0
 43
0.0
 44
210.0
 45
297.0
 46
0.0
 47
0.0
 48
0.0
 49
0.0
140
0.0
141
0.0
142
1.0
143
1.0
 70
0
 72
1
 73
0
 74
0
  7

 75
0
147
1.0
148
0.0
149
0.0
100
AcDbLayout
  1
Layout1
 70
0
 71
1
 10
0.0
 20
0.0
 11
210.0
 21
297.0
 12
0.0
 22
0.0
 32
0.0
 14
0.0
 24
0.0
 34
0.0
 15
0.0
 25
0.0
 35
0.0
146
0.0
 13
0.0
 23
0.0
 33
0.0
 16
1.0
 26
0.0
 36
0.0
 17
0.0
 27
1.0
 37
0.0
 76
0
330
211
345
0
346
0
  0
ENDSEC
  0
EOF
