999
DXF file: C:\Users\sesa63760\OneDrive - Schneider Electric\Documents\7-Dev\_Creo\CAD\MCADPP0000143_3D-CAD\drw0001_3.dxf
999
Pro/ENGINEER 2019471 by Parametric Technology Corporation
  0
SECTION
  2
HEADER
  9
$ACADVER
  1
AC1024
  9
$DWGCODEPAGE
  3
ANSI_1252
  9
$EXTMAX
 10
477.7147505734
 20
675.6251472396
 30
0.0
  9
$EXTMIN
 10
0.0
 20
0.0
 30
0.0
  9
$LIMMIN
 10
0.0
 20
0.0
  9
$LIMMAX
 10
477.7147505734
 20
675.6251472396
  9
$VIEWCTR
 10
238.8573752867
 20
337.8125736198
  9
$VIEWSIZE
 40
675.6251472396
  9
$CLAYER
  8
0
  9
$LTSCALE
 40
44.0407503386
  9
$CELTYPE
  6
BYLAYER
  9
$DIMSCALE
 40
1.0
  9
$DIMASZ
 40
5.687080364
  9
$DIMEXO
 40
1.0
  9
$DIMDLI
 40
30.4281547794
  9
$DIMEXE
 40
1.0
  9
$DIMCEN
 40
7.2066682372
  9
$DIMLFAC
 40
1.0
  9
$DIMBLK
  1
_FILLED
  9
$DIMALT
 70
0
  9
$DIMALTF
 40
0.0393700787
  9
$DIMTXT
 40
7.9619125096
  9
$DIMTOL
 70
1
  9
$DIMLIM
 70
0
  9
$DIMTFAC
 40
1.0
  9
$DIMTP
 40
0.01
  9
$DIMTM
 40
0.01
  9
$DIMGAP
 40
0.625
  9
$DIMDSEP
 70
46
  9
$AUNITS
 70
0
  9
$PDMODE
 70
3
  9
$PDSIZE
 40
0.3125
  9
$HANDSEED
  5
26A
  9
$TILEMODE
 70
1
  9
$MEASUREMENT
 70
1
  9
$INSUNITS
 70
4
  0
ENDSEC
  0
SECTION
  2
CLASSES
  0
CLASS
  1
ACDBDICTIONARYWDFLT
  2
AcDbDictionaryWithDefault
  3
AutoCAD 2000
 90
0
 91
1
280
0
281
0
  0
CLASS
  1
ACDBPLACEHOLDER
  2
AcDbPlaceHolder
  3
AutoCAD 2000
 90
0
 91
1
280
0
281
0
  0
CLASS
  1
LAYOUT
  2
AcDbLayout
  3
AutoCAD 2000
 90
0
 91
0
280
0
281
0
  0
ENDSEC
  0
SECTION
  2
TABLES
  0
TABLE
  2
VPORT
  5
8
100
AcDbSymbolTable
 70
2
  0
VPORT
  5
1F4
100
AcDbSymbolTableRecord
100
AcDbViewportTableRecord
  2
*ACTIVE
 70
0
 10
0.0
 20
0.0
 11
1.0
 21
1.0
 12
238.8573752867
 22
337.8125736198
 13
0.0
 23
0.0
 14
1.0
 24
1.0
 15
0.0
 25
0.0
 16
0.0
 26
0.0
 36
1.0
 17
0.0
 27
0.0
 37
0.0
 40
675.6251472396
 41
0.7070707071
 42
50.0
 43
0.0
 44
0.0
 50
0.0
 51
0.0
 71
0
 72
100
 73
1
 74
1
 75
0
 76
0
 77
0
 78
0
  0
ENDTAB
  0
TABLE
  2
LTYPE
  5
5
100
AcDbSymbolTable
 70
6
  0
LTYPE
  5
14
100
AcDbSymbolTableRecord
100
AcDbLinetypeTableRecord
  2
BYBLOCK
 70
0
  3

 72
65
 73
0
 40
0.0
  0
LTYPE
  5
15
100
AcDbSymbolTableRecord
100
AcDbLinetypeTableRecord
  2
BYLAYER
 70
0
  3

 72
65
 73
0
 40
0.0
  0
LTYPE
  5
16
100
AcDbSymbolTableRecord
100
AcDbLinetypeTableRecord
  2
CONTINUOUS
 70
64
  3
Solid line
 72
65
 73
0
 40
0.0
  0
LTYPE
  5
1F5
100
AcDbSymbolTableRecord
100
AcDbLinetypeTableRecord
  2
CENTER
 70
64
  3
____ _ ____ _ ____ _ ____ _ ____ _ ____ _ ____
 72
65
 73
4
 40
0.6
 49
0.375
 74
0
 49
-0.075
 74
0
 49
0.075
 74
0
 49
-0.075
 74
0
  0
LTYPE
  5
1F6
100
AcDbSymbolTableRecord
100
AcDbLinetypeTableRecord
  2
HIDDEN
 70
64
  3
- - - - - - - - - - - - - - - - - - - -
 72
65
 73
2
 40
0.2
 49
0.1
 74
0
 49
-0.1
 74
0
  0
LTYPE
  5
1F7
100
AcDbSymbolTableRecord
100
AcDbLinetypeTableRecord
  2
PHANTOM
 70
64
  3
_____ _ _ _____ _ _ _____ _ _ _____
 72
65
 73
6
 40
0.8
 49
0.45
 74
0
 49
-0.05
 74
0
 49
0.1
 74
0
 49
-0.05
 74
0
 49
0.1
 74
0
 49
-0.05
 74
0
  0
LTYPE
  5
1F8
100
AcDbSymbolTableRecord
100
AcDbLinetypeTableRecord
  2
DOT
 70
64
  3
. . . . . . . . . . . . . . . . . . . .
 72
65
 73
2
 40
0.2
 49
0.1
 74
0
 49
-0.1
 74
0
  0
LTYPE
  5
1F9
100
AcDbSymbolTableRecord
100
AcDbLinetypeTableRecord
  2
DASHED
 70
64
  3
- - - - - - - - - - - - - - - - - - - -
 72
65
 73
2
 40
0.2
 49
0.1
 74
0
 49
-0.1
 74
0
  0
ENDTAB
  0
TABLE
  2
LAYER
  5
2
100
AcDbSymbolTable
 70
36
  0
LAYER
  5
10
100
AcDbSymbolTableRecord
100
AcDbLayerTableRecord
  2
0
 70
0
 62
7
  6
CONTINUOUS
370
-3
390
F
  0
LAYER
  5
1FA
100
AcDbSymbolTableRecord
100
AcDbLayerTableRecord
  2
DEFAULT_1
 70
0
 62
7
  6
CENTER
370
-3
390
F
  0
LAYER
  5
1FB
100
AcDbSymbolTableRecord
100
AcDbLayerTableRecord
  2
DEFAULT_2
 70
0
 62
8
  6
HIDDEN
370
-3
390
F
  0
LAYER
  5
1FC
100
AcDbSymbolTableRecord
100
AcDbLayerTableRecord
  2
DEFAULT_3
 70
0
 62
7
  6
PHANTOM
370
-3
390
F
  0
LAYER
  5
1FD
100
AcDbSymbolTableRecord
100
AcDbLayerTableRecord
  2
00_COMPONENTS
 70
0
 62
7
  6
CONTINUOUS
370
-3
390
F
  0
LAYER
  5
1FE
100
AcDbSymbolTableRecord
100
AcDbLayerTableRecord
  2
01_1_DEFAULT_DATUMS
 70
0
 62
7
  6
CONTINUOUS
370
-3
390
F
  0
LAYER
  5
1FF
100
AcDbSymbolTableRecord
100
AcDbLayerTableRecord
  2
01_PLANES
 70
0
 62
7
  6
CONTINUOUS
370
-3
390
F
  0
LAYER
  5
200
100
AcDbSymbolTableRecord
100
AcDbLayerTableRecord
  2
02_COORD_SYS
 70
0
 62
7
  6
CONTINUOUS
370
-3
390
F
  0
LAYER
  5
201
100
AcDbSymbolTableRecord
100
AcDbLayerTableRecord
  2
03_AXES
 70
0
 62
7
  6
CONTINUOUS
370
-3
390
F
  0
LAYER
  5
202
100
AcDbSymbolTableRecord
100
AcDbLayerTableRecord
  2
04_POINTS
 70
0
 62
7
  6
CONTINUOUS
370
-3
390
F
  0
LAYER
  5
203
100
AcDbSymbolTableRecord
100
AcDbLayerTableRecord
  2
05_CURVES
 70
0
 62
7
  6
CONTINUOUS
370
-3
390
F
  0
LAYER
  5
204
100
AcDbSymbolTableRecord
100
AcDbLayerTableRecord
  2
06_SURFS
 70
0
 62
7
  6
CONTINUOUS
370
-3
390
F
  0
LAYER
  5
205
100
AcDbSymbolTableRecord
100
AcDbLayerTableRecord
  2
07_COSMETICS
 70
0
 62
7
  6
CONTINUOUS
370
-3
390
F
  0
LAYER
  5
206
100
AcDbSymbolTableRecord
100
AcDbLayerTableRecord
  2
10_NOTES
 70
0
 62
7
  6
CONTINUOUS
370
-3
390
F
  0
LAYER
  5
207
100
AcDbSymbolTableRecord
100
AcDbLayerTableRecord
  2
11_NOTES_PUB
 70
0
 62
7
  6
CONTINUOUS
370
-3
390
F
  0
LAYER
  5
208
100
AcDbSymbolTableRecord
100
AcDbLayerTableRecord
  2
13_REF_GTOL
 70
0
 62
7
  6
CONTINUOUS
370
-3
390
F
  0
LAYER
  5
209
100
AcDbSymbolTableRecord
100
AcDbLayerTableRecord
  2
16_MISC
 70
0
 62
7
  6
CONTINUOUS
370
-3
390
F
  0
LAYER
  5
20A
100
AcDbSymbolTableRecord
100
AcDbLayerTableRecord
  2
17_NO_PRINT
 70
0
 62
7
  6
CONTINUOUS
370
-3
390
F
  0
LAYER
  5
20B
100
AcDbSymbolTableRecord
100
AcDbLayerTableRecord
  2
18_DATUM_CAMS_JOINTS
 70
0
 62
7
  6
CONTINUOUS
370
-3
390
F
  0
LAYER
  5
20C
100
AcDbSymbolTableRecord
100
AcDbLayerTableRecord
  2
19_DATUM_FUNCTIONAL
 70
0
 62
7
  6
CONTINUOUS
370
-3
390
F
  0
LAYER
  5
20D
100
AcDbSymbolTableRecord
100
AcDbLayerTableRecord
  2
20_DATUM_KINEMATIC_SCHEME
 70
0
 62
7
  6
CONTINUOUS
370
-3
390
F
  0
ENDTAB
  0
TABLE
  2
STYLE
  5
3
100
AcDbSymbolTable
 70
1
  0
STYLE
  5
11
100
AcDbSymbolTableRecord
100
AcDbTextStyleTableRecord
  2
STANDARD
 70
0
 40
0.0
 41
0.8
 50
0.0
 71
0
 42
0.2
  3
txt
  4

  0
STYLE
  5
20E
100
AcDbSymbolTableRecord
100
AcDbTextStyleTableRecord
  2
TEXTSTYLE_1
 70
0
 40
0.0
 41
0.8
 50
0.0
 71
0
 42
0.2
  3
gdt
  4

  0
ENDTAB
  0
TABLE
  2
VIEW
  5
6
100
AcDbSymbolTable
 70
0
  0
ENDTAB
  0
TABLE
  2
UCS
  5
7
100
AcDbSymbolTable
 70
0
  0
ENDTAB
  0
TABLE
  2
APPID
  5
9
100
AcDbSymbolTable
 70
1
  0
APPID
  5
20F
100
AcDbSymbolTableRecord
100
AcDbRegAppTableRecord
  2
ACAD
 70
0
  0
ENDTAB
  0
TABLE
  2
BLOCK_RECORD
  5
1
100
AcDbSymbolTable
 70
0
  0
BLOCK_RECORD
  5
210
100
AcDbSymbolTableRecord
100
AcDbBlockTableRecord
  2
*Model_Space
  0
BLOCK_RECORD
  5
211
100
AcDbSymbolTableRecord
100
AcDbBlockTableRecord
  2
*Paper_Space
  0
BLOCK_RECORD
  5
212
100
AcDbSymbolTableRecord
100
AcDbBlockTableRecord
  2
_FILLED
  0
ENDTAB
  0
TABLE
  2
DIMSTYLE
  5
A
100
AcDbSymbolTable
 70
1
100
AcDbDimStyleTable
 71
0
  0
DIMSTYLE
105
213
100
AcDbSymbolTableRecord
100
AcDbDimStyleTableRecord
  2
STANDARD
 70
0
  3

  4

 40
1.0
 41
5.687080364
 42
1.0
 43
0.38
 44
1.0
 45
0.0
 46
0.0
 47
0.01
 48
0.01
140
7.9619125096
141
0.09
142
0.0
143
25.4
144
1.0
145
0.0
146
1.0
147
0.625
 71
1
 72
0
 73
0
 74
0
 75
0
 76
0
 77
1
 78
8
 79
2
170
0
171
1
172
0
173
0
174
0
175
0
176
0
177
0
178
0
270
2
179
2
271
2
272
2
273
2
274
2
275
0
280
0
281
0
282
0
283
1
284
8
285
0
286
0
287
3
288
0
340
11
278
46
341
212
342
212
343
212
344
212
  0
ENDTAB
  0
ENDSEC
  0
SECTION
  2
BLOCKS
  0
BLOCK
  5
20
100
AcDbEntity
  8
0
100
AcDbBlockBegin
  2
*Model_Space
 70
0
 10
0.0
 20
0.0
 30
0.0
  3
*Model_Space
  1

  0
ENDBLK
  5
21
100
AcDbEntity
  8
0
100
AcDbBlockEnd
  0
BLOCK
  5
1C
100
AcDbEntity
  8
0
100
AcDbBlockBegin
  2
*Paper_Space
 70
0
 10
0.0
 20
0.0
 30
0.0
  3
*Paper_Space
  1

  0
ENDBLK
  5
1D
100
AcDbEntity
  8
0
100
AcDbBlockEnd
  0
BLOCK
  5
214
100
AcDbEntity
  8
0
100
AcDbBlockBegin
  2
_FILLED
 70
64
 10
0.0
 20
0.0
  3
_FILLED
  1

  0
SOLID
  5
215
100
AcDbEntity
  8
0
  6
BYBLOCK
 62
0
100
AcDbTrace
 10
0.0
 20
0.0
 11
-1.0
 21
0.25
 12
-1.0
 22
-0.25
 13
-1.0
 23
-0.25
  0
ENDBLK
  5
216
100
AcDbEntity
  8
0
  6
BYBLOCK
 62
0
100
AcDbBlockEnd
  0
ENDSEC
  0
SECTION
  2
ENTITIES
  0
LINE
  5
217
100
AcDbEntity
  8
0
100
AcDbLine
 62
7
  6
CONTINUOUS
 10
231.1468272184
 20
54.1657859782
 11
254.5358657219
 21
54.1657859782
  0
LINE
  5
218
100
AcDbEntity
  8
0
100
AcDbLine
 62
7
  6
CONTINUOUS
 10
230.9792579756
 20
55.7463100909
 11
233.8294644738
 21
55.7463100909
  0
LINE
  5
219
100
AcDbEntity
  8
0
100
AcDbLine
 62
7
  6
CONTINUOUS
 10
251.9936971458
 20
55.7463100909
 11
254.7121286949
 21
55.7463100909
  0
LINE
  5
21A
100
AcDbEntity
  8
0
100
AcDbLine
 62
7
  6
CONTINUOUS
 10
218.2130155465
 20
73.4009087542
 11
233.8294772207
 21
73.4009087542
  0
LINE
  5
21B
100
AcDbEntity
  8
0
100
AcDbLine
 62
7
  6
CONTINUOUS
 10
251.9936969194
 20
73.4009087542
 11
267.4739225313
 21
73.4009087542
  0
LINE
  5
21C
100
AcDbEntity
  8
0
100
AcDbLine
 62
7
  6
CONTINUOUS
 10
272.5522691401
 20
74.1180908168
 11
267.4739225313
 21
74.2067336871
  0
LINE
  5
21D
100
AcDbEntity
  8
0
100
AcDbLine
 62
7
  6
CONTINUOUS
 10
218.2130155465
 20
75.0665860226
 11
212.4789335418
 21
75.166674797
  0
LINE
  5
21E
100
AcDbEntity
  8
0
100
AcDbLine
 62
7
  6
CONTINUOUS
 10
212.5320731949
 20
78.0179222886
 11
272.6054087932
 21
76.9693383066
  0
LINE
  5
21F
100
AcDbEntity
  8
0
100
AcDbLine
 62
7
  6
CONTINUOUS
 10
260.1097546834
 20
99.3509087542
 11
225.5771833945
 21
99.3509087542
  0
LINE
  5
220
100
AcDbEntity
  8
0
100
AcDbLine
 62
7
  6
CONTINUOUS
 10
229.5314690389
 20
101.8509087542
 11
256.1554690389
 21
101.8509087542
  0
LINE
  5
221
100
AcDbEntity
  8
0
100
AcDbLine
 62
7
  6
CONTINUOUS
 10
256.1554690389
 20
107.6006665748
 11
229.5314690389
 21
107.6006665748
  0
LINE
  5
222
100
AcDbEntity
  8
0
100
AcDbLine
 62
7
  6
CONTINUOUS
 10
228.0278204691
 20
110.2061179393
 11
257.6591176088
 21
110.2061179393
  0
LINE
  5
223
100
AcDbEntity
  8
0
100
AcDbLine
 62
7
  6
CONTINUOUS
 10
212.8798537739
 20
97.9401236727
 11
272.9531893722
 21
96.8915396926
  0
LINE
  5
224
100
AcDbEntity
  8
0
100
AcDbLine
 62
7
  6
CONTINUOUS
 10
220.860823097
 20
114.2535361357
 11
264.8261149808
 21
114.2535361357
  0
LINE
  5
225
100
AcDbEntity
  8
0
100
AcDbLine
 62
7
  6
CONTINUOUS
 10
264.8259257579
 20
116.6509087542
 11
220.8610123199
 21
116.6509087542
  0
LINE
  5
226
100
AcDbEntity
  8
0
100
AcDbLine
 62
7
  6
CONTINUOUS
 10
228.0278204691
 20
110.2061179393
 11
220.860823097
 21
114.2535361357
  0
LINE
  5
227
100
AcDbEntity
  8
0
100
AcDbLine
 62
7
  6
CONTINUOUS
 10
260.1099751383
 20
99.3509087542
 11
262.1736800236
 21
97.0796967294
  0
LINE
  5
228
100
AcDbEntity
  8
0
100
AcDbLine
 62
7
  6
CONTINUOUS
 10
209.0592142392
 20
599.4188269706
 11
209.0592142392
 21
569.4188269706
  0
LINE
  5
229
100
AcDbEntity
  8
0
100
AcDbLine
 62
7
  6
CONTINUOUS
 10
214.2656475153
 20
544.0578119961
 11
214.2656475153
 21
624.7671955196
  0
LINE
  5
22A
100
AcDbEntity
  8
0
100
AcDbLine
 62
7
  6
CONTINUOUS
 10
216.8722598748
 20
546.3256365887
 11
216.8722598748
 21
621.7308509128
  0
LINE
  5
22B
100
AcDbEntity
  8
0
100
AcDbLine
 62
7
  6
CONTINUOUS
 10
218.2130155465
 20
73.4009087542
 11
218.2130155465
 21
75.0665860226
  0
LINE
  5
22C
100
AcDbEntity
  8
0
100
AcDbLine
 62
7
  6
CONTINUOUS
 10
220.860823097
 20
116.6509087542
 11
220.860823097
 21
114.2535361357
  0
LINE
  5
22D
100
AcDbEntity
  8
0
100
AcDbLine
 62
7
  6
CONTINUOUS
 10
224.1731108008
 20
565.4188269706
 11
224.1731108008
 21
603.4188269706
  0
LINE
  5
22E
100
AcDbEntity
  8
0
100
AcDbLine
 62
7
  6
CONTINUOUS
 10
212.8798537739
 20
97.9401236727
 11
212.5320731984
 21
78.0179224895
  0
LINE
  5
22F
100
AcDbEntity
  8
0
100
AcDbLine
 62
7
  6
CONTINUOUS
 10
212.5320731984
 20
78.0179224895
 11
212.4789335904
 21
75.1666775789
  0
LINE
  5
230
100
AcDbEntity
  8
0
100
AcDbLine
 62
7
  6
CONTINUOUS
 10
229.5314690389
 20
107.6006665748
 11
229.5314690389
 21
101.8509087542
  0
LINE
  5
231
100
AcDbEntity
  8
0
100
AcDbLine
 62
7
  6
CONTINUOUS
 10
230.9792579756
 20
55.7463100909
 11
230.9792579756
 21
73.4009087542
  0
LINE
  5
232
100
AcDbEntity
  8
0
100
AcDbLine
 62
7
  6
CONTINUOUS
 10
231.1468272184
 20
54.1657859782
 11
231.1468272184
 21
55.7463100909
  0
LINE
  5
233
100
AcDbEntity
  8
0
100
AcDbLine
 62
7
  6
CONTINUOUS
 10
231.2912267682
 20
539.5688269706
 11
231.2912267682
 21
520.5688269706
  0
LINE
  5
234
100
AcDbEntity
  8
0
100
AcDbLine
 62
7
  6
CONTINUOUS
 10
231.5487868017
 20
55.7463100909
 11
231.5487868017
 21
54.1657859782
  0
LINE
  5
235
100
AcDbEntity
  8
0
100
AcDbLine
 62
7
  6
CONTINUOUS
 10
233.8294771856
 20
54.1657859782
 11
233.8294771857
 21
73.4009087542
  0
LINE
  5
236
100
AcDbEntity
  8
0
100
AcDbLine
 62
7
  6
CONTINUOUS
 10
236.0730645583
 20
544.0578119961
 11
236.0730645583
 21
539.5688269706
  0
LINE
  5
237
100
AcDbEntity
  8
0
100
AcDbLine
 62
7
  6
CONTINUOUS
 10
236.7010157965
 20
116.6509087542
 11
236.7010157965
 21
520.5688269706
  0
LINE
  5
238
100
AcDbEntity
  8
0
100
AcDbLine
 62
7
  6
CONTINUOUS
 10
246.9567396476
 20
116.6509087542
 11
246.9567396476
 21
520.5688269706
  0
LINE
  5
239
100
AcDbEntity
  8
0
100
AcDbLine
 62
7
  6
CONTINUOUS
 10
247.1853386239
 20
544.0578119961
 11
247.1853386239
 21
539.5688269706
  0
LINE
  5
23A
100
AcDbEntity
  8
0
100
AcDbLine
 62
7
  6
CONTINUOUS
 10
248.9565138346
 20
116.6509087542
 11
248.9565138346
 21
520.5688269706
  0
LINE
  5
23B
100
AcDbEntity
  8
0
100
AcDbLine
 62
7
  6
CONTINUOUS
 10
249.8500929059
 20
544.0578119961
 11
249.8500929059
 21
539.5688269706
  0
LINE
  5
23C
100
AcDbEntity
  8
0
100
AcDbLine
 62
7
  6
CONTINUOUS
 10
251.9936968318
 20
54.1657859782
 11
251.9936968318
 21
73.4009087542
  0
LINE
  5
23D
100
AcDbEntity
  8
0
100
AcDbLine
 62
7
  6
CONTINUOUS
 10
254.2072017102
 20
539.5688269706
 11
254.2072017102
 21
535.518533811
  0
LINE
  5
23E
100
AcDbEntity
  8
0
100
AcDbLine
 62
7
  6
CONTINUOUS
 10
254.2072017102
 20
527.5436804686
 11
254.2072017102
 21
520.5688269706
  0
LINE
  5
23F
100
AcDbEntity
  8
0
100
AcDbLine
 62
7
  6
CONTINUOUS
 10
254.2532147635
 20
55.7463100909
 11
254.2532147635
 21
54.1657859782
  0
LINE
  5
240
100
AcDbEntity
  8
0
100
AcDbLine
 62
7
  6
CONTINUOUS
 10
254.5358657219
 20
54.1657859782
 11
254.5358657219
 21
55.7463100909
  0
LINE
  5
241
100
AcDbEntity
  8
0
100
AcDbLine
 62
7
  6
CONTINUOUS
 10
254.7121298204
 20
73.4009087542
 11
254.7121298204
 21
55.7463100909
  0
LINE
  5
242
100
AcDbEntity
  8
0
100
AcDbLine
 62
7
  6
CONTINUOUS
 10
256.1554690389
 20
107.6006665748
 11
256.1554690389
 21
101.8509087542
  0
LINE
  5
243
100
AcDbEntity
  8
0
100
AcDbLine
 62
7
  6
CONTINUOUS
 10
264.8261149808
 20
116.6509087542
 11
264.8261149808
 21
114.2535361357
  0
LINE
  5
244
100
AcDbEntity
  8
0
100
AcDbLine
 62
7
  6
CONTINUOUS
 10
267.4739225313
 20
73.4009087542
 11
267.4739225313
 21
74.2067336871
  0
LINE
  5
245
100
AcDbEntity
  8
0
100
AcDbLine
 62
7
  6
CONTINUOUS
 10
279.1106097216
 20
621.7308509128
 11
279.1106097216
 21
546.3256365887
  0
LINE
  5
246
100
AcDbEntity
  8
0
100
AcDbLine
 62
7
  6
CONTINUOUS
 10
281.886873367
 20
544.0578119961
 11
281.886873367
 21
624.7671955196
  0
LINE
  5
247
100
AcDbEntity
  8
0
100
AcDbLine
 62
7
  6
CONTINUOUS
 10
272.6054087967
 20
76.9693385064
 11
272.9531893722
 21
96.8915396926
  0
LINE
  5
248
100
AcDbEntity
  8
0
100
AcDbLine
 62
7
  6
CONTINUOUS
 10
272.5522691887
 20
74.1180935986
 11
272.6054087967
 21
76.9693385064
  0
LINE
  5
249
100
AcDbEntity
  8
0
100
AcDbLine
 62
7
  6
CONTINUOUS
 10
225.5769629395
 20
99.3509087542
 11
224.1168507653
 21
97.7439811594
  0
LINE
  5
24A
100
AcDbEntity
  8
0
100
AcDbLine
 62
7
  6
CONTINUOUS
 10
231.2912267682
 20
520.5688269706
 11
254.2072017102
 21
520.5688269706
  0
LINE
  5
24B
100
AcDbEntity
  8
0
100
AcDbLine
 62
7
  6
CONTINUOUS
 10
253.9776292181
 20
527.5436804686
 11
256.3277382331
 21
527.5436804686
  0
LINE
  5
24C
100
AcDbEntity
  8
0
100
AcDbLine
 62
7
  6
CONTINUOUS
 10
257.6591176088
 20
110.2061179393
 11
264.8261149808
 21
114.2535361357
  0
LINE
  5
24D
100
AcDbEntity
  8
0
100
AcDbLine
 62
7
  6
CONTINUOUS
 10
253.9776292181
 20
535.518533811
 11
256.3277382331
 21
535.518533811
  0
LINE
  5
24E
100
AcDbEntity
  8
0
100
AcDbLine
 62
7
  6
CONTINUOUS
 10
254.2072017102
 20
539.5688269706
 11
231.2912267682
 21
539.5688269706
  0
LINE
  5
24F
100
AcDbEntity
  8
0
100
AcDbLine
 62
7
  6
CONTINUOUS
 10
281.886873367
 20
544.0578119961
 11
214.2656475153
 21
544.0578119961
  0
LINE
  5
250
100
AcDbEntity
  8
0
100
AcDbLine
 62
7
  6
CONTINUOUS
 10
279.1106097216
 20
546.3256365887
 11
216.8722598748
 21
546.3256365887
  0
LINE
  5
251
100
AcDbEntity
  8
0
100
AcDbLine
 62
7
  6
CONTINUOUS
 10
213.0592142392
 20
565.4188269706
 11
214.2656475153
 21
565.4188269706
  0
LINE
  5
252
100
AcDbEntity
  8
0
100
AcDbLine
 62
7
  6
CONTINUOUS
 10
216.8722598748
 20
565.4188269706
 11
224.1731108008
 21
565.4188269706
  0
LINE
  5
253
100
AcDbEntity
  8
0
100
AcDbLine
 62
7
  6
CONTINUOUS
 10
224.1731108008
 20
603.4188269706
 11
216.8722598748
 21
603.4188269706
  0
LINE
  5
254
100
AcDbEntity
  8
0
100
AcDbLine
 62
7
  6
CONTINUOUS
 10
214.2656475153
 20
603.4188269706
 11
213.0592142392
 21
603.4188269706
  0
LINE
  5
255
100
AcDbEntity
  8
0
100
AcDbLine
 62
7
  6
CONTINUOUS
 10
216.8722598748
 20
620.9105878102
 11
279.1106097216
 21
620.9105878102
  0
LINE
  5
256
100
AcDbEntity
  8
0
100
AcDbLine
 62
7
  6
CONTINUOUS
 10
216.8722598748
 20
621.7308509128
 11
279.1106097216
 21
621.7308509128
  0
LINE
  5
257
100
AcDbEntity
  8
0
100
AcDbLine
 62
7
  6
CONTINUOUS
 10
281.886873367
 20
624.7671955196
 11
214.2656475153
 21
624.7671955196
  0
ARC
  5
258
100
AcDbEntity
  8
0
100
AcDbCircle
 62
7
  6
CONTINUOUS
 10
213.0592142392
 20
599.4188269706
 40
4.0
100
AcDbArc
 50
90.0
 51
180.0
  0
ARC
  5
259
100
AcDbEntity
  8
0
100
AcDbCircle
 62
7
  6
CONTINUOUS
 10
213.0592142392
 20
569.4188269706
 40
4.0
100
AcDbArc
 50
180.0
 51
270.0
  0
ARC
  5
25A
100
AcDbEntity
  8
0
100
AcDbCircle
 62
7
  6
CONTINUOUS
 10
226.5314690389
 20
107.6059386383
 40
3.0
100
AcDbArc
 50
359.8993109522
 51
60.0804299129
  0
ARC
  5
25B
100
AcDbEntity
  8
0
100
AcDbCircle
 62
7
  6
CONTINUOUS
 10
259.1554690389
 20
107.6059386383
 40
3.0
100
AcDbArc
 50
119.9195700871
 51
180.1006890478
  0
ARC
  5
25C
100
AcDbEntity
  8
0
100
AcDbCircle
 62
7
  6
CONTINUOUS
 10
227.0314690389
 20
101.8509087542
 40
2.5
100
AcDbArc
 50
270.0
 51
360.0
  0
ARC
  5
25D
100
AcDbEntity
  8
0
100
AcDbCircle
 62
7
  6
CONTINUOUS
 10
258.6554690389
 20
101.8509087542
 40
2.5
100
AcDbArc
 50
180.0
 51
270.0
  0
SPLINE
  5
25E
100
AcDbEntity
  8
0
100
AcDbSpline
 62
7
  6
CONTINUOUS
 70
0
 71
3
 72
18
 73
14
 74
0
 42
0.0000001
 43
0.0000001
 44
0.0000000001
 40
0.0
 40
0.0
 40
0.0
 40
0.0
 40
0.0182189237
 40
0.040461153
 40
0.0689816098
 40
0.1047155196
 40
0.1479120771
 40
0.1985030868
 40
0.3205688233
 40
0.4672711745
 40
0.6335162276
 40
0.8133105936
 40
1.0
 40
1.0
 40
1.0
 40
1.0
 10
256.3277382338
 20
533.7331672124
 30
0.0
 10
256.3137612127
 20
533.7331674014
 30
0.0
 10
256.2825802969
 20
533.7239865404
 30
0.0
 10
256.2419184595
 20
533.6887865168
 30
0.0
 10
256.2030743875
 20
533.6345835322
 30
0.0
 10
256.1656030004
 20
533.560920802
 30
0.0
 10
256.1295144027
 20
533.4682272189
 30
0.0
 10
256.0806986342
 20
533.3098785154
 30
0.0
 10
256.0282042376
 20
533.0701979645
 30
0.0
 10
255.978679303
 20
532.7400246611
 30
0.0
 10
255.9417450319
 20
532.3636681504
 30
0.0
 10
255.9189271073
 20
531.9555155871
 30
0.0
 10
255.9138165803
 20
531.6743297485
 30
0.0
 10
255.9138165803
 20
531.5311071398
 30
0.0
  0
SPLINE
  5
25F
100
AcDbEntity
  8
0
100
AcDbSpline
 62
7
  6
CONTINUOUS
 70
0
 71
3
 72
19
 73
15
 74
0
 42
0.0000001
 43
0.0000001
 44
0.0000000001
 40
0.0
 40
0.0
 40
0.0
 40
0.0
 40
0.0182188927
 40
0.0404594876
 40
0.0689804669
 40
0.1047125574
 40
0.1479088971
 40
0.1984979521
 40
0.2561971975
 40
0.3205934166
 40
0.4672889825
 40
0.6335356667
 40
0.8133064753
 40
1.0
 40
1.0
 40
1.0
 40
1.0
 10
256.3277382319
 20
535.5185155907
 30
0.0
 10
256.3530479703
 20
535.5185155074
 30
0.0
 10
256.4095041778
 20
535.5018790435
 30
0.0
 10
256.4831439135
 20
535.4381547566
 30
0.0
 10
256.5534692619
 20
535.3399952879
 30
0.0
 10
256.6213340692
 20
535.206615187
 30
0.0
 10
256.6866601328
 20
535.0387616104
 30
0.0
 10
256.748767022
 20
534.8375493252
 30
0.0
 10
256.807070805
 20
534.6047562899
 30
0.0
 10
256.8821603677
 20
534.2388878757
 30
0.0
 10
256.9597476752
 20
533.7200952288
 30
0.0
 10
257.0266916805
 20
533.0386893702
 30
0.0
 10
257.0679948503
 20
532.2996058333
 30
0.0
 10
257.0772499708
 20
531.7904623236
 30
0.0
 10
257.0772499708
 20
531.5311071398
 30
0.0
  0
SPLINE
  5
260
100
AcDbEntity
  8
0
100
AcDbSpline
 62
7
  6
CONTINUOUS
 70
0
 71
3
 72
19
 73
15
 74
0
 42
0.0000001
 43
0.0000001
 44
0.0000000001
 40
0.0
 40
0.0
 40
0.0
 40
0.0
 40
0.1866906206
 40
0.3664590225
 40
0.5327052595
 40
0.6794018185
 40
0.7437991269
 40
0.801499281
 40
0.8520893966
 40
0.8952864622
 40
0.9310191203
 40
0.9595403866
 40
0.9817810973
 40
1.0
 40
1.0
 40
1.0
 40
1.0
 10
257.0772499708
 20
531.5311071398
 30
0.0
 10
257.0772499708
 20
531.2717559949
 30
0.0
 10
257.0679952316
 20
530.7626198685
 30
0.0
 10
257.0266929429
 20
530.0235443243
 30
0.0
 10
256.9597504839
 20
529.3421409118
 30
0.0
 10
256.8821634537
 20
528.8233459688
 30
0.0
 10
256.8070746318
 20
528.457473154
 30
0.0
 10
256.7487698894
 20
528.2246759888
 30
0.0
 10
256.6866628634
 20
528.0234598265
 30
0.0
 10
256.6213357372
 20
527.8556031458
 30
0.0
 10
256.5534704117
 20
527.7222208672
 30
0.0
 10
256.4831444373
 20
527.6240601108
 30
0.0
 10
256.4095043407
 20
527.5603355044
 30
0.0
 10
256.3530479862
 20
527.5436986056
 30
0.0
 10
256.3277382344
 20
527.5436986889
 30
0.0
  0
SPLINE
  5
261
100
AcDbEntity
  8
0
100
AcDbSpline
 62
7
  6
CONTINUOUS
 70
0
 71
3
 72
18
 73
14
 74
0
 42
0.0000001
 43
0.0000001
 44
0.0000000001
 40
0.0
 40
0.0
 40
0.0
 40
0.0
 40
0.1866882162
 40
0.366479023
 40
0.5327228605
 40
0.6794248345
 40
0.8014924728
 40
0.8520842999
 40
0.8952824208
 40
0.9310170808
 40
0.959538358
 40
0.9817808828
 40
1.0
 40
1.0
 40
1.0
 40
1.0
 10
255.9138165803
 20
531.5311071398
 30
0.0
 10
255.9138165803
 20
531.3878854389
 30
0.0
 10
255.9189268433
 20
531.1067032254
 30
0.0
 10
255.9417445022
 20
530.6985552353
 30
0.0
 10
255.9786773023
 20
530.322202517
 30
0.0
 10
256.0282019079
 20
529.9920289799
 30
0.0
 10
256.0806949478
 20
529.7523461873
 30
0.0
 10
256.129512217
 20
529.5939945559
 30
0.0
 10
256.1656002491
 20
529.5012981345
 30
0.0
 10
256.203073105
 20
529.4276334602
 30
0.0
 10
256.2419171121
 20
529.3734287168
 30
0.0
 10
256.2825798514
 20
529.3382278903
 30
0.0
 10
256.3137610623
 20
529.3290472562
 30
0.0
 10
256.3277382324
 20
529.3290470672
 30
0.0
  0
SPLINE
  5
262
100
AcDbEntity
  8
0
100
AcDbSpline
 62
7
  6
CONTINUOUS
 70
0
 71
3
 72
18
 73
14
 74
0
 42
0.0000001
 43
0.0000001
 44
0.0000000001
 40
0.0
 40
0.0
 40
0.0
 40
0.0
 40
0.0182189237
 40
0.040461153
 40
0.0689816098
 40
0.1047155196
 40
0.1479120771
 40
0.1985030868
 40
0.3205688233
 40
0.4672711745
 40
0.6335162276
 40
0.8133105936
 40
1.0
 40
1.0
 40
1.0
 40
1.0
 10
256.3277382324
 20
529.3290470672
 30
0.0
 10
256.3417152535
 20
529.3290468782
 30
0.0
 10
256.3728961693
 20
529.3382277392
 30
0.0
 10
256.4135580067
 20
529.3734277628
 30
0.0
 10
256.4524020787
 20
529.4276307474
 30
0.0
 10
256.4898734659
 20
529.5012934776
 30
0.0
 10
256.5259620635
 20
529.5939870607
 30
0.0
 10
256.5747778321
 20
529.7523357642
 30
0.0
 10
256.6272722286
 20
529.9920163151
 30
0.0
 10
256.6767971632
 20
530.3221896185
 30
0.0
 10
256.7137314344
 20
530.6985461292
 30
0.0
 10
256.7365493589
 20
531.1066986925
 30
0.0
 10
256.741659886
 20
531.3878845311
 30
0.0
 10
256.741659886
 20
531.5311071398
 30
0.0
  0
SPLINE
  5
263
100
AcDbEntity
  8
0
100
AcDbSpline
 62
7
  6
CONTINUOUS
 70
0
 71
3
 72
16
 73
12
 74
0
 42
0.0000001
 43
0.0000001
 44
0.0000000001
 40
0.0
 40
0.0
 40
0.0
 40
0.0
 40
0.0197681014
 40
0.0454457966
 40
0.0781563446
 40
0.1181266558
 40
0.2187756487
 40
0.3440383768
 40
0.4895361286
 40
0.6507104785
 40
1.0
 40
1.0
 40
1.0
 40
1.0
 10
253.9776127985
 20
527.5436895175
 30
0.0
 10
253.9484952407
 20
527.5436977173
 30
0.0
 10
253.8819250639
 20
527.5622351251
 30
0.0
 10
253.7846008652
 20
527.6249066406
 30
0.0
 10
253.677403436
 20
527.72314269
 30
0.0
 10
253.5105678086
 20
527.9168829295
 30
0.0
 10
253.2952739207
 20
528.2457951631
 30
0.0
 10
253.0477065609
 20
528.7344850823
 30
0.0
 10
252.8179168412
 20
529.3290520967
 30
0.0
 10
252.5600356723
 20
530.2612675108
 30
0.0
 10
252.476804033
 20
531.0166187721
 30
0.0
 10
252.476804033
 20
531.5311071398
 30
0.0
  0
SPLINE
  5
264
100
AcDbEntity
  8
0
100
AcDbSpline
 62
7
  6
CONTINUOUS
 70
0
 71
3
 72
16
 73
12
 74
0
 42
0.0000001
 43
0.0000001
 44
0.0000000001
 40
0.0
 40
0.0
 40
0.0
 40
0.0
 40
0.349238006
 40
0.5103889486
 40
0.6558867762
 40
0.7811853311
 40
0.8818614657
 40
0.9218365136
 40
0.9545502975
 40
0.9802291882
 40
1.0
 40
1.0
 40
1.0
 40
1.0
 10
252.476804033
 20
531.5311071398
 30
0.0
 10
252.476804033
 20
532.0455201317
 30
0.0
 10
252.5600560889
 20
532.8007483993
 30
0.0
 10
252.8177622509
 20
533.7328973401
 30
0.0
 10
253.0475501127
 20
534.3274901495
 30
0.0
 10
253.2951866323
 20
534.8162470569
 30
0.0
 10
253.5105027958
 20
535.1452654253
 30
0.0
 10
253.6773763572
 20
535.3390421624
 30
0.0
 10
253.7845798404
 20
535.4372910016
 30
0.0
 10
253.8819103513
 20
535.4999736094
 30
0.0
 10
253.948486137
 20
535.5185122582
 30
0.0
 10
253.9776077151
 20
535.5185221899
 30
0.0
  0
SPLINE
  5
265
100
AcDbEntity
  8
0
100
AcDbSpline
 62
7
  6
CONTINUOUS
 70
0
 71
3
 72
19
 73
15
 74
0
 42
0.0000001
 43
0.0000001
 44
0.0000000001
 40
0.0
 40
0.0
 40
0.0
 40
0.0
 40
0.1866906206
 40
0.3664590225
 40
0.5327052595
 40
0.6794018185
 40
0.7437991269
 40
0.801499281
 40
0.8520893966
 40
0.8952864622
 40
0.9310191203
 40
0.9595403866
 40
0.9817810973
 40
1.0
 40
1.0
 40
1.0
 40
1.0
 10
255.5782264954
 20
531.5311071398
 30
0.0
 10
255.5782264954
 20
531.7904582847
 30
0.0
 10
255.5874812346
 20
532.2995944111
 30
0.0
 10
255.6287835233
 20
533.0386699553
 30
0.0
 10
255.6957259824
 20
533.7200733678
 30
0.0
 10
255.7733130126
 20
534.2388683108
 30
0.0
 10
255.8484018344
 20
534.6047411256
 30
0.0
 10
255.9067065768
 20
534.8375382908
 30
0.0
 10
255.9688136028
 20
535.0387544531
 30
0.0
 10
256.034140729
 20
535.2066111338
 30
0.0
 10
256.1020060546
 20
535.3399934124
 30
0.0
 10
256.1723320289
 20
535.4381541688
 30
0.0
 10
256.2459721255
 20
535.5018787752
 30
0.0
 10
256.3024284801
 20
535.518515674
 30
0.0
 10
256.3277382319
 20
535.5185155907
 30
0.0
  0
SPLINE
  5
266
100
AcDbEntity
  8
0
100
AcDbSpline
 62
7
  6
CONTINUOUS
 70
0
 71
3
 72
19
 73
15
 74
0
 42
0.0000001
 43
0.0000001
 44
0.0000000001
 40
0.0
 40
0.0
 40
0.0
 40
0.0
 40
0.0182188927
 40
0.0404594876
 40
0.0689804669
 40
0.1047125574
 40
0.1479088971
 40
0.1984979521
 40
0.2561971975
 40
0.3205934166
 40
0.4672889825
 40
0.6335356667
 40
0.8133064753
 40
1.0
 40
1.0
 40
1.0
 40
1.0
 10
256.3277382344
 20
527.5436986889
 30
0.0
 10
256.302428496
 20
527.5436987722
 30
0.0
 10
256.2459722884
 20
527.5603352361
 30
0.0
 10
256.1723325527
 20
527.624059523
 30
0.0
 10
256.1020072044
 20
527.7222189917
 30
0.0
 10
256.034142397
 20
527.8555990926
 30
0.0
 10
255.9688163335
 20
528.0234526692
 30
0.0
 10
255.9067094442
 20
528.2246649544
 30
0.0
 10
255.8484056612
 20
528.4574579897
 30
0.0
 10
255.7733160986
 20
528.823326404
 30
0.0
 10
255.6957287911
 20
529.3421190508
 30
0.0
 10
255.6287847857
 20
530.0235249094
 30
0.0
 10
255.5874816159
 20
530.7626084463
 30
0.0
 10
255.5782264954
 20
531.271751956
 30
0.0
 10
255.5782264954
 20
531.5311071398
 30
0.0
  0
SPLINE
  5
267
100
AcDbEntity
  8
0
100
AcDbSpline
 62
7
  6
CONTINUOUS
 70
0
 71
3
 72
18
 73
14
 74
0
 42
0.0000001
 43
0.0000001
 44
0.0000000001
 40
0.0
 40
0.0
 40
0.0
 40
0.0
 40
0.1866882162
 40
0.366479023
 40
0.5327228605
 40
0.6794248345
 40
0.8014924728
 40
0.8520842999
 40
0.8952824208
 40
0.9310170808
 40
0.959538358
 40
0.9817808828
 40
1.0
 40
1.0
 40
1.0
 40
1.0
 10
256.741659886
 20
531.5311071398
 30
0.0
 10
256.741659886
 20
531.6743288407
 30
0.0
 10
256.7365496229
 20
531.9555110542
 30
0.0
 10
256.713731964
 20
532.3636590443
 30
0.0
 10
256.6767991639
 20
532.7400117626
 30
0.0
 10
256.6272745584
 20
533.0701852997
 30
0.0
 10
256.5747815184
 20
533.3098680923
 30
0.0
 10
256.5259642492
 20
533.4682197237
 30
0.0
 10
256.4898762172
 20
533.5609161451
 30
0.0
 10
256.4524033613
 20
533.6345808194
 30
0.0
 10
256.4135593542
 20
533.6887855628
 30
0.0
 10
256.3728966148
 20
533.7239863893
 30
0.0
 10
256.3417154039
 20
533.7331670234
 30
0.0
 10
256.3277382338
 20
533.7331672124
 30
0.0
  0
ENDSEC
  0
SECTION
  2
OBJECTS
  0
DICTIONARY
  5
C
100
AcDbDictionary
280
0
281
1
  3
ACAD_GROUP
350
D
  3
ACAD_MLINESTYLE
350
17
  3
ACAD_LAYOUT
350
1A
  3
ACAD_PLOTSETTINGS
350
19
  3
ACAD_PLOTSTYLENAME
350
E
  0
DICTIONARY
  5
D
102
{ACAD_REACTORS
330
C
102
}
100
AcDbDictionary
280
0
281
1
  0
ACDBDICTIONARYWDFLT
  5
E
102
{ACAD_REACTORS
330
C
102
}
100
AcDbDictionary
281
1
  3
Normal
350
F
100
AcDbDictionaryWithDefault
340
F
  0
DICTIONARY
  5
17
102
{ACAD_REACTORS
330
C
102
}
100
AcDbDictionary
280
0
281
1
  3
Standard
350
18
  0
DICTIONARY
  5
19
102
{ACAD_REACTORS
330
C
102
}
100
AcDbDictionary
281
1
  0
DICTIONARY
  5
1A
102
{ACAD_REACTORS
330
C
102
}
100
AcDbDictionary
281
1
  3
Model
350
268
  3
Layout1
350
269
  0
ACDBPLACEHOLDER
  5
F
102
{ACAD_REACTORS
330
E
102
}
  0
MLINESTYLE
  5
18
102
{ACAD_REACTORS
330
17
102
}
100
AcDbMlineStyle
  2
STANDARD
 70
0
  3

 62
256
 51
90.0
 52
90.0
 71
2
 49
0.5
 62
256
  6
BYLAYER
 49
-0.5
 62
256
  6
BYLAYER
  0
LAYOUT
  5
268
102
{ACAD_REACTORS
330
1A
102
}
100
AcDbPlotSettings
  1

  2
none_device
  4

  6

 40
0.0
 41
0.0
 42
0.0
 43
0.0
 44
210.0
 45
297.0
 46
0.0
 47
0.0
 48
0.0
 49
0.0
140
0.0
141
0.0
142
1.0
143
1.0
 70
1024
 72
1
 73
0
 74
0
  7

 75
0
147
1.0
148
0.0
149
0.0
100
AcDbLayout
  1
Model
 70
0
 71
0
 10
0.0
 20
0.0
 11
210.0
 21
297.0
 12
0.0
 22
0.0
 32
0.0
 14
0.0
 24
0.0
 34
0.0
 15
0.0
 25
0.0
 35
0.0
146
0.0
 13
0.0
 23
0.0
 33
0.0
 16
1.0
 26
0.0
 36
0.0
 17
0.0
 27
1.0
 37
0.0
 76
0
330
210
345
0
346
0
  0
LAYOUT
  5
269
102
{ACAD_REACTORS
330
1A
102
}
100
AcDbPlotSettings
  1

  2
none_device
  4

  6

 40
0.0
 41
0.0
 42
0.0
 43
0.0
 44
210.0
 45
297.0
 46
0.0
 47
0.0
 48
0.0
 49
0.0
140
0.0
141
0.0
142
1.0
143
1.0
 70
0
 72
1
 73
0
 74
0
  7

 75
0
147
1.0
148
0.0
149
0.0
100
AcDbLayout
  1
Layout1
 70
0
 71
1
 10
0.0
 20
0.0
 11
210.0
 21
297.0
 12
0.0
 22
0.0
 32
0.0
 14
0.0
 24
0.0
 34
0.0
 15
0.0
 25
0.0
 35
0.0
146
0.0
 13
0.0
 23
0.0
 33
0.0
 16
1.0
 26
0.0
 36
0.0
 17
0.0
 27
1.0
 37
0.0
 76
0
330
211
345
0
346
0
  0
ENDSEC
  0
EOF
