999
DXF file: C:\Users\sesa63760\Dev\_Creo\CAD\MCADPP0003049_3D-CAD\drw0001_1.dxf
999
Pro/ENGINEER 2019471 by Parametric Technology Corporation
  0
SECTION
  2
HEADER
  9
$ACADVER
  1
AC1024
  9
$DWGCODEPAGE
  3
ANSI_1252
  9
$EXTMAX
 10
307.8903799847
 20
435.4449659784
 30
0.0
  9
$EXTMIN
 10
0.0
 20
0.0
 30
0.0
  9
$LIMMIN
 10
0.0
 20
0.0
  9
$LIMMAX
 10
307.8903799847
 20
435.4449659784
  9
$VIEWCTR
 10
153.9451899924
 20
217.7224829892
  9
$VIEWSIZE
 40
435.4449659784
  9
$CLAYER
  8
0
  9
$LTSCALE
 40
28.3845607453
  9
$CELTYPE
  6
BYLAYER
  9
$DIMSCALE
 40
1.0
  9
$DIMASZ
 40
3.6653616665
  9
$DIMEXO
 40
1.0
  9
$DIMDLI
 40
19.6111510604
  9
$DIMEXE
 40
1.0
  9
$DIMCEN
 40
4.6447463038
  9
$DIMLFAC
 40
1.0
  9
$DIMBLK
  1
_FILLED
  9
$DIMALT
 70
0
  9
$DIMALTF
 40
0.0393700787
  9
$DIMTXT
 40
5.1315063331
  9
$DIMTOL
 70
1
  9
$DIMLIM
 70
0
  9
$DIMTFAC
 40
1.0
  9
$DIMTP
 40
0.01
  9
$DIMTM
 40
0.01
  9
$DIMGAP
 40
0.625
  9
$DIMDSEP
 70
46
  9
$AUNITS
 70
0
  9
$PDMODE
 70
3
  9
$PDSIZE
 40
0.3125
  9
$HANDSEED
  5
4CB
  9
$TILEMODE
 70
1
  9
$MEASUREMENT
 70
1
  9
$INSUNITS
 70
4
  0
ENDSEC
  0
SECTION
  2
CLASSES
  0
CLASS
  1
ACDBDICTIONARYWDFLT
  2
AcDbDictionaryWithDefault
  3
AutoCAD 2000
 90
0
 91
1
280
0
281
0
  0
CLASS
  1
ACDBPLACEHOLDER
  2
AcDbPlaceHolder
  3
AutoCAD 2000
 90
0
 91
1
280
0
281
0
  0
CLASS
  1
LAYOUT
  2
AcDbLayout
  3
AutoCAD 2000
 90
0
 91
0
280
0
281
0
  0
ENDSEC
  0
SECTION
  2
TABLES
  0
TABLE
  2
VPORT
  5
8
100
AcDbSymbolTable
 70
2
  0
VPORT
  5
1F4
100
AcDbSymbolTableRecord
100
AcDbViewportTableRecord
  2
*ACTIVE
 70
0
 10
0.0
 20
0.0
 11
1.0
 21
1.0
 12
153.9451899924
 22
217.7224829892
 13
0.0
 23
0.0
 14
1.0
 24
1.0
 15
0.0
 25
0.0
 16
0.0
 26
0.0
 36
1.0
 17
0.0
 27
0.0
 37
0.0
 40
435.4449659784
 41
0.7070707071
 42
50.0
 43
0.0
 44
0.0
 50
0.0
 51
0.0
 71
0
 72
100
 73
1
 74
1
 75
0
 76
0
 77
0
 78
0
  0
ENDTAB
  0
TABLE
  2
LTYPE
  5
5
100
AcDbSymbolTable
 70
6
  0
LTYPE
  5
14
100
AcDbSymbolTableRecord
100
AcDbLinetypeTableRecord
  2
BYBLOCK
 70
0
  3

 72
65
 73
0
 40
0.0
  0
LTYPE
  5
15
100
AcDbSymbolTableRecord
100
AcDbLinetypeTableRecord
  2
BYLAYER
 70
0
  3

 72
65
 73
0
 40
0.0
  0
LTYPE
  5
16
100
AcDbSymbolTableRecord
100
AcDbLinetypeTableRecord
  2
CONTINUOUS
 70
64
  3
Solid line
 72
65
 73
0
 40
0.0
  0
LTYPE
  5
1F5
100
AcDbSymbolTableRecord
100
AcDbLinetypeTableRecord
  2
CENTER
 70
64
  3
____ _ ____ _ ____ _ ____ _ ____ _ ____ _ ____
 72
65
 73
4
 40
0.6
 49
0.375
 74
0
 49
-0.075
 74
0
 49
0.075
 74
0
 49
-0.075
 74
0
  0
LTYPE
  5
1F6
100
AcDbSymbolTableRecord
100
AcDbLinetypeTableRecord
  2
HIDDEN
 70
64
  3
- - - - - - - - - - - - - - - - - - - -
 72
65
 73
2
 40
0.2
 49
0.1
 74
0
 49
-0.1
 74
0
  0
LTYPE
  5
1F7
100
AcDbSymbolTableRecord
100
AcDbLinetypeTableRecord
  2
PHANTOM
 70
64
  3
_____ _ _ _____ _ _ _____ _ _ _____
 72
65
 73
6
 40
0.8
 49
0.45
 74
0
 49
-0.05
 74
0
 49
0.1
 74
0
 49
-0.05
 74
0
 49
0.1
 74
0
 49
-0.05
 74
0
  0
LTYPE
  5
1F8
100
AcDbSymbolTableRecord
100
AcDbLinetypeTableRecord
  2
DOT
 70
64
  3
. . . . . . . . . . . . . . . . . . . .
 72
65
 73
2
 40
0.2
 49
0.1
 74
0
 49
-0.1
 74
0
  0
LTYPE
  5
1F9
100
AcDbSymbolTableRecord
100
AcDbLinetypeTableRecord
  2
DASHED
 70
64
  3
- - - - - - - - - - - - - - - - - - - -
 72
65
 73
2
 40
0.2
 49
0.1
 74
0
 49
-0.1
 74
0
  0
ENDTAB
  0
TABLE
  2
LAYER
  5
2
100
AcDbSymbolTable
 70
36
  0
LAYER
  5
10
100
AcDbSymbolTableRecord
100
AcDbLayerTableRecord
  2
0
 70
0
 62
7
  6
CONTINUOUS
370
-3
390
F
  0
LAYER
  5
1FA
100
AcDbSymbolTableRecord
100
AcDbLayerTableRecord
  2
DEFAULT_1
 70
0
 62
7
  6
CENTER
370
-3
390
F
  0
LAYER
  5
1FB
100
AcDbSymbolTableRecord
100
AcDbLayerTableRecord
  2
DEFAULT_2
 70
0
 62
8
  6
HIDDEN
370
-3
390
F
  0
LAYER
  5
1FC
100
AcDbSymbolTableRecord
100
AcDbLayerTableRecord
  2
DEFAULT_3
 70
0
 62
7
  6
PHANTOM
370
-3
390
F
  0
LAYER
  5
1FD
100
AcDbSymbolTableRecord
100
AcDbLayerTableRecord
  2
00_COMPONENTS
 70
0
 62
7
  6
CONTINUOUS
370
-3
390
F
  0
LAYER
  5
1FE
100
AcDbSymbolTableRecord
100
AcDbLayerTableRecord
  2
01_1_DEFAULT_DATUMS
 70
0
 62
7
  6
CONTINUOUS
370
-3
390
F
  0
LAYER
  5
1FF
100
AcDbSymbolTableRecord
100
AcDbLayerTableRecord
  2
01_PLANES
 70
0
 62
7
  6
CONTINUOUS
370
-3
390
F
  0
LAYER
  5
200
100
AcDbSymbolTableRecord
100
AcDbLayerTableRecord
  2
02_COORD_SYS
 70
0
 62
7
  6
CONTINUOUS
370
-3
390
F
  0
LAYER
  5
201
100
AcDbSymbolTableRecord
100
AcDbLayerTableRecord
  2
03_AXES
 70
0
 62
7
  6
CONTINUOUS
370
-3
390
F
  0
LAYER
  5
202
100
AcDbSymbolTableRecord
100
AcDbLayerTableRecord
  2
04_POINTS
 70
0
 62
7
  6
CONTINUOUS
370
-3
390
F
  0
LAYER
  5
203
100
AcDbSymbolTableRecord
100
AcDbLayerTableRecord
  2
05_CURVES
 70
0
 62
7
  6
CONTINUOUS
370
-3
390
F
  0
LAYER
  5
204
100
AcDbSymbolTableRecord
100
AcDbLayerTableRecord
  2
06_SURFS
 70
0
 62
7
  6
CONTINUOUS
370
-3
390
F
  0
LAYER
  5
205
100
AcDbSymbolTableRecord
100
AcDbLayerTableRecord
  2
07_COSMETICS
 70
0
 62
7
  6
CONTINUOUS
370
-3
390
F
  0
LAYER
  5
206
100
AcDbSymbolTableRecord
100
AcDbLayerTableRecord
  2
10_NOTES
 70
0
 62
7
  6
CONTINUOUS
370
-3
390
F
  0
LAYER
  5
207
100
AcDbSymbolTableRecord
100
AcDbLayerTableRecord
  2
11_NOTES_PUB
 70
0
 62
7
  6
CONTINUOUS
370
-3
390
F
  0
LAYER
  5
208
100
AcDbSymbolTableRecord
100
AcDbLayerTableRecord
  2
13_REF_GTOL
 70
0
 62
7
  6
CONTINUOUS
370
-3
390
F
  0
LAYER
  5
209
100
AcDbSymbolTableRecord
100
AcDbLayerTableRecord
  2
16_MISC
 70
0
 62
7
  6
CONTINUOUS
370
-3
390
F
  0
LAYER
  5
20A
100
AcDbSymbolTableRecord
100
AcDbLayerTableRecord
  2
17_NO_PRINT
 70
0
 62
7
  6
CONTINUOUS
370
-3
390
F
  0
LAYER
  5
20B
100
AcDbSymbolTableRecord
100
AcDbLayerTableRecord
  2
18_DATUM_CAMS_JOINTS
 70
0
 62
7
  6
CONTINUOUS
370
-3
390
F
  0
LAYER
  5
20C
100
AcDbSymbolTableRecord
100
AcDbLayerTableRecord
  2
19_DATUM_FUNCTIONAL
 70
0
 62
7
  6
CONTINUOUS
370
-3
390
F
  0
LAYER
  5
20D
100
AcDbSymbolTableRecord
100
AcDbLayerTableRecord
  2
20_DATUM_KINEMATIC_SCHEME
 70
0
 62
7
  6
CONTINUOUS
370
-3
390
F
  0
ENDTAB
  0
TABLE
  2
STYLE
  5
3
100
AcDbSymbolTable
 70
1
  0
STYLE
  5
11
100
AcDbSymbolTableRecord
100
AcDbTextStyleTableRecord
  2
STANDARD
 70
0
 40
0.0
 41
0.8
 50
0.0
 71
0
 42
0.2
  3
txt
  4

  0
STYLE
  5
20E
100
AcDbSymbolTableRecord
100
AcDbTextStyleTableRecord
  2
TEXTSTYLE_1
 70
0
 40
0.0
 41
0.8
 50
0.0
 71
0
 42
0.2
  3
gdt
  4

  0
ENDTAB
  0
TABLE
  2
VIEW
  5
6
100
AcDbSymbolTable
 70
0
  0
ENDTAB
  0
TABLE
  2
UCS
  5
7
100
AcDbSymbolTable
 70
0
  0
ENDTAB
  0
TABLE
  2
APPID
  5
9
100
AcDbSymbolTable
 70
1
  0
APPID
  5
20F
100
AcDbSymbolTableRecord
100
AcDbRegAppTableRecord
  2
ACAD
 70
0
  0
ENDTAB
  0
TABLE
  2
BLOCK_RECORD
  5
1
100
AcDbSymbolTable
 70
0
  0
BLOCK_RECORD
  5
210
100
AcDbSymbolTableRecord
100
AcDbBlockTableRecord
  2
*Model_Space
  0
BLOCK_RECORD
  5
211
100
AcDbSymbolTableRecord
100
AcDbBlockTableRecord
  2
*Paper_Space
  0
BLOCK_RECORD
  5
212
100
AcDbSymbolTableRecord
100
AcDbBlockTableRecord
  2
_FILLED
  0
ENDTAB
  0
TABLE
  2
DIMSTYLE
  5
A
100
AcDbSymbolTable
 70
1
100
AcDbDimStyleTable
 71
0
  0
DIMSTYLE
105
213
100
AcDbSymbolTableRecord
100
AcDbDimStyleTableRecord
  2
STANDARD
 70
0
  3

  4

 40
1.0
 41
3.6653616665
 42
1.0
 43
0.38
 44
1.0
 45
0.0
 46
0.0
 47
0.01
 48
0.01
140
5.1315063331
141
0.09
142
0.0
143
25.4
144
1.0
145
0.0
146
1.0
147
0.625
 71
1
 72
0
 73
0
 74
0
 75
0
 76
0
 77
1
 78
8
 79
2
170
0
171
1
172
0
173
0
174
0
175
0
176
0
177
0
178
0
270
2
179
2
271
2
272
2
273
2
274
2
275
0
280
0
281
0
282
0
283
1
284
8
285
0
286
0
287
3
288
0
340
11
278
46
341
212
342
212
343
212
344
212
  0
ENDTAB
  0
ENDSEC
  0
SECTION
  2
BLOCKS
  0
BLOCK
  5
20
100
AcDbEntity
  8
0
100
AcDbBlockBegin
  2
*Model_Space
 70
0
 10
0.0
 20
0.0
 30
0.0
  3
*Model_Space
  1

  0
ENDBLK
  5
21
100
AcDbEntity
  8
0
100
AcDbBlockEnd
  0
BLOCK
  5
1C
100
AcDbEntity
  8
0
100
AcDbBlockBegin
  2
*Paper_Space
 70
0
 10
0.0
 20
0.0
 30
0.0
  3
*Paper_Space
  1

  0
ENDBLK
  5
1D
100
AcDbEntity
  8
0
100
AcDbBlockEnd
  0
BLOCK
  5
214
100
AcDbEntity
  8
0
100
AcDbBlockBegin
  2
_FILLED
 70
64
 10
0.0
 20
0.0
  3
_FILLED
  1

  0
SOLID
  5
215
100
AcDbEntity
  8
0
  6
BYBLOCK
 62
0
100
AcDbTrace
 10
0.0
 20
0.0
 11
-1.0
 21
0.25
 12
-1.0
 22
-0.25
 13
-1.0
 23
-0.25
  0
ENDBLK
  5
216
100
AcDbEntity
  8
0
  6
BYBLOCK
 62
0
100
AcDbBlockEnd
  0
ENDSEC
  0
SECTION
  2
ENTITIES
  0
LINE
  5
217
100
AcDbEntity
  8
0
100
AcDbLine
 62
7
  6
CONTINUOUS
 10
207.1905205989
 20
42.8287112762
 11
169.0993683649
 21
35.2128105712
  0
LINE
  5
218
100
AcDbEntity
  8
0
100
AcDbLine
 62
7
  6
CONTINUOUS
 10
208.6575612929
 20
46.9996365797
 11
172.8211059437
 21
39.8345373507
  0
LWPOLYLINE
  5
219
100
AcDbEntity
  8
0
100
AcDbPolyline
 62
7
  6
CONTINUOUS
 90
3
 70
0
 10
163.4136492652
 20
36.1699196076
 10
167.2629929669
 20
35.0618821465
 10
169.1008797446
 20
35.213237143
  0
LWPOLYLINE
  5
21A
100
AcDbEntity
  8
0
100
AcDbPolyline
 62
7
  6
CONTINUOUS
 90
3
 70
0
 10
43.268184578
 20
341.5094600851
 10
41.1938142308
 20
339.0098164715
 10
40.2329480455
 20
335.1235939878
  0
LINE
  5
21B
100
AcDbEntity
  8
0
100
AcDbLine
 62
7
  6
CONTINUOUS
 10
73.4714061678
 20
365.6347758403
 11
43.2644671124
 21
341.5065130173
  0
LINE
  5
21C
100
AcDbEntity
  8
0
100
AcDbLine
 62
7
  6
CONTINUOUS
 10
48.0989791643
 20
341.4576612082
 11
78.1692914768
 21
365.4767912976
  0
LINE
  5
21D
100
AcDbEntity
  8
0
100
AcDbLine
 62
7
  6
CONTINUOUS
 10
43.268532771
 20
341.5097544075
 11
43.2644544642
 21
341.5065029143
  0
LWPOLYLINE
  5
21E
100
AcDbEntity
  8
0
100
AcDbPolyline
 62
7
  6
CONTINUOUS
 90
3
 70
0
 10
75.0915917599
 20
369.2785940619
 10
74.2423798816
 20
368.6486751289
 10
73.2103784639
 20
367.2797335763
  0
LINE
  5
21F
100
AcDbEntity
  8
0
100
AcDbLine
 62
7
  6
CONTINUOUS
 10
75.0915895495
 20
369.278667425
 11
82.3083404726
 21
373.4452359574
  0
LINE
  5
220
100
AcDbEntity
  8
0
100
AcDbLine
 62
7
  6
CONTINUOUS
 10
86.4489403411
 20
373.4542675388
 11
136.7745766449
 21
402.5096137689
  0
LINE
  5
221
100
AcDbEntity
  8
0
100
AcDbLine
 62
7
  6
CONTINUOUS
 10
87.6550165361
 20
372.9156530322
 11
80.4839134032
 21
368.7754394217
  0
LINE
  5
222
100
AcDbEntity
  8
0
100
AcDbLine
 62
7
  6
CONTINUOUS
 10
141.0900173251
 20
402.0821736786
 11
89.113430479
 21
372.0736563982
  0
LINE
  5
223
100
AcDbEntity
  8
0
100
AcDbLine
 62
7
  6
CONTINUOUS
 10
90.7892654004
 20
371.1061345434
 11
91.8668704919
 21
371.7282864193
  0
LINE
  5
224
100
AcDbEntity
  8
0
100
AcDbLine
 62
7
  6
CONTINUOUS
 10
143.7670292034
 20
401.184685555
 11
143.2057930359
 21
400.8606576368
  0
LINE
  5
225
100
AcDbEntity
  8
0
100
AcDbLine
 62
7
  6
CONTINUOUS
 10
144.4486470976
 20
400.1431117428
 11
93.549665343
 21
370.7567463383
  0
LINE
  5
226
100
AcDbEntity
  8
0
100
AcDbLine
 62
7
  6
CONTINUOUS
 10
92.6516661217
 20
370.0309013107
 11
144.6282529678
 21
400.0394185912
  0
LINE
  5
227
100
AcDbEntity
  8
0
100
AcDbLine
 62
7
  6
CONTINUOUS
 10
209.8517259377
 20
46.4380755497
 11
211.1790527483
 21
46.4380785414
  0
LINE
  5
228
100
AcDbEntity
  8
0
100
AcDbLine
 62
7
  6
CONTINUOUS
 10
209.6280081905
 20
46.9147968632
 11
211.1790534671
 21
46.9148005741
  0
LWPOLYLINE
  5
229
100
AcDbEntity
  8
0
100
AcDbPolyline
 62
7
  6
CONTINUOUS
 90
4
 70
0
 10
82.8623511501
 20
82.675194401
 10
83.4703245964
 20
82.3909310628
 10
84.9084659055
 20
82.1470938121
 10
86.054758257
 20
82.2828582483
  0
LINE
  5
22A
100
AcDbEntity
  8
0
100
AcDbLine
 62
7
  6
CONTINUOUS
 10
163.4137357519
 20
36.1697930595
 11
125.2852570954
 21
58.1827732173
  0
LINE
  5
22B
100
AcDbEntity
  8
0
100
AcDbLine
 62
7
  6
CONTINUOUS
 10
85.5426979348
 20
83.3267722795
 11
123.3462143182
 21
61.5013956753
  0
LINE
  5
22C
100
AcDbEntity
  8
0
100
AcDbLine
 62
7
  6
CONTINUOUS
 10
43.1696647922
 20
108.1683392582
 11
81.3413551156
 21
86.1304021424
  0
LINE
  5
22D
100
AcDbEntity
  8
0
100
AcDbLine
 62
7
  6
CONTINUOUS
 10
123.6583185391
 20
61.6992446283
 11
161.8300088628
 21
39.661307503
  0
LINE
  5
22E
100
AcDbEntity
  8
0
100
AcDbLine
 62
7
  6
CONTINUOUS
 10
83.9645020509
 20
86.8151027313
 11
123.1160348195
 21
64.211466117
  0
LINE
  5
22F
100
AcDbEntity
  8
0
100
AcDbLine
 62
7
  6
CONTINUOUS
 10
125.2852785876
 20
58.1827608091
 11
125.283554227
 21
58.1837572601
  0
LINE
  5
230
100
AcDbEntity
  8
0
100
AcDbLine
 62
7
  6
CONTINUOUS
 10
44.7457801475
 20
104.6812112843
 11
82.8708083233
 21
82.6702126535
  0
LINE
  5
231
100
AcDbEntity
  8
0
100
AcDbLine
 62
7
  6
CONTINUOUS
 10
79.6466101015
 20
368.013520194
 11
78.6664821891
 21
366.3158794279
  0
LINE
  5
232
100
AcDbEntity
  8
0
100
AcDbLine
 62
7
  6
CONTINUOUS
 10
122.6867866531
 20
382.2986335474
 11
122.6978111599
 21
382.3111333155
  0
LINE
  5
233
100
AcDbEntity
  8
0
100
AcDbLine
 62
7
  6
CONTINUOUS
 10
122.6573788069
 20
382.3082498159
 11
122.6693688316
 21
382.3204567937
  0
LINE
  5
234
100
AcDbEntity
  8
0
100
AcDbLine
 62
7
  6
CONTINUOUS
 10
195.0453550201
 20
40.4004209865
 11
204.9226228076
 21
34.6979067787
  0
LINE
  5
235
100
AcDbEntity
  8
0
100
AcDbLine
 62
7
  6
CONTINUOUS
 10
195.7305903957
 20
40.5374261511
 11
204.5964623249
 21
35.4188284043
  0
LWPOLYLINE
  5
236
100
AcDbEntity
  8
0
100
AcDbPolyline
 62
7
  6
CONTINUOUS
 90
4
 70
0
 10
40.2329263534
 20
112.525859958
 10
41.0171059097
 20
108.8732510389
 10
42.1065432609
 20
107.0246048259
 10
44.7459744578
 20
104.6811756514
  0
LINE
  5
237
100
AcDbEntity
  8
0
100
AcDbLine
 62
7
  6
CONTINUOUS
 10
40.2328960789
 20
112.5255819498
 11
40.2328960848
 21
112.5254098186
  0
LINE
  5
238
100
AcDbEntity
  8
0
100
AcDbLine
 62
7
  6
CONTINUOUS
 10
40.2328960789
 20
112.5255819498
 11
40.2329022801
 21
335.123113496
  0
LWPOLYLINE
  5
239
100
AcDbEntity
  8
0
100
AcDbPolyline
 62
7
  6
CONTINUOUS
 90
3
 70
0
 10
86.2863501288
 20
82.3364286135
 10
86.86609324
 20
82.4808035763
 10
86.9404651668
 20
82.5005759574
  0
LINE
  5
23A
100
AcDbEntity
  8
0
100
AcDbLine
 62
7
  6
CONTINUOUS
 10
86.2863501288
 20
82.3364286135
 11
86.054758257
 21
82.2828582483
  0
LINE
  5
23B
100
AcDbEntity
  8
0
100
AcDbLine
 62
7
  6
CONTINUOUS
 10
42.4647648394
 20
332.0066784038
 11
42.4647648394
 21
109.4147614973
  0
LINE
  5
23C
100
AcDbEntity
  8
0
100
AcDbLine
 62
7
  6
CONTINUOUS
 10
73.2103784639
 20
367.2797335763
 11
72.7095866948
 21
365.0262606764
  0
LINE
  5
23D
100
AcDbEntity
  8
0
100
AcDbLine
 62
7
  6
CONTINUOUS
 10
85.8862868061
 20
272.088163018
 11
86.0441143873
 21
272.4369815901
  0
LINE
  5
23E
100
AcDbEntity
  8
0
100
AcDbLine
 62
7
  6
CONTINUOUS
 10
121.4943508158
 20
125.9014264066
 11
120.4783774042
 21
126.0020215671
  0
LINE
  5
23F
100
AcDbEntity
  8
0
100
AcDbLine
 62
7
  6
CONTINUOUS
 10
120.4783774042
 20
126.0020215671
 11
103.8827949989
 21
135.5832687793
  0
LINE
  5
240
100
AcDbEntity
  8
0
100
AcDbLine
 62
7
  6
CONTINUOUS
 10
102.8051597777
 20
136.2054276892
 11
86.2095773724
 21
145.7866749015
  0
LINE
  5
241
100
AcDbEntity
  8
0
100
AcDbLine
 62
7
  6
CONTINUOUS
 10
103.8827949989
 20
135.8528709736
 11
103.0386454648
 21
136.3402299088
  0
LINE
  5
242
100
AcDbEntity
  8
0
100
AcDbLine
 62
7
  6
CONTINUOUS
 10
103.8827949989
 20
136.0502454355
 11
102.8051597777
 21
136.6724043454
  0
LINE
  5
243
100
AcDbEntity
  8
0
100
AcDbLine
 62
7
  6
CONTINUOUS
 10
102.8051597777
 20
136.6724043454
 11
103.0386454648
 21
136.3402299088
  0
LINE
  5
244
100
AcDbEntity
  8
0
100
AcDbLine
 62
7
  6
CONTINUOUS
 10
81.362869458
 20
87.0728042037
 11
81.362869458
 21
276.5247713236
  0
LINE
  5
245
100
AcDbEntity
  8
0
100
AcDbLine
 62
7
  6
CONTINUOUS
 10
83.3454149006
 20
261.1780639846
 11
83.3454149006
 21
255.9847949052
  0
LINE
  5
246
100
AcDbEntity
  8
0
100
AcDbLine
 62
7
  6
CONTINUOUS
 10
83.3454149006
 20
231.7284548035
 11
83.3454149006
 21
226.5351857242
  0
LINE
  5
247
100
AcDbEntity
  8
0
100
AcDbLine
 62
7
  6
CONTINUOUS
 10
83.3863614747
 20
276.3243368408
 11
83.3863614747
 21
261.1827807971
  0
LINE
  5
248
100
AcDbEntity
  8
0
100
AcDbLine
 62
7
  6
CONTINUOUS
 10
83.3863614747
 20
256.0019268989
 11
83.3863614747
 21
231.7331716161
  0
LINE
  5
249
100
AcDbEntity
  8
0
100
AcDbLine
 62
7
  6
CONTINUOUS
 10
83.3863614747
 20
226.5523177179
 11
83.3863614747
 21
86.872369721
  0
LINE
  5
24A
100
AcDbEntity
  8
0
100
AcDbLine
 62
7
  6
CONTINUOUS
 10
83.9645020509
 20
276.1811864021
 11
83.9645020509
 21
260.8935160947
  0
LINE
  5
24B
100
AcDbEntity
  8
0
100
AcDbLine
 62
7
  6
CONTINUOUS
 10
83.9645020509
 20
256.1361708033
 11
83.9645020509
 21
231.4439069137
  0
LINE
  5
24C
100
AcDbEntity
  8
0
100
AcDbLine
 62
7
  6
CONTINUOUS
 10
83.9645020509
 20
226.6865616223
 11
83.9645020509
 21
86.8151027313
  0
LINE
  5
24D
100
AcDbEntity
  8
0
100
AcDbLine
 62
7
  6
CONTINUOUS
 10
84.7727304109
 20
148.2753530263
 11
84.7727304109
 21
166.525815054
  0
LINE
  5
24E
100
AcDbEntity
  8
0
100
AcDbLine
 62
7
  6
CONTINUOUS
 10
86.2775918094
 20
272.5717981252
 11
86.0441061223
 21
272.4369959056
  0
LINE
  5
24F
100
AcDbEntity
  8
0
100
AcDbLine
 62
7
  6
CONTINUOUS
 10
86.6585901037
 20
272.5340606246
 11
86.4251044167
 21
272.3992584049
  0
LINE
  5
250
100
AcDbEntity
  8
0
100
AcDbLine
 62
7
  6
CONTINUOUS
 10
90.3764335608
 20
264.9332187199
 11
90.6099192478
 21
265.0680209395
  0
LINE
  5
251
100
AcDbEntity
  8
0
100
AcDbLine
 62
7
  6
CONTINUOUS
 10
117.425077611
 20
148.8665563398
 11
116.3474423899
 21
149.4887152497
  0
LINE
  5
252
100
AcDbEntity
  8
0
100
AcDbLine
 62
7
  6
CONTINUOUS
 10
89.2628771656
 20
165.1256425183
 11
90.3405123867
 21
164.5034836084
  0
LINE
  5
253
100
AcDbEntity
  8
0
100
AcDbLine
 62
7
  6
CONTINUOUS
 10
86.2095773724
 20
167.3554027524
 11
89.2628771656
 21
165.5926191744
  0
LINE
  5
254
100
AcDbEntity
  8
0
100
AcDbLine
 62
7
  6
CONTINUOUS
 10
90.3405123867
 20
164.9704602645
 11
116.3474423899
 21
149.9556919059
  0
LINE
  5
255
100
AcDbEntity
  8
0
100
AcDbLine
 62
7
  6
CONTINUOUS
 10
117.425077611
 20
149.333532996
 11
120.4783774042
 21
147.5707494179
  0
LINE
  5
256
100
AcDbEntity
  8
0
100
AcDbLine
 62
7
  6
CONTINUOUS
 10
86.4430630595
 20
167.490204972
 11
120.7118630912
 21
147.7055516376
  0
LINE
  5
257
100
AcDbEntity
  8
0
100
AcDbLine
 62
7
  6
CONTINUOUS
 10
85.8862868061
 20
268.147722353
 11
85.8862868061
 21
272.088163018
  0
LINE
  5
258
100
AcDbEntity
  8
0
100
AcDbLine
 62
7
  6
CONTINUOUS
 10
89.2628771656
 20
165.1256425183
 11
89.2628771656
 21
165.5926191744
  0
LINE
  5
259
100
AcDbEntity
  8
0
100
AcDbLine
 62
7
  6
CONTINUOUS
 10
90.3405123867
 20
164.5034836084
 11
90.3405123867
 21
164.9704602645
  0
LINE
  5
25A
100
AcDbEntity
  8
0
100
AcDbLine
 62
7
  6
CONTINUOUS
 10
90.3764335608
 20
265.4001953761
 11
90.3764335608
 21
264.9332187199
  0
LINE
  5
25B
100
AcDbEntity
  8
0
100
AcDbLine
 62
7
  6
CONTINUOUS
 10
91.4540687819
 20
264.7780364662
 11
91.4540687819
 21
264.31105981
  0
LINE
  5
25C
100
AcDbEntity
  8
0
100
AcDbLine
 62
7
  6
CONTINUOUS
 10
93.549665343
 20
370.5493583081
 11
93.549665343
 21
370.7567463383
  0
LINE
  5
25D
100
AcDbEntity
  8
0
100
AcDbLine
 62
7
  6
CONTINUOUS
 10
103.0386454648
 20
263.0772451942
 11
102.8051597777
 21
262.4754663185
  0
LINE
  5
25E
100
AcDbEntity
  8
0
100
AcDbLine
 62
7
  6
CONTINUOUS
 10
102.8051597777
 20
262.9424429746
 11
103.0386454648
 21
263.0772451942
  0
LINE
  5
25F
100
AcDbEntity
  8
0
100
AcDbLine
 62
7
  6
CONTINUOUS
 10
103.8827949989
 20
262.3202840647
 11
104.1162806859
 21
262.4550862844
  0
LINE
  5
260
100
AcDbEntity
  8
0
100
AcDbLine
 62
7
  6
CONTINUOUS
 10
85.1936039609
 20
167.4559979129
 11
86.2095773724
 21
167.3554027524
  0
LWPOLYLINE
  5
261
100
AcDbEntity
  8
0
100
AcDbPolyline
 62
7
  6
CONTINUOUS
 90
4
 70
0
 10
123.1390181526
 20
62.3543986287
 10
123.7558967092
 20
59.8147800541
 10
124.5475310883
 20
58.7411058219
 10
125.2835561111
 20
58.1838339086
  0
LINE
  5
262
100
AcDbEntity
  8
0
100
AcDbLine
 62
7
  6
CONTINUOUS
 10
102.8051597777
 20
262.9424429746
 11
102.8051597777
 21
262.4754663185
  0
LINE
  5
263
100
AcDbEntity
  8
0
100
AcDbLine
 62
7
  6
CONTINUOUS
 10
102.8051597777
 20
136.6724043454
 11
102.8051597777
 21
136.2054276892
  0
LINE
  5
264
100
AcDbEntity
  8
0
100
AcDbLine
 62
7
  6
CONTINUOUS
 10
103.8827949989
 20
262.3202840647
 11
103.8827949989
 21
261.8533074086
  0
LINE
  5
265
100
AcDbEntity
  8
0
100
AcDbLine
 62
7
  6
CONTINUOUS
 10
103.8827949989
 20
136.0502454355
 11
103.8827949989
 21
135.5832687793
  0
LINE
  5
266
100
AcDbEntity
  8
0
100
AcDbLine
 62
7
  6
CONTINUOUS
 10
104.2348339496
 20
358.4348890354
 11
104.2348339496
 21
359.5340645893
  0
LINE
  5
267
100
AcDbEntity
  8
0
100
AcDbLine
 62
7
  6
CONTINUOUS
 10
108.4512339496
 20
358.4348890354
 11
108.4512339496
 21
359.5340645893
  0
LINE
  5
268
100
AcDbEntity
  8
0
100
AcDbLine
 62
7
  6
CONTINUOUS
 10
127.8240600744
 20
377.6982087703
 11
127.825077644
 21
377.7100152496
  0
LINE
  5
269
100
AcDbEntity
  8
0
100
AcDbLine
 62
7
  6
CONTINUOUS
 10
89.4963628527
 20
165.727421394
 11
89.2628771656
 21
165.1256425183
  0
LINE
  5
26A
100
AcDbEntity
  8
0
100
AcDbLine
 62
7
  6
CONTINUOUS
 10
120.8016679705
 20
247.9897736726
 11
120.6438403893
 21
247.6409551005
  0
LINE
  5
26B
100
AcDbEntity
  8
0
100
AcDbLine
 62
7
  6
CONTINUOUS
 10
120.8773260763
 20
247.7757573201
 11
121.0351536576
 21
248.1245758922
  0
LINE
  5
26C
100
AcDbEntity
  8
0
100
AcDbLine
 62
7
  6
CONTINUOUS
 10
84.7727304109
 20
166.525815054
 11
85.1936039609
 21
167.4559979129
  0
LINE
  5
26D
100
AcDbEntity
  8
0
100
AcDbLine
 62
7
  6
CONTINUOUS
 10
199.1988873529
 20
338.1253509453
 11
199.2099118597
 21
338.1378507134
  0
LINE
  5
26E
100
AcDbEntity
  8
0
100
AcDbLine
 62
7
  6
CONTINUOUS
 10
199.1694795067
 20
338.1349672138
 11
199.1814695314
 21
338.1471741916
  0
LINE
  5
26F
100
AcDbEntity
  8
0
100
AcDbLine
 62
7
  6
CONTINUOUS
 10
115.2338859947
 20
250.5820865318
 11
115.4673716818
 21
250.7168887514
  0
LINE
  5
270
100
AcDbEntity
  8
0
100
AcDbLine
 62
7
  6
CONTINUOUS
 10
120.26285036
 20
252.8634686344
 11
120.496336047
 21
252.998270854
  0
LINE
  5
271
100
AcDbEntity
  8
0
100
AcDbLine
 62
7
  6
CONTINUOUS
 10
121.0351536576
 20
252.0650165572
 11
120.8016679705
 21
251.9302143376
  0
LINE
  5
272
100
AcDbEntity
  8
0
100
AcDbLine
 62
7
  6
CONTINUOUS
 10
210.1677869852
 20
302.1844721873
 11
262.1443738313
 21
332.1929894678
  0
LINE
  5
273
100
AcDbEntity
  8
0
100
AcDbLine
 62
7
  6
CONTINUOUS
 10
211.4249979469
 20
302.7029309116
 11
262.3239797015
 21
332.0892963161
  0
LINE
  5
274
100
AcDbEntity
  8
0
100
AcDbLine
 62
7
  6
CONTINUOUS
 10
211.1740132686
 20
301.6446942501
 11
211.5868198648
 21
301.8830268269
  0
LINE
  5
275
100
AcDbEntity
  8
0
100
AcDbLine
 62
7
  6
CONTINUOUS
 10
263.2184354951
 20
331.5728937055
 11
263.7796716625
 21
331.8969216237
  0
LINE
  5
276
100
AcDbEntity
  8
0
100
AcDbLine
 62
7
  6
CONTINUOUS
 10
213.1057330648
 20
301.7325799911
 11
212.0316899612
 21
301.1124846176
  0
LINE
  5
277
100
AcDbEntity
  8
0
100
AcDbLine
 62
7
  6
CONTINUOUS
 10
205.0765055522
 20
296.8435001234
 11
212.2476086851
 21
300.9837137338
  0
LINE
  5
278
100
AcDbEntity
  8
0
100
AcDbLine
 62
7
  6
CONTINUOUS
 10
120.8016679705
 20
247.9897736726
 11
121.0351536576
 21
248.1245758922
  0
LINE
  5
279
100
AcDbEntity
  8
0
100
AcDbLine
 62
7
  6
CONTINUOUS
 10
120.8773343413
 20
247.7757430047
 11
120.6438486543
 21
247.6409407851
  0
LINE
  5
27A
100
AcDbEntity
  8
0
100
AcDbLine
 62
7
  6
CONTINUOUS
 10
213.5576745751
 20
300.0560688228
 11
265.682609474
 21
330.1502343803
  0
LINE
  5
27B
100
AcDbEntity
  8
0
100
AcDbLine
 62
7
  6
CONTINUOUS
 10
265.6987830029
 20
330.1222208394
 11
266.2761932581
 21
330.4555868158
  0
LINE
  5
27C
100
AcDbEntity
  8
0
100
AcDbLine
 62
7
  6
CONTINUOUS
 10
202.5741991616
 20
293.6532092239
 11
166.7377438092
 21
272.9630880584
  0
LWPOLYLINE
  5
27D
100
AcDbEntity
  8
0
100
AcDbPolyline
 62
7
  6
CONTINUOUS
 90
3
 70
0
 10
123.1162168431
 20
63.3050198686
 10
123.1290670464
 20
62.6242461455
 10
123.139003569
 20
62.353342419
  0
LINE
  5
27E
100
AcDbEntity
  8
0
100
AcDbLine
 62
7
  6
CONTINUOUS
 10
115.2338859947
 20
251.049063188
 11
115.2338859947
 21
250.5820865318
  0
LINE
  5
27F
100
AcDbEntity
  8
0
100
AcDbLine
 62
7
  6
CONTINUOUS
 10
116.3115212158
 20
250.4269042781
 11
116.3115212158
 21
249.9599276219
  0
LINE
  5
280
100
AcDbEntity
  8
0
100
AcDbLine
 62
7
  6
CONTINUOUS
 10
116.3474423899
 20
149.4887152497
 11
116.3474423899
 21
149.9556919059
  0
LINE
  5
281
100
AcDbEntity
  8
0
100
AcDbLine
 62
7
  6
CONTINUOUS
 10
117.425077611
 20
148.8665563398
 11
117.425077611
 21
149.333532996
  0
LINE
  5
282
100
AcDbEntity
  8
0
100
AcDbLine
 62
7
  6
CONTINUOUS
 10
120.8016679705
 20
251.9302143376
 11
120.8016679705
 21
247.9897736726
  0
LINE
  5
283
100
AcDbEntity
  8
0
100
AcDbLine
 62
7
  6
CONTINUOUS
 10
121.0351536576
 20
252.0650165572
 11
121.0351536576
 21
248.1245758922
  0
LINE
  5
284
100
AcDbEntity
  8
0
100
AcDbLine
 62
7
  6
CONTINUOUS
 10
121.9041299921
 20
383.7429986164
 11
121.9041299921
 21
383.2245198059
  0
LINE
  5
285
100
AcDbEntity
  8
0
100
AcDbLine
 62
7
  6
CONTINUOUS
 10
121.9152243657
 20
145.0820712932
 11
121.9152243657
 21
126.8316092655
  0
LINE
  5
286
100
AcDbEntity
  8
0
100
AcDbLine
 62
7
  6
CONTINUOUS
 10
122.1487100527
 20
145.2168735128
 11
122.1487100527
 21
126.9664114851
  0
LINE
  5
287
100
AcDbEntity
  8
0
100
AcDbLine
 62
7
  6
CONTINUOUS
 10
123.1160348195
 20
252.8443139726
 11
123.1162168431
 21
63.3050198686
  0
LINE
  5
288
100
AcDbEntity
  8
0
100
AcDbLine
 62
7
  6
CONTINUOUS
 10
123.6368041969
 20
252.1184558671
 11
123.6368041969
 21
62.6664887471
  0
LINE
  5
289
100
AcDbEntity
  8
0
100
AcDbLine
 62
7
  6
CONTINUOUS
 10
128.6610532938
 20
380.8926023173
 11
128.6610532938
 21
380.3741232825
  0
LINE
  5
28A
100
AcDbEntity
  8
0
100
AcDbLine
 62
7
  6
CONTINUOUS
 10
127.8245661303
 20
377.6981943968
 11
127.825077644
 21
377.7100152496
  0
LINE
  5
28B
100
AcDbEntity
  8
0
100
AcDbLine
 62
7
  6
CONTINUOUS
 10
271.8503447022
 20
321.430456593
 11
271.4534123662
 21
321.20128897
  0
LINE
  5
28C
100
AcDbEntity
  8
0
100
AcDbLine
 62
7
  6
CONTINUOUS
 10
271.785616943
 20
319.5795740452
 11
219.6606727135
 21
289.4854031008
  0
LINE
  5
28D
100
AcDbEntity
  8
0
100
AcDbLine
 62
7
  6
CONTINUOUS
 10
172.8211059437
 20
262.4264542523
 11
208.6575612929
 21
283.1165754229
  0
LINE
  5
28E
100
AcDbEntity
  8
0
100
AcDbLine
 62
7
  6
CONTINUOUS
 10
219.8090158199
 20
287.8870451021
 11
212.6042368668
 21
283.7273888639
  0
LINE
  5
28F
100
AcDbEntity
  8
0
100
AcDbLine
 62
7
  6
CONTINUOUS
 10
204.9226228076
 20
34.6979067787
 11
204.5964623249
 21
35.4188284043
  0
LINE
  5
290
100
AcDbEntity
  8
0
100
AcDbLine
 62
7
  6
CONTINUOUS
 10
130.7954185325
 20
381.7530346033
 11
130.7954185325
 21
381.2345555323
  0
LINE
  5
291
100
AcDbEntity
  8
0
100
AcDbLine
 62
7
  6
CONTINUOUS
 10
133.4526971677
 20
378.6738927739
 11
133.4526971677
 21
378.1554137387
  0
LINE
  5
292
100
AcDbEntity
  8
0
100
AcDbLine
 62
7
  6
CONTINUOUS
 10
136.0462313123
 20
372.8462891262
 11
136.0462313123
 21
372.3278100919
  0
LINE
  5
293
100
AcDbEntity
  8
0
100
AcDbLine
 62
7
  6
CONTINUOUS
 10
138.8169493768
 20
372.2352465104
 11
138.8169493768
 21
371.7167674756
  0
LINE
  5
294
100
AcDbEntity
  8
0
100
AcDbLine
 62
7
  6
CONTINUOUS
 10
141.4662859954
 20
374.1424643147
 11
141.4662859954
 21
373.6239852796
  0
LINE
  5
295
100
AcDbEntity
  8
0
100
AcDbLine
 62
7
  6
CONTINUOUS
 10
141.9352849261
 20
387.9618511602
 11
141.9352849261
 21
387.4399217433
  0
LINE
  5
296
100
AcDbEntity
  8
0
100
AcDbLine
 62
7
  6
CONTINUOUS
 10
90.3764335608
 20
265.4001953761
 11
90.6099192478
 21
265.0680209395
  0
LINE
  5
297
100
AcDbEntity
  8
0
100
AcDbLine
 62
7
  6
CONTINUOUS
 10
115.2338859947
 20
251.049063188
 11
115.4673716818
 21
250.7168887514
  0
LINE
  5
298
100
AcDbEntity
  8
0
100
AcDbLine
 62
7
  6
CONTINUOUS
 10
119.8341433553
 20
374.5425448582
 11
119.8306431432
 21
374.5682062021
  0
LINE
  5
299
100
AcDbEntity
  8
0
100
AcDbLine
 62
7
  6
CONTINUOUS
 10
144.4486470976
 20
400.1431117428
 11
144.4486470976
 21
399.9357237126
  0
LINE
  5
29A
100
AcDbEntity
  8
0
100
AcDbLine
 62
7
  6
CONTINUOUS
 10
151.4734577127
 20
367.9817875588
 11
151.4734577127
 21
367.6526114783
  0
LINE
  5
29B
100
AcDbEntity
  8
0
100
AcDbLine
 62
7
  6
CONTINUOUS
 10
154.5328208808
 20
364.3717251519
 11
154.5328208808
 21
363.853246117
  0
LINE
  5
29C
100
AcDbEntity
  8
0
100
AcDbLine
 62
7
  6
CONTINUOUS
 10
181.5147331561
 20
347.2471488482
 11
181.4787183747
 21
347.0490589996
  0
LINE
  5
29D
100
AcDbEntity
  8
0
100
AcDbLine
 62
7
  6
CONTINUOUS
 10
116.5809280769
 20
150.0904941255
 11
116.3474423899
 21
149.4887152497
  0
LINE
  5
29E
100
AcDbEntity
  8
0
100
AcDbLine
 62
7
  6
CONTINUOUS
 10
119.7656617775
 20
374.5388954634
 11
119.7615951088
 21
374.5646046611
  0
LINE
  5
29F
100
AcDbEntity
  8
0
100
AcDbLine
 62
7
  6
CONTINUOUS
 10
158.889016752
 20
365.1398158068
 11
158.889016752
 21
364.6213366394
  0
LINE
  5
2A0
100
AcDbEntity
  8
0
100
AcDbLine
 62
7
  6
CONTINUOUS
 10
160.2025130232
 20
384.5014964216
 11
160.2025130232
 21
383.9830173861
  0
LINE
  5
2A1
100
AcDbEntity
  8
0
100
AcDbLine
 62
7
  6
CONTINUOUS
 10
161.0403419817
 20
375.6997083348
 11
161.0403419817
 21
375.1812292999
  0
LINE
  5
2A2
100
AcDbEntity
  8
0
100
AcDbLine
 62
7
  6
CONTINUOUS
 10
162.5349088155
 20
40.0937998007
 11
162.5349088155
 21
262.6857167073
  0
LINE
  5
2A3
100
AcDbEntity
  8
0
100
AcDbLine
 62
7
  6
CONTINUOUS
 10
163.8621878014
 20
376.0815423968
 11
163.8621878014
 21
375.5630634172
  0
LINE
  5
2A4
100
AcDbEntity
  8
0
100
AcDbLine
 62
7
  6
CONTINUOUS
 10
165.6631591796
 20
375.0835451656
 11
165.6631591796
 21
374.5650661307
  0
LINE
  5
2A5
100
AcDbEntity
  8
0
100
AcDbLine
 62
7
  6
CONTINUOUS
 10
166.1226906471
 20
354.7207502268
 11
166.1226906471
 21
355.2392292767
  0
LINE
  5
2A6
100
AcDbEntity
  8
0
100
AcDbLine
 62
7
  6
CONTINUOUS
 10
169.6947909834
 20
347.6177101136
 11
169.6947909834
 21
348.1361892435
  0
LINE
  5
2A7
100
AcDbEntity
  8
0
100
AcDbLine
 62
7
  6
CONTINUOUS
 10
171.4568348808
 20
352.5354863217
 11
171.4568348808
 21
353.0539653251
  0
LINE
  5
2A8
100
AcDbEntity
  8
0
100
AcDbLine
 62
7
  6
CONTINUOUS
 10
172.4779711077
 20
347.4424246627
 11
172.4779711077
 21
346.9239456278
  0
LINE
  5
2A9
100
AcDbEntity
  8
0
100
AcDbLine
 62
7
  6
CONTINUOUS
 10
172.8211059437
 20
262.4264542523
 11
172.8211059437
 21
39.8345373507
  0
LINE
  5
2AA
100
AcDbEntity
  8
0
100
AcDbLine
 62
7
  6
CONTINUOUS
 10
121.9152243657
 20
126.8316092655
 11
121.4943508158
 21
125.9014264066
  0
LINE
  5
2AB
100
AcDbEntity
  8
0
100
AcDbLine
 62
7
  6
CONTINUOUS
 10
203.4088226226
 20
294.2974848727
 11
204.3889505359
 21
295.995125639
  0
LINE
  5
2AC
100
AcDbEntity
  8
0
100
AcDbLine
 62
7
  6
CONTINUOUS
 10
86.4430630595
 20
167.490204972
 11
86.2095773724
 21
167.3554027524
  0
LINE
  5
2AD
100
AcDbEntity
  8
0
100
AcDbLine
 62
7
  6
CONTINUOUS
 10
89.2628771656
 20
165.5926191744
 11
89.4963628527
 21
165.727421394
  0
LINE
  5
2AE
100
AcDbEntity
  8
0
100
AcDbLine
 62
7
  6
CONTINUOUS
 10
90.3405123867
 20
164.9704602645
 11
90.5739980738
 21
165.1052624841
  0
LINE
  5
2AF
100
AcDbEntity
  8
0
100
AcDbLine
 62
7
  6
CONTINUOUS
 10
120.26285036
 20
247.6786782857
 11
116.3115212158
 21
249.9599276219
  0
LINE
  5
2B0
100
AcDbEntity
  8
0
100
AcDbLine
 62
7
  6
CONTINUOUS
 10
115.2338859947
 20
250.5820865318
 11
91.4540687819
 21
264.31105981
  0
LINE
  5
2B1
100
AcDbEntity
  8
0
100
AcDbLine
 62
7
  6
CONTINUOUS
 10
90.3764335608
 20
264.9332187199
 11
86.4251044167
 21
267.2144680562
  0
LINE
  5
2B2
100
AcDbEntity
  8
0
100
AcDbLine
 62
7
  6
CONTINUOUS
 10
116.3115212158
 20
250.2295298162
 11
115.4673716818
 21
250.7168887514
  0
LINE
  5
2B3
100
AcDbEntity
  8
0
100
AcDbLine
 62
7
  6
CONTINUOUS
 10
90.6099192478
 20
265.0680209395
 11
91.4540687819
 21
264.5806620043
  0
LINE
  5
2B4
100
AcDbEntity
  8
0
100
AcDbLine
 62
7
  6
CONTINUOUS
 10
116.3115212158
 20
250.4269042781
 11
115.2338859947
 21
251.049063188
  0
LINE
  5
2B5
100
AcDbEntity
  8
0
100
AcDbLine
 62
7
  6
CONTINUOUS
 10
90.3764335608
 20
265.4001953761
 11
91.4540687819
 21
264.7780364662
  0
LINE
  5
2B6
100
AcDbEntity
  8
0
100
AcDbLine
 62
7
  6
CONTINUOUS
 10
103.8827949989
 20
261.8533074086
 11
102.8051597777
 21
262.4754663185
  0
LINE
  5
2B7
100
AcDbEntity
  8
0
100
AcDbLine
 62
7
  6
CONTINUOUS
 10
86.4251044167
 20
272.3992584049
 11
102.8051597777
 21
262.9424429746
  0
LINE
  5
2B8
100
AcDbEntity
  8
0
100
AcDbLine
 62
7
  6
CONTINUOUS
 10
103.8827949989
 20
262.3202840647
 11
120.26285036
 21
252.8634686344
  0
LINE
  5
2B9
100
AcDbEntity
  8
0
100
AcDbLine
 62
7
  6
CONTINUOUS
 10
86.6585901037
 20
272.5340606246
 11
120.496336047
 21
252.998270854
  0
LINE
  5
2BA
100
AcDbEntity
  8
0
100
AcDbLine
 62
7
  6
CONTINUOUS
 10
83.2551215092
 20
276.5907381835
 11
122.4810435582
 21
253.9441538635
  0
LINE
  5
2BB
100
AcDbEntity
  8
0
100
AcDbLine
 62
7
  6
CONTINUOUS
 10
82.8868758029
 20
277.4046819543
 11
122.112797852
 21
254.7580976343
  0
LINE
  5
2BC
100
AcDbEntity
  8
0
100
AcDbLine
 62
7
  6
CONTINUOUS
 10
181.5147636113
 20
347.0490589996
 11
181.5147636113
 21
347.2471488328
  0
LINE
  5
2BD
100
AcDbEntity
  8
0
100
AcDbLine
 62
7
  6
CONTINUOUS
 10
185.0035942215
 20
311.7418625892
 11
185.0035942215
 21
312.8410381431
  0
LINE
  5
2BE
100
AcDbEntity
  8
0
100
AcDbLine
 62
7
  6
CONTINUOUS
 10
120.6438403893
 20
247.6409551005
 11
120.26285036
 21
247.6786782857
  0
LINE
  5
2BF
100
AcDbEntity
  8
0
100
AcDbLine
 62
7
  6
CONTINUOUS
 10
189.2199942215
 20
311.7418625892
 11
189.2199942215
 21
312.8410381431
  0
LINE
  5
2C0
100
AcDbEntity
  8
0
100
AcDbLine
 62
7
  6
CONTINUOUS
 10
197.6025903108
 20
361.8237903701
 11
197.6025903108
 21
362.34226931
  0
LINE
  5
2C1
100
AcDbEntity
  8
0
100
AcDbLine
 62
7
  6
CONTINUOUS
 10
198.4162306919
 20
339.5697160143
 11
198.4162306919
 21
339.0512372038
  0
LINE
  5
2C2
100
AcDbEntity
  8
0
100
AcDbLine
 62
7
  6
CONTINUOUS
 10
201.1746906471
 20
354.720750257
 11
201.1746906471
 21
355.2392292767
  0
LINE
  5
2C3
100
AcDbEntity
  8
0
100
AcDbLine
 62
7
  6
CONTINUOUS
 10
204.3366668301
 20
333.5249117947
 11
204.3371783438
 21
333.5367326475
  0
LINE
  5
2C4
100
AcDbEntity
  8
0
100
AcDbLine
 62
7
  6
CONTINUOUS
 10
204.3361607742
 20
333.5249261682
 11
204.3371783438
 21
333.5367326475
  0
LINE
  5
2C5
100
AcDbEntity
  8
0
100
AcDbLine
 62
7
  6
CONTINUOUS
 10
116.3474423899
 20
149.9556919059
 11
116.5809280769
 21
150.0904941255
  0
LINE
  5
2C6
100
AcDbEntity
  8
0
100
AcDbLine
 62
7
  6
CONTINUOUS
 10
117.425077611
 20
149.333532996
 11
117.658563298
 21
149.4683352156
  0
LINE
  5
2C7
100
AcDbEntity
  8
0
100
AcDbLine
 62
7
  6
CONTINUOUS
 10
120.4783774042
 20
147.5707494179
 11
120.7118630912
 21
147.7055516376
  0
LINE
  5
2C8
100
AcDbEntity
  8
0
100
AcDbLine
 62
7
  6
CONTINUOUS
 10
102.8051597777
 20
136.2054276892
 11
103.0386454648
 21
136.3402299088
  0
LINE
  5
2C9
100
AcDbEntity
  8
0
100
AcDbLine
 62
7
  6
CONTINUOUS
 10
161.819219153
 20
263.9253206839
 11
43.1804545019
 21
332.4198938372
  0
LINE
  5
2CA
100
AcDbEntity
  8
0
100
AcDbLine
 62
7
  6
CONTINUOUS
 10
151.5706285251
 20
367.6660521151
 11
151.4735881701
 21
367.9817874984
  0
LINE
  5
2CB
100
AcDbEntity
  8
0
100
AcDbLine
 62
7
  6
CONTINUOUS
 10
205.1731539936
 20
336.7193197152
 11
205.1731539936
 21
336.2008406803
  0
LINE
  5
2CC
100
AcDbEntity
  8
0
100
AcDbLine
 62
7
  6
CONTINUOUS
 10
207.3075192323
 20
337.5797520012
 11
207.3075192323
 21
337.0612729301
  0
LINE
  5
2CD
100
AcDbEntity
  8
0
100
AcDbLine
 62
7
  6
CONTINUOUS
 10
208.6575612929
 20
46.9996365797
 11
208.6575612929
 21
283.1165754229
  0
LINE
  5
2CE
100
AcDbEntity
  8
0
100
AcDbLine
 62
7
  6
CONTINUOUS
 10
209.6371681256
 20
283.3224280736
 11
209.6371681256
 21
47.2054892301
  0
LINE
  5
2CF
100
AcDbEntity
  8
0
100
AcDbLine
 62
7
  6
CONTINUOUS
 10
209.9647978675
 20
334.5006101718
 11
209.9647978675
 21
333.9821311366
  0
LINE
  5
2D0
100
AcDbEntity
  8
0
100
AcDbLine
 62
7
  6
CONTINUOUS
 10
211.0443206944
 20
43.8901596849
 11
211.0443130646
 21
39.141603201
  0
LINE
  5
2D1
100
AcDbEntity
  8
0
100
AcDbLine
 62
7
  6
CONTINUOUS
 10
211.1790534718
 20
46.9148005828
 11
211.1790527483
 21
46.4380785413
  0
LINE
  5
2D2
100
AcDbEntity
  8
0
100
AcDbLine
 62
7
  6
CONTINUOUS
 10
211.4249979469
 20
301.7895994567
 11
211.4249979469
 21
302.7029309116
  0
LINE
  5
2D3
100
AcDbEntity
  8
0
100
AcDbLine
 62
7
  6
CONTINUOUS
 10
211.5266383603
 20
46.9251673502
 11
211.5266079907
 21
283.4696785422
  0
LINE
  5
2D4
100
AcDbEntity
  8
0
100
AcDbLine
 62
7
  6
CONTINUOUS
 10
212.5583320121
 20
328.6730065241
 11
212.5583320121
 21
328.1545274898
  0
LINE
  5
2D5
100
AcDbEntity
  8
0
100
AcDbLine
 62
7
  6
CONTINUOUS
 10
212.6041799383
 20
47.1829750865
 11
212.6042368668
 21
283.7273888639
  0
LINE
  5
2D6
100
AcDbEntity
  8
0
100
AcDbLine
 62
7
  6
CONTINUOUS
 10
213.2714136065
 20
43.8901485795
 11
213.2714165826
 21
39.1416085599
  0
LINE
  5
2D7
100
AcDbEntity
  8
0
100
AcDbLine
 62
7
  6
CONTINUOUS
 10
215.3290500766
 20
328.0619639083
 11
215.3290500766
 21
327.5434848734
  0
LINE
  5
2D8
100
AcDbEntity
  8
0
100
AcDbLine
 62
7
  6
CONTINUOUS
 10
122.1487100527
 20
145.2168735128
 11
121.9152243657
 21
145.0820712932
  0
LINE
  5
2D9
100
AcDbEntity
  8
0
100
AcDbLine
 62
7
  6
CONTINUOUS
 10
86.0441143873
 20
272.4369815901
 11
86.4251044167
 21
272.3992584049
  0
LINE
  5
2DA
100
AcDbEntity
  8
0
100
AcDbLine
 62
7
  6
CONTINUOUS
 10
86.6585901037
 20
272.5340606246
 11
86.2776000744
 21
272.5717838097
  0
LINE
  5
2DB
100
AcDbEntity
  8
0
100
AcDbLine
 62
7
  6
CONTINUOUS
 10
48.0989791643
 20
341.4576612082
 11
166.7377438092
 21
272.9630880584
  0
LINE
  5
2DC
100
AcDbEntity
  8
0
100
AcDbLine
 62
7
  6
CONTINUOUS
 10
141.9366646951
 20
387.4399217433
 11
142.3930306981
 21
386.2986893282
  0
LINE
  5
2DD
100
AcDbEntity
  8
0
100
AcDbLine
 62
7
  6
CONTINUOUS
 10
142.5758741096
 20
386.3599326647
 11
141.5085944445
 21
389.0288741321
  0
LINE
  5
2DE
100
AcDbEntity
  8
0
100
AcDbLine
 62
7
  6
CONTINUOUS
 10
196.2777624773
 20
330.3656128613
 11
196.2736958086
 21
330.391322059
  0
LINE
  5
2DF
100
AcDbEntity
  8
0
100
AcDbLine
 62
7
  6
CONTINUOUS
 10
196.3462440551
 20
330.3692622561
 11
196.342743843
 21
330.3949236
  0
LINE
  5
2E0
100
AcDbEntity
  8
0
100
AcDbLine
 62
7
  6
CONTINUOUS
 10
197.9996921394
 20
355.2392292767
 11
197.8346664216
 21
356.4921136398
  0
LINE
  5
2E1
100
AcDbEntity
  8
0
100
AcDbLine
 62
7
  6
CONTINUOUS
 10
217.9783866952
 20
329.9691817126
 11
217.9783866952
 21
329.4507026775
  0
LINE
  5
2E2
100
AcDbEntity
  8
0
100
AcDbLine
 62
7
  6
CONTINUOUS
 10
218.4473856259
 20
343.7885685581
 11
218.4473856259
 21
343.2666391412
  0
LINE
  5
2E3
100
AcDbEntity
  8
0
100
AcDbLine
 62
7
  6
CONTINUOUS
 10
219.8090158199
 20
287.8870451021
 11
219.8090158199
 21
42.9160707033
  0
LINE
  5
2E4
100
AcDbEntity
  8
0
100
AcDbLine
 62
7
  6
CONTINUOUS
 10
227.9855584126
 20
323.8085049567
 11
227.9855584126
 21
323.4793288762
  0
LINE
  5
2E5
100
AcDbEntity
  8
0
100
AcDbLine
 62
7
  6
CONTINUOUS
 10
121.9152243657
 20
126.8316092655
 11
122.1487100527
 21
126.9664114851
  0
LINE
  5
2E6
100
AcDbEntity
  8
0
100
AcDbLine
 62
7
  6
CONTINUOUS
 10
211.5263462154
 20
283.5172500847
 11
209.6328312584
 21
283.5172455332
  0
LINE
  5
2E7
100
AcDbEntity
  8
0
100
AcDbLine
 62
7
  6
CONTINUOUS
 10
231.0449215806
 20
320.1984425498
 11
231.0449215806
 21
319.6799635149
  0
LINE
  5
2E8
100
AcDbEntity
  8
0
100
AcDbLine
 62
7
  6
CONTINUOUS
 10
235.4011174518
 20
320.9665332047
 11
235.4011174518
 21
320.4480540372
  0
LINE
  5
2E9
100
AcDbEntity
  8
0
100
AcDbLine
 62
7
  6
CONTINUOUS
 10
236.714613723
 20
340.3282138195
 11
236.714613723
 21
339.809734784
  0
LINE
  5
2EA
100
AcDbEntity
  8
0
100
AcDbLine
 62
7
  6
CONTINUOUS
 10
237.5524426815
 20
331.5264257327
 11
237.5524426815
 21
331.0079466978
  0
LINE
  5
2EB
100
AcDbEntity
  8
0
100
AcDbLine
 62
7
  6
CONTINUOUS
 10
240.3742885012
 20
331.9082597947
 11
240.3742885012
 21
331.3897808151
  0
LINE
  5
2EC
100
AcDbEntity
  8
0
100
AcDbLine
 62
7
  6
CONTINUOUS
 10
242.1752598795
 20
330.9102625635
 11
242.1752598795
 21
330.3917835286
  0
LINE
  5
2ED
100
AcDbEntity
  8
0
100
AcDbLine
 62
7
  6
CONTINUOUS
 10
202.5741991616
 20
293.6532092239
 11
78.1692914768
 21
365.4767912976
  0
LINE
  5
2EE
100
AcDbEntity
  8
0
100
AcDbLine
 62
7
  6
CONTINUOUS
 10
78.8373669883
 20
366.2222290296
 11
203.242274673
 21
294.3986469558
  0
LINE
  5
2EF
100
AcDbEntity
  8
0
100
AcDbLine
 62
7
  6
CONTINUOUS
 10
204.3145087247
 20
296.0391020918
 11
79.7219165757
 21
367.9710413902
  0
LINE
  5
2F0
100
AcDbEntity
  8
0
100
AcDbLine
 62
7
  6
CONTINUOUS
 10
80.4839134032
 20
368.7754394217
 11
205.0765055522
 21
296.8435001234
  0
LINE
  5
2F1
100
AcDbEntity
  8
0
100
AcDbLine
 62
7
  6
CONTINUOUS
 10
212.2476086851
 20
300.9837137338
 11
87.6550165361
 21
372.9156530322
  0
LINE
  5
2F2
100
AcDbEntity
  8
0
100
AcDbLine
 62
7
  6
CONTINUOUS
 10
93.549665343
 20
370.7567463383
 11
91.8668704919
 21
371.7282864193
  0
LINE
  5
2F3
100
AcDbEntity
  8
0
100
AcDbLine
 62
7
  6
CONTINUOUS
 10
211.4249979469
 20
302.7029309116
 11
213.1057330648
 21
301.7325799911
  0
LINE
  5
2F4
100
AcDbEntity
  8
0
100
AcDbLine
 62
7
  6
CONTINUOUS
 10
228.0827292249
 20
323.492769513
 11
227.9856888699
 21
323.8085048963
  0
LINE
  5
2F5
100
AcDbEntity
  8
0
100
AcDbLine
 62
7
  6
CONTINUOUS
 10
271.785616943
 20
74.6085996464
 11
271.785616943
 21
319.5795740452
  0
LINE
  5
2F6
100
AcDbEntity
  8
0
100
AcDbLine
 62
7
  6
CONTINUOUS
 10
272.4629754949
 20
75.5527257922
 11
272.4629754949
 21
320.523700191
  0
LINE
  5
2F7
100
AcDbEntity
  8
0
100
AcDbLine
 62
7
  6
CONTINUOUS
 10
218.4487653949
 20
343.2666391412
 11
218.905131398
 21
342.125406726
  0
LINE
  5
2F8
100
AcDbEntity
  8
0
100
AcDbLine
 62
7
  6
CONTINUOUS
 10
219.0879748095
 20
342.1866500626
 11
218.0206951443
 21
344.85559153
  0
LINE
  5
2F9
100
AcDbEntity
  8
0
100
AcDbLine
 62
7
  6
CONTINUOUS
 10
181.4787183747
 20
347.0490589996
 11
181.5147636113
 21
347.0489022172
  0
LINE
  5
2FA
100
AcDbEntity
  8
0
100
AcDbLine
 62
7
  6
CONTINUOUS
 10
181.4787183747
 20
347.0490589996
 11
181.5139994785
 21
347.0459691981
  0
LINE
  5
2FB
100
AcDbEntity
  8
0
100
AcDbLine
 62
7
  6
CONTINUOUS
 10
237.5524426816
 20
331.0079466978
 11
240.0009986074
 21
330.681585106
  0
LINE
  5
2FC
100
AcDbEntity
  8
0
100
AcDbLine
 62
7
  6
CONTINUOUS
 10
237.5524426815
 20
331.5264257327
 11
242.1752598794
 21
330.9102625635
  0
LINE
  5
2FD
100
AcDbEntity
  8
0
100
AcDbLine
 62
7
  6
CONTINUOUS
 10
272.4321206042
 20
320.7410771928
 11
272.4624606078
 21
320.5236996076
  0
LINE
  5
2FE
100
AcDbEntity
  8
0
100
AcDbLine
 62
7
  6
CONTINUOUS
 10
211.1790527483
 20
46.4380785414
 11
210.372562715
 21
45.6456483659
  0
LINE
  5
2FF
100
AcDbEntity
  8
0
100
AcDbLine
 62
7
  6
CONTINUOUS
 10
161.0403419817
 20
375.1812292999
 11
163.4888979076
 21
374.8548677081
  0
LINE
  5
300
100
AcDbEntity
  8
0
100
AcDbLine
 62
7
  6
CONTINUOUS
 10
161.0403419817
 20
375.6997083348
 11
165.6631591796
 21
375.0835451656
  0
LINE
  5
301
100
AcDbEntity
  8
0
100
AcDbLine
 62
7
  6
CONTINUOUS
 10
262.1443738313
 20
332.1929894678
 11
144.6282529678
 21
400.0394185912
  0
LINE
  5
302
100
AcDbEntity
  8
0
100
AcDbLine
 62
7
  6
CONTINUOUS
 10
144.4486470976
 20
400.1431117428
 11
141.0900173251
 21
402.0821736786
  0
LINE
  5
303
100
AcDbEntity
  8
0
100
AcDbLine
 62
7
  6
CONTINUOUS
 10
262.3239797015
 20
332.0892963161
 11
265.682609474
 21
330.1502343803
  0
LINE
  5
304
100
AcDbEntity
  8
0
100
AcDbLine
 62
7
  6
CONTINUOUS
 10
143.7670292034
 20
401.184685555
 11
145.4118281616
 21
400.2350819166
  0
LINE
  5
305
100
AcDbEntity
  8
0
100
AcDbLine
 62
7
  6
CONTINUOUS
 10
263.7796716625
 20
331.8969216237
 11
266.2761932581
 21
330.4555868158
  0
LINE
  5
306
100
AcDbEntity
  8
0
100
AcDbLine
 62
7
  6
CONTINUOUS
 10
263.3006892118
 20
332.3075311205
 11
145.7845683482
 21
400.1539602439
  0
LINE
  5
307
100
AcDbEntity
  8
0
100
AcDbLine
 62
7
  6
CONTINUOUS
 10
263.300431287
 20
332.3070855383
 11
263.4735285829
 21
332.1721128067
  0
LINE
  5
308
100
AcDbEntity
  8
0
100
AcDbLine
 62
7
  6
CONTINUOUS
 10
219.8090158199
 20
44.6000741232
 11
271.785616943
 21
74.6085996464
  0
LINE
  5
309
100
AcDbEntity
  8
0
100
AcDbLine
 62
7
  6
CONTINUOUS
 10
213.2714165826
 20
39.1416085599
 11
219.8090158199
 21
42.9160707033
  0
LINE
  5
30A
100
AcDbEntity
  8
0
100
AcDbLine
 62
7
  6
CONTINUOUS
 10
219.6724346856
 20
41.6021516062
 11
269.9980501542
 21
70.6574858071
  0
LINE
  5
30B
100
AcDbEntity
  8
0
100
AcDbLine
 62
7
  6
CONTINUOUS
 10
211.0566855112
 20
34.2463203661
 11
217.5942847485
 21
38.0207825151
  0
ARC
  5
30C
100
AcDbEntity
  8
0
100
AcDbCircle
 62
7
  6
CONTINUOUS
 10
124.3699233369
 20
63.9371915097
 40
1.4670177845
100
AcDbArc
 50
235.7056781865
 51
240.0175754652
  0
ARC
  5
30D
100
AcDbEntity
  8
0
100
AcDbCircle
 62
7
  6
CONTINUOUS
 10
123.4661050643
 20
207.6226954656
 40
1.2064497164
100
AcDbArc
 50
107.0649052513
 51
119.9472059164
  0
ARC
  5
30E
100
AcDbEntity
  8
0
100
AcDbCircle
 62
7
  6
CONTINUOUS
 10
123.6569051159
 20
62.3690297499
 40
0.5174777284
100
AcDbArc
 50
181.7360328597
 51
197.1964624747
  0
ARC
  5
30F
100
AcDbEntity
  8
0
100
AcDbCircle
 62
7
  6
CONTINUOUS
 10
82.7033960872
 20
278.8032576412
 40
2.5712817923
100
AcDbArc
 50
283.1529739324
 51
285.4033693628
  0
ARC
  5
310
100
AcDbEntity
  8
0
100
AcDbCircle
 62
7
  6
CONTINUOUS
 10
123.4661050643
 20
237.0723046467
 40
1.2064497164
100
AcDbArc
 50
107.0649052513
 51
119.9472059164
  0
ARC
  5
311
100
AcDbEntity
  8
0
100
AcDbCircle
 62
7
  6
CONTINUOUS
 10
83.4319935883
 20
257.1718876557
 40
1.1797487016
100
AcDbArc
 50
292.5024586725
 51
299.9961941749
  0
ARC
  5
312
100
AcDbEntity
  8
0
100
AcDbCircle
 62
7
  6
CONTINUOUS
 10
83.4319935883
 20
227.7222784747
 40
1.1797487016
100
AcDbArc
 50
292.5024586725
 51
299.9961941749
  0
ARC
  5
313
100
AcDbEntity
  8
0
100
AcDbCircle
 62
7
  6
CONTINUOUS
 10
88.918227922
 20
367.5495462985
 40
5.1572274545
100
AcDbArc
 50
33.1686107022
 51
36.906388269
  0
ARC
  5
314
100
AcDbEntity
  8
0
100
AcDbCircle
 62
7
  6
CONTINUOUS
 10
77.9625432766
 20
364.4081364291
 40
5.0429000931
100
AcDbArc
 50
60.0007887866
 51
61.1464114495
  0
ARC
  5
315
100
AcDbEntity
  8
0
100
AcDbCircle
 62
7
  6
CONTINUOUS
 10
76.6501057015
 20
362.4338447166
 40
4.3744676979
100
AcDbArc
 50
59.9995850293
 51
62.5520814132
  0
ARC
  5
316
100
AcDbEntity
  8
0
100
AcDbCircle
 62
7
  6
CONTINUOUS
 10
77.5600268418
 20
364.2264279747
 40
4.3238751388
100
AcDbArc
 50
60.0007324893
 51
61.1464491884
  0
ARC
  5
317
100
AcDbEntity
  8
0
100
AcDbCircle
 62
7
  6
CONTINUOUS
 10
76.1747434236
 20
363.6409301162
 40
3.5798614176
100
AcDbArc
 50
144.8357611494
 51
149.166604535
  0
ARC
  5
318
100
AcDbEntity
  8
0
100
AcDbCircle
 62
7
  6
CONTINUOUS
 10
76.0326245633
 20
363.7397490046
 40
3.4067667834
100
AcDbArc
 50
142.0680015376
 51
144.8178578695
  0
ARC
  5
319
100
AcDbEntity
  8
0
100
AcDbCircle
 62
7
  6
CONTINUOUS
 10
76.4581643662
 20
362.6091938791
 40
3.3393213238
100
AcDbArc
 50
59.1750046368
 51
62.2423945887
  0
ARC
  5
31A
100
AcDbEntity
  8
0
100
AcDbCircle
 62
7
  6
CONTINUOUS
 10
105.8154012865
 20
360.3420286459
 40
1.9266129444
100
AcDbArc
 50
237.5767197532
 51
240.0076514907
  0
ARC
  5
31B
100
AcDbEntity
  8
0
100
AcDbCircle
 62
7
  6
CONTINUOUS
 10
122.9172541041
 20
383.3035509363
 40
1.0284446585
100
AcDbArc
 50
205.9565509958
 51
212.7232548029
  0
ARC
  5
31C
100
AcDbEntity
  8
0
100
AcDbCircle
 62
7
  6
CONTINUOUS
 10
144.768410802
 20
392.5196543656
 40
29.7934493339
100
AcDbArc
 50
288.8567555623
 51
289.1314665772
  0
ARC
  5
31D
100
AcDbEntity
  8
0
100
AcDbCircle
 62
7
  6
CONTINUOUS
 10
145.8718661758
 20
357.914068228
 40
29.786940704
100
AcDbArc
 50
97.5916327962
 51
98.4653229028
  0
ARC
  5
31E
100
AcDbEntity
  8
0
100
AcDbCircle
 62
7
  6
CONTINUOUS
 10
145.8636166007
 20
358.4927590874
 40
29.7261667815
100
AcDbArc
 50
97.5912037769
 51
98.7086718405
  0
ARC
  5
31F
100
AcDbEntity
  8
0
100
AcDbCircle
 62
7
  6
CONTINUOUS
 10
146.3863834899
 20
395.8772685607
 40
28.6836038518
100
AcDbArc
 50
280.2197622856
 51
280.4128057059
  0
ARC
  5
320
100
AcDbEntity
  8
0
100
AcDbCircle
 62
7
  6
CONTINUOUS
 10
147.1692581785
 20
365.7866951919
 40
21.0797836165
100
AcDbArc
 50
102.5859960894
 51
104.4361663216
  0
ARC
  5
321
100
AcDbEntity
  8
0
100
AcDbCircle
 62
7
  6
CONTINUOUS
 10
150.0318225356
 20
370.6146166912
 40
15.9136357182
100
AcDbArc
 50
52.5538632956
 51
53.9134572191
  0
ARC
  5
322
100
AcDbEntity
  8
0
100
AcDbCircle
 62
7
  6
CONTINUOUS
 10
150.2748523932
 20
370.9347629629
 40
15.5116977129
100
AcDbArc
 50
52.2982128569
 51
52.5475607305
  0
ARC
  5
323
100
AcDbEntity
  8
0
100
AcDbCircle
 62
7
  6
CONTINUOUS
 10
132.7553454305
 20
372.4005896122
 40
14.1467554179
100
AcDbArc
 50
133.8490771324
 51
135.4757184932
  0
ARC
  5
324
100
AcDbEntity
  8
0
100
AcDbCircle
 62
7
  6
CONTINUOUS
 10
146.2146777035
 20
385.4361556508
 40
12.9553001197
100
AcDbArc
 50
246.6443916151
 51
248.1286686004
  0
ARC
  5
325
100
AcDbEntity
  8
0
100
AcDbCircle
 62
7
  6
CONTINUOUS
 10
131.3500531805
 20
377.8384119099
 40
12.2444051526
100
AcDbArc
 50
218.1949457103
 51
220.2313648893
  0
ARC
  5
326
100
AcDbEntity
  8
0
100
AcDbCircle
 62
7
  6
CONTINUOUS
 10
127.4544012006
 20
375.7690831928
 40
7.7865290148
100
AcDbArc
 50
183.8239099977
 51
188.8986714281
  0
ARC
  5
327
100
AcDbEntity
  8
0
100
AcDbCircle
 62
7
  6
CONTINUOUS
 10
157.9083225925
 20
375.2514668258
 40
7.7851548737
100
AcDbArc
 50
350.3472504993
 51
354.9417839957
  0
ARC
  5
328
100
AcDbEntity
  8
0
100
AcDbCircle
 62
7
  6
CONTINUOUS
 10
157.9167302115
 20
375.7684437576
 40
7.7766475965
100
AcDbArc
 50
351.4115724921
 51
354.9473463756
  0
ARC
  5
329
100
AcDbEntity
  8
0
100
AcDbCircle
 62
7
  6
CONTINUOUS
 10
127.3642805447
 20
375.2412016076
 40
7.6959203961
100
AcDbArc
 50
179.9969463057
 51
185.1122543674
  0
ARC
  5
32A
100
AcDbEntity
  8
0
100
AcDbCircle
 62
7
  6
CONTINUOUS
 10
127.3448240407
 20
375.7601792523
 40
7.6766021594
100
AcDbArc
 50
180.0006592528
 51
183.8121443423
  0
ARC
  5
32B
100
AcDbEntity
  8
0
100
AcDbCircle
 62
7
  6
CONTINUOUS
 10
157.1236807395
 20
378.0065878505
 40
7.2009846271
100
AcDbArc
 50
335.0225008383
 51
338.1854775391
  0
ARC
  5
32C
100
AcDbEntity
  8
0
100
AcDbCircle
 62
7
  6
CONTINUOUS
 10
156.9294482956
 20
376.0843923739
 40
6.9327862454
100
AcDbArc
 50
353.7453812207
 51
355.6981036002
  0
ARC
  5
32D
100
AcDbEntity
  8
0
100
AcDbCircle
 62
7
  6
CONTINUOUS
 10
156.9624736976
 20
376.0819087693
 40
6.899667588
100
AcDbArc
 50
355.6980979108
 51
359.996957648
  0
ARC
  5
32E
100
AcDbEntity
  8
0
100
AcDbCircle
 62
7
  6
CONTINUOUS
 10
156.9772594962
 20
375.5620744385
 40
6.8848247293
100
AcDbArc
 50
358.0552199458
 51
0.0082305586
  0
ARC
  5
32F
100
AcDbEntity
  8
0
100
AcDbCircle
 62
7
  6
CONTINUOUS
 10
172.3601759012
 20
355.3083925965
 40
6.2442151849
100
AcDbArc
 50
194.7127970853
 51
195.1600056342
  0
ARC
  5
330
100
AcDbEntity
  8
0
100
AcDbCircle
 62
7
  6
CONTINUOUS
 10
133.9099366632
 20
377.1795913643
 40
6.1079340098
100
AcDbArc
 50
175.1292189108
 51
176.4853781648
  0
ARC
  5
331
100
AcDbEntity
  8
0
100
AcDbCircle
 62
7
  6
CONTINUOUS
 10
171.9879680234
 20
354.7222889445
 40
5.8652422818
100
AcDbArc
 50
180.0150312673
 51
186.8400459284
  0
ARC
  5
332
100
AcDbEntity
  8
0
100
AcDbCircle
 62
7
  6
CONTINUOUS
 10
171.9777975057
 20
355.2395271592
 40
5.8550993399
100
AcDbArc
 50
180.0029150124
 51
185.006614931
  0
ARC
  5
333
100
AcDbEntity
  8
0
100
AcDbCircle
 62
7
  6
CONTINUOUS
 10
138.2340658779
 20
378.1558898031
 40
4.7813636544
100
AcDbArc
 50
180.0057047496
 51
188.5828333507
  0
ARC
  5
334
100
AcDbEntity
  8
0
100
AcDbCircle
 62
7
  6
CONTINUOUS
 10
138.2283814381
 20
378.6741915501
 40
4.7756576824
100
AcDbArc
 50
180.0035847692
 51
186.0193728943
  0
ARC
  5
335
100
AcDbEntity
  8
0
100
AcDbCircle
 62
7
  6
CONTINUOUS
 10
140.3838164141
 20
378.1509026179
 40
3.7563110733
100
AcDbArc
 50
172.0609166205
 51
174.11442571
  0
ARC
  5
336
100
AcDbEntity
  8
0
100
AcDbCircle
 62
7
  6
CONTINUOUS
 10
124.6172858644
 20
382.3127496842
 40
2.7575857699
100
AcDbArc
 50
64.3096215281
 51
68.7719625043
  0
ARC
  5
337
100
AcDbEntity
  8
0
100
AcDbCircle
 62
7
  6
CONTINUOUS
 10
158.6968918313
 20
384.4961411155
 40
1.688050608
100
AcDbArc
 50
308.6787825169
 51
311.0652137089
  0
ARC
  5
338
100
AcDbEntity
  8
0
100
AcDbCircle
 62
7
  6
CONTINUOUS
 10
157.6787103619
 20
364.9232100361
 40
1.2691624198
100
AcDbArc
 50
39.3721531755
 51
39.8710417816
  0
ARC
  5
339
100
AcDbEntity
  8
0
100
AcDbCircle
 62
7
  6
CONTINUOUS
 10
170.5376832337
 20
347.9831926964
 40
0.8846346695
100
AcDbArc
 50
139.4069404944
 51
141.2967512962
  0
ARC
  5
33A
100
AcDbEntity
  8
0
100
AcDbCircle
 62
7
  6
CONTINUOUS
 10
208.6372777786
 20
42.4082073031
 40
8.0733888128
100
AcDbArc
 50
239.9662232641
 51
243.9307849599
  0
ARC
  5
33B
100
AcDbEntity
  8
0
100
AcDbCircle
 62
7
  6
CONTINUOUS
 10
205.0418398702
 20
47.204790627
 40
4.5953268093
100
AcDbArc
 50
356.3818754565
 51
0.0087103722
  0
ARC
  5
33C
100
AcDbEntity
  8
0
100
AcDbCircle
 62
7
  6
CONTINUOUS
 10
207.1447277955
 20
38.0517819374
 40
3.7107873348
100
AcDbArc
 50
324.8431556245
 51
326.810212824
  0
ARC
  5
33D
100
AcDbEntity
  8
0
100
AcDbCircle
 62
7
  6
CONTINUOUS
 10
205.1570847636
 20
46.8533467606
 40
3.503532024
100
AcDbArc
 50
358.3827644417
 51
2.3930783821
  0
ARC
  5
33E
100
AcDbEntity
  8
0
100
AcDbCircle
 62
7
  6
CONTINUOUS
 10
207.6766094059
 20
44.3595087925
 40
2.98702515
100
AcDbArc
 50
25.5040825349
 51
28.8875202523
  0
ARC
  5
33F
100
AcDbEntity
  8
0
100
AcDbCircle
 62
7
  6
CONTINUOUS
 10
207.1965104739
 20
43.6971867253
 40
2.8293931831
100
AcDbArc
 50
34.8869498068
 51
38.1148814245
  0
ARC
  5
340
100
AcDbEntity
  8
0
100
AcDbCircle
 62
7
  6
CONTINUOUS
 10
210.7678072196
 20
45.1399357225
 40
2.4652877215
100
AcDbArc
 50
2.7025416029
 51
7.4219114168
  0
ARC
  5
341
100
AcDbEntity
  8
0
100
AcDbCircle
 62
7
  6
CONTINUOUS
 10
210.019079674
 20
45.0236913073
 40
1.2126391843
100
AcDbArc
 50
2.7029170584
 51
7.4221781111
  0
ARC
  5
342
100
AcDbEntity
  8
0
100
AcDbCircle
 62
7
  6
CONTINUOUS
 10
222.3839668752
 20
313.740785629
 40
29.7869407009
100
AcDbArc
 50
97.5916327961
 51
98.4653229028
  0
ARC
  5
343
100
AcDbEntity
  8
0
100
AcDbCircle
 62
7
  6
CONTINUOUS
 10
222.3757173006
 20
314.3194764851
 40
29.7261667817
100
AcDbArc
 50
97.5912037769
 51
98.7086718405
  0
ARC
  5
344
100
AcDbEntity
  8
0
100
AcDbCircle
 62
7
  6
CONTINUOUS
 10
207.5616755918
 20
283.727386332
 40
5.0425669978
100
AcDbArc
 50
0.0000682524
 51
0.6304466828
  0
ARC
  5
345
100
AcDbEntity
  8
0
100
AcDbCircle
 62
7
  6
CONTINUOUS
 10
202.5577904181
 20
292.4807810458
 40
5.037603011
100
AcDbArc
 50
58.8527162334
 51
60.0008727149
  0
ARC
  5
346
100
AcDbEntity
  8
0
100
AcDbCircle
 62
7
  6
CONTINUOUS
 10
201.0530268011
 20
290.6067050967
 40
4.3785419157
100
AcDbArc
 50
57.4502287672
 51
60.0003488259
  0
ARC
  5
347
100
AcDbEntity
  8
0
100
AcDbCircle
 62
7
  6
CONTINUOUS
 10
205.2616212115
 20
283.3224802237
 40
4.3755469144
100
AcDbArc
 50
359.9993171186
 51
2.5512053169
  0
ARC
  5
348
100
AcDbEntity
  8
0
100
AcDbCircle
 62
7
  6
CONTINUOUS
 10
207.2030618907
 20
283.4696748258
 40
4.3235459972
100
AcDbArc
 50
0.0000492497
 51
0.630481674
  0
ARC
  5
349
100
AcDbEntity
  8
0
100
AcDbCircle
 62
7
  6
CONTINUOUS
 10
202.1543847934
 20
292.2975236321
 40
4.3203639207
100
AcDbArc
 50
58.854241228
 51
60.0008889381
  0
ARC
  5
34A
100
AcDbEntity
  8
0
100
AcDbCircle
 62
7
  6
CONTINUOUS
 10
200.9080283363
 20
290.6699476113
 40
3.4170121378
100
AcDbArc
 50
58.0311138231
 51
60.8163605367
  0
ARC
  5
34B
100
AcDbEntity
  8
0
100
AcDbCircle
 62
7
  6
CONTINUOUS
 10
205.2444231871
 20
283.165282989
 40
3.4134851499
100
AcDbArc
 50
359.1824097874
 51
2.2168739222
  0
ARC
  5
34C
100
AcDbEntity
  8
0
100
AcDbCircle
 62
7
  6
CONTINUOUS
 10
186.5964318962
 20
313.6699968506
 40
1.9509300014
100
AcDbArc
 50
238.8475414168
 51
240.0037646888
  0
ARC
  5
34D
100
AcDbEntity
  8
0
100
AcDbCircle
 62
7
  6
CONTINUOUS
 10
221.2805114991
 20
348.3463717714
 40
29.7934493422
100
AcDbArc
 50
288.8567555623
 51
289.1314665772
  0
ARC
  5
34E
100
AcDbEntity
  8
0
100
AcDbCircle
 62
7
  6
CONTINUOUS
 10
180.6641264706
 20
364.584450038
 40
18.9963726431
100
AcDbArc
 50
244.4732431292
 51
244.9709656618
  0
ARC
  5
34F
100
AcDbEntity
  8
0
100
AcDbCircle
 62
7
  6
CONTINUOUS
 10
209.26744613
 20
328.2273070105
 40
14.1467554174
100
AcDbArc
 50
133.8490771324
 51
135.4757184932
  0
ARC
  5
350
100
AcDbEntity
  8
0
100
AcDbCircle
 62
7
  6
CONTINUOUS
 10
189.1386420313
 20
350.2048302341
 40
14.0039782026
100
AcDbArc
 50
53.7951369697
 51
55.0885651414
  0
ARC
  5
351
100
AcDbEntity
  8
0
100
AcDbCircle
 62
7
  6
CONTINUOUS
 10
189.3380200431
 20
350.4794987065
 40
13.6645780443
100
AcDbArc
 50
53.5415596641
 51
53.7894368979
  0
ARC
  5
352
100
AcDbEntity
  8
0
100
AcDbCircle
 62
7
  6
CONTINUOUS
 10
207.86215388
 20
333.6651293075
 40
12.2444051522
100
AcDbArc
 50
218.1949457103
 51
220.2313648893
  0
ARC
  5
353
100
AcDbEntity
  8
0
100
AcDbCircle
 62
7
  6
CONTINUOUS
 10
174.8862730639
 20
356.7134441155
 40
9.1533700411
100
AcDbArc
 50
216.9181157154
 51
219.740173478
  0
ARC
  5
354
100
AcDbEntity
  8
0
100
AcDbCircle
 62
7
  6
CONTINUOUS
 10
192.944165106
 20
356.3149580338
 40
8.487793957
100
AcDbArc
 50
323.7737228406
 51
325.6031778179
  0
ARC
  5
355
100
AcDbEntity
  8
0
100
AcDbCircle
 62
7
  6
CONTINUOUS
 10
203.9665019004
 20
331.5958005907
 40
7.7865290148
100
AcDbArc
 50
183.8239099977
 51
188.8986714281
  0
ARC
  5
356
100
AcDbEntity
  8
0
100
AcDbCircle
 62
7
  6
CONTINUOUS
 10
203.8763812446
 20
331.0679190055
 40
7.6959203962
100
AcDbArc
 50
179.9969463058
 51
185.1122543674
  0
ARC
  5
357
100
AcDbEntity
  8
0
100
AcDbCircle
 62
7
  6
CONTINUOUS
 10
203.8569247406
 20
331.5868966502
 40
7.6766021595
100
AcDbArc
 50
180.0006592528
 51
183.8121443423
  0
ARC
  5
358
100
AcDbEntity
  8
0
100
AcDbCircle
 62
7
  6
CONTINUOUS
 10
210.4220373635
 20
333.0063087621
 40
6.1079340103
100
AcDbArc
 50
175.1292189108
 51
176.4853781647
  0
ARC
  5
359
100
AcDbEntity
  8
0
100
AcDbCircle
 62
7
  6
CONTINUOUS
 10
195.1233390398
 20
355.2657210187
 40
6.0532177136
100
AcDbArc
 50
348.443032393
 51
349.5853894172
  0
ARC
  5
35A
100
AcDbEntity
  8
0
100
AcDbCircle
 62
7
  6
CONTINUOUS
 10
195.2336346376
 20
355.2471102603
 40
5.9413751498
100
AcDbArc
 50
349.5696321314
 51
354.9581310676
  0
ARC
  5
35B
100
AcDbEntity
  8
0
100
AcDbCircle
 62
7
  6
CONTINUOUS
 10
195.3060655787
 20
354.7221692108
 40
5.8685899437
100
AcDbArc
 50
353.1395562771
 51
359.9861465739
  0
ARC
  5
35C
100
AcDbEntity
  8
0
100
AcDbCircle
 62
7
  6
CONTINUOUS
 10
195.3125975319
 20
355.2399171365
 40
5.8620856293
100
AcDbArc
 50
354.9603374528
 51
359.9932769348
  0
ARC
  5
35D
100
AcDbEntity
  8
0
100
AcDbCircle
 62
7
  6
CONTINUOUS
 10
174.2313526018
 20
355.2549729118
 40
4.9345032971
100
AcDbArc
 50
186.1285466871
 51
194.8976616342
  0
ARC
  5
35E
100
AcDbEntity
  8
0
100
AcDbCircle
 62
7
  6
CONTINUOUS
 10
193.1552659256
 20
354.7162781565
 40
4.8445914714
100
AcDbArc
 50
6.1507748342
 51
6.4853519616
  0
ARC
  5
35F
100
AcDbEntity
  8
0
100
AcDbCircle
 62
7
  6
CONTINUOUS
 10
174.1352640589
 20
355.2432760154
 40
4.8377153521
100
AcDbArc
 50
185.2170602976
 51
186.1123010481
  0
ARC
  5
360
100
AcDbEntity
  8
0
100
AcDbCircle
 62
7
  6
CONTINUOUS
 10
193.1776771025
 20
354.7185639301
 40
4.8220643991
100
AcDbArc
 50
3.451456628
 51
6.1523032723
  0
ARC
  5
361
100
AcDbEntity
  8
0
100
AcDbCircle
 62
7
  6
CONTINUOUS
 10
174.0951534987
 20
355.2399176793
 40
4.7974655943
100
AcDbArc
 50
180.0082215746
 51
185.2206765412
  0
ARC
  5
362
100
AcDbEntity
  8
0
100
AcDbCircle
 62
7
  6
CONTINUOUS
 10
214.7461665776
 20
333.982607201
 40
4.7813636544
100
AcDbArc
 50
180.0057047496
 51
188.5828333507
  0
ARC
  5
363
100
AcDbEntity
  8
0
100
AcDbCircle
 62
7
  6
CONTINUOUS
 10
214.7404821379
 20
334.5009089479
 40
4.7756576824
100
AcDbArc
 50
180.0035847692
 51
186.0193728943
  0
ARC
  5
364
100
AcDbEntity
  8
0
100
AcDbCircle
 62
7
  6
CONTINUOUS
 10
216.895917114
 20
333.9776200157
 40
3.7563110734
100
AcDbArc
 50
172.0609166205
 51
174.11442571
  0
ARC
  5
365
100
AcDbEntity
  8
0
100
AcDbCircle
 62
7
  6
CONTINUOUS
 10
201.1293865642
 20
338.139467082
 40
2.7575857699
100
AcDbArc
 50
64.3096215282
 51
68.7719625042
  0
ARC
  5
366
100
AcDbEntity
  8
0
100
AcDbCircle
 62
7
  6
CONTINUOUS
 10
199.4293548039
 20
339.1302683341
 40
1.0284446585
100
AcDbArc
 50
205.9565509958
 51
212.7232548029
  0
ARC
  5
367
100
AcDbEntity
  8
0
100
AcDbCircle
 62
7
  6
CONTINUOUS
 10
196.8525742177
 20
361.9085484755
 40
0.7692984049
100
AcDbArc
 50
324.4416538688
 51
327.8797663056
  0
ARC
  5
368
100
AcDbEntity
  8
0
100
AcDbCircle
 62
7
  6
CONTINUOUS
 10
223.6813588784
 20
321.6134125892
 40
21.079783617
100
AcDbArc
 50
102.5859960894
 51
104.4361663216
  0
ARC
  5
369
100
AcDbEntity
  8
0
100
AcDbCircle
 62
7
  6
CONTINUOUS
 10
263.2778648529
 20
320.7024727045
 40
8.6033348946
100
AcDbArc
 50
4.8539711622
 51
5.1663521712
  0
ARC
  5
36A
100
AcDbEntity
  8
0
100
AcDbCircle
 62
7
  6
CONTINUOUS
 10
270.7327752338
 20
319.6435757544
 40
2.1062682314
100
AcDbArc
 50
57.9891982116
 51
60.0096119569
  0
ARC
  5
36B
100
AcDbEntity
  8
0
100
AcDbCircle
 62
7
  6
CONTINUOUS
 10
234.1908110608
 20
320.7499274332
 40
1.269162421
100
AcDbArc
 50
39.3721531757
 51
39.8710417813
  0
ARC
  5
36C
100
AcDbEntity
  8
0
100
AcDbCircle
 62
7
  6
CONTINUOUS
 10
222.8984841897
 20
351.7039859586
 40
28.6836038518
100
AcDbArc
 50
280.2197622856
 51
280.4128057059
  0
ARC
  5
36D
100
AcDbEntity
  8
0
100
AcDbCircle
 62
7
  6
CONTINUOUS
 10
226.5439232356
 20
326.4413340893
 40
15.913635718
100
AcDbArc
 50
52.5538632955
 51
53.9134572191
  0
ARC
  5
36E
100
AcDbEntity
  8
0
100
AcDbCircle
 62
7
  6
CONTINUOUS
 10
226.7869530953
 20
326.7614803638
 40
15.5116977091
100
AcDbArc
 50
52.2982128569
 51
52.5475607306
  0
ARC
  5
36F
100
AcDbEntity
  8
0
100
AcDbCircle
 62
7
  6
CONTINUOUS
 10
222.7267784033
 20
341.2628730485
 40
12.9553001195
100
AcDbArc
 50
246.6443916151
 51
248.1286686004
  0
ARC
  5
370
100
AcDbEntity
  8
0
100
AcDbCircle
 62
7
  6
CONTINUOUS
 10
234.4204232923
 20
331.0781842237
 40
7.7851548737
100
AcDbArc
 50
350.3472504993
 51
354.9417839957
  0
ARC
  5
371
100
AcDbEntity
  8
0
100
AcDbCircle
 62
7
  6
CONTINUOUS
 10
234.4288309113
 20
331.5951611555
 40
7.7766475965
100
AcDbArc
 50
351.4115724921
 51
354.9473463756
  0
ARC
  5
372
100
AcDbEntity
  8
0
100
AcDbCircle
 62
7
  6
CONTINUOUS
 10
233.6357814394
 20
333.8333052484
 40
7.200984627
100
AcDbArc
 50
335.0225008382
 51
338.1854775391
  0
ARC
  5
373
100
AcDbEntity
  8
0
100
AcDbCircle
 62
7
  6
CONTINUOUS
 10
233.4415489954
 20
331.9111097718
 40
6.9327862454
100
AcDbArc
 50
353.7453812207
 51
355.6981036002
  0
ARC
  5
374
100
AcDbEntity
  8
0
100
AcDbCircle
 62
7
  6
CONTINUOUS
 10
233.4745743975
 20
331.9086261671
 40
6.8996675879
100
AcDbArc
 50
355.6980979107
 51
359.996957648
  0
ARC
  5
375
100
AcDbEntity
  8
0
100
AcDbCircle
 62
7
  6
CONTINUOUS
 10
233.489360196
 20
331.3887918364
 40
6.8848247293
100
AcDbArc
 50
358.0552199458
 51
0.0082305586
  0
ARC
  5
376
100
AcDbEntity
  8
0
100
AcDbCircle
 62
7
  6
CONTINUOUS
 10
235.2089925309
 20
340.3228585136
 40
1.6880506083
100
AcDbArc
 50
308.6787825171
 51
311.0652137087
  0
ARC
  5
377
100
AcDbEntity
  8
0
100
AcDbCircle
 62
7
  6
CONTINUOUS
 10
262.6083432693
 20
331.4255097425
 40
1.1491845421
100
AcDbArc
 50
21.2481775133
 51
26.0105152884
  0
SPLINE
  5
378
100
AcDbEntity
  8
0
100
AcDbSpline
 62
7
  6
CONTINUOUS
 70
0
 71
3
 72
11
 73
7
 74
0
 42
0.0000001
 43
0.0000001
 44
0.0000000001
 40
0.0
 40
0.0
 40
0.0
 40
0.0
 40
0.2833366296
 40
0.5428415574
 40
0.7801835284
 40
1.0
 40
1.0
 40
1.0
 40
1.0
 10
107.8337626722
 20
357.5742358767
 30
0.0
 10
107.9085096812
 20
357.6173908248
 30
0.0
 10
108.0466578167
 20
357.709497305
 30
0.0
 10
108.2218546578
 20
357.8718377933
 30
0.0
 10
108.3518236862
 20
358.049102832
 30
0.0
 10
108.407124358
 20
358.1787321952
 30
0.0
 10
108.4249457707
 20
358.2432777907
 30
0.0
  0
SPLINE
  5
379
100
AcDbEntity
  8
0
100
AcDbSpline
 62
7
  6
CONTINUOUS
 70
0
 71
3
 72
9
 73
5
 74
0
 42
0.0000001
 43
0.0000001
 44
0.0000000001
 40
0.0
 40
0.0
 40
0.0
 40
0.0
 40
0.2529473961
 40
1.0
 40
1.0
 40
1.0
 40
1.0
 10
108.4249457707
 20
358.2432777907
 30
0.0
 10
108.4292932664
 20
358.2590235513
 30
0.0
 10
108.4444645087
 20
358.3218092904
 30
0.0
 10
108.4512329573
 20
358.3866456192
 30
0.0
 10
108.4512330002
 20
358.4348890353
 30
0.0
  0
SPLINE
  5
37A
100
AcDbEntity
  8
0
100
AcDbSpline
 62
7
  6
CONTINUOUS
 70
0
 71
3
 72
20
 73
16
 74
0
 42
0.0000001
 43
0.0000001
 44
0.0000000001
 40
0.0
 40
0.0
 40
0.0
 40
0.0
 40
0.0501487963
 40
0.1009773357
 40
0.1532375198
 40
0.207715627
 40
0.2650313477
 40
0.3255108167
 40
0.3891446117
 40
0.4556160239
 40
0.5944871414
 40
0.735986794
 40
0.8055536506
 40
0.8731788738
 40
1.0
 40
1.0
 40
1.0
 40
1.0
 10
108.4512339496
 20
359.5340645893
 30
0.0
 10
108.4512339496
 20
359.604742862
 30
0.0
 10
108.4336282044
 20
359.7476290606
 30
0.0
 10
108.3569862735
 20
359.9514271813
 30
0.0
 10
108.2356029144
 20
360.1391842443
 30
0.0
 10
108.0755405558
 20
360.3075944097
 30
0.0
 10
107.881869499
 20
360.4554599898
 30
0.0
 10
107.6588968675
 20
360.5819956085
 30
0.0
 10
107.4107754538
 20
360.6863364086
 30
0.0
 10
107.047289139
 20
360.7959542641
 30
0.0
 10
106.5609969598
 20
360.8686538944
 30
0.0
 10
106.0654186121
 20
360.8576594168
 30
0.0
 10
105.6767368057
 20
360.7973180685
 30
0.0
 10
105.3156998054
 20
360.7063627479
 30
0.0
 10
105.0597035902
 20
360.6003640029
 30
0.0
 10
104.9049116658
 20
360.5109953771
 30
0.0
  0
SPLINE
  5
37B
100
AcDbEntity
  8
0
100
AcDbSpline
 62
7
  6
CONTINUOUS
 70
0
 71
3
 72
13
 73
9
 74
0
 42
0.0000001
 43
0.0000001
 44
0.0000000001
 40
0.0
 40
0.0
 40
0.0
 40
0.0
 40
0.2714529892
 40
0.5245125414
 40
0.6460575237
 40
0.76528057
 40
0.8829590531
 40
1.0
 40
1.0
 40
1.0
 40
1.0
 10
104.9049116658
 20
360.5109953771
 30
0.0
 10
104.8077599311
 20
360.4549051318
 30
0.0
 10
104.6284608507
 20
360.3305671767
 30
0.0
 10
104.4444676005
 20
360.1332584647
 30
0.0
 10
104.3375192386
 20
359.9587228691
 30
0.0
 10
104.2790310287
 20
359.8219960674
 30
0.0
 10
104.2429591979
 20
359.6796250942
 30
0.0
 10
104.2348339496
 20
359.5824330736
 30
0.0
 10
104.2348339496
 20
359.5340645893
 30
0.0
  0
SPLINE
  5
37C
100
AcDbEntity
  8
0
100
AcDbSpline
 62
7
  6
CONTINUOUS
 70
0
 71
3
 72
9
 73
5
 74
0
 42
0.0000001
 43
0.0000001
 44
0.0000000001
 40
0.0
 40
0.0
 40
0.0
 40
0.0
 40
0.2483694466
 40
1.0
 40
1.0
 40
1.0
 40
1.0
 10
104.234834899
 20
358.4348890354
 30
0.0
 10
104.2348348848
 20
358.4188574193
 30
0.0
 10
104.2370382859
 20
358.3543232682
 30
0.0
 10
104.24818999
 20
358.2901389814
 30
0.0
 10
104.2610968982
 20
358.2433714871
 30
0.0
  0
SPLINE
  5
37D
100
AcDbEntity
  8
0
100
AcDbSpline
 62
7
  6
CONTINUOUS
 70
0
 71
3
 72
17
 73
13
 74
0
 42
0.0000001
 43
0.0000001
 44
0.0000000001
 40
0.0
 40
0.0
 40
0.0
 40
0.0
 40
0.0436433288
 40
0.089678006
 40
0.1387598372
 40
0.1912795211
 40
0.3068535258
 40
0.4355320264
 40
0.5740263759
 40
0.7177414974
 40
0.8614686595
 40
1.0
 40
1.0
 40
1.0
 40
1.0
 10
104.2610968982
 20
358.2433714871
 30
0.0
 10
104.2743668159
 20
358.195288647
 30
0.0
 10
104.3115665283
 20
358.0990180201
 30
0.0
 10
104.3944398453
 20
357.9629888522
 30
0.0
 10
104.5041137781
 20
357.8339355697
 30
0.0
 10
104.6897533231
 20
357.6682092016
 30
0.0
 10
104.9822399042
 20
357.4908332462
 30
0.0
 10
105.3933281343
 20
357.3359187848
 30
0.0
 10
105.8546661348
 20
357.2395224297
 30
0.0
 10
106.3418703187
 20
357.2067272396
 30
0.0
 10
106.8290209656
 20
357.239194553
 30
0.0
 10
107.1462070858
 20
357.3052381108
 30
0.0
 10
107.2981326053
 20
357.3498096785
 30
0.0
  0
SPLINE
  5
37E
100
AcDbEntity
  8
0
100
AcDbSpline
 62
7
  6
CONTINUOUS
 70
0
 71
3
 72
9
 73
5
 74
0
 42
0.0000001
 43
0.0000001
 44
0.0000000001
 40
0.0
 40
0.0
 40
0.0
 40
0.0
 40
0.5161936052
 40
1.0
 40
1.0
 40
1.0
 40
1.0
 10
107.2981326053
 20
357.3498096785
 30
0.0
 10
107.3941853702
 20
357.377989423
 30
0.0
 10
107.5776432245
 20
357.44211876
 30
0.0
 10
107.7525115917
 20
357.5273258235
 30
0.0
 10
107.8337626722
 20
357.5742358767
 30
0.0
  0
SPLINE
  5
37F
100
AcDbEntity
  8
0
100
AcDbSpline
 62
7
  6
CONTINUOUS
 70
0
 71
3
 72
26
 73
22
 74
0
 42
0.0000001
 43
0.0000001
 44
0.0000000001
 40
0.0
 40
0.0
 40
0.0
 40
0.0
 40
0.0665590022
 40
0.1383710009
 40
0.2139631632
 40
0.291522758
 40
0.3690833083
 40
0.4446757466
 40
0.5164902913
 40
0.5830469943
 40
0.6433990779
 40
0.6973889376
 40
0.7459493493
 40
0.76891659
 40
0.791458974
 40
0.8140014018
 40
0.8369683212
 40
0.8607468397
 40
0.8856577984
 40
0.9396451023
 40
1.0
 40
1.0
 40
1.0
 40
1.0
 10
105.0319110973
 20
360.4984162103
 30
0.0
 10
105.1216695016
 20
360.5502379398
 30
0.0
 10
105.3179353707
 20
360.6416341484
 30
0.0
 10
105.6375478809
 20
360.7387699182
 30
0.0
 10
105.9835741212
 20
360.7985695396
 30
0.0
 10
106.3430262569
 20
360.818744217
 30
0.0
 10
106.7024866143
 20
360.7985687422
 30
0.0
 10
107.0484971025
 20
360.7387860463
 30
0.0
 10
107.3681850598
 20
360.6415955334
 30
0.0
 10
107.6497992988
 20
360.5104920846
 30
0.0
 10
107.8831208486
 20
360.349782891
 30
0.0
 10
108.0595472222
 20
360.1644942009
 30
0.0
 10
108.1542404249
 20
359.9899568373
 30
0.0
 10
108.1911238885
 20
359.8475568934
 30
0.0
 10
108.2002523728
 20
359.7414599073
 30
0.0
 10
108.1911365668
 20
359.6353689419
 30
0.0
 10
108.1639263557
 20
359.5304644604
 30
0.0
 10
108.1190198644
 20
359.4278411442
 30
0.0
 10
108.03403814
 20
359.2918324649
 30
0.0
 10
107.8831384308
 20
359.1330325753
 30
0.0
 10
107.7355486367
 20
359.0314875134
 30
0.0
 10
107.654156802
 20
358.9844961962
 30
0.0
  0
SPLINE
  5
380
100
AcDbEntity
  8
0
100
AcDbSpline
 62
7
  6
CONTINUOUS
 70
0
 71
3
 72
26
 73
22
 74
0
 42
0.0000001
 43
0.0000001
 44
0.0000000001
 40
0.0
 40
0.0
 40
0.0
 40
0.0
 40
0.0665590022
 40
0.1383710009
 40
0.2139631632
 40
0.291522758
 40
0.3690833083
 40
0.4446757466
 40
0.5164902913
 40
0.5830469943
 40
0.6433990779
 40
0.6973889376
 40
0.7459493493
 40
0.76891659
 40
0.791458974
 40
0.8140014018
 40
0.8369683212
 40
0.8607468397
 40
0.8856577984
 40
0.9396451023
 40
1.0
 40
1.0
 40
1.0
 40
1.0
 10
107.654156802
 20
358.9844961962
 30
0.0
 10
107.5643983977
 20
358.9326744667
 30
0.0
 10
107.3681325285
 20
358.8412782581
 30
0.0
 10
107.0485200184
 20
358.7441424883
 30
0.0
 10
106.7024937781
 20
358.6843428669
 30
0.0
 10
106.3430416423
 20
358.6641681894
 30
0.0
 10
105.983581285
 20
358.6843436643
 30
0.0
 10
105.6375707967
 20
358.7441263602
 30
0.0
 10
105.3178828394
 20
358.8413168731
 30
0.0
 10
105.0362686005
 20
358.9724203219
 30
0.0
 10
104.8029470507
 20
359.1331295155
 30
0.0
 10
104.626520677
 20
359.3184182056
 30
0.0
 10
104.5318274744
 20
359.4929555692
 30
0.0
 10
104.4949440107
 20
359.635355513
 30
0.0
 10
104.4858155265
 20
359.7414524992
 30
0.0
 10
104.4949313324
 20
359.8475434646
 30
0.0
 10
104.5221415436
 20
359.9524479461
 30
0.0
 10
104.5670480348
 20
360.0550712622
 30
0.0
 10
104.6520297593
 20
360.1910799416
 30
0.0
 10
104.8029294684
 20
360.3498798312
 30
0.0
 10
104.9505192625
 20
360.4514248931
 30
0.0
 10
105.0319110973
 20
360.4984162103
 30
0.0
  0
SPLINE
  5
381
100
AcDbEntity
  8
0
100
AcDbSpline
 62
7
  6
CONTINUOUS
 70
0
 71
3
 72
25
 73
21
 74
0
 42
0.0000001
 43
0.0000001
 44
0.0000000001
 40
0.0
 40
0.0
 40
0.0
 40
0.0
 40
0.0603617935
 40
0.1143562031
 40
0.162923569
 40
0.1858936404
 40
0.2084389627
 40
0.2309845868
 40
0.2539554212
 40
0.3025227559
 40
0.3565199638
 40
0.4168800233
 40
0.4834453095
 40
0.5552686003
 40
0.6308696208
 40
0.7084390363
 40
0.7860073138
 40
0.8616095086
 40
0.9334316467
 40
1.0
 40
1.0
 40
1.0
 40
1.0
 10
105.2653987285
 20
360.3636151131
 30
0.0
 10
105.1985023194
 20
360.3249926839
 30
0.0
 10
105.0771622643
 20
360.2414277447
 30
0.0
 10
104.9322062107
 20
360.0891550695
 30
0.0
 10
104.8543733342
 20
359.9456956757
 30
0.0
 10
104.8240497121
 20
359.8286560016
 30
0.0
 10
104.816556931
 20
359.7414527262
 30
0.0
 10
104.8240510425
 20
359.6542486231
 30
0.0
 10
104.8543803311
 20
359.5372082225
 30
0.0
 10
104.9322041903
 20
359.3937496329
 30
0.0
 10
105.0772147198
 20
359.2414558245
 30
0.0
 10
105.2689861483
 20
359.1093659252
 30
0.0
 10
105.5004509289
 20
359.0016122736
 30
0.0
 10
105.763206872
 20
358.9217333436
 30
0.0
 10
106.0475955832
 20
358.8725985837
 30
0.0
 10
106.3430376929
 20
358.8560157468
 30
0.0
 10
106.6384750923
 20
358.872595433
 30
0.0
 10
106.9228802596
 20
358.9217445886
 30
0.0
 10
107.1855779232
 20
359.0015826473
 30
0.0
 10
107.3468942953
 20
359.0767036034
 30
0.0
 10
107.4206691707
 20
359.1192972934
 30
0.0
  0
SPLINE
  5
382
100
AcDbEntity
  8
0
100
AcDbSpline
 62
7
  6
CONTINUOUS
 70
0
 71
3
 72
25
 73
21
 74
0
 42
0.0000001
 43
0.0000001
 44
0.0000000001
 40
0.0
 40
0.0
 40
0.0
 40
0.0
 40
0.0603617935
 40
0.1143562031
 40
0.162923569
 40
0.1858936404
 40
0.2084389627
 40
0.2309845868
 40
0.2539554212
 40
0.3025227559
 40
0.3565199638
 40
0.4168800233
 40
0.4834453095
 40
0.5552686003
 40
0.6308696208
 40
0.7084390363
 40
0.7860073138
 40
0.8616095086
 40
0.9334316467
 40
1.0
 40
1.0
 40
1.0
 40
1.0
 10
107.4206691707
 20
359.1192972934
 30
0.0
 10
107.4875655798
 20
359.1579197226
 30
0.0
 10
107.6089056349
 20
359.2414846618
 30
0.0
 10
107.7538616885
 20
359.393757337
 30
0.0
 10
107.831694565
 20
359.5372167308
 30
0.0
 10
107.8620181872
 20
359.6542564049
 30
0.0
 10
107.8695109682
 20
359.7414596803
 30
0.0
 10
107.8620168567
 20
359.8286637833
 30
0.0
 10
107.8316875681
 20
359.945704184
 30
0.0
 10
107.7538637089
 20
360.0891627736
 30
0.0
 10
107.6088531794
 20
360.2414565819
 30
0.0
 10
107.4170817509
 20
360.3735464813
 30
0.0
 10
107.1856169703
 20
360.4813001329
 30
0.0
 10
106.9228610273
 20
360.5611790628
 30
0.0
 10
106.638472316
 20
360.6103138227
 30
0.0
 10
106.3430302063
 20
360.6268966597
 30
0.0
 10
106.047592807
 20
360.6103169735
 30
0.0
 10
105.7631876396
 20
360.5611678179
 30
0.0
 10
105.500489976
 20
360.4813297592
 30
0.0
 10
105.3391736039
 20
360.4062088031
 30
0.0
 10
105.2653987285
 20
360.3636151131
 30
0.0
  0
SPLINE
  5
383
100
AcDbEntity
  8
0
100
AcDbSpline
 62
7
  6
CONTINUOUS
 70
0
 71
3
 72
13
 73
9
 74
0
 42
0.0000001
 43
0.0000001
 44
0.0000000001
 40
0.0
 40
0.0
 40
0.0
 40
0.0
 40
0.1080958598
 40
0.2182285657
 40
0.3322537624
 40
0.4517074477
 40
0.710588109
 40
1.0
 40
1.0
 40
1.0
 40
1.0
 10
108.4512339496
 20
359.5340645893
 30
0.0
 10
108.4512338799
 20
359.4941537303
 30
0.0
 10
108.444297352
 20
359.4134181967
 30
0.0
 10
108.4133659326
 20
359.29416946
 30
0.0
 10
108.3623021241
 20
359.1774815204
 30
0.0
 10
108.2656806494
 20
359.0228438582
 30
0.0
 10
108.0941076526
 20
358.8422934147
 30
0.0
 10
107.9263027084
 20
358.7268391265
 30
0.0
 10
107.8337626722
 20
358.6734114306
 30
0.0
  0
SPLINE
  5
384
100
AcDbEntity
  8
0
100
AcDbSpline
 62
7
  6
CONTINUOUS
 70
0
 71
3
 72
15
 73
11
 74
0
 42
0.0000001
 43
0.0000001
 44
0.0000000001
 40
0.0
 40
0.0
 40
0.0
 40
0.0
 40
0.1141577296
 40
0.2373244655
 40
0.3669752196
 40
0.4999995039
 40
0.6330239864
 40
0.7626738647
 40
0.8858455046
 40
1.0
 40
1.0
 40
1.0
 40
1.0
 10
107.8337626722
 20
358.6734114306
 30
0.0
 10
107.7317082306
 20
358.614490623
 30
0.0
 10
107.5085561943
 20
358.5105748017
 30
0.0
 10
107.1451607926
 20
358.4001313566
 30
0.0
 10
106.7517344324
 20
358.3321399436
 30
0.0
 10
106.3430424868
 20
358.3092007192
 30
0.0
 10
105.9343516565
 20
358.3321389034
 30
0.0
 10
105.540919781
 20
358.4001255027
 30
0.0
 10
105.1775249525
 20
358.5105735779
 30
0.0
 10
104.9543696152
 20
358.6144858617
 30
0.0
 10
104.85231764
 20
358.6734042641
 30
0.0
  0
SPLINE
  5
385
100
AcDbEntity
  8
0
100
AcDbSpline
 62
7
  6
CONTINUOUS
 70
0
 71
3
 72
12
 73
8
 74
0
 42
0.0000001
 43
0.0000001
 44
0.0000000001
 40
0.0
 40
0.0
 40
0.0
 40
0.0
 40
0.2867744598
 40
0.5448449709
 40
0.7790200076
 40
0.8904224229
 40
1.0
 40
1.0
 40
1.0
 40
1.0
 10
104.7824095796
 20
358.7157551231
 30
0.0
 10
104.6996771521
 20
358.7683503436
 30
0.0
 10
104.5498486626
 20
358.8810459074
 30
0.0
 10
104.3722789725
 20
359.0823486348
 30
0.0
 10
104.2777670582
 20
359.2691856
 30
0.0
 10
104.2409406222
 20
359.4209227685
 30
0.0
 10
104.2348338842
 20
359.4966049563
 30
0.0
 10
104.2348339496
 20
359.5340645893
 30
0.0
  0
SPLINE
  5
386
100
AcDbEntity
  8
0
100
AcDbSpline
 62
7
  6
CONTINUOUS
 70
0
 71
3
 72
11
 73
7
 74
0
 42
0.0000001
 43
0.0000001
 44
0.0000000001
 40
0.0
 40
0.0
 40
0.0
 40
0.0
 40
0.2830730224
 40
0.5425507417
 40
0.7800313031
 40
1.0
 40
1.0
 40
1.0
 40
1.0
 10
188.6025229441
 20
310.8812094305
 30
0.0
 10
188.6766437843
 20
310.9240028621
 30
0.0
 10
188.8137264161
 20
311.0152948801
 30
0.0
 10
188.9879100746
 20
311.1760027926
 30
0.0
 10
189.1177094119
 20
311.351410717
 30
0.0
 10
189.1735701361
 20
311.4797056984
 30
0.0
 10
189.1918514966
 20
311.5436514281
 30
0.0
  0
SPLINE
  5
387
100
AcDbEntity
  8
0
100
AcDbSpline
 62
7
  6
CONTINUOUS
 70
0
 71
3
 72
9
 73
5
 74
0
 42
0.0000001
 43
0.0000001
 44
0.0000000001
 40
0.0
 40
0.0
 40
0.0
 40
0.0
 40
0.2531505535
 40
1.0
 40
1.0
 40
1.0
 40
1.0
 10
189.1918514966
 20
311.5436514281
 30
0.0
 10
189.1965035553
 20
311.5599237011
 30
0.0
 10
189.2127338702
 20
311.62479403
 30
0.0
 10
189.2199932278
 20
311.6919325033
 30
0.0
 10
189.2199932721
 20
311.7418625891
 30
0.0
  0
SPLINE
  5
388
100
AcDbEntity
  8
0
100
AcDbSpline
 62
7
  6
CONTINUOUS
 70
0
 71
3
 72
20
 73
16
 74
0
 42
0.0000001
 43
0.0000001
 44
0.0000000001
 40
0.0
 40
0.0
 40
0.0
 40
0.0
 40
0.0501487963
 40
0.1009773357
 40
0.1532375198
 40
0.207715627
 40
0.2650313477
 40
0.3255108167
 40
0.3891446117
 40
0.4556160239
 40
0.5944871414
 40
0.735986794
 40
0.8055536506
 40
0.8731788738
 40
1.0
 40
1.0
 40
1.0
 40
1.0
 10
189.2199942215
 20
312.8410381431
 30
0.0
 10
189.2199942215
 20
312.9117164158
 30
0.0
 10
189.2023884763
 20
313.0546026144
 30
0.0
 10
189.1257465454
 20
313.2584007351
 30
0.0
 10
189.0043631863
 20
313.4461577981
 30
0.0
 10
188.8443008277
 20
313.6145679635
 30
0.0
 10
188.650629771
 20
313.7624335436
 30
0.0
 10
188.4276571394
 20
313.8889691623
 30
0.0
 10
188.1795357257
 20
313.9933099625
 30
0.0
 10
187.8160494109
 20
314.1029278179
 30
0.0
 10
187.3297572317
 20
314.1756274482
 30
0.0
 10
186.834178884
 20
314.1646329706
 30
0.0
 10
186.4454970776
 20
314.1042916223
 30
0.0
 10
186.0844600773
 20
314.0133363017
 30
0.0
 10
185.8284638621
 20
313.9073375567
 30
0.0
 10
185.6736719377
 20
313.8179689309
 30
0.0
  0
SPLINE
  5
389
100
AcDbEntity
  8
0
100
AcDbSpline
 62
7
  6
CONTINUOUS
 70
0
 71
3
 72
13
 73
9
 74
0
 42
0.0000001
 43
0.0000001
 44
0.0000000001
 40
0.0
 40
0.0
 40
0.0
 40
0.0
 40
0.2714529892
 40
0.5245125414
 40
0.6460575237
 40
0.76528057
 40
0.8829590531
 40
1.0
 40
1.0
 40
1.0
 40
1.0
 10
185.6736719377
 20
313.8179689309
 30
0.0
 10
185.576520203
 20
313.7618786856
 30
0.0
 10
185.3972211226
 20
313.6375407305
 30
0.0
 10
185.2132278724
 20
313.4402320185
 30
0.0
 10
185.1062795105
 20
313.2656964229
 30
0.0
 10
185.0477913006
 20
313.1289696212
 30
0.0
 10
185.0117194698
 20
312.9865986481
 30
0.0
 10
185.0035942215
 20
312.8894066274
 30
0.0
 10
185.0035942215
 20
312.8410381431
 30
0.0
  0
SPLINE
  5
38A
100
AcDbEntity
  8
0
100
AcDbSpline
 62
7
  6
CONTINUOUS
 70
0
 71
3
 72
9
 73
5
 74
0
 42
0.0000001
 43
0.0000001
 44
0.0000000001
 40
0.0
 40
0.0
 40
0.0
 40
0.0
 40
0.2482465358
 40
1.0
 40
1.0
 40
1.0
 40
1.0
 10
185.0035951709
 20
311.7418625892
 30
0.0
 10
185.0035951561
 20
311.7252267306
 30
0.0
 10
185.0059682262
 20
311.6582277248
 30
0.0
 10
185.0179897311
 20
311.591623373
 30
0.0
 10
185.0318682643
 20
311.5431951915
 30
0.0
  0
SPLINE
  5
38B
100
AcDbEntity
  8
0
100
AcDbSpline
 62
7
  6
CONTINUOUS
 70
0
 71
3
 72
17
 73
13
 74
0
 42
0.0000001
 43
0.0000001
 44
0.0000000001
 40
0.0
 40
0.0
 40
0.0
 40
0.0
 40
0.0436971531
 40
0.0898127797
 40
0.1389856375
 40
0.1915925921
 40
0.3072963719
 40
0.4360132511
 40
0.5744542423
 40
0.7180471695
 40
0.8616186571
 40
1.0
 40
1.0
 40
1.0
 40
1.0
 10
185.0318682643
 20
311.5431951915
 30
0.0
 10
185.0455971443
 20
311.4952892144
 30
0.0
 10
185.0836461997
 20
311.3994353723
 30
0.0
 10
185.1675064125
 20
311.2641260457
 30
0.0
 10
185.2779303309
 20
311.1358179955
 30
0.0
 10
185.4642528174
 20
310.9711536034
 30
0.0
 10
185.7569425758
 20
310.7950529711
 30
0.0
 10
186.167608261
 20
310.6413837681
 30
0.0
 10
186.6279360684
 20
310.5459549931
 30
0.0
 10
187.1137378503
 20
310.5137691456
 30
0.0
 10
187.5993226802
 20
310.546447399
 30
0.0
 10
187.9154585297
 20
310.6123557635
 30
0.0
 10
188.0668928773
 20
310.6567832323
 30
0.0
  0
SPLINE
  5
38C
100
AcDbEntity
  8
0
100
AcDbSpline
 62
7
  6
CONTINUOUS
 70
0
 71
3
 72
9
 73
5
 74
0
 42
0.0000001
 43
0.0000001
 44
0.0000000001
 40
0.0
 40
0.0
 40
0.0
 40
0.0
 40
0.5161936052
 40
1.0
 40
1.0
 40
1.0
 40
1.0
 10
188.0668928773
 20
310.6567832323
 30
0.0
 10
188.1629456421
 20
310.6849629768
 30
0.0
 10
188.3464034964
 20
310.7490923138
 30
0.0
 10
188.5212718636
 20
310.8342993773
 30
0.0
 10
188.6025229441
 20
310.8812094305
 30
0.0
  0
SPLINE
  5
38D
100
AcDbEntity
  8
0
100
AcDbSpline
 62
7
  6
CONTINUOUS
 70
0
 71
3
 72
26
 73
22
 74
0
 42
0.0000001
 43
0.0000001
 44
0.0000000001
 40
0.0
 40
0.0
 40
0.0
 40
0.0
 40
0.0665590022
 40
0.1383710009
 40
0.2139631632
 40
0.291522758
 40
0.3690833083
 40
0.4446757466
 40
0.5164902913
 40
0.5830469943
 40
0.6433990779
 40
0.6973889376
 40
0.7459493493
 40
0.76891659
 40
0.791458974
 40
0.8140014018
 40
0.8369683212
 40
0.8607468397
 40
0.8856577984
 40
0.9396451023
 40
1.0
 40
1.0
 40
1.0
 40
1.0
 10
185.8006713692
 20
313.8053897641
 30
0.0
 10
185.8904297735
 20
313.8572114936
 30
0.0
 10
186.0866956426
 20
313.9486077022
 30
0.0
 10
186.4063081528
 20
314.045743472
 30
0.0
 10
186.7523343931
 20
314.1055430934
 30
0.0
 10
187.1117865288
 20
314.1257177709
 30
0.0
 10
187.4712468862
 20
314.105542296
 30
0.0
 10
187.8172573745
 20
314.0457596001
 30
0.0
 10
188.1369453317
 20
313.9485690872
 30
0.0
 10
188.4185595707
 20
313.8174656384
 30
0.0
 10
188.6518811205
 20
313.6567564448
 30
0.0
 10
188.8283074941
 20
313.4714677547
 30
0.0
 10
188.9230006968
 20
313.2969303911
 30
0.0
 10
188.9598841604
 20
313.1545304472
 30
0.0
 10
188.9690126447
 20
313.0484334611
 30
0.0
 10
188.9598968387
 20
312.9423424957
 30
0.0
 10
188.9326866276
 20
312.8374380142
 30
0.0
 10
188.8877801363
 20
312.7348146981
 30
0.0
 10
188.8027984119
 20
312.5988060187
 30
0.0
 10
188.6518987028
 20
312.4400061291
 30
0.0
 10
188.5043089086
 20
312.3384610672
 30
0.0
 10
188.4229170739
 20
312.29146975
 30
0.0
  0
SPLINE
  5
38E
100
AcDbEntity
  8
0
100
AcDbSpline
 62
7
  6
CONTINUOUS
 70
0
 71
3
 72
26
 73
22
 74
0
 42
0.0000001
 43
0.0000001
 44
0.0000000001
 40
0.0
 40
0.0
 40
0.0
 40
0.0
 40
0.0665590022
 40
0.1383710009
 40
0.2139631632
 40
0.291522758
 40
0.3690833083
 40
0.4446757466
 40
0.5164902913
 40
0.5830469943
 40
0.6433990779
 40
0.6973889376
 40
0.7459493493
 40
0.76891659
 40
0.791458974
 40
0.8140014018
 40
0.8369683212
 40
0.8607468397
 40
0.8856577984
 40
0.9396451023
 40
1.0
 40
1.0
 40
1.0
 40
1.0
 10
188.4229170739
 20
312.29146975
 30
0.0
 10
188.3331586696
 20
312.2396480205
 30
0.0
 10
188.1368928005
 20
312.1482518119
 30
0.0
 10
187.8172802903
 20
312.0511160421
 30
0.0
 10
187.47125405
 20
311.9913164207
 30
0.0
 10
187.1118019142
 20
311.9711417432
 30
0.0
 10
186.7523415569
 20
311.9913172181
 30
0.0
 10
186.4063310686
 20
312.051099914
 30
0.0
 10
186.0866431113
 20
312.1482904269
 30
0.0
 10
185.8050288724
 20
312.2793938757
 30
0.0
 10
185.5717073226
 20
312.4401030693
 30
0.0
 10
185.3952809489
 20
312.6253917594
 30
0.0
 10
185.3005877463
 20
312.799929123
 30
0.0
 10
185.2637042826
 20
312.9423290669
 30
0.0
 10
185.2545757984
 20
313.048426053
 30
0.0
 10
185.2636916043
 20
313.1545170184
 30
0.0
 10
185.2909018155
 20
313.2594214999
 30
0.0
 10
185.3358083067
 20
313.362044816
 30
0.0
 10
185.4207900312
 20
313.4980534954
 30
0.0
 10
185.5716897403
 20
313.656853385
 30
0.0
 10
185.7192795344
 20
313.7583984469
 30
0.0
 10
185.8006713692
 20
313.8053897641
 30
0.0
  0
SPLINE
  5
38F
100
AcDbEntity
  8
0
100
AcDbSpline
 62
7
  6
CONTINUOUS
 70
0
 71
3
 72
25
 73
21
 74
0
 42
0.0000001
 43
0.0000001
 44
0.0000000001
 40
0.0
 40
0.0
 40
0.0
 40
0.0
 40
0.0603617935
 40
0.1143562031
 40
0.162923569
 40
0.1858936404
 40
0.2084389627
 40
0.2309845868
 40
0.2539554212
 40
0.3025227559
 40
0.3565199638
 40
0.4168800233
 40
0.4834453095
 40
0.5552686003
 40
0.6308696208
 40
0.7084390363
 40
0.7860073138
 40
0.8616095086
 40
0.9334316467
 40
1.0
 40
1.0
 40
1.0
 40
1.0
 10
186.0341590004
 20
313.6705886669
 30
0.0
 10
185.9672625913
 20
313.6319662377
 30
0.0
 10
185.8459225362
 20
313.5484012985
 30
0.0
 10
185.7009664827
 20
313.3961286233
 30
0.0
 10
185.6231336061
 20
313.2526692295
 30
0.0
 10
185.592809984
 20
313.1356295554
 30
0.0
 10
185.5853172029
 20
313.04842628
 30
0.0
 10
185.5928113144
 20
312.9612221769
 30
0.0
 10
185.623140603
 20
312.8441817763
 30
0.0
 10
185.7009644622
 20
312.7007231867
 30
0.0
 10
185.8459749917
 20
312.5484293783
 30
0.0
 10
186.0377464203
 20
312.416339479
 30
0.0
 10
186.2692112008
 20
312.3085858274
 30
0.0
 10
186.5319671439
 20
312.2287068974
 30
0.0
 10
186.8163558551
 20
312.1795721375
 30
0.0
 10
187.1117979648
 20
312.1629893006
 30
0.0
 10
187.4072353642
 20
312.1795689868
 30
0.0
 10
187.6916405315
 20
312.2287181424
 30
0.0
 10
187.9543381951
 20
312.3085562011
 30
0.0
 10
188.1156545672
 20
312.3836771572
 30
0.0
 10
188.1894294426
 20
312.4262708472
 30
0.0
  0
SPLINE
  5
390
100
AcDbEntity
  8
0
100
AcDbSpline
 62
7
  6
CONTINUOUS
 70
0
 71
3
 72
25
 73
21
 74
0
 42
0.0000001
 43
0.0000001
 44
0.0000000001
 40
0.0
 40
0.0
 40
0.0
 40
0.0
 40
0.0603617935
 40
0.1143562031
 40
0.162923569
 40
0.1858936404
 40
0.2084389627
 40
0.2309845868
 40
0.2539554212
 40
0.3025227559
 40
0.3565199638
 40
0.4168800233
 40
0.4834453095
 40
0.5552686003
 40
0.6308696208
 40
0.7084390363
 40
0.7860073138
 40
0.8616095086
 40
0.9334316467
 40
1.0
 40
1.0
 40
1.0
 40
1.0
 10
188.1894294426
 20
312.4262708472
 30
0.0
 10
188.2563258518
 20
312.4648932764
 30
0.0
 10
188.3776659068
 20
312.5484582156
 30
0.0
 10
188.5226219604
 20
312.7007308908
 30
0.0
 10
188.600454837
 20
312.8441902846
 30
0.0
 10
188.6307784591
 20
312.9612299587
 30
0.0
 10
188.6382712401
 20
313.0484332341
 30
0.0
 10
188.6307771286
 20
313.1356373371
 30
0.0
 10
188.60044784
 20
313.2526777378
 30
0.0
 10
188.5226239808
 20
313.3961363274
 30
0.0
 10
188.3776134513
 20
313.5484301357
 30
0.0
 10
188.1858420228
 20
313.6805200351
 30
0.0
 10
187.9543772422
 20
313.7882736867
 30
0.0
 10
187.6916212992
 20
313.8681526166
 30
0.0
 10
187.4072325879
 20
313.9172873765
 30
0.0
 10
187.1117904782
 20
313.9338702135
 30
0.0
 10
186.8163530789
 20
313.9172905273
 30
0.0
 10
186.5319479115
 20
313.8681413717
 30
0.0
 10
186.2692502479
 20
313.788303313
 30
0.0
 10
186.1079338758
 20
313.7131823569
 30
0.0
 10
186.0341590004
 20
313.6705886669
 30
0.0
  0
SPLINE
  5
391
100
AcDbEntity
  8
0
100
AcDbSpline
 62
7
  6
CONTINUOUS
 70
0
 71
3
 72
13
 73
9
 74
0
 42
0.0000001
 43
0.0000001
 44
0.0000000001
 40
0.0
 40
0.0
 40
0.0
 40
0.0
 40
0.1080958598
 40
0.2182285657
 40
0.3322537624
 40
0.4517074477
 40
0.710588109
 40
1.0
 40
1.0
 40
1.0
 40
1.0
 10
189.2199942215
 20
312.8410381431
 30
0.0
 10
189.2199941518
 20
312.8011272841
 30
0.0
 10
189.2130576239
 20
312.7203917505
 30
0.0
 10
189.1821262045
 20
312.6011430138
 30
0.0
 10
189.131062396
 20
312.4844550742
 30
0.0
 10
189.0344409213
 20
312.329817412
 30
0.0
 10
188.8628679245
 20
312.1492669685
 30
0.0
 10
188.6950629803
 20
312.0338126803
 30
0.0
 10
188.6025229441
 20
311.9803849844
 30
0.0
  0
SPLINE
  5
392
100
AcDbEntity
  8
0
100
AcDbSpline
 62
7
  6
CONTINUOUS
 70
0
 71
3
 72
15
 73
11
 74
0
 42
0.0000001
 43
0.0000001
 44
0.0000000001
 40
0.0
 40
0.0
 40
0.0
 40
0.0
 40
0.1141577296
 40
0.2373244655
 40
0.3669752196
 40
0.4999995039
 40
0.6330239864
 40
0.7626738647
 40
0.8858455046
 40
1.0
 40
1.0
 40
1.0
 40
1.0
 10
188.6025229441
 20
311.9803849844
 30
0.0
 10
188.5004685025
 20
311.9214641768
 30
0.0
 10
188.2773164662
 20
311.8175483555
 30
0.0
 10
187.9139210645
 20
311.7071049104
 30
0.0
 10
187.5204947043
 20
311.6391134974
 30
0.0
 10
187.1118027587
 20
311.6161742731
 30
0.0
 10
186.7031119284
 20
311.6391124572
 30
0.0
 10
186.3096800529
 20
311.7070990566
 30
0.0
 10
185.9462852244
 20
311.8175471317
 30
0.0
 10
185.7231298871
 20
311.9214594155
 30
0.0
 10
185.6210779119
 20
311.9803778179
 30
0.0
  0
SPLINE
  5
393
100
AcDbEntity
  8
0
100
AcDbSpline
 62
7
  6
CONTINUOUS
 70
0
 71
3
 72
13
 73
9
 74
0
 42
0.0000001
 43
0.0000001
 44
0.0000000001
 40
0.0
 40
0.0
 40
0.0
 40
0.0
 40
0.2880861671
 40
0.5465118794
 40
0.6661079876
 40
0.7805200579
 40
0.8912271274
 40
1.0
 40
1.0
 40
1.0
 40
1.0
 10
185.5871824671
 20
312.0004030497
 30
0.0
 10
185.4993832095
 20
312.0534834123
 30
0.0
 10
185.3402867785
 20
312.1676460088
 30
0.0
 10
185.178383595
 20
312.3442546444
 30
0.0
 10
185.087362507
 20
312.4947571799
 30
0.0
 10
185.0392460931
 20
312.6082059207
 30
0.0
 10
185.0101221884
 20
312.7239877923
 30
0.0
 10
185.0035941538
 20
312.8023003644
 30
0.0
 10
185.0035942215
 20
312.8410381431
 30
0.0
  0
SPLINE
  5
394
100
AcDbEntity
  8
0
100
AcDbSpline
 62
7
  6
CONTINUOUS
 70
0
 71
3
 72
9
 73
5
 74
0
 42
0.0000001
 43
0.0000001
 44
0.0000000001
 40
0.0
 40
0.0
 40
0.0
 40
0.0
 40
0.2557063379
 40
1.0
 40
1.0
 40
1.0
 40
1.0
 10
141.4272370192
 20
373.4219801544
 30
0.0
 10
141.433648971
 20
373.4383640947
 30
0.0
 10
141.4559748212
 20
373.5034698151
 30
0.0
 10
141.4662778244
 20
373.5727739721
 30
0.0
 10
141.4662792909
 20
373.6239852797
 30
0.0
  0
SPLINE
  5
395
100
AcDbEntity
  8
0
100
AcDbSpline
 62
7
  6
CONTINUOUS
 70
0
 71
3
 72
11
 73
7
 74
0
 42
0.0000001
 43
0.0000001
 44
0.0000000001
 40
0.0
 40
0.0
 40
0.0
 40
0.0
 40
0.2785735659
 40
0.535451669
 40
0.7740060897
 40
1.0
 40
1.0
 40
1.0
 40
1.0
 10
156.6155989152
 20
381.9940742439
 30
0.0
 10
156.9160752367
 20
381.7621714958
 30
0.0
 10
157.4645888623
 20
381.2761552005
 30
0.0
 10
158.1304590501
 20
380.4510752448
 30
0.0
 10
158.590403965
 20
379.5745377478
 30
0.0
 10
158.7531557591
 20
378.9556662096
 30
0.0
 10
158.7941165279
 20
378.6504841609
 30
0.0
  0
SPLINE
  5
396
100
AcDbEntity
  8
0
100
AcDbSpline
 62
7
  6
CONTINUOUS
 70
0
 71
3
 72
24
 73
20
 74
0
 42
0.0000001
 43
0.0000001
 44
0.0000000001
 40
0.0
 40
0.0
 40
0.0
 40
0.0
 40
0.0214627692
 40
0.0434040873
 40
0.0894201816
 40
0.1393316071
 40
0.1937710141
 40
0.2528649874
 40
0.316336042
 40
0.383599769
 40
0.4538465063
 40
0.5261093878
 40
0.5993233072
 40
0.6723794971
 40
0.7441760733
 40
0.813670061
 40
0.8799335196
 40
0.9422109629
 40
1.0
 40
1.0
 40
1.0
 40
1.0
 10
136.6635077898
 20
378.6697249563
 30
0.0
 10
136.6861096409
 20
378.8318229221
 30
0.0
 10
136.7533559836
 20
379.1570124696
 30
0.0
 10
136.9742029008
 20
379.8036857098
 30
0.0
 10
137.4173232461
 20
380.5952052947
 30
0.0
 10
138.1737057036
 20
381.4654504446
 30
0.0
 10
139.1435369783
 20
382.2564838505
 30
0.0
 10
140.3045740373
 20
382.952546402
 30
0.0
 10
141.6312093724
 20
383.5396944632
 30
0.0
 10
143.094164675
 20
384.0054132263
 30
0.0
 10
144.6609455279
 20
384.3395612364
 30
0.0
 10
146.2965433855
 20
384.5347280943
 30
0.0
 10
147.9642813546
 20
384.58655049
 30
0.0
 10
149.6266983309
 20
384.4938656297
 30
0.0
 10
151.2464716314
 20
384.2587375321
 30
0.0
 10
152.7872805867
 20
383.8864501656
 30
0.0
 10
154.2148438113
 20
383.3851298978
 30
0.0
 10
155.4971635727
 20
382.7659722418
 30
0.0
 10
156.2667401747
 20
382.2633177576
 30
0.0
 10
156.6155989152
 20
381.9940742439
 30
0.0
  0
SPLINE
  5
397
100
AcDbEntity
  8
0
100
AcDbSpline
 62
7
  6
CONTINUOUS
 70
0
 71
3
 72
9
 73
5
 74
0
 42
0.0000001
 43
0.0000001
 44
0.0000000001
 40
0.0
 40
0.0
 40
0.0
 40
0.0
 40
0.2557063379
 40
1.0
 40
1.0
 40
1.0
 40
1.0
 10
217.939337719
 20
329.2486975522
 30
0.0
 10
217.9457496708
 20
329.2650814926
 30
0.0
 10
217.968075521
 20
329.330187213
 30
0.0
 10
217.9783785242
 20
329.39949137
 30
0.0
 10
217.9783799908
 20
329.4507026776
 30
0.0
  0
SPLINE
  5
398
100
AcDbEntity
  8
0
100
AcDbSpline
 62
7
  6
CONTINUOUS
 70
0
 71
3
 72
11
 73
7
 74
0
 42
0.0000001
 43
0.0000001
 44
0.0000000001
 40
0.0
 40
0.0
 40
0.0
 40
0.0
 40
0.2785735659
 40
0.535451669
 40
0.7740060897
 40
1.0
 40
1.0
 40
1.0
 40
1.0
 10
233.127699615
 20
337.8207916417
 30
0.0
 10
233.4281759365
 20
337.5888888937
 30
0.0
 10
233.9766895621
 20
337.1028725984
 30
0.0
 10
234.6425597499
 20
336.2777926427
 30
0.0
 10
235.1025046648
 20
335.4012551457
 30
0.0
 10
235.2652564589
 20
334.7823836075
 30
0.0
 10
235.3062172277
 20
334.4772015588
 30
0.0
  0
SPLINE
  5
399
100
AcDbEntity
  8
0
100
AcDbSpline
 62
7
  6
CONTINUOUS
 70
0
 71
3
 72
24
 73
20
 74
0
 42
0.0000001
 43
0.0000001
 44
0.0000000001
 40
0.0
 40
0.0
 40
0.0
 40
0.0
 40
0.0214627692
 40
0.0434040873
 40
0.0894201816
 40
0.1393316071
 40
0.1937710141
 40
0.2528649874
 40
0.316336042
 40
0.383599769
 40
0.4538465063
 40
0.5261093878
 40
0.5993233072
 40
0.6723794971
 40
0.7441760733
 40
0.813670061
 40
0.8799335196
 40
0.9422109629
 40
1.0
 40
1.0
 40
1.0
 40
1.0
 10
213.1756084896
 20
334.4964423542
 30
0.0
 10
213.1982103408
 20
334.65854032
 30
0.0
 10
213.2654566834
 20
334.9837298675
 30
0.0
 10
213.4863036006
 20
335.6304031077
 30
0.0
 10
213.9294239459
 20
336.4219226926
 30
0.0
 10
214.6858064034
 20
337.2921678424
 30
0.0
 10
215.6556376781
 20
338.0832012484
 30
0.0
 10
216.8166747371
 20
338.7792637999
 30
0.0
 10
218.1433100722
 20
339.366411861
 30
0.0
 10
219.6062653748
 20
339.8321306241
 30
0.0
 10
221.1730462278
 20
340.1662786343
 30
0.0
 10
222.8086440853
 20
340.3614454922
 30
0.0
 10
224.4763820544
 20
340.4132678879
 30
0.0
 10
226.1387990307
 20
340.3205830276
 30
0.0
 10
227.7585723312
 20
340.08545493
 30
0.0
 10
229.2993812865
 20
339.7131675635
 30
0.0
 10
230.7269445111
 20
339.2118472957
 30
0.0
 10
232.0092642725
 20
338.5926896396
 30
0.0
 10
232.7788408745
 20
338.0900351555
 30
0.0
 10
233.127699615
 20
337.8207916417
 30
0.0
  0
SPLINE
  5
39A
100
AcDbEntity
  8
0
100
AcDbSpline
 62
7
  6
CONTINUOUS
 70
0
 71
3
 72
12
 73
8
 74
0
 42
0.0000001
 43
0.0000001
 44
0.0000000001
 40
0.0
 40
0.0
 40
0.0
 40
0.0
 40
0.2988833866
 40
0.5620774784
 40
0.7913172727
 40
0.8971344296
 40
1.0
 40
1.0
 40
1.0
 40
1.0
 10
170.7326881389
 20
351.7466693547
 30
0.0
 10
170.8377497105
 20
351.7878194622
 30
0.0
 10
171.0296446024
 20
351.8819990699
 30
0.0
 10
171.2654687818
 20
352.0698649016
 30
0.0
 10
171.3969948475
 20
352.2594225591
 30
0.0
 10
171.4483573087
 20
352.4176314266
 30
0.0
 10
171.4568207727
 20
352.4966530424
 30
0.0
 10
171.4568261171
 20
352.5354863194
 30
0.0
  0
SPLINE
  5
39B
100
AcDbEntity
  8
0
100
AcDbSpline
 62
7
  6
CONTINUOUS
 70
0
 71
3
 72
16
 73
12
 74
0
 42
0.0000001
 43
0.0000001
 44
0.0000000001
 40
0.0
 40
0.0
 40
0.0
 40
0.0
 40
0.1548970717
 40
0.3042852909
 40
0.4456938237
 40
0.5771821765
 40
0.6976155437
 40
0.8069641042
 40
0.9066471564
 40
0.9538801317
 40
1.0
 40
1.0
 40
1.0
 40
1.0
 10
185.8186629195
 20
362.910920519
 30
0.0
 10
186.6090364347
 20
362.8411197897
 30
0.0
 10
188.1562345719
 20
362.6280927894
 30
0.0
 10
190.3776612095
 20
362.0831774887
 30
0.0
 10
192.4116251553
 20
361.3315780003
 30
0.0
 10
194.2019003288
 20
360.3933520694
 30
0.0
 10
195.6996395403
 20
359.2918997114
 30
0.0
 10
196.8628107178
 20
358.0541544232
 30
0.0
 10
197.5341970413
 20
356.9088900616
 30
0.0
 10
197.8530478873
 20
355.9700366779
 30
0.0
 10
197.9421720693
 20
355.4982049815
 30
0.0
 10
197.9688557145
 20
355.2634708729
 30
0.0
  0
SPLINE
  5
39C
100
AcDbEntity
  8
0
100
AcDbSpline
 62
7
  6
CONTINUOUS
 70
0
 71
3
 72
19
 73
15
 74
0
 42
0.0000001
 43
0.0000001
 44
0.0000000001
 40
0.0
 40
0.0
 40
0.0
 40
0.0
 40
0.0441188889
 40
0.089312312
 40
0.1364428335
 40
0.1861927275
 40
0.2950314556
 40
0.3546639964
 40
0.4176563638
 40
0.4838017187
 40
0.5527869491
 40
0.6975319743
 40
0.8480923829
 40
1.0
 40
1.0
 40
1.0
 40
1.0
 10
169.2984286295
 20
354.8048557565
 30
0.0
 10
169.3036466391
 20
355.101440447
 30
0.0
 10
169.3707128715
 20
355.7022429404
 30
0.0
 10
169.6371753283
 20
356.5847596441
 30
0.0
 10
170.0654305319
 20
357.4433995142
 30
0.0
 10
170.8670891135
 20
358.5759271196
 30
0.0
 10
171.9572265759
 20
359.5835108144
 30
0.0
 10
173.2490730031
 20
360.4531139059
 30
0.0
 10
174.3659988198
 20
361.0601499947
 30
0.0
 10
175.5876693585
 20
361.5946473755
 30
0.0
 10
177.3666534554
 20
362.2127796965
 30
0.0
 10
179.7624518666
 20
362.7611845346
 30
0.0
 10
182.7621383653
 20
363.0527451744
 30
0.0
 10
184.8012812834
 20
363.0007691524
 30
0.0
 10
185.8186629195
 20
362.910920519
 30
0.0
  0
SPLINE
  5
39D
100
AcDbEntity
  8
0
100
AcDbSpline
 62
7
  6
CONTINUOUS
 70
0
 71
3
 72
12
 73
8
 74
0
 42
0.0000001
 43
0.0000001
 44
0.0000000001
 40
0.0
 40
0.0
 40
0.0
 40
0.0
 40
0.2171509744
 40
0.3349826732
 40
0.4586169958
 40
0.7212094261
 40
1.0
 40
1.0
 40
1.0
 40
1.0
 10
130.2179034949
 20
382.4176915184
 30
0.0
 10
130.8555333755
 20
383.0597365487
 30
0.0
 10
131.9611354286
 20
383.9328909205
 30
0.0
 10
133.6060892469
 20
384.9074305581
 30
0.0
 10
135.4981022251
 20
385.8252661828
 30
0.0
 10
138.1232805559
 20
386.7425940331
 30
0.0
 10
140.3378401569
 20
387.2054513943
 30
0.0
 10
141.4869067308
 20
387.3764844081
 30
0.0
  0
SPLINE
  5
39E
100
AcDbEntity
  8
0
100
AcDbSpline
 62
7
  6
CONTINUOUS
 70
0
 71
3
 72
17
 73
13
 74
0
 42
0.0000001
 43
0.0000001
 44
0.0000000001
 40
0.0
 40
0.0
 40
0.0
 40
0.0
 40
0.1256924156
 40
0.2602813245
 40
0.3992564837
 40
0.5375976541
 40
0.6703557649
 40
0.7333112424
 40
0.7933556886
 40
0.8501690064
 40
0.9035636611
 40
1.0
 40
1.0
 40
1.0
 40
1.0
 10
138.8169493768
 20
371.7167674756
 30
0.0
 10
139.7287236753
 20
371.2961730504
 30
0.0
 10
141.7011613819
 20
370.6027193718
 30
0.0
 10
144.8447782644
 20
370.0082709608
 30
0.0
 10
148.1414877161
 20
369.843370357
 30
0.0
 10
151.4154555453
 20
370.1172129794
 30
0.0
 10
154.0288048655
 20
370.7093132046
 30
0.0
 10
155.9548297705
 20
371.3975325952
 30
0.0
 10
157.2623526846
 20
371.9968097795
 30
0.0
 10
158.4412297241
 20
372.6809150885
 30
0.0
 10
159.7726655115
 20
373.6584602091
 30
0.0
 10
160.6114231935
 20
374.5412817646
 30
0.0
 10
161.0403419817
 20
375.1812292999
 30
0.0
  0
SPLINE
  5
39F
100
AcDbEntity
  8
0
100
AcDbSpline
 62
7
  6
CONTINUOUS
 70
0
 71
3
 72
15
 73
11
 74
0
 42
0.0000001
 43
0.0000001
 44
0.0000000001
 40
0.0
 40
0.0
 40
0.0
 40
0.0
 40
0.1467477076
 40
0.2961315723
 40
0.4424633977
 40
0.5804032893
 40
0.7057203106
 40
0.8161410875
 40
0.9125222417
 40
1.0
 40
1.0
 40
1.0
 40
1.0
 10
128.6610532938
 20
380.3741232825
 30
0.0
 10
128.78296381
 20
380.3482964516
 30
0.0
 10
129.0332413691
 20
380.3148910662
 30
0.0
 10
129.4100692231
 20
380.3167839111
 30
0.0
 10
129.7758169027
 20
380.3694308311
 30
0.0
 10
130.110302448
 20
380.4700213411
 30
0.0
 10
130.395582792
 20
380.6133506205
 30
0.0
 10
130.6166122794
 20
380.7931273467
 30
0.0
 10
130.7605766746
 20
381.0028020135
 30
0.0
 10
130.7954211153
 20
381.1602705843
 30
0.0
 10
130.7954071684
 20
381.2345555354
 30
0.0
  0
SPLINE
  5
3A0
100
AcDbEntity
  8
0
100
AcDbSpline
 62
7
  6
CONTINUOUS
 70
0
 71
3
 72
11
 73
7
 74
0
 42
0.0000001
 43
0.0000001
 44
0.0000000001
 40
0.0
 40
0.0
 40
0.0
 40
0.0
 40
0.2264219416
 40
0.4653259344
 40
0.7221031155
 40
1.0
 40
1.0
 40
1.0
 40
1.0
 10
133.5062480474
 20
377.4423234379
 30
0.0
 10
133.5636735379
 20
377.0605357779
 30
0.0
 10
133.7769831529
 20
376.2877968988
 30
0.0
 10
134.3582622981
 20
375.1931169841
 30
0.0
 10
135.1900991659
 20
374.1607708528
 30
0.0
 10
135.8725292478
 20
373.5502902796
 30
0.0
 10
136.2458756063
 20
373.2584845596
 30
0.0
  0
SPLINE
  5
3A1
100
AcDbEntity
  8
0
100
AcDbSpline
 62
7
  6
CONTINUOUS
 70
0
 71
3
 72
17
 73
13
 74
0
 42
0.0000001
 43
0.0000001
 44
0.0000000001
 40
0.0
 40
0.0
 40
0.0
 40
0.0
 40
0.0429208717
 40
0.0876931344
 40
0.1358067207
 40
0.1882011313
 40
0.3066524236
 40
0.44160423
 40
0.5867979017
 40
0.7338594826
 40
0.8740473888
 40
1.0
 40
1.0
 40
1.0
 40
1.0
 10
136.0462346679
 20
372.3278100919
 30
0.0
 10
136.0462337871
 20
372.2815424369
 30
0.0
 10
136.0589382225
 20
372.1865926325
 30
0.0
 10
136.1146572711
 20
372.0497839896
 30
0.0
 10
136.204912796
 20
371.9204262497
 30
0.0
 10
136.3747210604
 20
371.7548776549
 30
0.0
 10
136.662915978
 20
371.5856573331
 30
0.0
 10
137.0751082868
 20
371.4555987401
 30
0.0
 10
137.5346584599
 20
371.3995863233
 30
0.0
 10
138.0025972086
 20
371.4226148427
 30
0.0
 10
138.4390334792
 20
371.5223393429
 30
0.0
 10
138.7028738414
 20
371.6431379274
 30
0.0
 10
138.8169493768
 20
371.7167674756
 30
0.0
  0
SPLINE
  5
3A2
100
AcDbEntity
  8
0
100
AcDbSpline
 62
7
  6
CONTINUOUS
 70
0
 71
3
 72
9
 73
5
 74
0
 42
0.0000001
 43
0.0000001
 44
0.0000000001
 40
0.0
 40
0.0
 40
0.0
 40
0.0
 40
0.4894694618
 40
1.0
 40
1.0
 40
1.0
 40
1.0
 10
127.825077644
 20
377.7100152496
 30
0.0
 10
127.8648541854
 20
378.1663606797
 30
0.0
 10
128.0525033009
 20
379.0919592338
 30
0.0
 10
128.430381936
 20
379.9557094703
 30
0.0
 10
128.6610532938
 20
380.3741232825
 30
0.0
  0
SPLINE
  5
3A3
100
AcDbEntity
  8
0
100
AcDbSpline
 62
7
  6
CONTINUOUS
 70
0
 71
3
 72
23
 73
19
 74
0
 42
0.0000001
 43
0.0000001
 44
0.0000000001
 40
0.0
 40
0.0
 40
0.0
 40
0.0
 40
0.0427717231
 40
0.0871769539
 40
0.1345618548
 40
0.1858280319
 40
0.2414166103
 40
0.301368695
 40
0.3654052276
 40
0.4330007012
 40
0.503445467
 40
0.5758982424
 40
0.6494317611
 40
0.7230746504
 40
0.7958506163
 40
0.8668200956
 40
0.9351168684
 40
1.0
 40
1.0
 40
1.0
 40
1.0
 10
166.1226981734
 20
355.2392292719
 30
0.0
 10
166.122713167
 20
355.7180134965
 30
0.0
 10
166.2451354283
 20
356.6977335675
 30
0.0
 10
166.7848294139
 20
358.117163599
 30
0.0
 10
167.6628132967
 20
359.4689950079
 30
0.0
 10
168.8559695993
 20
360.7280207988
 30
0.0
 10
170.3385748797
 20
361.8734298942
 30
0.0
 10
172.0812882988
 20
362.8852968558
 30
0.0
 10
174.050352462
 20
363.7453257944
 30
0.0
 10
176.2075993527
 20
364.4373757147
 30
0.0
 10
178.5109869084
 20
364.9481717221
 30
0.0
 10
180.9154072013
 20
365.2677786531
 30
0.0
 10
183.3736196065
 20
365.389937396
 30
0.0
 10
185.8372523331
 20
365.3122369734
 30
0.0
 10
188.2577958574
 20
365.0362287496
 30
0.0
 10
190.5877559525
 20
364.5672595087
 30
0.0
 10
192.7811146695
 20
363.9146639193
 30
0.0
 10
194.1640139664
 20
363.3490269865
 30
0.0
 10
194.8194101866
 20
363.0360338908
 30
0.0
  0
SPLINE
  5
3A4
100
AcDbEntity
  8
0
100
AcDbSpline
 62
7
  6
CONTINUOUS
 70
0
 71
3
 72
17
 73
13
 74
0
 42
0.0000001
 43
0.0000001
 44
0.0000000001
 40
0.0
 40
0.0
 40
0.0
 40
0.0
 40
0.1301293641
 40
0.2724255959
 40
0.4196115997
 40
0.5635007901
 40
0.6965010926
 40
0.8131542935
 40
0.8649048492
 40
0.9126001278
 40
0.9571629838
 40
1.0
 40
1.0
 40
1.0
 40
1.0
 10
194.8194101866
 20
363.0360338908
 30
0.0
 10
194.9432321677
 20
363.1033885246
 30
0.0
 10
195.2207320543
 20
363.2115291533
 30
0.0
 10
195.669695166
 20
363.2946401834
 30
0.0
 10
196.1412277243
 20
363.3022830787
 30
0.0
 10
196.5977687303
 20
363.2335257156
 30
0.0
 10
197.0032092304
 20
363.0940021629
 30
0.0
 10
197.2843600977
 20
362.9194662997
 30
0.0
 10
197.4490769746
 20
362.751630774
 30
0.0
 10
197.5364872166
 20
362.6211406784
 30
0.0
 10
197.59035067
 20
362.4837376436
 30
0.0
 10
197.6025767216
 20
362.3886702482
 30
0.0
 10
197.6025835323
 20
362.3422693096
 30
0.0
  0
SPLINE
  5
3A5
100
AcDbEntity
  8
0
100
AcDbSpline
 62
7
  6
CONTINUOUS
 70
0
 71
3
 72
13
 73
9
 74
0
 42
0.0000001
 43
0.0000001
 44
0.0000000001
 40
0.0
 40
0.0
 40
0.0
 40
0.0
 40
0.282073242
 40
0.5385627591
 40
0.6588826532
 40
0.7750421737
 40
0.8882767245
 40
1.0
 40
1.0
 40
1.0
 40
1.0
 10
197.4580527561
 20
361.4697562955
 30
0.0
 10
198.0267560416
 20
361.0495738399
 30
0.0
 10
199.0538055163
 20
360.161426673
 30
0.0
 10
200.0766692429
 20
358.8464893306
 30
0.0
 10
200.6484461289
 20
357.747649889
 30
0.0
 10
200.9511266943
 20
356.9220885638
 30
0.0
 10
201.1338208073
 20
356.0840255407
 30
0.0
 10
201.1746918913
 20
355.5192928785
 30
0.0
 10
201.1746831208
 20
355.2392292816
 30
0.0
  0
SPLINE
  5
3A6
100
AcDbEntity
  8
0
100
AcDbSpline
 62
7
  6
CONTINUOUS
 70
0
 71
3
 72
14
 73
10
 74
0
 42
0.0000001
 43
0.0000001
 44
0.0000000001
 40
0.0
 40
0.0
 40
0.0
 40
0.0
 40
0.3010965636
 40
0.4466252236
 40
0.5826429611
 40
0.7059219825
 40
0.8150777144
 40
0.9114687037
 40
1.0
 40
1.0
 40
1.0
 40
1.0
 10
169.4627148727
 20
353.9863449137
 30
0.0
 10
169.7038033735
 20
354.0159179632
 30
0.0
 10
170.0694369525
 20
354.0134979008
 30
0.0
 10
170.5308836614
 20
353.9189128397
 30
0.0
 10
170.8392645405
 20
353.8072218546
 30
0.0
 10
171.098945143
 20
353.6590531834
 30
0.0
 10
171.2981241516
 20
353.4799219405
 30
0.0
 10
171.4262972982
 20
353.2757451553
 30
0.0
 10
171.4568097178
 20
353.1253837569
 30
0.0
 10
171.4568187607
 20
353.0539652915
 30
0.0
  0
SPLINE
  5
3A7
100
AcDbEntity
  8
0
100
AcDbSpline
 62
7
  6
CONTINUOUS
 70
0
 71
3
 72
12
 73
8
 74
0
 42
0.0000001
 43
0.0000001
 44
0.0000000001
 40
0.0
 40
0.0
 40
0.0
 40
0.0
 40
0.2126625356
 40
0.3287602883
 40
0.4514088306
 40
0.7150855785
 40
1.0
 40
1.0
 40
1.0
 40
1.0
 10
170.3321675621
 20
352.1505080961
 30
0.0
 10
170.7121674438
 20
351.604420981
 30
0.0
 10
171.4230144188
 20
350.8428001899
 30
0.0
 10
172.5371593923
 20
349.97367185
 30
0.0
 10
173.8659681879
 20
349.1295125324
 30
0.0
 10
175.7803855435
 20
348.2439965366
 30
0.0
 10
177.4306302803
 20
347.7524032764
 30
0.0
 10
178.2989030345
 20
347.551015281
 30
0.0
  0
SPLINE
  5
3A8
100
AcDbEntity
  8
0
100
AcDbSpline
 62
7
  6
CONTINUOUS
 70
0
 71
3
 72
18
 73
14
 74
0
 42
0.0000001
 43
0.0000001
 44
0.0000000001
 40
0.0
 40
0.0
 40
0.0
 40
0.0
 40
0.1052515162
 40
0.1664144618
 40
0.2327859177
 40
0.3770323352
 40
0.5278511724
 40
0.6730363292
 40
0.8018694874
 40
0.8583232089
 40
0.9093559188
 40
0.9559449981
 40
1.0
 40
1.0
 40
1.0
 40
1.0
 10
178.2989030345
 20
347.551015281
 30
0.0
 10
178.3666241654
 20
347.6672627297
 30
0.0
 10
178.5245910254
 20
347.8215434243
 30
0.0
 10
178.7807072808
 20
347.9729557888
 30
0.0
 10
179.1026594256
 20
348.1067697475
 30
0.0
 10
179.5586371988
 20
348.2030205738
 30
0.0
 10
180.1249617072
 20
348.207389708
 30
0.0
 10
180.6615470705
 20
348.1031184266
 30
0.0
 10
181.052352898
 20
347.9270258316
 30
0.0
 10
181.2895641963
 20
347.7374713956
 30
0.0
 10
181.4167958979
 20
347.5849824944
 30
0.0
 10
181.4964043244
 20
347.4199961832
 30
0.0
 10
181.5147769097
 20
347.3034609255
 30
0.0
 10
181.5147550476
 20
347.2471488454
 30
0.0
  0
SPLINE
  5
3A9
100
AcDbEntity
  8
0
100
AcDbSpline
 62
7
  6
CONTINUOUS
 70
0
 71
3
 72
18
 73
14
 74
0
 42
0.0000001
 43
0.0000001
 44
0.0000000001
 40
0.0
 40
0.0
 40
0.0
 40
0.0
 40
0.1522526881
 40
0.3030690879
 40
0.4479453718
 40
0.5829530574
 40
0.6458807372
 40
0.7054170979
 40
0.8140041529
 40
0.8636338486
 40
0.9106757564
 40
0.9558341407
 40
1.0
 40
1.0
 40
1.0
 40
1.0
 10
181.5139994785
 20
347.0459691981
 30
0.0
 10
182.5361575063
 20
346.9572048998
 30
0.0
 10
184.584055315
 20
346.9084550779
 30
0.0
 10
187.5954324865
 20
347.2080277585
 30
0.0
 10
190.4309137383
 20
347.8663294653
 30
0.0
 10
192.5930368262
 20
348.7093952431
 30
0.0
 10
194.1152970069
 20
349.5474290393
 30
0.0
 10
195.4020847878
 20
350.426011872
 30
0.0
 10
196.4841056816
 20
351.4432626267
 30
0.0
 10
197.2728301307
 20
352.5850770783
 30
0.0
 10
197.6896662341
 20
353.4500436463
 30
0.0
 10
197.9428528251
 20
354.3382172548
 30
0.0
 10
197.9997025313
 20
354.9416030719
 30
0.0
 10
197.9996927283
 20
355.2392292767
 30
0.0
  0
SPLINE
  5
3AA
100
AcDbEntity
  8
0
100
AcDbSpline
 62
7
  6
CONTINUOUS
 70
0
 71
3
 72
9
 73
5
 74
0
 42
0.0000001
 43
0.0000001
 44
0.0000000001
 40
0.0
 40
0.0
 40
0.0
 40
0.0
 40
0.4797538659
 40
1.0
 40
1.0
 40
1.0
 40
1.0
 10
169.6947977619
 20
348.1361892439
 30
0.0
 10
169.6947875616
 20
348.2056831503
 30
0.0
 10
169.7235251479
 20
348.3515521534
 30
0.0
 10
169.8002046432
 20
348.4775274698
 30
0.0
 10
169.847318801
 20
348.5363431721
 30
0.0
  0
SPLINE
  5
3AB
100
AcDbEntity
  8
0
100
AcDbSpline
 62
7
  6
CONTINUOUS
 70
0
 71
3
 72
9
 73
5
 74
0
 42
0.0000001
 43
0.0000001
 44
0.0000000001
 40
0.0
 40
0.0
 40
0.0
 40
0.0
 40
0.2348820942
 40
1.0
 40
1.0
 40
1.0
 40
1.0
 10
169.8659357798
 20
348.5588087635
 30
0.0
 10
169.8843992141
 20
348.5803608364
 30
0.0
 10
169.9673443502
 20
348.66839586
 30
0.0
 10
170.0653061125
 20
348.7415376914
 30
0.0
 10
170.1441288748
 20
348.7898386215
 30
0.0
  0
SPLINE
  5
3AC
100
AcDbEntity
  8
0
100
AcDbSpline
 62
7
  6
CONTINUOUS
 70
0
 71
3
 72
11
 73
7
 74
0
 42
0.0000001
 43
0.0000001
 44
0.0000000001
 40
0.0
 40
0.0
 40
0.0
 40
0.0
 40
0.2428242942
 40
0.5095568426
 40
0.7710356082
 40
1.0
 40
1.0
 40
1.0
 40
1.0
 10
172.4779711077
 20
347.4424246627
 30
0.0
 10
172.2982141765
 20
347.3446434597
 30
0.0
 10
171.8834733145
 20
347.2078171696
 30
0.0
 10
171.2301986701
 20
347.159889208
 30
0.0
 10
170.5945628535
 20
347.2585452383
 30
0.0
 10
170.2086681518
 20
347.4301007649
 30
0.0
 10
170.0526302289
 20
347.5436004395
 30
0.0
  0
SPLINE
  5
3AD
100
AcDbEntity
  8
0
100
AcDbSpline
 62
7
  6
CONTINUOUS
 70
0
 71
3
 72
11
 73
7
 74
0
 42
0.0000001
 43
0.0000001
 44
0.0000000001
 40
0.0
 40
0.0
 40
0.0
 40
0.0
 40
0.2828252401
 40
0.5397422362
 40
0.7757918379
 40
1.0
 40
1.0
 40
1.0
 40
1.0
 10
170.0526302289
 20
347.5436004395
 30
0.0
 10
169.9979508778
 20
347.5833733898
 30
0.0
 10
169.8991601367
 20
347.6676038755
 30
0.0
 10
169.7834324964
 20
347.814365611
 30
0.0
 10
169.7113341915
 20
347.9719701534
 30
0.0
 10
169.6948056295
 20
348.0825882288
 30
0.0
 10
169.6947977619
 20
348.1361892439
 30
0.0
  0
SPLINE
  5
3AE
100
AcDbEntity
  8
0
100
AcDbSpline
 62
7
  6
CONTINUOUS
 70
0
 71
3
 72
9
 73
5
 74
0
 42
0.0000001
 43
0.0000001
 44
0.0000000001
 40
0.0
 40
0.0
 40
0.0
 40
0.0
 40
0.2633574248
 40
1.0
 40
1.0
 40
1.0
 40
1.0
 10
170.1441288748
 20
348.7898386215
 30
0.0
 10
169.921129168
 20
348.9454826388
 30
0.0
 10
169.0917528936
 20
349.5603521758
 30
0.0
 10
168.333992973
 20
350.2766509789
 30
0.0
 10
167.8477755519
 20
350.8616293643
 30
0.0
  0
SPLINE
  5
3AF
100
AcDbEntity
  8
0
100
AcDbSpline
 62
7
  6
CONTINUOUS
 70
0
 71
3
 72
9
 73
5
 74
0
 42
0.0000001
 43
0.0000001
 44
0.0000000001
 40
0.0
 40
0.0
 40
0.0
 40
0.0
 40
0.5145793279
 40
1.0
 40
1.0
 40
1.0
 40
1.0
 10
167.568201512
 20
351.2152615185
 30
0.0
 10
167.2834511346
 20
351.5945818926
 30
0.0
 10
166.7880599429
 20
352.3782075575
 30
0.0
 10
166.4502727323
 20
353.2435741588
 30
0.0
 10
166.3332639247
 20
353.6754335334
 30
0.0
  0
SPLINE
  5
3B0
100
AcDbEntity
  8
0
100
AcDbSpline
 62
7
  6
CONTINUOUS
 70
0
 71
3
 72
9
 73
5
 74
0
 42
0.0000001
 43
0.0000001
 44
0.0000000001
 40
0.0
 40
0.0
 40
0.0
 40
0.0
 40
0.2520873512
 40
1.0
 40
1.0
 40
1.0
 40
1.0
 10
166.3207019665
 20
353.7225244219
 30
0.0
 10
166.2988929328
 20
353.8055807767
 30
0.0
 10
166.2191841293
 20
354.1367992076
 30
0.0
 10
166.1672613734
 20
354.4747476835
 30
0.0
 10
166.1450375414
 20
354.7285482183
 30
0.0
  0
SPLINE
  5
3B1
100
AcDbEntity
  8
0
100
AcDbSpline
 62
7
  6
CONTINUOUS
 70
0
 71
3
 72
13
 73
9
 74
0
 42
0.0000001
 43
0.0000001
 44
0.0000000001
 40
0.0
 40
0.0
 40
0.0
 40
0.0
 40
0.0963361087
 40
0.1970975442
 40
0.3057904491
 40
0.4245510787
 40
0.6936830988
 40
1.0
 40
1.0
 40
1.0
 40
1.0
 10
171.4568187607
 20
353.0539652915
 30
0.0
 10
171.4568250597
 20
353.0042180918
 30
0.0
 10
171.4426659472
 20
352.9019612234
 30
0.0
 10
171.3807014783
 20
352.7550798025
 30
0.0
 10
171.280516516
 20
352.6168115835
 30
0.0
 10
171.0923712663
 20
352.4407387579
 30
0.0
 10
170.7749112616
 20
352.2638194735
 30
0.0
 10
170.4874466016
 20
352.1806611916
 30
0.0
 10
170.3321675621
 20
352.1505080961
 30
0.0
  0
SPLINE
  5
3B2
100
AcDbEntity
  8
0
100
AcDbSpline
 62
7
  6
CONTINUOUS
 70
0
 71
3
 72
9
 73
5
 74
0
 42
0.0000001
 43
0.0000001
 44
0.0000000001
 40
0.0
 40
0.0
 40
0.0
 40
0.0
 40
0.4826592464
 40
1.0
 40
1.0
 40
1.0
 40
1.0
 10
197.6025835323
 20
362.3422693096
 30
0.0
 10
197.6025928571
 20
362.2787407197
 30
0.0
 10
197.5788784391
 20
362.1463003278
 30
0.0
 10
197.5143928834
 20
362.029145281
 30
0.0
 10
197.4744088974
 20
361.9740272479
 30
0.0
  0
SPLINE
  5
3B3
100
AcDbEntity
  8
0
100
AcDbSpline
 62
7
  6
CONTINUOUS
 70
0
 71
3
 72
9
 73
5
 74
0
 42
0.0000001
 43
0.0000001
 44
0.0000000001
 40
0.0
 40
0.0
 40
0.0
 40
0.0
 40
0.2316897226
 40
1.0
 40
1.0
 40
1.0
 40
1.0
 10
197.4744088974
 20
361.9740272479
 30
0.0
 10
197.454851132
 20
361.9470668152
 30
0.0
 10
197.3632825585
 20
361.8358815552
 30
0.0
 10
197.2474280012
 20
361.7463287467
 30
0.0
 10
197.1532524194
 20
361.688619932
 30
0.0
  0
SPLINE
  5
3B4
100
AcDbEntity
  8
0
100
AcDbSpline
 62
7
  6
CONTINUOUS
 70
0
 71
3
 72
11
 73
7
 74
0
 42
0.0000001
 43
0.0000001
 44
0.0000000001
 40
0.0
 40
0.0
 40
0.0
 40
0.0
 40
0.2229311753
 40
0.4613782569
 40
0.7197244502
 40
1.0
 40
1.0
 40
1.0
 40
1.0
 10
197.8346664216
 20
356.4921136398
 30
0.0
 10
197.7289204744
 20
356.8912104754
 30
0.0
 10
197.4081097628
 20
357.6925307629
 30
0.0
 10
196.6577230498
 20
358.8039468087
 30
0.0
 10
195.6461320049
 20
359.8367980989
 30
0.0
 10
194.8442891594
 20
360.4366145744
 30
0.0
 10
194.409945834
 20
360.7208327431
 30
0.0
  0
SPLINE
  5
3B5
100
AcDbEntity
  8
0
100
AcDbSpline
 62
7
  6
CONTINUOUS
 70
0
 71
3
 72
24
 73
20
 74
0
 42
0.0000001
 43
0.0000001
 44
0.0000000001
 40
0.0
 40
0.0
 40
0.0
 40
0.0
 40
0.0606920317
 40
0.1256724439
 40
0.1942884412
 40
0.265678815
 40
0.3388397948
 40
0.4126825075
 40
0.4860863867
 40
0.5579512284
 40
0.6272498852
 40
0.6930848006
 40
0.7547518187
 40
0.8118154508
 40
0.8641998965
 40
0.9122920555
 40
0.9570318675
 40
0.9786352702
 40
1.0
 40
1.0
 40
1.0
 40
1.0
 10
194.409945834
 20
360.7208327431
 30
0.0
 10
193.913133568
 20
361.0459282706
 30
0.0
 10
192.8351185038
 20
361.6454455271
 30
0.0
 10
191.0726091282
 20
362.3664154615
 30
0.0
 10
189.1436911405
 20
362.9270953864
 30
0.0
 10
187.0917213633
 20
363.3148986821
 30
0.0
 10
184.9624517015
 20
363.5212907849
 30
0.0
 10
182.8036840527
 20
363.5416268108
 30
0.0
 10
180.663892788
 20
363.3754566226
 30
0.0
 10
178.5911035813
 20
363.0265025607
 30
0.0
 10
176.6317074105
 20
362.502536548
 30
0.0
 10
174.8293422481
 20
361.8150950912
 30
0.0
 10
173.2238855666
 20
360.9789564816
 30
0.0
 10
171.8506855244
 20
360.0115473546
 30
0.0
 10
170.7404103386
 20
358.9316746814
 30
0.0
 10
169.9197205696
 20
357.760355334
 30
0.0
 10
169.4925942931
 20
356.7127203117
 30
0.0
 10
169.3254382256
 20
355.8691114641
 30
0.0
 10
169.2976819417
 20
355.4482316194
 30
0.0
 10
169.2976879539
 20
355.2392292739
 30
0.0
  0
SPLINE
  5
3B6
100
AcDbEntity
  8
0
100
AcDbSpline
 62
7
  6
CONTINUOUS
 70
0
 71
3
 72
9
 73
5
 74
0
 42
0.0000001
 43
0.0000001
 44
0.0000000001
 40
0.0
 40
0.0
 40
0.0
 40
0.0
 40
0.4864139556
 40
1.0
 40
1.0
 40
1.0
 40
1.0
 10
201.0538337828
 20
354.0530063814
 30
0.0
 10
200.9636076979
 20
353.6117507104
 30
0.0
 10
200.6757420982
 20
352.7233494437
 30
0.0
 10
200.216449842
 20
351.9124304457
 30
0.0
 10
199.9478244247
 20
351.5200229555
 30
0.0
  0
SPLINE
  5
3B7
100
AcDbEntity
  8
0
100
AcDbSpline
 62
7
  6
CONTINUOUS
 70
0
 71
3
 72
16
 73
12
 74
0
 42
0.0000001
 43
0.0000001
 44
0.0000000001
 40
0.0
 40
0.0
 40
0.0
 40
0.0
 40
0.0976756877
 40
0.204834994
 40
0.2620660267
 40
0.321612918
 40
0.4470395361
 40
0.5796906824
 40
0.7176055726
 40
0.8585182079
 40
1.0
 40
1.0
 40
1.0
 40
1.0
 10
199.7911781978
 20
351.2988780924
 30
0.0
 10
199.4059796373
 20
350.7729024629
 30
0.0
 10
198.4730547507
 20
349.7591917675
 30
0.0
 10
197.0738328024
 20
348.6974066585
 30
0.0
 10
195.7914950015
 20
347.927600651
 30
0.0
 10
194.350554785
 20
347.1922046804
 30
0.0
 10
192.372975142
 20
346.413019285
 30
0.0
 10
189.8171535584
 20
345.7213967502
 30
0.0
 10
187.1027607179
 20
345.27453564
 30
0.0
 10
184.2999736174
 20
345.0838852046
 30
0.0
 10
182.4124584678
 20
345.1310873176
 30
0.0
 10
181.4705886604
 20
345.1991840534
 30
0.0
  0
SPLINE
  5
3B8
100
AcDbEntity
  8
0
100
AcDbSpline
 62
7
  6
CONTINUOUS
 70
0
 71
3
 72
9
 73
5
 74
0
 42
0.0000001
 43
0.0000001
 44
0.0000000001
 40
0.0
 40
0.0
 40
0.0
 40
0.0
 40
0.2524615915
 40
1.0
 40
1.0
 40
1.0
 40
1.0
 10
181.4705886604
 20
345.1991840534
 30
0.0
 10
181.1967770266
 20
345.2189805033
 30
0.0
 10
180.1133574502
 20
345.3123498511
 30
0.0
 10
179.0349803431
 20
345.4655882246
 30
0.0
 10
178.2360288368
 20
345.6153798373
 30
0.0
  0
SPLINE
  5
3B9
100
AcDbEntity
  8
0
100
AcDbSpline
 62
7
  6
CONTINUOUS
 70
0
 71
3
 72
9
 73
5
 74
0
 42
0.0000001
 43
0.0000001
 44
0.0000000001
 40
0.0
 40
0.0
 40
0.0
 40
0.0
 40
0.5150339461
 40
1.0
 40
1.0
 40
1.0
 40
1.0
 10
178.2360288368
 20
345.6153798373
 30
0.0
 10
177.2423419594
 20
345.8016814573
 30
0.0
 10
175.330941432
 20
346.2693812902
 30
0.0
 10
173.4897653828
 20
346.9691896905
 30
0.0
 10
172.6271891135
 20
347.3719600522
 30
0.0
  0
SPLINE
  5
3BA
100
AcDbEntity
  8
0
100
AcDbSpline
 62
7
  6
CONTINUOUS
 70
0
 71
3
 72
12
 73
8
 74
0
 42
0.0000001
 43
0.0000001
 44
0.0000000001
 40
0.0
 40
0.0
 40
0.0
 40
0.0
 40
0.2171509744
 40
0.3349826732
 40
0.4586169958
 40
0.7212094261
 40
1.0
 40
1.0
 40
1.0
 40
1.0
 10
206.7300041947
 20
338.2444089163
 30
0.0
 10
207.3676340753
 20
338.8864539466
 30
0.0
 10
208.4732361284
 20
339.7596083184
 30
0.0
 10
210.1181899467
 20
340.734147956
 30
0.0
 10
212.0102029249
 20
341.6519835806
 30
0.0
 10
214.6353812557
 20
342.569311431
 30
0.0
 10
216.8499408567
 20
343.0321687921
 30
0.0
 10
217.9990074306
 20
343.203201806
 30
0.0
  0
SPLINE
  5
3BB
100
AcDbEntity
  8
0
100
AcDbSpline
 62
7
  6
CONTINUOUS
 70
0
 71
3
 72
17
 73
13
 74
0
 42
0.0000001
 43
0.0000001
 44
0.0000000001
 40
0.0
 40
0.0
 40
0.0
 40
0.0
 40
0.1256924156
 40
0.2602813245
 40
0.3992564837
 40
0.5375976541
 40
0.6703557649
 40
0.7333112424
 40
0.7933556886
 40
0.8501690064
 40
0.9035636611
 40
1.0
 40
1.0
 40
1.0
 40
1.0
 10
215.3290500766
 20
327.5434848734
 30
0.0
 10
216.2408243751
 20
327.1228904483
 30
0.0
 10
218.2132620817
 20
326.4294367697
 30
0.0
 10
221.3568789642
 20
325.8349883587
 30
0.0
 10
224.6535884159
 20
325.6700877549
 30
0.0
 10
227.9275562451
 20
325.9439303773
 30
0.0
 10
230.5409055653
 20
326.5360306025
 30
0.0
 10
232.4669304703
 20
327.2242499931
 30
0.0
 10
233.7744533844
 20
327.8235271774
 30
0.0
 10
234.9533304239
 20
328.5076324864
 30
0.0
 10
236.2847662113
 20
329.485177607
 30
0.0
 10
237.1235238933
 20
330.3679991625
 30
0.0
 10
237.5524426816
 20
331.0079466978
 30
0.0
  0
SPLINE
  5
3BC
100
AcDbEntity
  8
0
100
AcDbSpline
 62
7
  6
CONTINUOUS
 70
0
 71
3
 72
15
 73
11
 74
0
 42
0.0000001
 43
0.0000001
 44
0.0000000001
 40
0.0
 40
0.0
 40
0.0
 40
0.0
 40
0.1467477076
 40
0.2961315723
 40
0.4424633977
 40
0.5804032893
 40
0.7057203106
 40
0.8161410875
 40
0.9125222417
 40
1.0
 40
1.0
 40
1.0
 40
1.0
 10
205.1731539936
 20
336.2008406803
 30
0.0
 10
205.2950645098
 20
336.1750138495
 30
0.0
 10
205.5453420689
 20
336.1416084641
 30
0.0
 10
205.9221699229
 20
336.143501309
 30
0.0
 10
206.2879176026
 20
336.1961482289
 30
0.0
 10
206.6224031478
 20
336.296738739
 30
0.0
 10
206.9076834918
 20
336.4400680184
 30
0.0
 10
207.1287129792
 20
336.6198447446
 30
0.0
 10
207.2726773744
 20
336.8295194114
 30
0.0
 10
207.3075218151
 20
336.9869879822
 30
0.0
 10
207.3075078682
 20
337.0612729333
 30
0.0
  0
SPLINE
  5
3BD
100
AcDbEntity
  8
0
100
AcDbSpline
 62
7
  6
CONTINUOUS
 70
0
 71
3
 72
11
 73
7
 74
0
 42
0.0000001
 43
0.0000001
 44
0.0000000001
 40
0.0
 40
0.0
 40
0.0
 40
0.0
 40
0.2264219416
 40
0.4653259344
 40
0.7221031155
 40
1.0
 40
1.0
 40
1.0
 40
1.0
 10
210.0183487472
 20
333.2690408358
 30
0.0
 10
210.0757742377
 20
332.8872531758
 30
0.0
 10
210.2890838527
 20
332.1145142967
 30
0.0
 10
210.8703629979
 20
331.019834382
 30
0.0
 10
211.7021998657
 20
329.9874882507
 30
0.0
 10
212.3846299476
 20
329.3770076775
 30
0.0
 10
212.7579763061
 20
329.0852019575
 30
0.0
  0
SPLINE
  5
3BE
100
AcDbEntity
  8
0
100
AcDbSpline
 62
7
  6
CONTINUOUS
 70
0
 71
3
 72
17
 73
13
 74
0
 42
0.0000001
 43
0.0000001
 44
0.0000000001
 40
0.0
 40
0.0
 40
0.0
 40
0.0
 40
0.0429208717
 40
0.0876931344
 40
0.1358067207
 40
0.1882011313
 40
0.3066524236
 40
0.44160423
 40
0.5867979017
 40
0.7338594826
 40
0.8740473888
 40
1.0
 40
1.0
 40
1.0
 40
1.0
 10
212.5583353677
 20
328.1545274898
 30
0.0
 10
212.5583344869
 20
328.1082598348
 30
0.0
 10
212.5710389223
 20
328.0133100304
 30
0.0
 10
212.6267579709
 20
327.8765013875
 30
0.0
 10
212.7170134958
 20
327.7471436476
 30
0.0
 10
212.8868217603
 20
327.5815950528
 30
0.0
 10
213.1750166778
 20
327.4123747309
 30
0.0
 10
213.5872089866
 20
327.282316138
 30
0.0
 10
214.0467591597
 20
327.2263037212
 30
0.0
 10
214.5146979084
 20
327.2493322406
 30
0.0
 10
214.951134179
 20
327.3490567408
 30
0.0
 10
215.2149745412
 20
327.4698553253
 30
0.0
 10
215.3290500766
 20
327.5434848734
 30
0.0
  0
SPLINE
  5
3BF
100
AcDbEntity
  8
0
100
AcDbSpline
 62
7
  6
CONTINUOUS
 70
0
 71
3
 72
9
 73
5
 74
0
 42
0.0000001
 43
0.0000001
 44
0.0000000001
 40
0.0
 40
0.0
 40
0.0
 40
0.0
 40
0.4894694618
 40
1.0
 40
1.0
 40
1.0
 40
1.0
 10
204.3371783438
 20
333.5367326475
 30
0.0
 10
204.3769548852
 20
333.9930780776
 30
0.0
 10
204.5646040007
 20
334.9186766317
 30
0.0
 10
204.9424826358
 20
335.7824268682
 30
0.0
 10
205.1731539936
 20
336.2008406803
 30
0.0
  0
SPLINE
  5
3C0
100
AcDbEntity
  8
0
100
AcDbSpline
 62
7
  6
CONTINUOUS
 70
0
 71
3
 72
11
 73
7
 74
0
 42
0.0000001
 43
0.0000001
 44
0.0000000001
 40
0.0
 40
0.0
 40
0.0
 40
0.0
 40
0.2258303855
 40
0.4626441178
 40
0.719025857
 40
1.0
 40
1.0
 40
1.0
 40
1.0
 10
136.6277099013
 20
378.673892787
 30
0.0
 10
136.627729405
 20
378.3290815506
 30
0.0
 10
136.7290899451
 20
377.6192090606
 30
0.0
 10
137.1723392768
 20
376.6026890319
 30
0.0
 10
137.8867912978
 20
375.6500211998
 30
0.0
 10
138.4997728486
 20
375.0973474576
 30
0.0
 10
138.8393954202
 20
374.835232269
 30
0.0
  0
SPLINE
  5
3C1
100
AcDbEntity
  8
0
100
AcDbSpline
 62
7
  6
CONTINUOUS
 70
0
 71
3
 72
17
 73
13
 74
0
 42
0.0000001
 43
0.0000001
 44
0.0000000001
 40
0.0
 40
0.0
 40
0.0
 40
0.0
 40
0.0436260796
 40
0.0895949299
 40
0.1396734943
 40
0.19483982
 40
0.3205042778
 40
0.4627286356
 40
0.6121527467
 40
0.7576457006
 40
0.8890077314
 40
1.0
 40
1.0
 40
1.0
 40
1.0
 10
151.4734577966
 20
367.9817875026
 30
0.0
 10
151.4734627569
 20
368.0336920139
 30
0.0
 10
151.489604706
 20
368.1408636799
 30
0.0
 10
151.5599350361
 20
368.2934192184
 30
0.0
 10
151.6727940333
 20
368.4353838049
 30
0.0
 10
151.8837974067
 20
368.6134964796
 30
0.0
 10
152.2345505782
 20
368.7838807215
 30
0.0
 10
152.7218468455
 20
368.8942241392
 30
0.0
 10
153.2449446622
 20
368.9090563045
 30
0.0
 10
153.7488876504
 20
368.8261247123
 30
0.0
 10
154.1813531215
 20
368.6550766506
 30
0.0
 10
154.4147890058
 20
368.4736265437
 30
0.0
 10
154.498081466
 20
368.3711539516
 30
0.0
  0
SPLINE
  5
3C2
100
AcDbEntity
  8
0
100
AcDbSpline
 62
7
  6
CONTINUOUS
 70
0
 71
3
 72
19
 73
15
 74
0
 42
0.0000001
 43
0.0000001
 44
0.0000000001
 40
0.0
 40
0.0
 40
0.0
 40
0.0
 40
0.0434738549
 40
0.0881028301
 40
0.134897649
 40
0.1846287823
 40
0.2377938482
 40
0.2946317344
 40
0.3551557173
 40
0.4191924141
 40
0.55627944
 40
0.70216765
 40
0.8518756271
 40
1.0
 40
1.0
 40
1.0
 40
1.0
 10
127.8020267703
 20
377.6991690344
 30
0.0
 10
127.8020511157
 20
377.28703801
 30
0.0
 10
127.8881380532
 20
376.4494802378
 30
0.0
 10
128.2708258377
 20
375.2213762895
 30
0.0
 10
128.8990838911
 20
374.0321088275
 30
0.0
 10
129.7613959908
 20
372.8981169591
 30
0.0
 10
130.8443400928
 20
371.8332107792
 30
0.0
 10
132.1325644974
 20
370.8504914579
 30
0.0
 10
133.6086005227
 20
369.9621017981
 30
0.0
 10
135.8512207198
 20
368.8948181726
 30
0.0
 10
138.9985454891
 20
367.8841801961
 30
0.0
 10
143.0586440376
 20
367.2160823155
 30
0.0
 10
147.2754955345
 20
367.0996343444
 30
0.0
 10
150.0936124898
 20
367.3996019534
 30
0.0
 10
151.4755488281
 20
367.6487452892
 30
0.0
  0
SPLINE
  5
3C3
100
AcDbEntity
  8
0
100
AcDbSpline
 62
7
  6
CONTINUOUS
 70
0
 71
3
 72
16
 73
12
 74
0
 42
0.0000001
 43
0.0000001
 44
0.0000000001
 40
0.0
 40
0.0
 40
0.0
 40
0.0
 40
0.0428662974
 40
0.0872350767
 40
0.184747252
 40
0.2984500288
 40
0.4280546828
 40
0.5695117571
 40
0.7166621883
 40
0.8624329694
 40
1.0
 40
1.0
 40
1.0
 40
1.0
 10
121.9041384627
 20
383.7429985963
 30
0.0
 10
121.9041459605
 20
383.8052015101
 30
0.0
 10
121.9193360586
 20
383.9322468535
 30
0.0
 10
122.0113375032
 20
384.1861827419
 30
0.0
 10
122.245942739
 20
384.4850153468
 30
0.0
 10
122.6571597642
 20
384.7683530576
 30
0.0
 10
123.1783371522
 20
384.9786256713
 30
0.0
 10
123.7752230206
 20
385.1025609325
 30
0.0
 10
124.4074033929
 20
385.1323027456
 30
0.0
 10
125.030890153
 20
385.0658839047
 30
0.0
 10
125.4297070079
 20
384.9555800745
 30
0.0
 10
125.6157546054
 20
384.8832242418
 30
0.0
  0
SPLINE
  5
3C4
100
AcDbEntity
  8
0
100
AcDbSpline
 62
7
  6
CONTINUOUS
 70
0
 71
3
 72
13
 73
9
 74
0
 42
0.0000001
 43
0.0000001
 44
0.0000000001
 40
0.0
 40
0.0
 40
0.0
 40
0.0
 40
0.2806684894
 40
0.5367592299
 40
0.6572563998
 40
0.7738117906
 40
0.8876074366
 40
1.0
 40
1.0
 40
1.0
 40
1.0
 10
159.7610577997
 20
383.2076873463
 30
0.0
 10
160.3909140049
 20
382.7208452322
 30
0.0
 10
161.5274985411
 20
381.6950710149
 30
0.0
 10
162.6539966818
 20
380.1903075607
 30
0.0
 10
163.2830550317
 20
378.9374757711
 30
0.0
 10
163.6162180384
 20
377.9967642169
 30
0.0
 10
163.8173002723
 20
377.0427553231
 30
0.0
 10
163.8621451491
 20
376.4003270905
 30
0.0
 10
163.8621412759
 20
376.0815424034
 30
0.0
  0
SPLINE
  5
3C5
100
AcDbEntity
  8
0
100
AcDbSpline
 62
7
  6
CONTINUOUS
 70
0
 71
3
 72
9
 73
5
 74
0
 42
0.0000001
 43
0.0000001
 44
0.0000000001
 40
0.0
 40
0.0
 40
0.0
 40
0.0
 40
0.2447977962
 40
1.0
 40
1.0
 40
1.0
 40
1.0
 10
136.4505132477
 20
373.457331742
 30
0.0
 10
136.4603980473
 20
373.463711842
 30
0.0
 10
136.5011113793
 20
373.489255182
 30
0.0
 10
136.5431009509
 20
373.5127513391
 30
0.0
 10
136.5753494734
 20
373.5294055403
 30
0.0
  0
SPLINE
  5
3C6
100
AcDbEntity
  8
0
100
AcDbSpline
 62
7
  6
CONTINUOUS
 70
0
 71
3
 72
11
 73
7
 74
0
 42
0.0000001
 43
0.0000001
 44
0.0000000001
 40
0.0
 40
0.0
 40
0.0
 40
0.0
 40
0.2610868571
 40
0.5183633398
 40
0.7662890981
 40
1.0
 40
1.0
 40
1.0
 40
1.0
 10
141.9338910692
 20
387.965336772
 30
0.0
 10
143.191005815
 20
388.0112627928
 30
0.0
 10
145.6936615361
 20
387.9707271722
 30
0.0
 10
149.3652445596
 20
387.5202966835
 30
0.0
 10
152.8361969931
 20
386.6953440886
 30
0.0
 10
155.019003082
 20
385.8841656867
 30
0.0
 10
156.0430643683
 20
385.4158795267
 30
0.0
  0
SPLINE
  5
3C7
100
AcDbEntity
  8
0
100
AcDbSpline
 62
7
  6
CONTINUOUS
 70
0
 71
3
 72
17
 73
13
 74
0
 42
0.0000001
 43
0.0000001
 44
0.0000000001
 40
0.0
 40
0.0
 40
0.0
 40
0.0
 40
0.125844955
 40
0.2659726738
 40
0.4130252958
 40
0.5582524931
 40
0.693257219
 40
0.8117570117
 40
0.8641687062
 40
0.9122947687
 40
0.9570742771
 40
1.0
 40
1.0
 40
1.0
 40
1.0
 10
156.0430643683
 20
385.4158795267
 30
0.0
 10
156.2139561128
 20
385.5266539494
 30
0.0
 10
156.6095465869
 20
385.7084860175
 30
0.0
 10
157.2643095127
 20
385.8588259375
 30
0.0
 10
157.9667153418
 20
385.8939796728
 30
0.0
 10
158.6567961153
 20
385.8103637783
 30
0.0
 10
159.2759272298
 20
385.6154443115
 30
0.0
 10
159.7089063784
 20
385.3615764368
 30
0.0
 10
159.9640524836
 20
385.1130972492
 30
0.0
 10
160.0996852029
 20
384.9189207326
 30
0.0
 10
160.1834083041
 20
384.7135243394
 30
0.0
 10
160.2025118233
 20
384.5709628329
 30
0.0
 10
160.2025061848
 20
384.5014964317
 30
0.0
  0
SPLINE
  5
3C8
100
AcDbEntity
  8
0
100
AcDbSpline
 62
7
  6
CONTINUOUS
 70
0
 71
3
 72
16
 73
12
 74
0
 42
0.0000001
 43
0.0000001
 44
0.0000000001
 40
0.0
 40
0.0
 40
0.0
 40
0.0
 40
0.1321550082
 40
0.275469887
 40
0.4227360098
 40
0.5660450066
 40
0.6981774192
 40
0.8140541872
 40
0.9126593122
 40
0.9571637958
 40
1.0
 40
1.0
 40
1.0
 40
1.0
 10
138.8393954202
 20
374.835232269
 30
0.0
 10
138.9602749815
 20
374.8956842014
 30
0.0
 10
139.2276674934
 20
374.9916282464
 30
0.0
 10
139.6560959991
 20
375.0621255809
 30
0.0
 10
140.1018237947
 20
375.0621096687
 30
0.0
 10
140.530398685
 20
374.9914993632
 30
0.0
 10
140.909555063
 20
374.855246839
 30
0.0
 10
141.2115960547
 20
374.6631473809
 30
0.0
 10
141.3861523855
 20
374.4549264864
 30
0.0
 10
141.4549577207
 20
374.2759607561
 30
0.0
 10
141.4662601246
 20
374.1862723036
 30
0.0
 10
141.4662508209
 20
374.1424643778
 30
0.0
  0
SPLINE
  5
3C9
100
AcDbEntity
  8
0
100
AcDbSpline
 62
7
  6
CONTINUOUS
 70
0
 71
3
 72
19
 73
15
 74
0
 42
0.0000001
 43
0.0000001
 44
0.0000000001
 40
0.0
 40
0.0
 40
0.0
 40
0.0
 40
0.1368138105
 40
0.282187238
 40
0.4292391186
 40
0.5708143894
 40
0.637590908
 40
0.7007836677
 40
0.7599534731
 40
0.814895034
 40
0.8657024067
 40
0.912837949
 40
0.9571799358
 40
1.0
 40
1.0
 40
1.0
 40
1.0
 10
141.3885241875
 20
373.4133421935
 30
0.0
 10
142.2542126883
 20
373.065690486
 30
0.0
 10
144.1162358737
 20
372.5325203851
 30
0.0
 10
147.0355941454
 20
372.2008114569
 30
0.0
 10
150.003917154
 20
372.3229767236
 30
0.0
 10
152.391886341
 20
372.8057439969
 30
0.0
 10
154.1414220275
 20
373.4195995195
 30
0.0
 10
155.3115539622
 20
373.9677528418
 30
0.0
 10
156.3438057414
 20
374.6027424882
 30
0.0
 10
157.2196138404
 20
375.3140040114
 30
0.0
 10
157.9227401543
 20
376.0900031225
 30
0.0
 10
158.4389542516
 20
376.9186708172
 30
0.0
 10
158.7555636715
 20
377.7853880604
 30
0.0
 10
158.8272804399
 20
378.3819172366
 30
0.0
 10
158.8272708013
 20
378.6738927628
 30
0.0
  0
SPLINE
  5
3CA
100
AcDbEntity
  8
0
100
AcDbSpline
 62
7
  6
CONTINUOUS
 70
0
 71
3
 72
11
 73
7
 74
0
 42
0.0000001
 43
0.0000001
 44
0.0000000001
 40
0.0
 40
0.0
 40
0.0
 40
0.0
 40
0.2329308088
 40
0.4733088278
 40
0.7274632423
 40
1.0
 40
1.0
 40
1.0
 40
1.0
 10
119.6682218818
 20
375.7600909243
 30
0.0
 10
119.6682357693
 20
376.3326406511
 30
0.0
 10
119.8006776329
 20
377.4999316554
 30
0.0
 10
120.3872798692
 20
379.2023435803
 30
0.0
 10
121.346044069
 20
380.8382863992
 30
0.0
 10
122.1882468595
 20
381.830040566
 30
0.0
 10
122.6573788069
 20
382.3082498159
 30
0.0
  0
SPLINE
  5
3CB
100
AcDbEntity
  8
0
100
AcDbSpline
 62
7
  6
CONTINUOUS
 70
0
 71
3
 72
12
 73
8
 74
0
 42
0.0000001
 43
0.0000001
 44
0.0000000001
 40
0.0
 40
0.0
 40
0.0
 40
0.0
 40
0.3042444416
 40
0.5710083644
 40
0.7983242399
 40
0.9010569924
 40
1.0
 40
1.0
 40
1.0
 40
1.0
 10
129.8823185823
 20
382.5827497696
 30
0.0
 10
130.0111525221
 20
382.5478449674
 30
0.0
 10
130.2482369202
 20
382.4609521889
 30
0.0
 10
130.5453756304
 20
382.2693291489
 30
0.0
 10
130.716805391
 20
382.0626044502
 30
0.0
 10
130.7843020964
 20
381.8852778189
 30
0.0
 10
130.7953963922
 20
381.7964430561
 30
0.0
 10
130.7953933432
 20
381.7530346332
 30
0.0
  0
SPLINE
  5
3CC
100
AcDbEntity
  8
0
100
AcDbSpline
 62
7
  6
CONTINUOUS
 70
0
 71
3
 72
13
 73
9
 74
0
 42
0.0000001
 43
0.0000001
 44
0.0000000001
 40
0.0
 40
0.0
 40
0.0
 40
0.0
 40
0.2894374103
 40
0.5533635397
 40
0.6749747416
 40
0.7895971248
 40
0.8976692507
 40
1.0
 40
1.0
 40
1.0
 40
1.0
 10
154.498081466
 20
368.3711539516
 30
0.0
 10
155.5683739864
 20
368.6946669198
 30
0.0
 10
157.577124769
 20
369.4499266154
 30
0.0
 10
159.8533167149
 20
370.7533841723
 30
0.0
 10
161.3670998439
 20
371.9595210552
 30
0.0
 10
162.3101074697
 20
372.9021201422
 30
0.0
 10
163.0811628312
 20
373.8975329105
 30
0.0
 10
163.4842993696
 20
374.6075255384
 30
0.0
 10
163.651183811
 20
374.96588345
 30
0.0
  0
SPLINE
  5
3CD
100
AcDbEntity
  8
0
100
AcDbSpline
 62
7
  6
CONTINUOUS
 70
0
 71
3
 72
9
 73
5
 74
0
 42
0.0000001
 43
0.0000001
 44
0.0000000001
 40
0.0
 40
0.0
 40
0.0
 40
0.0
 40
0.2632003637
 40
1.0
 40
1.0
 40
1.0
 40
1.0
 10
158.3346590443
 20
366.0216225537
 30
0.0
 10
158.3655343921
 20
366.0003010557
 30
0.0
 10
158.4804176357
 20
365.9159313296
 30
0.0
 10
158.5854434637
 20
365.817437924
 30
0.0
 10
158.6527788793
 20
365.7368215966
 30
0.0
  0
SPLINE
  5
3CE
100
AcDbEntity
  8
0
100
AcDbSpline
 62
7
  6
CONTINUOUS
 70
0
 71
3
 72
9
 73
5
 74
0
 42
0.0000001
 43
0.0000001
 44
0.0000000001
 40
0.0
 40
0.0
 40
0.0
 40
0.0
 40
0.2617437394
 40
1.0
 40
1.0
 40
1.0
 40
1.0
 10
158.6598261832
 20
365.7283094046
 30
0.0
 10
158.6790533813
 20
365.7048782373
 30
0.0
 10
158.7492606107
 20
365.6128018888
 30
0.0
 10
158.8056118788
 20
365.5096943581
 30
0.0
 10
158.8355125176
 20
365.4296030997
 30
0.0
  0
SPLINE
  5
3CF
100
AcDbEntity
  8
0
100
AcDbSpline
 62
7
  6
CONTINUOUS
 70
0
 71
3
 72
9
 73
5
 74
0
 42
0.0000001
 43
0.0000001
 44
0.0000000001
 40
0.0
 40
0.0
 40
0.0
 40
0.0
 40
0.2551896821
 40
1.0
 40
1.0
 40
1.0
 40
1.0
 10
158.8355125176
 20
365.4296030997
 30
0.0
 10
158.8443058739
 20
365.4060493897
 30
0.0
 10
158.8749110561
 20
365.3123699918
 30
0.0
 10
158.8889882973
 20
365.2131953885
 30
0.0
 10
158.8890051938
 20
365.1398157472
 30
0.0
  0
SPLINE
  5
3D0
100
AcDbEntity
  8
0
100
AcDbSpline
 62
7
  6
CONTINUOUS
 70
0
 71
3
 72
11
 73
7
 74
0
 42
0.0000001
 43
0.0000001
 44
0.0000000001
 40
0.0
 40
0.0
 40
0.0
 40
0.0
 40
0.2267947289
 40
0.4723486054
 40
0.7320333345
 40
1.0
 40
1.0
 40
1.0
 40
1.0
 10
125.8127207028
 20
384.797747637
 30
0.0
 10
126.8670084061
 20
385.4536368382
 30
0.0
 10
129.1878455024
 20
386.6232282989
 30
0.0
 10
132.9974134099
 20
387.9021599149
 30
0.0
 10
137.1565824548
 20
388.7414800602
 30
0.0
 10
140.0421640258
 20
388.9856992025
 30
0.0
 10
141.5085944445
 20
389.0288741321
 30
0.0
  0
SPLINE
  5
3D1
100
AcDbEntity
  8
0
100
AcDbSpline
 62
7
  6
CONTINUOUS
 70
0
 71
3
 72
15
 73
11
 74
0
 42
0.0000001
 43
0.0000001
 44
0.0000000001
 40
0.0
 40
0.0
 40
0.0
 40
0.0
 40
0.0983056645
 40
0.2004959493
 40
0.3097504136
 40
0.4281654829
 40
0.556726795
 40
0.6954661576
 40
0.8436417412
 40
1.0
 40
1.0
 40
1.0
 40
1.0
 10
133.452723765
 20
378.6738927561
 30
0.0
 10
133.4527424414
 20
379.0709445727
 30
0.0
 10
133.5562365942
 20
379.8840505469
 30
0.0
 10
134.0121179252
 20
381.0603921197
 30
0.0
 10
134.7529319621
 20
382.1785093552
 30
0.0
 10
135.7585465389
 20
383.2169987864
 30
0.0
 10
137.0066168262
 20
384.158199238
 30
0.0
 10
138.471672368
 20
384.9851245449
 30
0.0
 10
140.1242787599
 20
385.6824120676
 30
0.0
 10
141.3024661964
 20
386.0434361646
 30
0.0
 10
141.9140422372
 20
386.2009055055
 30
0.0
  0
SPLINE
  5
3D2
100
AcDbEntity
  8
0
100
AcDbSpline
 62
7
  6
CONTINUOUS
 70
0
 71
3
 72
11
 73
7
 74
0
 42
0.0000001
 43
0.0000001
 44
0.0000000001
 40
0.0
 40
0.0
 40
0.0
 40
0.0
 40
0.2208795955
 40
0.4553607918
 40
0.7136284417
 40
1.0
 40
1.0
 40
1.0
 40
1.0
 10
136.0462529791
 20
372.8462889769
 30
0.0
 10
136.0462715055
 20
372.9024087704
 30
0.0
 10
136.065269511
 20
373.0188054436
 30
0.0
 10
136.1475585638
 20
373.1828854098
 30
0.0
 10
136.2786733828
 20
373.3333947811
 30
0.0
 10
136.3893815076
 20
373.4178745316
 30
0.0
 10
136.4505132477
 20
373.457331742
 30
0.0
  0
SPLINE
  5
3D3
100
AcDbEntity
  8
0
100
AcDbSpline
 62
7
  6
CONTINUOUS
 70
0
 71
3
 72
9
 73
5
 74
0
 42
0.0000001
 43
0.0000001
 44
0.0000000001
 40
0.0
 40
0.0
 40
0.0
 40
0.0
 40
0.4896427826
 40
1.0
 40
1.0
 40
1.0
 40
1.0
 10
158.8890051938
 20
365.1398157472
 30
0.0
 10
158.8890210147
 20
365.0711072997
 30
0.0
 10
158.8703578441
 20
364.9302368913
 30
0.0
 10
158.8174053379
 20
364.7987246746
 30
0.0
 10
158.7837142698
 20
364.7355293816
 30
0.0
  0
SPLINE
  5
3D4
100
AcDbEntity
  8
0
100
AcDbSpline
 62
7
  6
CONTINUOUS
 70
0
 71
3
 72
14
 73
10
 74
0
 42
0.0000001
 43
0.0000001
 44
0.0000000001
 40
0.0
 40
0.0
 40
0.0
 40
0.0
 40
0.2020915171
 40
0.3260791948
 40
0.4611098359
 40
0.6019540216
 40
0.7425755632
 40
0.876942377
 40
1.0
 40
1.0
 40
1.0
 40
1.0
 10
158.7837142698
 20
364.7355293816
 30
0.0
 10
158.6473694108
 20
364.4797834587
 30
0.0
 10
158.2567903543
 20
364.1650210799
 30
0.0
 10
157.646529526
 20
363.9160897735
 30
0.0
 10
157.0830942202
 20
363.7904661486
 30
0.0
 10
156.4853692012
 20
363.7504258308
 30
0.0
 10
155.8885275664
 20
363.7971385888
 30
0.0
 10
155.3306006525
 20
363.9277929685
 30
0.0
 10
154.9885011748
 20
364.0739633603
 30
0.0
 10
154.8351543504
 20
364.1613079565
 30
0.0
  0
SPLINE
  5
3D5
100
AcDbEntity
  8
0
100
AcDbSpline
 62
7
  6
CONTINUOUS
 70
0
 71
3
 72
9
 73
5
 74
0
 42
0.0000001
 43
0.0000001
 44
0.0000000001
 40
0.0
 40
0.0
 40
0.0
 40
0.0
 40
0.2549024184
 40
1.0
 40
1.0
 40
1.0
 40
1.0
 10
154.8351543504
 20
364.1613079565
 30
0.0
 10
154.8217088456
 20
364.1689663622
 30
0.0
 10
154.7692697294
 20
364.1995474835
 30
0.0
 10
154.7180928834
 20
364.2323072429
 30
0.0
 10
154.6808744598
 20
364.25800906
 30
0.0
  0
SPLINE
  5
3D6
100
AcDbEntity
  8
0
100
AcDbSpline
 62
7
  6
CONTINUOUS
 70
0
 71
3
 72
17
 73
13
 74
0
 42
0.0000001
 43
0.0000001
 44
0.0000000001
 40
0.0
 40
0.0
 40
0.0
 40
0.0
 40
0.1259519491
 40
0.2661361458
 40
0.4131954857
 40
0.558386602
 40
0.6933414104
 40
0.8117952451
 40
0.864186067
 40
0.9123024095
 40
0.9570762586
 40
1.0
 40
1.0
 40
1.0
 40
1.0
 10
138.8169493768
 20
372.2352465104
 30
0.0
 10
138.7028747334
 20
372.161617538
 30
0.0
 10
138.4390405483
 20
372.040818778
 30
0.0
 10
138.002611821
 20
371.9410970544
 30
0.0
 10
137.5346840878
 20
371.918068742
 30
0.0
 10
137.0751349404
 20
371.9740856467
 30
0.0
 10
136.6629490555
 20
372.1041390902
 30
0.0
 10
136.3747113938
 20
372.2733164459
 30
0.0
 10
136.2049547365
 20
372.4389131711
 30
0.0
 10
136.114649259
 20
372.568236967
 30
0.0
 10
136.0589528722
 20
372.7050645336
 30
0.0
 10
136.0462377042
 20
372.8000183495
 30
0.0
 10
136.0462529791
 20
372.8462889769
 30
0.0
  0
SPLINE
  5
3D7
100
AcDbEntity
  8
0
100
AcDbSpline
 62
7
  6
CONTINUOUS
 70
0
 71
3
 72
13
 73
9
 74
0
 42
0.0000001
 43
0.0000001
 44
0.0000000001
 40
0.0
 40
0.0
 40
0.0
 40
0.0
 40
0.104023235
 40
0.2107650198
 40
0.3226040598
 40
0.4413694207
 40
0.703303995
 40
1.0
 40
1.0
 40
1.0
 40
1.0
 10
158.8272708013
 20
378.6738927628
 30
0.0
 10
158.8272625938
 20
378.9225212271
 30
0.0
 10
158.7758244798
 20
379.4276720631
 30
0.0
 10
158.5470200458
 20
380.1686708281
 30
0.0
 10
158.1713113489
 20
380.8867354819
 30
0.0
 10
157.4604497947
 20
381.830645941
 30
0.0
 10
156.2135282365
 20
382.8929161271
 30
0.0
 10
155.0272936238
 20
383.5242365938
 30
0.0
 10
154.3762732366
 20
383.805399314
 30
0.0
  0
SPLINE
  5
3D8
100
AcDbEntity
  8
0
100
AcDbSpline
 62
7
  6
CONTINUOUS
 70
0
 71
3
 72
12
 73
8
 74
0
 42
0.0000001
 43
0.0000001
 44
0.0000000001
 40
0.0
 40
0.0
 40
0.0
 40
0.0
 40
0.2808408446
 40
0.5442046359
 40
0.6676686039
 40
0.7849429288
 40
1.0
 40
1.0
 40
1.0
 40
1.0
 10
141.3627649296
 20
387.876212352
 30
0.0
 10
140.1726703107
 20
387.6938931949
 30
0.0
 10
137.885058879
 20
387.2001622429
 30
0.0
 10
135.1846798747
 20
386.2179473892
 30
0.0
 10
133.2566056592
 20
385.2353619149
 30
0.0
 10
131.6001937951
 20
384.1969392267
 30
0.0
 10
130.5016412781
 20
383.2657218029
 30
0.0
 10
129.8823185823
 20
382.5827497696
 30
0.0
  0
SPLINE
  5
3D9
100
AcDbEntity
  8
0
100
AcDbSpline
 62
7
  6
CONTINUOUS
 70
0
 71
3
 72
11
 73
7
 74
0
 42
0.0000001
 43
0.0000001
 44
0.0000000001
 40
0.0
 40
0.0
 40
0.0
 40
0.0
 40
0.2811155645
 40
0.5385370528
 40
0.7759197604
 40
1.0
 40
1.0
 40
1.0
 40
1.0
 10
136.5753494734
 20
373.5294055403
 30
0.0
 10
136.1394585852
 20
373.8443692646
 30
0.0
 10
135.3451666076
 20
374.508531432
 30
0.0
 10
134.3856525038
 20
375.6529387149
 30
0.0
 10
133.736728316
 20
376.8783843931
 30
0.0
 10
133.5239905746
 20
377.7470882802
 30
0.0
 10
133.4790543669
 20
378.1733935166
 30
0.0
  0
SPLINE
  5
3DA
100
AcDbEntity
  8
0
100
AcDbSpline
 62
7
  6
CONTINUOUS
 70
0
 71
3
 72
9
 73
5
 74
0
 42
0.0000001
 43
0.0000001
 44
0.0000000001
 40
0.0
 40
0.0
 40
0.0
 40
0.0
 40
0.5110075219
 40
1.0
 40
1.0
 40
1.0
 40
1.0
 10
128.6610532938
 20
380.8926023173
 30
0.0
 10
128.3868907346
 20
380.3952999966
 30
0.0
 10
127.9544573633
 20
379.3584849161
 30
0.0
 10
127.8019946704
 20
378.2425728875
 30
0.0
 10
127.8020267703
 20
377.6991690344
 30
0.0
  0
SPLINE
  5
3DB
100
AcDbEntity
  8
0
100
AcDbSpline
 62
7
  6
CONTINUOUS
 70
0
 71
3
 72
14
 73
10
 74
0
 42
0.0000001
 43
0.0000001
 44
0.0000000001
 40
0.0
 40
0.0
 40
0.0
 40
0.0
 40
0.0875406797
 40
0.1839914628
 40
0.2944911206
 40
0.4198973526
 40
0.5579437233
 40
0.7043758667
 40
1.0
 40
1.0
 40
1.0
 40
1.0
 10
130.7953933432
 20
381.7530346332
 30
0.0
 10
130.7953881255
 20
381.6787508473
 30
0.0
 10
130.7605734415
 20
381.5212844672
 30
0.0
 10
130.6166011057
 20
381.3116125351
 30
0.0
 10
130.3955744312
 20
381.1318376388
 30
0.0
 10
130.1103239508
 20
380.9885077994
 30
0.0
 10
129.7757216287
 20
380.8878971003
 30
0.0
 10
129.2874675783
 20
380.8176575908
 30
0.0
 10
128.9064623818
 20
380.8406122248
 30
0.0
 10
128.6610532938
 20
380.8926023173
 30
0.0
  0
SPLINE
  5
3DC
100
AcDbEntity
  8
0
100
AcDbSpline
 62
7
  6
CONTINUOUS
 70
0
 71
3
 72
9
 73
5
 74
0
 42
0.0000001
 43
0.0000001
 44
0.0000000001
 40
0.0
 40
0.0
 40
0.0
 40
0.0
 40
0.2474605418
 40
1.0
 40
1.0
 40
1.0
 40
1.0
 10
165.6061748658
 20
374.607113164
 30
0.0
 10
165.5876216735
 20
374.4841976396
 30
0.0
 10
165.5008782885
 20
373.9893181739
 30
0.0
 10
165.3672253137
 20
373.5028213647
 30
0.0
 10
165.2431006027
 20
373.1457542893
 30
0.0
  0
SPLINE
  5
3DD
100
AcDbEntity
  8
0
100
AcDbSpline
 62
7
  6
CONTINUOUS
 70
0
 71
3
 72
9
 73
5
 74
0
 42
0.0000001
 43
0.0000001
 44
0.0000000001
 40
0.0
 40
0.0
 40
0.0
 40
0.0
 40
0.2442297619
 40
1.0
 40
1.0
 40
1.0
 40
1.0
 10
165.2431006027
 20
373.1457542893
 30
0.0
 10
165.187315641
 20
372.9852788051
 30
0.0
 10
164.9394334966
 20
372.3350533713
 30
0.0
 10
164.6156004929
 20
371.7145126895
 30
0.0
 10
164.3378296981
 20
371.2681415126
 30
0.0
  0
SPLINE
  5
3DE
100
AcDbEntity
  8
0
100
AcDbSpline
 62
7
  6
CONTINUOUS
 70
0
 71
3
 72
10
 73
6
 74
0
 42
0.0000001
 43
0.0000001
 44
0.0000000001
 40
0.0
 40
0.0
 40
0.0
 40
0.0
 40
0.4658335813
 40
0.7243700225
 40
1.0
 40
1.0
 40
1.0
 40
1.0
 10
164.3378296981
 20
371.2681415126
 30
0.0
 10
163.6777200479
 20
370.2073607283
 30
0.0
 10
162.3518373439
 20
368.7371942067
 30
0.0
 10
160.2183578595
 20
367.1096027883
 30
0.0
 10
158.9862788133
 20
366.3707600497
 30
0.0
 10
158.3346590443
 20
366.0216225537
 30
0.0
  0
SPLINE
  5
3DF
100
AcDbEntity
  8
0
100
AcDbSpline
 62
7
  6
CONTINUOUS
 70
0
 71
3
 72
9
 73
5
 74
0
 42
0.0000001
 43
0.0000001
 44
0.0000000001
 40
0.0
 40
0.0
 40
0.0
 40
0.0
 40
0.2554523702
 40
1.0
 40
1.0
 40
1.0
 40
1.0
 10
154.6808744598
 20
364.25800906
 30
0.0
 10
154.6677906744
 20
364.2670442911
 30
0.0
 10
154.6170074393
 20
364.3030369928
 30
0.0
 10
154.5680090173
 20
364.3415669591
 30
0.0
 10
154.5328208808
 20
364.3717251519
 30
0.0
  0
SPLINE
  5
3E0
100
AcDbEntity
  8
0
100
AcDbSpline
 62
7
  6
CONTINUOUS
 70
0
 71
3
 72
16
 73
12
 74
0
 42
0.0000001
 43
0.0000001
 44
0.0000000001
 40
0.0
 40
0.0
 40
0.0
 40
0.0
 40
0.1291687697
 40
0.2642787971
 40
0.4016689085
 40
0.5374668716
 40
0.6679374803
 40
0.7898371527
 40
0.8468421544
 40
0.9009248757
 40
1.0
 40
1.0
 40
1.0
 40
1.0
 10
154.3977507737
 20
364.3252323123
 30
0.0
 10
152.9921872647
 20
363.8451801636
 30
0.0
 10
150.0414287894
 20
363.0740444885
 30
0.0
 10
145.4507726202
 20
362.4772051662
 30
0.0
 10
140.7450435245
 20
362.4279843719
 30
0.0
 10
136.119113593
 20
362.9287536256
 30
0.0
 10
131.7638104769
 20
363.9589118788
 30
0.0
 10
128.4338673243
 20
365.2522462099
 30
0.0
 10
126.0741442817
 20
366.5286100753
 30
0.0
 10
124.0605949829
 20
367.8672096107
 30
0.0
 10
122.7378978166
 20
369.0602493387
 30
0.0
 10
122.0021529523
 20
369.9300480548
 30
0.0
  0
SPLINE
  5
3E1
100
AcDbEntity
  8
0
100
AcDbSpline
 62
7
  6
CONTINUOUS
 70
0
 71
3
 72
9
 73
5
 74
0
 42
0.0000001
 43
0.0000001
 44
0.0000000001
 40
0.0
 40
0.0
 40
0.0
 40
0.0
 40
0.5146937108
 40
1.0
 40
1.0
 40
1.0
 40
1.0
 10
121.7270350658
 20
370.2672178228
 30
0.0
 10
121.3526870714
 20
370.7432263596
 30
0.0
 10
120.6940979219
 20
371.7254982761
 30
0.0
 10
120.221510556
 20
372.8119345386
 30
0.0
 10
120.048115915
 20
373.355968687
 30
0.0
  0
SPLINE
  5
3E2
100
AcDbEntity
  8
0
100
AcDbSpline
 62
7
  6
CONTINUOUS
 70
0
 71
3
 72
9
 73
5
 74
0
 42
0.0000001
 43
0.0000001
 44
0.0000000001
 40
0.0
 40
0.0
 40
0.0
 40
0.0
 40
0.2523968743
 40
1.0
 40
1.0
 40
1.0
 40
1.0
 10
120.048115915
 20
373.355968687
 30
0.0
 10
120.0170281012
 20
373.4535082201
 30
0.0
 10
119.9008926011
 20
373.8421617365
 30
0.0
 10
119.8135332236
 20
374.2394651375
 30
0.0
 10
119.7656617775
 20
374.5388954634
 30
0.0
  0
SPLINE
  5
3E3
100
AcDbEntity
  8
0
100
AcDbSpline
 62
7
  6
CONTINUOUS
 70
0
 71
3
 72
9
 73
5
 74
0
 42
0.0000001
 43
0.0000001
 44
0.0000000001
 40
0.0
 40
0.0
 40
0.0
 40
0.0
 40
0.5314304762
 40
1.0
 40
1.0
 40
1.0
 40
1.0
 10
122.9550228918
 20
382.6027642329
 30
0.0
 10
122.8041038801
 20
382.6614581957
 30
0.0
 10
122.5283628777
 20
382.7954496915
 30
0.0
 10
122.2862536254
 20
382.9866794635
 30
0.0
 10
122.1888709992
 20
383.0910908606
 30
0.0
  0
SPLINE
  5
3E4
100
AcDbEntity
  8
0
100
AcDbSpline
 62
7
  6
CONTINUOUS
 70
0
 71
3
 72
9
 73
5
 74
0
 42
0.0000001
 43
0.0000001
 44
0.0000000001
 40
0.0
 40
0.0
 40
0.0
 40
0.0
 40
0.5253610973
 40
1.0
 40
1.0
 40
1.0
 40
1.0
 10
122.1888709992
 20
383.0910908606
 30
0.0
 10
122.1023448679
 20
383.1838621751
 30
0.0
 10
121.9595352163
 20
383.3849667334
 30
0.0
 10
121.9041246476
 20
383.6283871978
 30
0.0
 10
121.9041384627
 20
383.7429985963
 30
0.0
  0
SPLINE
  5
3E5
100
AcDbEntity
  8
0
100
AcDbSpline
 62
7
  6
CONTINUOUS
 70
0
 71
3
 72
9
 73
5
 74
0
 42
0.0000001
 43
0.0000001
 44
0.0000000001
 40
0.0
 40
0.0
 40
0.0
 40
0.0
 40
0.2445996365
 40
1.0
 40
1.0
 40
1.0
 40
1.0
 10
159.599461678
 20
383.5871133165
 30
0.0
 10
159.5841000158
 20
383.5771556719
 30
0.0
 10
159.5207539069
 20
383.5372865552
 30
0.0
 10
159.4553371786
 20
383.5007299304
 30
0.0
 10
159.4050584669
 20
383.4748752402
 30
0.0
  0
SPLINE
  5
3E6
100
AcDbEntity
  8
0
100
AcDbSpline
 62
7
  6
CONTINUOUS
 70
0
 71
3
 72
11
 73
7
 74
0
 42
0.0000001
 43
0.0000001
 44
0.0000000001
 40
0.0
 40
0.0
 40
0.0
 40
0.0
 40
0.2217612438
 40
0.4566463748
 40
0.7146372835
 40
1.0
 40
1.0
 40
1.0
 40
1.0
 10
141.4662508209
 20
374.1424643778
 30
0.0
 10
141.4662391671
 20
374.0875905173
 30
0.0
 10
141.4481424928
 20
373.9739296862
 30
0.0
 10
141.3694715796
 20
373.8131944353
 30
0.0
 10
141.2438279501
 20
373.6651813914
 30
0.0
 10
141.1374774906
 20
373.5815488269
 30
0.0
 10
141.0787210988
 20
373.5423862338
 30
0.0
  0
SPLINE
  5
3E7
100
AcDbEntity
  8
0
100
AcDbSpline
 62
7
  6
CONTINUOUS
 70
0
 71
3
 72
19
 73
15
 74
0
 42
0.0000001
 43
0.0000001
 44
0.0000000001
 40
0.0
 40
0.0
 40
0.0
 40
0.0
 40
0.135297362
 40
0.2800002815
 40
0.4271006144
 40
0.5691999828
 40
0.636326024
 40
0.6998755625
 40
0.7593742423
 40
0.8145866745
 40
0.8655859889
 40
0.9128266954
 40
0.9571973439
 40
1.0
 40
1.0
 40
1.0
 40
1.0
 10
154.3762732366
 20
383.805399314
 30
0.0
 10
153.5154882248
 20
384.1771551917
 30
0.0
 10
151.6483467754
 20
384.7541734903
 30
0.0
 10
148.7013899977
 20
385.1372624158
 30
0.0
 10
145.6834610216
 20
385.0535443234
 30
0.0
 10
143.244323042
 20
384.5905003453
 30
0.0
 10
141.4511331763
 20
383.9840240252
 30
0.0
 10
140.2492725531
 20
383.4369978624
 30
0.0
 10
139.1876353829
 20
382.7993699987
 30
0.0
 10
138.2858990104
 20
382.0820794122
 30
0.0
 10
137.5612474837
 20
381.2971213033
 30
0.0
 10
137.0287171238
 20
380.4570229631
 30
0.0
 10
136.7018190316
 20
379.5769463403
 30
0.0
 10
136.6276931229
 20
378.9705218415
 30
0.0
 10
136.6277099013
 20
378.673892787
 30
0.0
  0
SPLINE
  5
3E8
100
AcDbEntity
  8
0
100
AcDbSpline
 62
7
  6
CONTINUOUS
 70
0
 71
3
 72
9
 73
5
 74
0
 42
0.0000001
 43
0.0000001
 44
0.0000000001
 40
0.0
 40
0.0
 40
0.0
 40
0.0
 40
0.4897574715
 40
1.0
 40
1.0
 40
1.0
 40
1.0
 10
160.2025061848
 20
384.5014964317
 30
0.0
 10
160.2025006296
 20
384.4330572083
 30
0.0
 10
160.1839937261
 20
384.292780091
 30
0.0
 10
160.1314706404
 20
384.1617396361
 30
0.0
 10
160.0980445831
 20
384.0987582957
 30
0.0
  0
SPLINE
  5
3E9
100
AcDbEntity
  8
0
100
AcDbSpline
 62
7
  6
CONTINUOUS
 70
0
 71
3
 72
9
 73
5
 74
0
 42
0.0000001
 43
0.0000001
 44
0.0000000001
 40
0.0
 40
0.0
 40
0.0
 40
0.0
 40
0.2286253012
 40
1.0
 40
1.0
 40
1.0
 40
1.0
 10
160.0980445831
 20
384.0987582957
 30
0.0
 10
160.0723593891
 20
384.0503622812
 30
0.0
 10
159.9426398951
 20
383.847809651
 30
0.0
 10
159.7545815888
 20
383.6876642157
 30
0.0
 10
159.599461678
 20
383.5871133165
 30
0.0
  0
SPLINE
  5
3EA
100
AcDbEntity
  8
0
100
AcDbSpline
 62
7
  6
CONTINUOUS
 70
0
 71
3
 72
17
 73
13
 74
0
 42
0.0000001
 43
0.0000001
 44
0.0000000001
 40
0.0
 40
0.0
 40
0.0
 40
0.0
 40
0.0964383423
 40
0.1498308756
 40
0.2066443761
 40
0.2666894564
 40
0.3296448912
 40
0.4624026625
 40
0.6007435109
 40
0.7397185933
 40
0.8743050119
 40
1.0
 40
1.0
 40
1.0
 40
1.0
 10
161.0403419817
 20
375.6997083348
 30
0.0
 10
160.6114143557
 20
375.0597476134
 30
0.0
 10
159.7726556162
 20
374.1769259474
 30
0.0
 10
158.4412101164
 20
373.1993954091
 30
0.0
 10
157.2623533392
 20
372.5152767562
 30
0.0
 10
155.9548183635
 20
371.916008783
 30
0.0
 10
154.0287854937
 20
371.2278102197
 30
0.0
 10
151.4154485404
 20
370.6356822126
 30
0.0
 10
148.1414841475
 20
370.3618735868
 30
0.0
 10
144.8447972764
 20
370.5267355787
 30
0.0
 10
141.7011828074
 20
371.1211983974
 30
0.0
 10
139.7287421815
 20
371.8146435485
 30
0.0
 10
138.8169493768
 20
372.2352465104
 30
0.0
  0
SPLINE
  5
3EB
100
AcDbEntity
  8
0
100
AcDbSpline
 62
7
  6
CONTINUOUS
 70
0
 71
3
 72
11
 73
7
 74
0
 42
0.0000001
 43
0.0000001
 44
0.0000000001
 40
0.0
 40
0.0
 40
0.0
 40
0.0
 40
0.2258303855
 40
0.4626441178
 40
0.719025857
 40
1.0
 40
1.0
 40
1.0
 40
1.0
 10
213.1398106011
 20
334.5006101848
 30
0.0
 10
213.1398301048
 20
334.1557989484
 30
0.0
 10
213.2411906449
 20
333.4459264585
 30
0.0
 10
213.6844399766
 20
332.4294064298
 30
0.0
 10
214.3988919977
 20
331.4767385976
 30
0.0
 10
215.0118735484
 20
330.9240648555
 30
0.0
 10
215.35149612
 20
330.6619496669
 30
0.0
  0
SPLINE
  5
3EC
100
AcDbEntity
  8
0
100
AcDbSpline
 62
7
  6
CONTINUOUS
 70
0
 71
3
 72
17
 73
13
 74
0
 42
0.0000001
 43
0.0000001
 44
0.0000000001
 40
0.0
 40
0.0
 40
0.0
 40
0.0
 40
0.0436260796
 40
0.0895949299
 40
0.1396734943
 40
0.19483982
 40
0.3205042778
 40
0.4627286356
 40
0.6121527467
 40
0.7576457006
 40
0.8890077314
 40
1.0
 40
1.0
 40
1.0
 40
1.0
 10
227.9855584964
 20
323.8085049005
 30
0.0
 10
227.9855634567
 20
323.8604094118
 30
0.0
 10
228.0017054058
 20
323.9675810777
 30
0.0
 10
228.0720357359
 20
324.1201366163
 30
0.0
 10
228.1848947331
 20
324.2621012028
 30
0.0
 10
228.3958981065
 20
324.4402138774
 30
0.0
 10
228.746651278
 20
324.6105981194
 30
0.0
 10
229.2339475453
 20
324.7209415371
 30
0.0
 10
229.757045362
 20
324.7357737024
 30
0.0
 10
230.2609883502
 20
324.6528421102
 30
0.0
 10
230.6934538213
 20
324.4817940485
 30
0.0
 10
230.9268897056
 20
324.3003439415
 30
0.0
 10
231.0101821658
 20
324.1978713495
 30
0.0
  0
SPLINE
  5
3ED
100
AcDbEntity
  8
0
100
AcDbSpline
 62
7
  6
CONTINUOUS
 70
0
 71
3
 72
19
 73
15
 74
0
 42
0.0000001
 43
0.0000001
 44
0.0000000001
 40
0.0
 40
0.0
 40
0.0
 40
0.0
 40
0.0434738549
 40
0.0881028301
 40
0.134897649
 40
0.1846287823
 40
0.2377938482
 40
0.2946317344
 40
0.3551557173
 40
0.4191924141
 40
0.55627944
 40
0.70216765
 40
0.8518756271
 40
1.0
 40
1.0
 40
1.0
 40
1.0
 10
204.3141274701
 20
333.5258864323
 30
0.0
 10
204.3141518155
 20
333.1137554079
 30
0.0
 10
204.400238753
 20
332.2761976357
 30
0.0
 10
204.7829265375
 20
331.0480936874
 30
0.0
 10
205.4111845909
 20
329.8588262254
 30
0.0
 10
206.2734966906
 20
328.724834357
 30
0.0
 10
207.3564407926
 20
327.659928177
 30
0.0
 10
208.6446651972
 20
326.6772088558
 30
0.0
 10
210.1207012225
 20
325.788819196
 30
0.0
 10
212.3633214196
 20
324.7215355705
 30
0.0
 10
215.5106461889
 20
323.710897594
 30
0.0
 10
219.5707447374
 20
323.0427997134
 30
0.0
 10
223.7875962343
 20
322.9263517422
 30
0.0
 10
226.6057131896
 20
323.2263193512
 30
0.0
 10
227.9876495279
 20
323.4754626871
 30
0.0
  0
SPLINE
  5
3EE
100
AcDbEntity
  8
0
100
AcDbSpline
 62
7
  6
CONTINUOUS
 70
0
 71
3
 72
16
 73
12
 74
0
 42
0.0000001
 43
0.0000001
 44
0.0000000001
 40
0.0
 40
0.0
 40
0.0
 40
0.0
 40
0.0428662974
 40
0.0872350767
 40
0.184747252
 40
0.2984500288
 40
0.4280546828
 40
0.5695117571
 40
0.7166621883
 40
0.8624329694
 40
1.0
 40
1.0
 40
1.0
 40
1.0
 10
198.4162391625
 20
339.5697159942
 30
0.0
 10
198.4162466603
 20
339.631918908
 30
0.0
 10
198.4314367584
 20
339.7589642514
 30
0.0
 10
198.523438203
 20
340.0129001398
 30
0.0
 10
198.7580434388
 20
340.3117327447
 30
0.0
 10
199.169260464
 20
340.5950704555
 30
0.0
 10
199.690437852
 20
340.8053430692
 30
0.0
 10
200.2873237204
 20
340.9292783304
 30
0.0
 10
200.9195040927
 20
340.9590201435
 30
0.0
 10
201.5429908528
 20
340.8926013026
 30
0.0
 10
201.9418077077
 20
340.7822974724
 30
0.0
 10
202.1278553052
 20
340.7099416397
 30
0.0
  0
SPLINE
  5
3EF
100
AcDbEntity
  8
0
100
AcDbSpline
 62
7
  6
CONTINUOUS
 70
0
 71
3
 72
13
 73
9
 74
0
 42
0.0000001
 43
0.0000001
 44
0.0000000001
 40
0.0
 40
0.0
 40
0.0
 40
0.0
 40
0.2806684894
 40
0.5367592299
 40
0.6572563998
 40
0.7738117906
 40
0.8876074366
 40
1.0
 40
1.0
 40
1.0
 40
1.0
 10
236.2731584995
 20
339.0344047442
 30
0.0
 10
236.9030147048
 20
338.5475626301
 30
0.0
 10
238.0395992409
 20
337.5217884128
 30
0.0
 10
239.1660973816
 20
336.0170249585
 30
0.0
 10
239.7951557315
 20
334.764193169
 30
0.0
 10
240.1283187382
 20
333.8234816147
 30
0.0
 10
240.3294009721
 20
332.869472721
 30
0.0
 10
240.374245849
 20
332.2270444884
 30
0.0
 10
240.3742419757
 20
331.9082598013
 30
0.0
  0
SPLINE
  5
3F0
100
AcDbEntity
  8
0
100
AcDbSpline
 62
7
  6
CONTINUOUS
 70
0
 71
3
 72
9
 73
5
 74
0
 42
0.0000001
 43
0.0000001
 44
0.0000000001
 40
0.0
 40
0.0
 40
0.0
 40
0.0
 40
0.2447977962
 40
1.0
 40
1.0
 40
1.0
 40
1.0
 10
212.9626139475
 20
329.2840491399
 30
0.0
 10
212.9724987471
 20
329.2904292399
 30
0.0
 10
213.0132120791
 20
329.3159725799
 30
0.0
 10
213.0552016507
 20
329.3394687369
 30
0.0
 10
213.0874501732
 20
329.3561229382
 30
0.0
  0
SPLINE
  5
3F1
100
AcDbEntity
  8
0
100
AcDbSpline
 62
7
  6
CONTINUOUS
 70
0
 71
3
 72
11
 73
7
 74
0
 42
0.0000001
 43
0.0000001
 44
0.0000000001
 40
0.0
 40
0.0
 40
0.0
 40
0.0
 40
0.2610868571
 40
0.5183633398
 40
0.7662890981
 40
1.0
 40
1.0
 40
1.0
 40
1.0
 10
218.445991769
 20
343.7920541698
 30
0.0
 10
219.7031065148
 20
343.8379801907
 30
0.0
 10
222.2057622359
 20
343.7974445701
 30
0.0
 10
225.8773452594
 20
343.3470140814
 30
0.0
 10
229.3482976929
 20
342.5220614865
 30
0.0
 10
231.5311037818
 20
341.7108830846
 30
0.0
 10
232.5551650681
 20
341.2425969245
 30
0.0
  0
SPLINE
  5
3F2
100
AcDbEntity
  8
0
100
AcDbSpline
 62
7
  6
CONTINUOUS
 70
0
 71
3
 72
17
 73
13
 74
0
 42
0.0000001
 43
0.0000001
 44
0.0000000001
 40
0.0
 40
0.0
 40
0.0
 40
0.0
 40
0.125844955
 40
0.2659726738
 40
0.4130252958
 40
0.5582524931
 40
0.693257219
 40
0.8117570117
 40
0.8641687062
 40
0.9122947687
 40
0.9570742771
 40
1.0
 40
1.0
 40
1.0
 40
1.0
 10
232.5551650681
 20
341.2425969245
 30
0.0
 10
232.7260568126
 20
341.3533713472
 30
0.0
 10
233.1216472867
 20
341.5352034154
 30
0.0
 10
233.7764102125
 20
341.6855433354
 30
0.0
 10
234.4788160417
 20
341.7206970707
 30
0.0
 10
235.1688968151
 20
341.6370811762
 30
0.0
 10
235.7880279296
 20
341.4421617094
 30
0.0
 10
236.2210070782
 20
341.1882938346
 30
0.0
 10
236.4761531834
 20
340.9398146471
 30
0.0
 10
236.6117859027
 20
340.7456381305
 30
0.0
 10
236.6955090039
 20
340.5402417373
 30
0.0
 10
236.7146125231
 20
340.3976802308
 30
0.0
 10
236.7146068846
 20
340.3282138296
 30
0.0
  0
SPLINE
  5
3F3
100
AcDbEntity
  8
0
100
AcDbSpline
 62
7
  6
CONTINUOUS
 70
0
 71
3
 72
16
 73
12
 74
0
 42
0.0000001
 43
0.0000001
 44
0.0000000001
 40
0.0
 40
0.0
 40
0.0
 40
0.0
 40
0.1321550082
 40
0.275469887
 40
0.4227360098
 40
0.5660450066
 40
0.6981774192
 40
0.8140541872
 40
0.9126593122
 40
0.9571637958
 40
1.0
 40
1.0
 40
1.0
 40
1.0
 10
215.35149612
 20
330.6619496669
 30
0.0
 10
215.4723756813
 20
330.7224015993
 30
0.0
 10
215.7397681932
 20
330.8183456443
 30
0.0
 10
216.1681966989
 20
330.8888429787
 30
0.0
 10
216.6139244945
 20
330.8888270666
 30
0.0
 10
217.0424993848
 20
330.8182167611
 30
0.0
 10
217.4216557628
 20
330.6819642369
 30
0.0
 10
217.7236967545
 20
330.4898647788
 30
0.0
 10
217.8982530853
 20
330.2816438843
 30
0.0
 10
217.9670584205
 20
330.102678154
 30
0.0
 10
217.9783608244
 20
330.0129897015
 30
0.0
 10
217.9783515207
 20
329.9691817757
 30
0.0
  0
SPLINE
  5
3F4
100
AcDbEntity
  8
0
100
AcDbSpline
 62
7
  6
CONTINUOUS
 70
0
 71
3
 72
19
 73
15
 74
0
 42
0.0000001
 43
0.0000001
 44
0.0000000001
 40
0.0
 40
0.0
 40
0.0
 40
0.0
 40
0.1368138105
 40
0.282187238
 40
0.4292391186
 40
0.5708143894
 40
0.637590908
 40
0.7007836677
 40
0.7599534731
 40
0.814895034
 40
0.8657024067
 40
0.912837949
 40
0.9571799358
 40
1.0
 40
1.0
 40
1.0
 40
1.0
 10
217.9006248873
 20
329.2400595913
 30
0.0
 10
218.7663133881
 20
328.8924078838
 30
0.0
 10
220.6283365735
 20
328.359237783
 30
0.0
 10
223.5476948452
 20
328.0275288548
 30
0.0
 10
226.5160178538
 20
328.1496941215
 30
0.0
 10
228.9039870408
 20
328.6324613948
 30
0.0
 10
230.6535227273
 20
329.2463169174
 30
0.0
 10
231.823654662
 20
329.7944702397
 30
0.0
 10
232.8559064412
 20
330.4294598861
 30
0.0
 10
233.7317145402
 20
331.1407214093
 30
0.0
 10
234.4348408541
 20
331.9167205204
 30
0.0
 10
234.9510549514
 20
332.745388215
 30
0.0
 10
235.2676643713
 20
333.6121054583
 30
0.0
 10
235.3393811397
 20
334.2086346345
 30
0.0
 10
235.3393715012
 20
334.5006101607
 30
0.0
  0
SPLINE
  5
3F5
100
AcDbEntity
  8
0
100
AcDbSpline
 62
7
  6
CONTINUOUS
 70
0
 71
3
 72
11
 73
7
 74
0
 42
0.0000001
 43
0.0000001
 44
0.0000000001
 40
0.0
 40
0.0
 40
0.0
 40
0.0
 40
0.2329308088
 40
0.4733088278
 40
0.7274632423
 40
1.0
 40
1.0
 40
1.0
 40
1.0
 10
196.1803225816
 20
331.5868083222
 30
0.0
 10
196.1803364691
 20
332.1593580489
 30
0.0
 10
196.3127783327
 20
333.3266490533
 30
0.0
 10
196.899380569
 20
335.0290609782
 30
0.0
 10
197.8581447688
 20
336.665003797
 30
0.0
 10
198.7003475593
 20
337.6567579639
 30
0.0
 10
199.1694795067
 20
338.1349672138
 30
0.0
  0
SPLINE
  5
3F6
100
AcDbEntity
  8
0
100
AcDbSpline
 62
7
  6
CONTINUOUS
 70
0
 71
3
 72
12
 73
8
 74
0
 42
0.0000001
 43
0.0000001
 44
0.0000000001
 40
0.0
 40
0.0
 40
0.0
 40
0.0
 40
0.3042444416
 40
0.5710083644
 40
0.7983242399
 40
0.9010569924
 40
1.0
 40
1.0
 40
1.0
 40
1.0
 10
206.3944192821
 20
338.4094671675
 30
0.0
 10
206.523253222
 20
338.3745623653
 30
0.0
 10
206.76033762
 20
338.2876695868
 30
0.0
 10
207.0574763302
 20
338.0960465468
 30
0.0
 10
207.2289060908
 20
337.889321848
 30
0.0
 10
207.2964027962
 20
337.7119952168
 30
0.0
 10
207.307497092
 20
337.623160454
 30
0.0
 10
207.307494043
 20
337.5797520311
 30
0.0
  0
SPLINE
  5
3F7
100
AcDbEntity
  8
0
100
AcDbSpline
 62
7
  6
CONTINUOUS
 70
0
 71
3
 72
13
 73
9
 74
0
 42
0.0000001
 43
0.0000001
 44
0.0000000001
 40
0.0
 40
0.0
 40
0.0
 40
0.0
 40
0.2894374103
 40
0.5533635397
 40
0.6749747416
 40
0.7895971248
 40
0.8976692507
 40
1.0
 40
1.0
 40
1.0
 40
1.0
 10
231.0101821658
 20
324.1978713495
 30
0.0
 10
232.0804746862
 20
324.5213843177
 30
0.0
 10
234.0892254688
 20
325.2766440133
 30
0.0
 10
236.3654174147
 20
326.5801015702
 30
0.0
 10
237.8792005437
 20
327.7862384531
 30
0.0
 10
238.8222081696
 20
328.72883754
 30
0.0
 10
239.593263531
 20
329.7242503084
 30
0.0
 10
239.9964000694
 20
330.4342429363
 30
0.0
 10
240.1632845108
 20
330.7926008479
 30
0.0
  0
SPLINE
  5
3F8
100
AcDbEntity
  8
0
100
AcDbSpline
 62
7
  6
CONTINUOUS
 70
0
 71
3
 72
9
 73
5
 74
0
 42
0.0000001
 43
0.0000001
 44
0.0000000001
 40
0.0
 40
0.0
 40
0.0
 40
0.0
 40
0.2632003637
 40
1.0
 40
1.0
 40
1.0
 40
1.0
 10
234.8467597441
 20
321.8483399516
 30
0.0
 10
234.8776350919
 20
321.8270184536
 30
0.0
 10
234.9925183355
 20
321.7426487275
 30
0.0
 10
235.0975441635
 20
321.6441553218
 30
0.0
 10
235.1648795791
 20
321.5635389944
 30
0.0
  0
SPLINE
  5
3F9
100
AcDbEntity
  8
0
100
AcDbSpline
 62
7
  6
CONTINUOUS
 70
0
 71
3
 72
9
 73
5
 74
0
 42
0.0000001
 43
0.0000001
 44
0.0000000001
 40
0.0
 40
0.0
 40
0.0
 40
0.0
 40
0.2617437394
 40
1.0
 40
1.0
 40
1.0
 40
1.0
 10
235.171926883
 20
321.5550268024
 30
0.0
 10
235.1911540812
 20
321.5315956352
 30
0.0
 10
235.2613613105
 20
321.4395192867
 30
0.0
 10
235.3177125786
 20
321.336411756
 30
0.0
 10
235.3476132174
 20
321.2563204976
 30
0.0
  0
SPLINE
  5
3FA
100
AcDbEntity
  8
0
100
AcDbSpline
 62
7
  6
CONTINUOUS
 70
0
 71
3
 72
9
 73
5
 74
0
 42
0.0000001
 43
0.0000001
 44
0.0000000001
 40
0.0
 40
0.0
 40
0.0
 40
0.0
 40
0.2551896821
 40
1.0
 40
1.0
 40
1.0
 40
1.0
 10
235.3476132174
 20
321.2563204976
 30
0.0
 10
235.3564065737
 20
321.2327667876
 30
0.0
 10
235.3870117559
 20
321.1390873897
 30
0.0
 10
235.4010889971
 20
321.0399127864
 30
0.0
 10
235.4011058936
 20
320.9665331451
 30
0.0
  0
SPLINE
  5
3FB
100
AcDbEntity
  8
0
100
AcDbSpline
 62
7
  6
CONTINUOUS
 70
0
 71
3
 72
11
 73
7
 74
0
 42
0.0000001
 43
0.0000001
 44
0.0000000001
 40
0.0
 40
0.0
 40
0.0
 40
0.0
 40
0.2267947289
 40
0.4723486054
 40
0.7320333345
 40
1.0
 40
1.0
 40
1.0
 40
1.0
 10
202.3248214026
 20
340.6244650349
 30
0.0
 10
203.3791091059
 20
341.2803542361
 30
0.0
 10
205.6999462022
 20
342.4499456968
 30
0.0
 10
209.5095141097
 20
343.7288773128
 30
0.0
 10
213.6686831546
 20
344.5681974581
 30
0.0
 10
216.5542647256
 20
344.8124166004
 30
0.0
 10
218.0206951443
 20
344.85559153
 30
0.0
  0
SPLINE
  5
3FC
100
AcDbEntity
  8
0
100
AcDbSpline
 62
7
  6
CONTINUOUS
 70
0
 71
3
 72
15
 73
11
 74
0
 42
0.0000001
 43
0.0000001
 44
0.0000000001
 40
0.0
 40
0.0
 40
0.0
 40
0.0
 40
0.0983056645
 40
0.2004959493
 40
0.3097504136
 40
0.4281654829
 40
0.556726795
 40
0.6954661576
 40
0.8436417412
 40
1.0
 40
1.0
 40
1.0
 40
1.0
 10
209.9648244648
 20
334.500610154
 30
0.0
 10
209.9648431413
 20
334.8976619706
 30
0.0
 10
210.068337294
 20
335.7107679448
 30
0.0
 10
210.524218625
 20
336.8871095176
 30
0.0
 10
211.2650326619
 20
338.0052267531
 30
0.0
 10
212.2706472387
 20
339.0437161843
 30
0.0
 10
213.518717526
 20
339.9849166359
 30
0.0
 10
214.9837730678
 20
340.8118419428
 30
0.0
 10
216.6363794597
 20
341.5091294655
 30
0.0
 10
217.8145668962
 20
341.8701535625
 30
0.0
 10
218.426142937
 20
342.0276229034
 30
0.0
  0
SPLINE
  5
3FD
100
AcDbEntity
  8
0
100
AcDbSpline
 62
7
  6
CONTINUOUS
 70
0
 71
3
 72
11
 73
7
 74
0
 42
0.0000001
 43
0.0000001
 44
0.0000000001
 40
0.0
 40
0.0
 40
0.0
 40
0.0
 40
0.2208795955
 40
0.4553607918
 40
0.7136284417
 40
1.0
 40
1.0
 40
1.0
 40
1.0
 10
212.5583536789
 20
328.6730063748
 30
0.0
 10
212.5583722053
 20
328.7291261683
 30
0.0
 10
212.5773702108
 20
328.8455228414
 30
0.0
 10
212.6596592636
 20
329.0096028077
 30
0.0
 10
212.7907740826
 20
329.160112179
 30
0.0
 10
212.9014822074
 20
329.2445919295
 30
0.0
 10
212.9626139475
 20
329.2840491399
 30
0.0
  0
SPLINE
  5
3FE
100
AcDbEntity
  8
0
100
AcDbSpline
 62
7
  6
CONTINUOUS
 70
0
 71
3
 72
9
 73
5
 74
0
 42
0.0000001
 43
0.0000001
 44
0.0000000001
 40
0.0
 40
0.0
 40
0.0
 40
0.0
 40
0.4896427826
 40
1.0
 40
1.0
 40
1.0
 40
1.0
 10
235.4011058936
 20
320.9665331451
 30
0.0
 10
235.4011217145
 20
320.8978246976
 30
0.0
 10
235.3824585439
 20
320.7569542892
 30
0.0
 10
235.3295060377
 20
320.6254420725
 30
0.0
 10
235.2958149696
 20
320.5622467795
 30
0.0
  0
SPLINE
  5
3FF
100
AcDbEntity
  8
0
100
AcDbSpline
 62
7
  6
CONTINUOUS
 70
0
 71
3
 72
14
 73
10
 74
0
 42
0.0000001
 43
0.0000001
 44
0.0000000001
 40
0.0
 40
0.0
 40
0.0
 40
0.0
 40
0.2020915171
 40
0.3260791948
 40
0.4611098359
 40
0.6019540216
 40
0.7425755632
 40
0.876942377
 40
1.0
 40
1.0
 40
1.0
 40
1.0
 10
235.2958149696
 20
320.5622467795
 30
0.0
 10
235.1594701106
 20
320.3065008566
 30
0.0
 10
234.7688910541
 20
319.9917384778
 30
0.0
 10
234.1586302258
 20
319.7428071714
 30
0.0
 10
233.59519492
 20
319.6171835464
 30
0.0
 10
232.9974699011
 20
319.5771432287
 30
0.0
 10
232.4006282662
 20
319.6238559867
 30
0.0
 10
231.8427013524
 20
319.7545103664
 30
0.0
 10
231.5006018746
 20
319.9006807582
 30
0.0
 10
231.3472550502
 20
319.9880253544
 30
0.0
  0
SPLINE
  5
400
100
AcDbEntity
  8
0
100
AcDbSpline
 62
7
  6
CONTINUOUS
 70
0
 71
3
 72
9
 73
5
 74
0
 42
0.0000001
 43
0.0000001
 44
0.0000000001
 40
0.0
 40
0.0
 40
0.0
 40
0.0
 40
0.2549024184
 40
1.0
 40
1.0
 40
1.0
 40
1.0
 10
231.3472550502
 20
319.9880253544
 30
0.0
 10
231.3338095454
 20
319.99568376
 30
0.0
 10
231.2813704292
 20
320.0262648814
 30
0.0
 10
231.2301935832
 20
320.0590246408
 30
0.0
 10
231.1929751596
 20
320.0847264579
 30
0.0
  0
SPLINE
  5
401
100
AcDbEntity
  8
0
100
AcDbSpline
 62
7
  6
CONTINUOUS
 70
0
 71
3
 72
17
 73
13
 74
0
 42
0.0000001
 43
0.0000001
 44
0.0000000001
 40
0.0
 40
0.0
 40
0.0
 40
0.0
 40
0.1259519491
 40
0.2661361458
 40
0.4131954857
 40
0.558386602
 40
0.6933414104
 40
0.8117952451
 40
0.864186067
 40
0.9123024095
 40
0.9570762586
 40
1.0
 40
1.0
 40
1.0
 40
1.0
 10
215.3290500766
 20
328.0619639083
 30
0.0
 10
215.2149754332
 20
327.9883349359
 30
0.0
 10
214.9511412481
 20
327.8675361759
 30
0.0
 10
214.5147125208
 20
327.7678144523
 30
0.0
 10
214.0467847877
 20
327.7447861399
 30
0.0
 10
213.5872356402
 20
327.8008030446
 30
0.0
 10
213.1750497553
 20
327.9308564881
 30
0.0
 10
212.8868120936
 20
328.1000338438
 30
0.0
 10
212.7170554363
 20
328.2656305689
 30
0.0
 10
212.6267499588
 20
328.3949543649
 30
0.0
 10
212.571053572
 20
328.5317819315
 30
0.0
 10
212.558338404
 20
328.6267357474
 30
0.0
 10
212.5583536789
 20
328.6730063748
 30
0.0
  0
SPLINE
  5
402
100
AcDbEntity
  8
0
100
AcDbSpline
 62
7
  6
CONTINUOUS
 70
0
 71
3
 72
13
 73
9
 74
0
 42
0.0000001
 43
0.0000001
 44
0.0000000001
 40
0.0
 40
0.0
 40
0.0
 40
0.0
 40
0.104023235
 40
0.2107650198
 40
0.3226040598
 40
0.4413694207
 40
0.703303995
 40
1.0
 40
1.0
 40
1.0
 40
1.0
 10
235.3393715012
 20
334.5006101607
 30
0.0
 10
235.3393632936
 20
334.749238625
 30
0.0
 10
235.2879251796
 20
335.254389461
 30
0.0
 10
235.0591207456
 20
335.995388226
 30
0.0
 10
234.6834120487
 20
336.7134528798
 30
0.0
 10
233.9725504945
 20
337.6573633389
 30
0.0
 10
232.7256289363
 20
338.719633525
 30
0.0
 10
231.5393943236
 20
339.3509539917
 30
0.0
 10
230.8883739364
 20
339.6321167119
 30
0.0
  0
SPLINE
  5
403
100
AcDbEntity
  8
0
100
AcDbSpline
 62
7
  6
CONTINUOUS
 70
0
 71
3
 72
12
 73
8
 74
0
 42
0.0000001
 43
0.0000001
 44
0.0000000001
 40
0.0
 40
0.0
 40
0.0
 40
0.0
 40
0.2808408446
 40
0.5442046359
 40
0.6676686039
 40
0.7849429288
 40
1.0
 40
1.0
 40
1.0
 40
1.0
 10
217.8748656294
 20
343.7029297499
 30
0.0
 10
216.6847710105
 20
343.5206105928
 30
0.0
 10
214.3971595788
 20
343.0268796408
 30
0.0
 10
211.6967805745
 20
342.0446647871
 30
0.0
 10
209.768706359
 20
341.0620793127
 30
0.0
 10
208.112294495
 20
340.0236566246
 30
0.0
 10
207.0137419779
 20
339.0924392008
 30
0.0
 10
206.3944192821
 20
338.4094671675
 30
0.0
  0
SPLINE
  5
404
100
AcDbEntity
  8
0
100
AcDbSpline
 62
7
  6
CONTINUOUS
 70
0
 71
3
 72
11
 73
7
 74
0
 42
0.0000001
 43
0.0000001
 44
0.0000000001
 40
0.0
 40
0.0
 40
0.0
 40
0.0
 40
0.2811155645
 40
0.5385370528
 40
0.7759197604
 40
1.0
 40
1.0
 40
1.0
 40
1.0
 10
213.0874501732
 20
329.3561229382
 30
0.0
 10
212.651559285
 20
329.6710866625
 30
0.0
 10
211.8572673074
 20
330.3352488298
 30
0.0
 10
210.8977532036
 20
331.4796561128
 30
0.0
 10
210.2488290158
 20
332.705101791
 30
0.0
 10
210.0360912744
 20
333.5738056781
 30
0.0
 10
209.9911550667
 20
334.0001109145
 30
0.0
  0
SPLINE
  5
405
100
AcDbEntity
  8
0
100
AcDbSpline
 62
7
  6
CONTINUOUS
 70
0
 71
3
 72
9
 73
5
 74
0
 42
0.0000001
 43
0.0000001
 44
0.0000000001
 40
0.0
 40
0.0
 40
0.0
 40
0.0
 40
0.5110075219
 40
1.0
 40
1.0
 40
1.0
 40
1.0
 10
205.1731539936
 20
336.7193197152
 30
0.0
 10
204.8989914344
 20
336.2220173945
 30
0.0
 10
204.4665580631
 20
335.185202314
 30
0.0
 10
204.3140953702
 20
334.0692902853
 30
0.0
 10
204.3141274701
 20
333.5258864323
 30
0.0
  0
SPLINE
  5
406
100
AcDbEntity
  8
0
100
AcDbSpline
 62
7
  6
CONTINUOUS
 70
0
 71
3
 72
14
 73
10
 74
0
 42
0.0000001
 43
0.0000001
 44
0.0000000001
 40
0.0
 40
0.0
 40
0.0
 40
0.0
 40
0.0875406797
 40
0.1839914628
 40
0.2944911206
 40
0.4198973526
 40
0.5579437233
 40
0.7043758667
 40
1.0
 40
1.0
 40
1.0
 40
1.0
 10
207.307494043
 20
337.5797520311
 30
0.0
 10
207.3074888253
 20
337.5054682452
 30
0.0
 10
207.2726741413
 20
337.3480018651
 30
0.0
 10
207.1287018055
 20
337.138329933
 30
0.0
 10
206.907675131
 20
336.9585550367
 30
0.0
 10
206.6224246506
 20
336.8152251973
 30
0.0
 10
206.2878223285
 20
336.7146144981
 30
0.0
 10
205.7995682781
 20
336.6443749887
 30
0.0
 10
205.4185630816
 20
336.6673296227
 30
0.0
 10
205.1731539936
 20
336.7193197152
 30
0.0
  0
SPLINE
  5
407
100
AcDbEntity
  8
0
100
AcDbSpline
 62
7
  6
CONTINUOUS
 70
0
 71
3
 72
9
 73
5
 74
0
 42
0.0000001
 43
0.0000001
 44
0.0000000001
 40
0.0
 40
0.0
 40
0.0
 40
0.0
 40
0.2474605418
 40
1.0
 40
1.0
 40
1.0
 40
1.0
 10
242.1182755656
 20
330.4338305619
 30
0.0
 10
242.0997223733
 20
330.3109150375
 30
0.0
 10
242.0129789883
 20
329.8160355718
 30
0.0
 10
241.8793260135
 20
329.3295387626
 30
0.0
 10
241.7552013025
 20
328.9724716872
 30
0.0
  0
SPLINE
  5
408
100
AcDbEntity
  8
0
100
AcDbSpline
 62
7
  6
CONTINUOUS
 70
0
 71
3
 72
9
 73
5
 74
0
 42
0.0000001
 43
0.0000001
 44
0.0000000001
 40
0.0
 40
0.0
 40
0.0
 40
0.0
 40
0.2442297619
 40
1.0
 40
1.0
 40
1.0
 40
1.0
 10
241.7552013025
 20
328.9724716872
 30
0.0
 10
241.6994163408
 20
328.811996203
 30
0.0
 10
241.4515341965
 20
328.1617707692
 30
0.0
 10
241.1277011927
 20
327.5412300874
 30
0.0
 10
240.8499303979
 20
327.0948589105
 30
0.0
  0
SPLINE
  5
409
100
AcDbEntity
  8
0
100
AcDbSpline
 62
7
  6
CONTINUOUS
 70
0
 71
3
 72
10
 73
6
 74
0
 42
0.0000001
 43
0.0000001
 44
0.0000000001
 40
0.0
 40
0.0
 40
0.0
 40
0.0
 40
0.4658335813
 40
0.7243700225
 40
1.0
 40
1.0
 40
1.0
 40
1.0
 10
240.8499303979
 20
327.0948589105
 30
0.0
 10
240.1898207477
 20
326.0340781262
 30
0.0
 10
238.8639380437
 20
324.5639116046
 30
0.0
 10
236.7304585593
 20
322.9363201862
 30
0.0
 10
235.4983795131
 20
322.1974774475
 30
0.0
 10
234.8467597441
 20
321.8483399516
 30
0.0
  0
SPLINE
  5
40A
100
AcDbEntity
  8
0
100
AcDbSpline
 62
7
  6
CONTINUOUS
 70
0
 71
3
 72
9
 73
5
 74
0
 42
0.0000001
 43
0.0000001
 44
0.0000000001
 40
0.0
 40
0.0
 40
0.0
 40
0.0
 40
0.2554523702
 40
1.0
 40
1.0
 40
1.0
 40
1.0
 10
231.1929751596
 20
320.0847264579
 30
0.0
 10
231.1798913742
 20
320.093761689
 30
0.0
 10
231.1291081391
 20
320.1297543906
 30
0.0
 10
231.0801097171
 20
320.168284357
 30
0.0
 10
231.0449215806
 20
320.1984425498
 30
0.0
  0
SPLINE
  5
40B
100
AcDbEntity
  8
0
100
AcDbSpline
 62
7
  6
CONTINUOUS
 70
0
 71
3
 72
16
 73
12
 74
0
 42
0.0000001
 43
0.0000001
 44
0.0000000001
 40
0.0
 40
0.0
 40
0.0
 40
0.0
 40
0.1291687697
 40
0.2642787971
 40
0.4016689085
 40
0.5374668716
 40
0.6679374803
 40
0.7898371527
 40
0.8468421544
 40
0.9009248757
 40
1.0
 40
1.0
 40
1.0
 40
1.0
 10
230.9098514735
 20
320.1519497102
 30
0.0
 10
229.5042879645
 20
319.6718975615
 30
0.0
 10
226.5535294892
 20
318.9007618864
 30
0.0
 10
221.96287332
 20
318.3039225641
 30
0.0
 10
217.2571442243
 20
318.2547017698
 30
0.0
 10
212.6312142928
 20
318.7554710235
 30
0.0
 10
208.2759111767
 20
319.7856292766
 30
0.0
 10
204.9459680241
 20
321.0789636078
 30
0.0
 10
202.5862449815
 20
322.3553274732
 30
0.0
 10
200.5726956827
 20
323.6939270086
 30
0.0
 10
199.2499985164
 20
324.8869667366
 30
0.0
 10
198.5142536521
 20
325.7567654527
 30
0.0
  0
SPLINE
  5
40C
100
AcDbEntity
  8
0
100
AcDbSpline
 62
7
  6
CONTINUOUS
 70
0
 71
3
 72
9
 73
5
 74
0
 42
0.0000001
 43
0.0000001
 44
0.0000000001
 40
0.0
 40
0.0
 40
0.0
 40
0.0
 40
0.5146937108
 40
1.0
 40
1.0
 40
1.0
 40
1.0
 10
198.2391357656
 20
326.0939352206
 30
0.0
 10
197.8647877712
 20
326.5699437575
 30
0.0
 10
197.2061986217
 20
327.552215674
 30
0.0
 10
196.7336112558
 20
328.6386519365
 30
0.0
 10
196.5602166148
 20
329.1826860849
 30
0.0
  0
SPLINE
  5
40D
100
AcDbEntity
  8
0
100
AcDbSpline
 62
7
  6
CONTINUOUS
 70
0
 71
3
 72
9
 73
5
 74
0
 42
0.0000001
 43
0.0000001
 44
0.0000000001
 40
0.0
 40
0.0
 40
0.0
 40
0.0
 40
0.2523968743
 40
1.0
 40
1.0
 40
1.0
 40
1.0
 10
196.5602166148
 20
329.1826860849
 30
0.0
 10
196.529128801
 20
329.280225618
 30
0.0
 10
196.4129933009
 20
329.6688791344
 30
0.0
 10
196.3256339234
 20
330.0661825354
 30
0.0
 10
196.2777624773
 20
330.3656128613
 30
0.0
  0
SPLINE
  5
40E
100
AcDbEntity
  8
0
100
AcDbSpline
 62
7
  6
CONTINUOUS
 70
0
 71
3
 72
9
 73
5
 74
0
 42
0.0000001
 43
0.0000001
 44
0.0000000001
 40
0.0
 40
0.0
 40
0.0
 40
0.0
 40
0.5314304762
 40
1.0
 40
1.0
 40
1.0
 40
1.0
 10
199.4671235916
 20
338.4294816308
 30
0.0
 10
199.3162045799
 20
338.4881755936
 30
0.0
 10
199.0404635775
 20
338.6221670894
 30
0.0
 10
198.7983543252
 20
338.8133968614
 30
0.0
 10
198.700971699
 20
338.9178082585
 30
0.0
  0
SPLINE
  5
40F
100
AcDbEntity
  8
0
100
AcDbSpline
 62
7
  6
CONTINUOUS
 70
0
 71
3
 72
9
 73
5
 74
0
 42
0.0000001
 43
0.0000001
 44
0.0000000001
 40
0.0
 40
0.0
 40
0.0
 40
0.0
 40
0.5253610973
 40
1.0
 40
1.0
 40
1.0
 40
1.0
 10
198.700971699
 20
338.9178082585
 30
0.0
 10
198.6144455677
 20
339.010579573
 30
0.0
 10
198.4716359161
 20
339.2116841313
 30
0.0
 10
198.4162253474
 20
339.4551045957
 30
0.0
 10
198.4162391625
 20
339.5697159942
 30
0.0
  0
SPLINE
  5
410
100
AcDbEntity
  8
0
100
AcDbSpline
 62
7
  6
CONTINUOUS
 70
0
 71
3
 72
9
 73
5
 74
0
 42
0.0000001
 43
0.0000001
 44
0.0000000001
 40
0.0
 40
0.0
 40
0.0
 40
0.0
 40
0.2445996365
 40
1.0
 40
1.0
 40
1.0
 40
1.0
 10
236.1115623778
 20
339.4138307144
 30
0.0
 10
236.0962007157
 20
339.4038730698
 30
0.0
 10
236.0328546067
 20
339.3640039531
 30
0.0
 10
235.9674378784
 20
339.3274473283
 30
0.0
 10
235.9171591667
 20
339.3015926381
 30
0.0
  0
SPLINE
  5
411
100
AcDbEntity
  8
0
100
AcDbSpline
 62
7
  6
CONTINUOUS
 70
0
 71
3
 72
11
 73
7
 74
0
 42
0.0000001
 43
0.0000001
 44
0.0000000001
 40
0.0
 40
0.0
 40
0.0
 40
0.0
 40
0.2217612438
 40
0.4566463748
 40
0.7146372835
 40
1.0
 40
1.0
 40
1.0
 40
1.0
 10
217.9783515207
 20
329.9691817757
 30
0.0
 10
217.9783398669
 20
329.9143079152
 30
0.0
 10
217.9602431926
 20
329.8006470841
 30
0.0
 10
217.8815722794
 20
329.6399118332
 30
0.0
 10
217.7559286499
 20
329.4918987893
 30
0.0
 10
217.6495781904
 20
329.4082662248
 30
0.0
 10
217.5908217986
 20
329.3691036317
 30
0.0
  0
SPLINE
  5
412
100
AcDbEntity
  8
0
100
AcDbSpline
 62
7
  6
CONTINUOUS
 70
0
 71
3
 72
19
 73
15
 74
0
 42
0.0000001
 43
0.0000001
 44
0.0000000001
 40
0.0
 40
0.0
 40
0.0
 40
0.0
 40
0.135297362
 40
0.2800002815
 40
0.4271006144
 40
0.5691999828
 40
0.636326024
 40
0.6998755625
 40
0.7593742423
 40
0.8145866745
 40
0.8655859889
 40
0.9128266954
 40
0.9571973439
 40
1.0
 40
1.0
 40
1.0
 40
1.0
 10
230.8883739364
 20
339.6321167119
 30
0.0
 10
230.0275889246
 20
340.0038725895
 30
0.0
 10
228.1604474752
 20
340.5808908882
 30
0.0
 10
225.2134906975
 20
340.9639798137
 30
0.0
 10
222.1955617214
 20
340.8802617213
 30
0.0
 10
219.7564237418
 20
340.4172177432
 30
0.0
 10
217.9632338761
 20
339.8107414231
 30
0.0
 10
216.7613732529
 20
339.2637152603
 30
0.0
 10
215.6997360827
 20
338.6260873966
 30
0.0
 10
214.7979997102
 20
337.9087968101
 30
0.0
 10
214.0733481835
 20
337.1238387011
 30
0.0
 10
213.5408178236
 20
336.283740361
 30
0.0
 10
213.2139197315
 20
335.4036637382
 30
0.0
 10
213.1397938227
 20
334.7972392394
 30
0.0
 10
213.1398106011
 20
334.5006101848
 30
0.0
  0
SPLINE
  5
413
100
AcDbEntity
  8
0
100
AcDbSpline
 62
7
  6
CONTINUOUS
 70
0
 71
3
 72
9
 73
5
 74
0
 42
0.0000001
 43
0.0000001
 44
0.0000000001
 40
0.0
 40
0.0
 40
0.0
 40
0.0
 40
0.4897574715
 40
1.0
 40
1.0
 40
1.0
 40
1.0
 10
236.7146068846
 20
340.3282138296
 30
0.0
 10
236.7146013294
 20
340.2597746062
 30
0.0
 10
236.6960944259
 20
340.1194974889
 30
0.0
 10
236.6435713402
 20
339.988457034
 30
0.0
 10
236.610145283
 20
339.9254756936
 30
0.0
  0
SPLINE
  5
414
100
AcDbEntity
  8
0
100
AcDbSpline
 62
7
  6
CONTINUOUS
 70
0
 71
3
 72
9
 73
5
 74
0
 42
0.0000001
 43
0.0000001
 44
0.0000000001
 40
0.0
 40
0.0
 40
0.0
 40
0.0
 40
0.2286253012
 40
1.0
 40
1.0
 40
1.0
 40
1.0
 10
236.610145283
 20
339.9254756936
 30
0.0
 10
236.5844600889
 20
339.8770796791
 30
0.0
 10
236.454740595
 20
339.6745270488
 30
0.0
 10
236.2666822886
 20
339.5143816135
 30
0.0
 10
236.1115623778
 20
339.4138307144
 30
0.0
  0
SPLINE
  5
415
100
AcDbEntity
  8
0
100
AcDbSpline
 62
7
  6
CONTINUOUS
 70
0
 71
3
 72
17
 73
13
 74
0
 42
0.0000001
 43
0.0000001
 44
0.0000000001
 40
0.0
 40
0.0
 40
0.0
 40
0.0
 40
0.0964383423
 40
0.1498308756
 40
0.2066443761
 40
0.2666894564
 40
0.3296448912
 40
0.4624026625
 40
0.6007435109
 40
0.7397185933
 40
0.8743050119
 40
1.0
 40
1.0
 40
1.0
 40
1.0
 10
237.5524426815
 20
331.5264257327
 30
0.0
 10
237.1235150555
 20
330.8864650113
 30
0.0
 10
236.284756316
 20
330.0036433453
 30
0.0
 10
234.9533108162
 20
329.026112807
 30
0.0
 10
233.774454039
 20
328.341994154
 30
0.0
 10
232.4669190633
 20
327.7427261808
 30
0.0
 10
230.5408861935
 20
327.0545276176
 30
0.0
 10
227.9275492402
 20
326.4623996105
 30
0.0
 10
224.6535848473
 20
326.1885909847
 30
0.0
 10
221.3568979762
 20
326.3534529766
 30
0.0
 10
218.2132835072
 20
326.9479157952
 30
0.0
 10
216.2408428813
 20
327.6413609464
 30
0.0
 10
215.3290500766
 20
328.0619639083
 30
0.0
  0
SPLINE
  5
416
100
AcDbEntity
  8
0
100
AcDbSpline
 62
7
  6
CONTINUOUS
 70
0
 71
3
 72
11
 73
7
 74
0
 42
0.0000001
 43
0.0000001
 44
0.0000000001
 40
0.0
 40
0.0
 40
0.0
 40
0.0
 40
0.2372294888
 40
0.5000010919
 40
0.7627721007
 40
1.0
 40
1.0
 40
1.0
 40
1.0
 10
219.8090158199
 20
287.8870451021
 30
0.0
 10
219.8090158199
 20
289.1265636723
 30
0.0
 10
219.3441132665
 20
291.7407503485
 30
0.0
 10
217.7235533215
 20
295.414149951
 30
0.0
 10
215.352566181
 20
298.6542783644
 30
0.0
 10
213.321062134
 20
300.3639691166
 30
0.0
 10
212.2476086851
 20
300.9837137338
 30
0.0
  0
SPLINE
  5
417
100
AcDbEntity
  8
0
100
AcDbSpline
 62
7
  6
CONTINUOUS
 70
0
 71
3
 72
11
 73
7
 74
0
 42
0.0000001
 43
0.0000001
 44
0.0000000001
 40
0.0
 40
0.0
 40
0.0
 40
0.0
 40
0.289775222
 40
0.5490688033
 40
0.782225076
 40
1.0
 40
1.0
 40
1.0
 40
1.0
 10
87.6550165361
 20
372.9156530322
 30
0.0
 10
87.1856813064
 20
373.1866177233
 30
0.0
 10
86.2523570603
 20
373.6308417482
 30
0.0
 10
84.8175886369
 20
373.9770013276
 30
0.0
 10
83.4715600557
 20
373.9430527059
 30
0.0
 10
82.6610980515
 20
373.6488086723
 30
0.0
 10
82.3083797749
 20
373.4451678835
 30
0.0
  0
SPLINE
  5
418
100
AcDbEntity
  8
0
100
AcDbSpline
 62
7
  6
CONTINUOUS
 70
0
 71
3
 72
9
 73
5
 74
0
 42
0.0000001
 43
0.0000001
 44
0.0000000001
 40
0.0
 40
0.0
 40
0.0
 40
0.0
 40
0.2430034111
 40
1.0
 40
1.0
 40
1.0
 40
1.0
 10
83.883510642
 20
256.0819613513
 30
0.0
 10
83.8424265535
 20
256.064937848
 30
0.0
 10
83.6694950569
 20
256.0042862279
 30
0.0
 10
83.4839303123
 20
255.9824189339
 30
0.0
 10
83.3454149006
 20
255.9847949052
 30
0.0
  0
SPLINE
  5
419
100
AcDbEntity
  8
0
100
AcDbSpline
 62
7
  6
CONTINUOUS
 70
0
 71
3
 72
11
 73
7
 74
0
 42
0.0000001
 43
0.0000001
 44
0.0000000001
 40
0.0
 40
0.0
 40
0.0
 40
0.0
 40
0.1770700578
 40
0.5000989815
 40
0.8230248879
 40
1.0
 40
1.0
 40
1.0
 40
1.0
 10
123.1160348195
 20
252.8443139726
 30
0.0
 10
123.1160348195
 20
252.9212183418
 30
0.0
 10
123.0653250283
 20
253.1359409331
 30
0.0
 10
122.9214540359
 20
253.4652969477
 30
0.0
 10
122.7081868373
 20
253.7545558045
 30
0.0
 10
122.5476093602
 20
253.9057229492
 30
0.0
 10
122.4810435582
 20
253.9441538635
 30
0.0
  0
SPLINE
  5
41A
100
AcDbEntity
  8
0
100
AcDbSpline
 62
7
  6
CONTINUOUS
 70
0
 71
3
 72
9
 73
5
 74
0
 42
0.0000001
 43
0.0000001
 44
0.0000000001
 40
0.0
 40
0.0
 40
0.0
 40
0.0
 40
0.2430034111
 40
1.0
 40
1.0
 40
1.0
 40
1.0
 10
83.883510642
 20
226.6323521702
 30
0.0
 10
83.8424265535
 20
226.615328667
 30
0.0
 10
83.6694950569
 20
226.5546770469
 30
0.0
 10
83.4839303123
 20
226.5328097528
 30
0.0
 10
83.3454149006
 20
226.5351857242
 30
0.0
  0
SPLINE
  5
41B
100
AcDbEntity
  8
0
100
AcDbSpline
 62
7
  6
CONTINUOUS
 70
0
 71
3
 72
11
 73
7
 74
0
 42
0.0000001
 43
0.0000001
 44
0.0000000001
 40
0.0
 40
0.0
 40
0.0
 40
0.0
 40
0.2177739674
 40
0.4509298424
 40
0.7102237828
 40
1.0
 40
1.0
 40
1.0
 40
1.0
 10
217.5942454462
 20
38.0208505891
 30
0.0
 10
217.9469716028
 20
38.2244959274
 30
0.0
 10
218.6070423225
 20
38.7792675206
 30
0.0
 10
219.3094690531
 20
39.9280214303
 30
0.0
 10
219.7270704046
 20
41.3436903192
 30
0.0
 10
219.8090158199
 20
42.3741157764
 30
0.0
 10
219.8090158199
 20
42.9160707033
 30
0.0
  0
SPLINE
  5
41C
100
AcDbEntity
  8
0
100
AcDbSpline
 62
7
  6
CONTINUOUS
 70
0
 71
3
 72
11
 73
7
 74
0
 42
0.0000001
 43
0.0000001
 44
0.0000000001
 40
0.0
 40
0.0
 40
0.0
 40
0.0
 40
0.2369332383
 40
0.4787047995
 40
0.7312420763
 40
1.0
 40
1.0
 40
1.0
 40
1.0
 10
211.0566855112
 20
34.2463203661
 30
0.0
 10
210.617000352
 20
33.9924695364
 30
0.0
 10
209.6350992797
 20
33.6273566494
 30
0.0
 10
208.0481763758
 20
33.5628698678
 30
0.0
 10
206.4393701239
 20
33.9312645705
 30
0.0
 10
205.4213682064
 20
34.4099625026
 30
0.0
 10
204.9226228076
 20
34.6979067787
 30
0.0
  0
SPLINE
  5
41D
100
AcDbEntity
  8
0
100
AcDbSpline
 62
7
  6
CONTINUOUS
 70
0
 71
3
 72
11
 73
7
 74
0
 42
0.0000001
 43
0.0000001
 44
0.0000000001
 40
0.0
 40
0.0
 40
0.0
 40
0.0
 40
0.2372428334
 40
0.4999989082
 40
0.7627555772
 40
1.0
 40
1.0
 40
1.0
 40
1.0
 10
86.2095773724
 20
145.7866749015
 30
0.0
 10
86.0055837496
 20
145.9044480102
 30
0.0
 10
85.6195709497
 20
146.2293532924
 30
0.0
 10
85.1690308959
 20
146.8450318625
 30
0.0
 10
84.8611038404
 20
147.5430503368
 30
0.0
 10
84.7727304109
 20
148.0398012343
 30
0.0
 10
84.7727304109
 20
148.2753530263
 30
0.0
  0
SPLINE
  5
41E
100
AcDbEntity
  8
0
100
AcDbSpline
 62
7
  6
CONTINUOUS
 70
0
 71
3
 72
9
 73
5
 74
0
 42
0.0000001
 43
0.0000001
 44
0.0000000001
 40
0.0
 40
0.0
 40
0.0
 40
0.0
 40
0.4999988717
 40
1.0
 40
1.0
 40
1.0
 40
1.0
 10
86.4251044167
 20
267.2144680562
 30
0.0
 10
86.2651758399
 20
267.3068007742
 30
0.0
 10
86.0124900129
 20
267.5984146434
 30
0.0
 10
85.8862868061
 20
267.9630529502
 30
0.0
 10
85.8862868061
 20
268.147722353
 30
0.0
  0
SPLINE
  5
41F
100
AcDbEntity
  8
0
100
AcDbSpline
 62
7
  6
CONTINUOUS
 70
0
 71
3
 72
9
 73
5
 74
0
 42
0.0000001
 43
0.0000001
 44
0.0000000001
 40
0.0
 40
0.0
 40
0.0
 40
0.0
 40
0.2846154389
 40
1.0
 40
1.0
 40
1.0
 40
1.0
 10
121.8622367349
 20
206.8946258821
 30
0.0
 10
121.8622367349
 20
207.0340064761
 30
0.0
 10
121.891182737
 20
207.5201935686
 30
0.0
 10
122.0680918064
 20
208.0192022771
 30
0.0
 10
122.304157422
 20
208.2780604945
 30
0.0
  0
SPLINE
  5
420
100
AcDbEntity
  8
0
100
AcDbSpline
 62
7
  6
CONTINUOUS
 70
0
 71
3
 72
8
 73
4
 74
0
 42
0.0000001
 43
0.0000001
 44
0.0000000001
 40
0.0
 40
0.0
 40
0.0
 40
0.0
 40
1.0
 40
1.0
 40
1.0
 40
1.0
 10
122.304157422
 20
208.2780604945
 30
0.0
 10
122.3879778884
 20
208.3699739926
 30
0.0
 10
122.4865938228
 20
208.4505282809
 30
0.0
 10
122.594312954
 20
208.5127420293
 30
0.0
  0
SPLINE
  5
421
100
AcDbEntity
  8
0
100
AcDbSpline
 62
7
  6
CONTINUOUS
 70
0
 71
3
 72
9
 73
5
 74
0
 42
0.0000001
 43
0.0000001
 44
0.0000000001
 40
0.0
 40
0.0
 40
0.0
 40
0.0
 40
0.5230291903
 40
1.0
 40
1.0
 40
1.0
 40
1.0
 10
123.091018371
 20
203.699976775
 30
0.0
 10
122.7152051111
 20
204.1733455931
 30
0.0
 10
122.1322395821
 20
205.1896672496
 30
0.0
 10
121.8622367349
 20
206.3434390669
 30
0.0
 10
121.8622367349
 20
206.8946258821
 30
0.0
  0
SPLINE
  5
422
100
AcDbEntity
  8
0
100
AcDbSpline
 62
7
  6
CONTINUOUS
 70
0
 71
3
 72
9
 73
5
 74
0
 42
0.0000001
 43
0.0000001
 44
0.0000000001
 40
0.0
 40
0.0
 40
0.0
 40
0.0
 40
0.2846154389
 40
1.0
 40
1.0
 40
1.0
 40
1.0
 10
121.8622367349
 20
236.3442350631
 30
0.0
 10
121.8622367349
 20
236.4836156571
 30
0.0
 10
121.891182737
 20
236.9698027497
 30
0.0
 10
122.0680918064
 20
237.4688114582
 30
0.0
 10
122.304157422
 20
237.7276696755
 30
0.0
  0
SPLINE
  5
423
100
AcDbEntity
  8
0
100
AcDbSpline
 62
7
  6
CONTINUOUS
 70
0
 71
3
 72
8
 73
4
 74
0
 42
0.0000001
 43
0.0000001
 44
0.0000000001
 40
0.0
 40
0.0
 40
0.0
 40
0.0
 40
1.0
 40
1.0
 40
1.0
 40
1.0
 10
122.304157422
 20
237.7276696755
 30
0.0
 10
122.3879778884
 20
237.8195831736
 30
0.0
 10
122.4865938228
 20
237.9001374619
 30
0.0
 10
122.594312954
 20
237.9623512103
 30
0.0
  0
SPLINE
  5
424
100
AcDbEntity
  8
0
100
AcDbSpline
 62
7
  6
CONTINUOUS
 70
0
 71
3
 72
9
 73
5
 74
0
 42
0.0000001
 43
0.0000001
 44
0.0000000001
 40
0.0
 40
0.0
 40
0.0
 40
0.0
 40
0.5230291903
 40
1.0
 40
1.0
 40
1.0
 40
1.0
 10
123.091018371
 20
233.149585956
 30
0.0
 10
122.7152051111
 20
233.6229547742
 30
0.0
 10
122.1322395821
 20
234.6392764306
 30
0.0
 10
121.8622367349
 20
235.7930482479
 30
0.0
 10
121.8622367349
 20
236.3442350631
 30
0.0
  0
SPLINE
  5
425
100
AcDbEntity
  8
0
100
AcDbSpline
 62
7
  6
CONTINUOUS
 70
0
 71
3
 72
9
 73
5
 74
0
 42
0.0000001
 43
0.0000001
 44
0.0000000001
 40
0.0
 40
0.0
 40
0.0
 40
0.0
 40
0.2647908551
 40
1.0
 40
1.0
 40
1.0
 40
1.0
 10
204.3145087226
 20
296.0391020931
 30
0.0
 10
204.3636861483
 20
296.1242803612
 30
0.0
 10
204.5672076109
 20
296.4342959295
 30
0.0
 10
204.8400024848
 20
296.7069558038
 30
0.0
 10
205.0765055547
 20
296.8435000909
 30
0.0
  0
SPLINE
  5
426
100
AcDbEntity
  8
0
100
AcDbSpline
 62
7
  6
CONTINUOUS
 70
0
 71
3
 72
11
 73
7
 74
0
 42
0.0000001
 43
0.0000001
 44
0.0000000001
 40
0.0
 40
0.0
 40
0.0
 40
0.0
 40
0.2372331657
 40
0.499952424
 40
0.7626978558
 40
1.0
 40
1.0
 40
1.0
 40
1.0
 10
212.6041026906
 20
283.7829669781
 30
0.0
 10
212.5912458461
 20
285.0087240822
 30
0.0
 10
212.1145714835
 20
287.5883827586
 30
0.0
 10
210.5172129446
 20
291.221079429
 30
0.0
 10
208.1954884098
 20
294.439721312
 30
0.0
 10
206.2137336986
 20
296.1593353741
 30
0.0
 10
205.16349212
 20
296.79219583
 30
0.0
  0
SPLINE
  5
427
100
AcDbEntity
  8
0
100
AcDbSpline
 62
7
  6
CONTINUOUS
 70
0
 71
3
 72
9
 73
5
 74
0
 42
0.0000001
 43
0.0000001
 44
0.0000000001
 40
0.0
 40
0.0
 40
0.0
 40
0.0
 40
0.2270976339
 40
1.0
 40
1.0
 40
1.0
 40
1.0
 10
212.6042367188
 20
283.7273889476
 30
0.0
 10
212.5311385008
 20
283.6851859061
 30
0.0
 10
212.1928621868
 20
283.5282573555
 30
0.0
 10
211.8138913949
 20
283.4696809719
 30
0.0
 10
211.5266231755
 20
283.4696785441
 30
0.0
  0
SPLINE
  5
428
100
AcDbEntity
  8
0
100
AcDbSpline
 62
7
  6
CONTINUOUS
 70
0
 71
3
 72
9
 73
5
 74
0
 42
0.0000001
 43
0.0000001
 44
0.0000000001
 40
0.0
 40
0.0
 40
0.0
 40
0.0
 40
0.2644730172
 40
1.0
 40
1.0
 40
1.0
 40
1.0
 10
211.5263461267
 20
283.5172500801
 30
0.0
 10
211.6247413479
 20
283.5179722631
 30
0.0
 10
211.9954413873
 20
283.5419836507
 30
0.0
 10
212.3677198487
 20
283.6447467292
 30
0.0
 10
212.603953201
 20
283.7828796694
 30
0.0
  0
SPLINE
  5
429
100
AcDbEntity
  8
0
100
AcDbSpline
 62
7
  6
CONTINUOUS
 70
0
 71
3
 72
9
 73
5
 74
0
 42
0.0000001
 43
0.0000001
 44
0.0000000001
 40
0.0
 40
0.0
 40
0.0
 40
0.0
 40
0.4771665988
 40
1.0
 40
1.0
 40
1.0
 40
1.0
 10
84.2910829632
 20
226.8563040693
 30
0.0
 10
84.4301085566
 20
226.9365840047
 30
0.0
 10
84.6877871374
 20
227.1684624245
 30
0.0
 10
84.8404572311
 20
227.4758971617
 30
0.0
 10
84.8973276846
 20
227.6423542364
 30
0.0
  0
SPLINE
  5
42A
100
AcDbEntity
  8
0
100
AcDbSpline
 62
7
  6
CONTINUOUS
 70
0
 71
3
 72
9
 73
5
 74
0
 42
0.0000001
 43
0.0000001
 44
0.0000000001
 40
0.0
 40
0.0
 40
0.0
 40
0.0
 40
0.2341331263
 40
1.0
 40
1.0
 40
1.0
 40
1.0
 10
84.8973276846
 20
227.6423542364
 30
0.0
 10
84.9186117057
 20
227.7046515399
 30
0.0
 10
84.9959986833
 20
227.9753282489
 30
0.0
 10
85.0232828538
 20
228.2588599835
 30
0.0
 10
85.0232828538
 20
228.4742041192
 30
0.0
  0
SPLINE
  5
42B
100
AcDbEntity
  8
0
100
AcDbSpline
 62
7
  6
CONTINUOUS
 70
0
 71
3
 72
11
 73
7
 74
0
 42
0.0000001
 43
0.0000001
 44
0.0000000001
 40
0.0
 40
0.0
 40
0.0
 40
0.0
 40
0.2372185421
 40
0.5000004478
 40
0.7627821108
 40
1.0
 40
1.0
 40
1.0
 40
1.0
 10
211.0443130646
 20
39.141603201
 30
0.0
 10
211.2023923683
 20
39.0503381371
 30
0.0
 10
211.5700317735
 20
38.9171393358
 30
0.0
 10
212.1578655619
 20
38.8533222111
 30
0.0
 10
212.7456985979
 20
38.9171415915
 30
0.0
 10
213.1133367785
 20
39.0503419255
 30
0.0
 10
213.2714150945
 20
39.1416076951
 30
0.0
  0
SPLINE
  5
42C
100
AcDbEntity
  8
0
100
AcDbSpline
 62
7
  6
CONTINUOUS
 70
0
 71
3
 72
11
 73
7
 74
0
 42
0.0000001
 43
0.0000001
 44
0.0000000001
 40
0.0
 40
0.0
 40
0.0
 40
0.0
 40
0.2897718711
 40
0.5490638953
 40
0.7822229679
 40
1.0
 40
1.0
 40
1.0
 40
1.0
 10
213.2714165826
 20
39.1416085543
 30
0.0
 10
213.2714165826
 20
38.5996599661
 30
0.0
 10
213.1894819416
 20
37.5692422462
 30
0.0
 10
212.7718898815
 20
36.1535723381
 30
0.0
 10
212.0694744377
 20
35.0047962444
 30
0.0
 10
211.4093928184
 20
34.4500125064
 30
0.0
 10
211.0566605332
 20
34.2463636296
 30
0.0
  0
SPLINE
  5
42D
100
AcDbEntity
  8
0
100
AcDbSpline
 62
7
  6
CONTINUOUS
 70
0
 71
3
 72
9
 73
5
 74
0
 42
0.0000001
 43
0.0000001
 44
0.0000000001
 40
0.0
 40
0.0
 40
0.0
 40
0.0
 40
0.2477492238
 40
1.0
 40
1.0
 40
1.0
 40
1.0
 10
213.2303530096
 20
45.256175914
 30
0.0
 10
213.2357813316
 20
45.1434401734
 30
0.0
 10
213.2570259073
 20
44.6883899222
 30
0.0
 10
213.2714136343
 20
44.2328491588
 30
0.0
 10
213.2714136065
 20
43.8901485795
 30
0.0
  0
SPLINE
  5
42E
100
AcDbEntity
  8
0
100
AcDbSpline
 62
7
  6
CONTINUOUS
 70
0
 71
3
 72
9
 73
5
 74
0
 42
0.0000001
 43
0.0000001
 44
0.0000000001
 40
0.0
 40
0.0
 40
0.0
 40
0.0
 40
0.2239310604
 40
1.0
 40
1.0
 40
1.0
 40
1.0
 10
123.1625603922
 20
62.2160379412
 30
0.0
 10
123.1786430967
 20
62.164200122
 30
0.0
 10
123.2863946788
 20
61.9438481395
 30
0.0
 10
123.4916269772
 20
61.7862955613
 30
0.0
 10
123.6583846283
 20
61.6992699627
 30
0.0
  0
SPLINE
  5
42F
100
AcDbEntity
  8
0
100
AcDbSpline
 62
7
  6
CONTINUOUS
 70
0
 71
3
 72
9
 73
5
 74
0
 42
0.0000001
 43
0.0000001
 44
0.0000000001
 40
0.0
 40
0.0
 40
0.0
 40
0.0
 40
0.4628150108
 40
1.0
 40
1.0
 40
1.0
 40
1.0
 10
123.1174957623
 20
63.3923230214
 30
0.0
 10
123.1162252477
 20
63.2664870183
 30
0.0
 10
123.2142214042
 20
62.9928792341
 30
0.0
 10
123.4226961382
 20
62.8075470759
 30
0.0
 10
123.5433407082
 20
62.7252086971
 30
0.0
  0
SPLINE
  5
430
100
AcDbEntity
  8
0
100
AcDbSpline
 62
7
  6
CONTINUOUS
 70
0
 71
3
 72
11
 73
7
 74
0
 42
0.0000001
 43
0.0000001
 44
0.0000000001
 40
0.0
 40
0.0
 40
0.0
 40
0.0
 40
0.2271198332
 40
0.499997712
 40
0.7728769207
 40
1.0
 40
1.0
 40
1.0
 40
1.0
 10
213.2714160476
 20
43.8901416815
 30
0.0
 10
213.1200616599
 20
43.8027623318
 30
0.0
 10
212.7537940578
 20
43.6672174412
 30
0.0
 10
212.1578622403
 20
43.6002018814
 30
0.0
 10
211.5619299443
 20
43.6672352124
 30
0.0
 10
211.1956625885
 20
43.8027898358
 30
0.0
 10
211.0443074137
 20
43.890172818
 30
0.0
  0
SPLINE
  5
431
100
AcDbEntity
  8
0
100
AcDbSpline
 62
7
  6
CONTINUOUS
 70
0
 71
3
 72
9
 73
5
 74
0
 42
0.0000001
 43
0.0000001
 44
0.0000000001
 40
0.0
 40
0.0
 40
0.0
 40
0.0
 40
0.2568058246
 40
1.0
 40
1.0
 40
1.0
 40
1.0
 10
211.2303506029
 20
45.0808861626
 30
0.0
 10
211.2189610074
 20
44.9783305221
 30
0.0
 10
211.1705978002
 20
44.579450341
 30
0.0
 10
211.1049839252
 20
44.1825456409
 30
0.0
 10
211.0443198106
 20
43.8901524926
 30
0.0
  0
SPLINE
  5
432
100
AcDbEntity
  8
0
100
AcDbSpline
 62
7
  6
CONTINUOUS
 70
0
 71
3
 72
11
 73
7
 74
0
 42
0.0000001
 43
0.0000001
 44
0.0000000001
 40
0.0
 40
0.0
 40
0.0
 40
0.0
 40
0.2190494671
 40
0.4505510844
 40
0.7088504077
 40
1.0
 40
1.0
 40
1.0
 40
1.0
 10
73.4715032035
 20
365.6347221317
 30
0.0
 10
73.7450617313
 20
365.8533366946
 30
0.0
 10
74.3985878493
 20
366.2000939536
 30
0.0
 10
75.5430681341
 20
366.3425366006
 30
0.0
 10
76.7867092117
 20
366.126945906
 30
0.0
 10
77.602263806
 20
365.7823463089
 30
0.0
 10
78.0134743132
 20
365.5643029126
 30
0.0
  0
SPLINE
  5
433
100
AcDbEntity
  8
0
100
AcDbSpline
 62
7
  6
CONTINUOUS
 70
0
 71
3
 72
11
 73
7
 74
0
 42
0.0000001
 43
0.0000001
 44
0.0000000001
 40
0.0
 40
0.0
 40
0.0
 40
0.0
 40
0.2888430506
 40
0.5481818355
 40
0.7817603096
 40
1.0
 40
1.0
 40
1.0
 40
1.0
 10
80.3963299898
 20
368.8251187728
 30
0.0
 10
79.9286606897
 20
369.0834853154
 30
0.0
 10
78.9987903568
 20
369.5041470679
 30
0.0
 10
77.5756801254
 20
369.8234336622
 30
0.0
 10
76.2438762096
 20
369.7751556603
 30
0.0
 10
75.442417566
 20
369.4812031129
 30
0.0
 10
75.0928033354
 20
369.2793682243
 30
0.0
  0
SPLINE
  5
434
100
AcDbEntity
  8
0
100
AcDbSpline
 62
7
  6
CONTINUOUS
 70
0
 71
3
 72
11
 73
7
 74
0
 42
0.0000001
 43
0.0000001
 44
0.0000000001
 40
0.0
 40
0.0
 40
0.0
 40
0.0
 40
0.2274261105
 40
0.4682579312
 40
0.7268619624
 40
1.0
 40
1.0
 40
1.0
 40
1.0
 10
40.23317072
 20
112.5254086939
 30
0.0
 10
40.232504357
 20
112.2224045029
 30
0.0
 10
40.3523708027
 20
111.5946320627
 30
0.0
 10
40.8338271221
 20
110.7392620315
 30
0.0
 10
41.5615050918
 20
109.9986012149
 30
0.0
 10
42.149609702
 20
109.5967146947
 30
0.0
 10
42.4647648394
 20
109.4147634997
 30
0.0
  0
SPLINE
  5
435
100
AcDbEntity
  8
0
100
AcDbSpline
 62
7
  6
CONTINUOUS
 70
0
 71
3
 72
9
 73
5
 74
0
 42
0.0000001
 43
0.0000001
 44
0.0000000001
 40
0.0
 40
0.0
 40
0.0
 40
0.0
 40
0.2555789135
 40
1.0
 40
1.0
 40
1.0
 40
1.0
 10
72.5629818995
 20
365.2545690368
 30
0.0
 10
72.5741095845
 20
365.3171089604
 30
0.0
 10
72.6209461733
 20
365.5612021881
 30
0.0
 10
72.6813027882
 20
365.8027611324
 30
0.0
 10
72.7345894101
 20
365.9799418151
 30
0.0
  0
SPLINE
  5
436
100
AcDbEntity
  8
0
100
AcDbSpline
 62
7
  6
CONTINUOUS
 70
0
 71
3
 72
10
 73
6
 74
0
 42
0.0000001
 43
0.0000001
 44
0.0000000001
 40
0.0
 40
0.0
 40
0.0
 40
0.0
 40
0.5203938922
 40
0.7602621137
 40
1.0
 40
1.0
 40
1.0
 40
1.0
 10
72.7345894101
 20
365.9799418151
 30
0.0
 10
72.9354884769
 20
366.6479412604
 30
0.0
 10
73.4218266263
 20
367.6005473482
 30
0.0
 10
74.472032414
 20
368.4579499912
 30
0.0
 10
75.0731193739
 20
368.7125960196
 30
0.0
 10
75.3828967731
 20
368.7980719856
 30
0.0
  0
SPLINE
  5
437
100
AcDbEntity
  8
0
100
AcDbSpline
 62
7
  6
CONTINUOUS
 70
0
 71
3
 72
9
 73
5
 74
0
 42
0.0000001
 43
0.0000001
 44
0.0000000001
 40
0.0
 40
0.0
 40
0.0
 40
0.0
 40
0.2402981627
 40
1.0
 40
1.0
 40
1.0
 40
1.0
 10
75.3828967731
 20
368.7980719856
 30
0.0
 10
75.5084311548
 20
368.832710318
 30
0.0
 10
76.0383444904
 20
368.9495506554
 30
0.0
 10
76.5898300936
 20
368.9554390963
 30
0.0
 10
76.9991422154
 20
368.9110906998
 30
0.0
  0
SPLINE
  5
438
100
AcDbEntity
  8
0
100
AcDbSpline
 62
7
  6
CONTINUOUS
 70
0
 71
3
 72
9
 73
5
 74
0
 42
0.0000001
 43
0.0000001
 44
0.0000000001
 40
0.0
 40
0.0
 40
0.0
 40
0.0
 40
0.23135468
 40
1.0
 40
1.0
 40
1.0
 40
1.0
 10
76.9991422154
 20
368.9110906998
 30
0.0
 10
77.2143064304
 20
368.8877779577
 30
0.0
 10
78.1381095462
 20
368.7289852267
 30
0.0
 10
79.017296968
 20
368.3610967398
 30
0.0
 10
79.6468628075
 20
368.0137308554
 30
0.0
  0
SPLINE
  5
439
100
AcDbEntity
  8
0
100
AcDbSpline
 62
7
  6
CONTINUOUS
 70
0
 71
3
 72
9
 73
5
 74
0
 42
0.0000001
 43
0.0000001
 44
0.0000000001
 40
0.0
 40
0.0
 40
0.0
 40
0.0
 40
0.2426606008
 40
1.0
 40
1.0
 40
1.0
 40
1.0
 10
121.7278365028
 20
126.0362286262
 30
0.0
 10
121.756822892
 20
126.0529638212
 30
0.0
 10
121.8711860335
 20
126.1307633901
 30
0.0
 10
121.9601843286
 20
126.242943
 30
0.0
 10
122.0097792019
 20
126.3348801776
 30
0.0
  0
SPLINE
  5
43A
100
AcDbEntity
  8
0
100
AcDbSpline
 62
7
  6
CONTINUOUS
 70
0
 71
3
 72
9
 73
5
 74
0
 42
0.0000001
 43
0.0000001
 44
0.0000000001
 40
0.0
 40
0.0
 40
0.0
 40
0.0
 40
0.2281685717
 40
1.0
 40
1.0
 40
1.0
 40
1.0
 10
122.0097792019
 20
126.3348801776
 30
0.0
 10
122.0332681584
 20
126.3784231534
 30
0.0
 10
122.120427995
 20
126.5778075781
 30
0.0
 10
122.1487100527
 20
126.7990530277
 30
0.0
 10
122.1487100527
 20
126.9664114851
 30
0.0
  0
SPLINE
  5
43B
100
AcDbEntity
  8
0
100
AcDbSpline
 62
7
  6
CONTINUOUS
 70
0
 71
3
 72
11
 73
7
 74
0
 42
0.0000001
 43
0.0000001
 44
0.0000000001
 40
0.0
 40
0.0
 40
0.0
 40
0.0
 40
0.2155009097
 40
0.4479735282
 40
0.7081432624
 40
1.0
 40
1.0
 40
1.0
 40
1.0
 10
125.2835529127
 20
58.1837587195
 30
0.0
 10
125.0327986956
 20
58.3288802693
 30
0.0
 10
124.5624632658
 20
58.726102887
 30
0.0
 10
124.0576685766
 20
59.5479169116
 30
0.0
 10
123.7467710621
 20
60.5647405865
 30
0.0
 10
123.6706303601
 20
61.3070642369
 30
0.0
 10
123.6583185392
 20
61.6992446251
 30
0.0
  0
SPLINE
  5
43C
100
AcDbEntity
  8
0
100
AcDbSpline
 62
7
  6
CONTINUOUS
 70
0
 71
3
 72
11
 73
7
 74
0
 42
0.0000001
 43
0.0000001
 44
0.0000000001
 40
0.0
 40
0.0
 40
0.0
 40
0.0
 40
0.2274480738
 40
0.4683071528
 40
0.7269541486
 40
1.0
 40
1.0
 40
1.0
 40
1.0
 10
163.4087174449
 20
36.1738630433
 30
0.0
 10
163.1460993954
 20
36.3251392528
 30
0.0
 10
162.659561487
 20
36.7398843283
 30
0.0
 10
162.1627365297
 20
37.5873102163
 30
0.0
 10
161.8833419541
 20
38.5869466343
 30
0.0
 10
161.8300077458
 20
39.2974779613
 30
0.0
 10
161.83000684
 20
39.661308674
 30
0.0
  0
SPLINE
  5
43D
100
AcDbEntity
  8
0
100
AcDbSpline
 62
7
  6
CONTINUOUS
 70
0
 71
3
 72
11
 73
7
 74
0
 42
0.0000001
 43
0.0000001
 44
0.0000000001
 40
0.0
 40
0.0
 40
0.0
 40
0.0
 40
0.2191736087
 40
0.4529741522
 40
0.712287159
 40
1.0
 40
1.0
 40
1.0
 40
1.0
 10
169.1000990624
 20
35.2130336014
 30
0.0
 10
169.5491398604
 20
35.3030226962
 30
0.0
 10
170.4486511172
 20
35.6735287665
 30
0.0
 10
171.5526501063
 20
36.7100274364
 30
0.0
 10
172.3767569141
 20
38.13934765
 30
0.0
 10
172.7043148319
 20
39.2448065713
 30
0.0
 10
172.821104226
 20
39.8345370065
 30
0.0
  0
SPLINE
  5
43E
100
AcDbEntity
  8
0
100
AcDbSpline
 62
7
  6
CONTINUOUS
 70
0
 71
3
 72
9
 73
5
 74
0
 42
0.0000001
 43
0.0000001
 44
0.0000000001
 40
0.0
 40
0.0
 40
0.0
 40
0.0
 40
0.2924025633
 40
1.0
 40
1.0
 40
1.0
 40
1.0
 10
211.4959984247
 20
46.8888650857
 30
0.0
 10
211.4847950302
 20
46.8452468219
 30
0.0
 10
211.4448383322
 20
46.6965572525
 30
0.0
 10
211.4001424886
 20
46.5487587179
 30
0.0
 10
211.3601874554
 20
46.4473673193
 30
0.0
  0
SPLINE
  5
43F
100
AcDbEntity
  8
0
100
AcDbSpline
 62
7
  6
CONTINUOUS
 70
0
 71
3
 72
8
 73
4
 74
0
 42
0.0000001
 43
0.0000001
 44
0.0000000001
 40
0.0
 40
0.0
 40
0.0
 40
0.0
 40
1.0
 40
1.0
 40
1.0
 40
1.0
 10
211.1790534671
 20
46.9148005741
 30
0.0
 10
211.2850570383
 20
46.9148069335
 30
0.0
 10
211.3915214787
 20
46.9067533672
 30
0.0
 10
211.4960048433
 20
46.8888652795
 30
0.0
  0
SPLINE
  5
440
100
AcDbEntity
  8
0
100
AcDbSpline
 62
7
  6
CONTINUOUS
 70
0
 71
3
 72
9
 73
5
 74
0
 42
0.0000001
 43
0.0000001
 44
0.0000000001
 40
0.0
 40
0.0
 40
0.0
 40
0.0
 40
0.458444929
 40
1.0
 40
1.0
 40
1.0
 40
1.0
 10
211.3602156139
 20
46.4473793073
 30
0.0
 10
211.3772605588
 20
46.2528296584
 30
0.0
 10
211.3518256401
 20
45.8239683881
 30
0.0
 10
211.2725517489
 20
45.4053257598
 30
0.0
 10
211.221577752
 20
45.1803283481
 30
0.0
  0
SPLINE
  5
441
100
AcDbEntity
  8
0
100
AcDbSpline
 62
7
  6
CONTINUOUS
 70
0
 71
3
 72
8
 73
4
 74
0
 42
0.0000001
 43
0.0000001
 44
0.0000000001
 40
0.0
 40
0.0
 40
0.0
 40
0.0
 40
1.0
 40
1.0
 40
1.0
 40
1.0
 10
211.1790556745
 20
46.4380747803
 30
0.0
 10
211.2388650141
 20
46.4469136279
 30
0.0
 10
211.2998450756
 20
46.4510311938
 30
0.0
 10
211.3601936343
 20
46.4473796462
 30
0.0
  0
SPLINE
  5
442
100
AcDbEntity
  8
0
100
AcDbSpline
 62
7
  6
CONTINUOUS
 70
0
 71
3
 72
9
 73
5
 74
0
 42
0.0000001
 43
0.0000001
 44
0.0000000001
 40
0.0
 40
0.0
 40
0.0
 40
0.0
 40
0.4987571983
 40
1.0
 40
1.0
 40
1.0
 40
1.0
 10
213.2124566292
 20
45.4584075641
 30
0.0
 10
212.9364809411
 20
45.2541745171
 30
0.0
 10
212.2603860397
 20
45.0132613226
 30
0.0
 10
211.5451455618
 20
45.0605646896
 30
0.0
 10
211.2215617452
 20
45.1803354232
 30
0.0
  0
SPLINE
  5
443
100
AcDbEntity
  8
0
100
AcDbSpline
 62
7
  6
CONTINUOUS
 70
0
 71
3
 72
9
 73
5
 74
0
 42
0.0000001
 43
0.0000001
 44
0.0000000001
 40
0.0
 40
0.0
 40
0.0
 40
0.0
 40
0.4714474095
 40
1.0
 40
1.0
 40
1.0
 40
1.0
 10
212.6041799383
 20
47.1829750865
 30
0.0
 10
212.7808052985
 20
46.9534130273
 30
0.0
 10
213.0449951828
 20
46.3840112067
 30
0.0
 10
213.1701340239
 20
45.7803521169
 30
0.0
 10
213.2124403539
 20
45.4583888407
 30
0.0
  0
SPLINE
  5
444
100
AcDbEntity
  8
0
100
AcDbSpline
 62
7
  6
CONTINUOUS
 70
0
 71
3
 72
9
 73
5
 74
0
 42
0.0000001
 43
0.0000001
 44
0.0000000001
 40
0.0
 40
0.0
 40
0.0
 40
0.0
 40
0.5349601641
 40
1.0
 40
1.0
 40
1.0
 40
1.0
 10
211.4960048433
 20
46.8888652795
 30
0.0
 10
211.5052104776
 20
46.8872867067
 30
0.0
 10
211.5246838165
 20
46.8986612506
 30
0.0
 10
211.5266424569
 20
46.9170481075
 30
0.0
 10
211.5266383603
 20
46.9251673502
 30
0.0
  0
SPLINE
  5
445
100
AcDbEntity
  8
0
100
AcDbSpline
 62
7
  6
CONTINUOUS
 70
0
 71
3
 72
9
 73
5
 74
0
 42
0.0000001
 43
0.0000001
 44
0.0000000001
 40
0.0
 40
0.0
 40
0.0
 40
0.0
 40
0.5071340137
 40
1.0
 40
1.0
 40
1.0
 40
1.0
 10
212.6044566937
 20
47.1833043621
 30
0.0
 10
212.4562005138
 20
46.9824677091
 30
0.0
 10
212.0829820318
 20
46.6375639995
 30
0.0
 10
211.6008071525
 20
46.4779754926
 30
0.0
 10
211.360164739
 20
46.4471635186
 30
0.0
  0
SPLINE
  5
446
100
AcDbEntity
  8
0
100
AcDbSpline
 62
7
  6
CONTINUOUS
 70
0
 71
3
 72
9
 73
5
 74
0
 42
0.0000001
 43
0.0000001
 44
0.0000000001
 40
0.0
 40
0.0
 40
0.0
 40
0.0
 40
0.2647774751
 40
1.0
 40
1.0
 40
1.0
 40
1.0
 10
211.5266231755
 20
46.9251501605
 30
0.0
 10
211.6249819721
 20
46.9251812285
 30
0.0
 10
211.9952504478
 20
46.9465482411
 30
0.0
 10
212.3677718357
 20
47.0465885734
 30
0.0
 10
212.6042708951
 20
47.1831970203
 30
0.0
  0
SPLINE
  5
447
100
AcDbEntity
  8
0
100
AcDbSpline
 62
7
  6
CONTINUOUS
 70
0
 71
3
 72
11
 73
7
 74
0
 42
0.0000001
 43
0.0000001
 44
0.0000000001
 40
0.0
 40
0.0
 40
0.0
 40
0.0
 40
0.2731389999
 40
0.5317429092
 40
0.7725738921
 40
1.0
 40
1.0
 40
1.0
 40
1.0
 10
42.4647648394
 20
332.0066779738
 30
0.0
 10
42.1495955447
 20
332.1886378361
 30
0.0
 10
41.5614667532
 20
332.590544971
 30
0.0
 10
40.8337709931
 20
333.3312512336
 30
0.0
 10
40.3523261107
 20
334.1866763245
 30
0.0
 10
40.2324961381
 20
334.8144841179
 30
0.0
 10
40.2331853818
 20
335.1175010037
 30
0.0
  0
SPLINE
  5
448
100
AcDbEntity
  8
0
100
AcDbSpline
 62
7
  6
CONTINUOUS
 70
0
 71
3
 72
11
 73
7
 74
0
 42
0.0000001
 43
0.0000001
 44
0.0000000001
 40
0.0
 40
0.0
 40
0.0
 40
0.0
 40
0.2333589805
 40
0.5052295056
 40
0.774080245
 40
1.0
 40
1.0
 40
1.0
 40
1.0
 10
48.0989841187
 20
341.4575896464
 30
0.0
 10
47.4152975976
 20
340.9937979753
 30
0.0
 10
46.0821715843
 20
339.769241513
 30
0.0
 10
44.5115125136
 20
337.4988399595
 30
0.0
 10
43.4644052021
 20
334.9726542417
 30
0.0
 10
43.1804564138
 20
333.2197102894
 30
0.0
 10
43.1804552052
 20
332.4198934312
 30
0.0
  0
SPLINE
  5
449
100
AcDbEntity
  8
0
100
AcDbSpline
 62
7
  6
CONTINUOUS
 70
0
 71
3
 72
9
 73
5
 74
0
 42
0.0000001
 43
0.0000001
 44
0.0000000001
 40
0.0
 40
0.0
 40
0.0
 40
0.0
 40
0.2457509262
 40
1.0
 40
1.0
 40
1.0
 40
1.0
 10
122.594312954
 20
208.5127420293
 30
0.0
 10
122.6323373788
 20
208.534703235
 30
0.0
 10
122.7920125591
 20
208.6154305058
 30
0.0
 10
122.9695960437
 20
208.6588630615
 30
0.0
 10
123.1037514074
 20
208.6717097501
 30
0.0
  0
SPLINE
  5
44A
100
AcDbEntity
  8
0
100
AcDbSpline
 62
7
  6
CONTINUOUS
 70
0
 71
3
 72
11
 73
7
 74
0
 42
0.0000001
 43
0.0000001
 44
0.0000000001
 40
0.0
 40
0.0
 40
0.0
 40
0.0
 40
0.2372428334
 40
0.4999989082
 40
0.7627555772
 40
1.0
 40
1.0
 40
1.0
 40
1.0
 10
120.4783774042
 20
147.5707494179
 30
0.0
 10
120.682371027
 20
147.4529763093
 30
0.0
 10
121.0683838269
 20
147.1280710271
 30
0.0
 10
121.5189238807
 20
146.5123924569
 30
0.0
 10
121.8268509362
 20
145.8143739827
 30
0.0
 10
121.9152243657
 20
145.3176230852
 30
0.0
 10
121.9152243657
 20
145.0820712932
 30
0.0
  0
SPLINE
  5
44B
100
AcDbEntity
  8
0
100
AcDbSpline
 62
7
  6
CONTINUOUS
 70
0
 71
3
 72
9
 73
5
 74
0
 42
0.0000001
 43
0.0000001
 44
0.0000000001
 40
0.0
 40
0.0
 40
0.0
 40
0.0
 40
0.4771665988
 40
1.0
 40
1.0
 40
1.0
 40
1.0
 10
84.2910829632
 20
256.3059132503
 30
0.0
 10
84.4301085566
 20
256.3861931857
 30
0.0
 10
84.6877871374
 20
256.6180716055
 30
0.0
 10
84.8404572311
 20
256.9255063427
 30
0.0
 10
84.8973276846
 20
257.0919634174
 30
0.0
  0
SPLINE
  5
44C
100
AcDbEntity
  8
0
100
AcDbSpline
 62
7
  6
CONTINUOUS
 70
0
 71
3
 72
9
 73
5
 74
0
 42
0.0000001
 43
0.0000001
 44
0.0000000001
 40
0.0
 40
0.0
 40
0.0
 40
0.0
 40
0.2341331263
 40
1.0
 40
1.0
 40
1.0
 40
1.0
 10
84.8973276846
 20
257.0919634174
 30
0.0
 10
84.9186117057
 20
257.1542607209
 30
0.0
 10
84.9959986833
 20
257.4249374299
 30
0.0
 10
85.0232828538
 20
257.7084691645
 30
0.0
 10
85.0232828538
 20
257.9238133002
 30
0.0
  0
SPLINE
  5
44D
100
AcDbEntity
  8
0
100
AcDbSpline
 62
7
  6
CONTINUOUS
 70
0
 71
3
 72
9
 73
5
 74
0
 42
0.0000001
 43
0.0000001
 44
0.0000000001
 40
0.0
 40
0.0
 40
0.0
 40
0.0
 40
0.261007187
 40
1.0
 40
1.0
 40
1.0
 40
1.0
 10
205.6949610836
 20
42.3338388755
 30
0.0
 10
205.8060152389
 20
42.2883709293
 30
0.0
 10
206.2355713446
 20
42.1245451331
 30
0.0
 10
206.6825976981
 20
42.0044978686
 30
0.0
 10
207.0177249791
 20
41.9485718829
 30
0.0
  0
SPLINE
  5
44E
100
AcDbEntity
  8
0
100
AcDbSpline
 62
7
  6
CONTINUOUS
 70
0
 71
3
 72
11
 73
7
 74
0
 42
0.0000001
 43
0.0000001
 44
0.0000000001
 40
0.0
 40
0.0
 40
0.0
 40
0.0
 40
0.2641194177
 40
0.5073837849
 40
0.7468523798
 40
1.0
 40
1.0
 40
1.0
 40
1.0
 10
207.0177249791
 20
41.9485718829
 30
0.0
 10
207.4338768022
 20
41.8791245349
 30
0.0
 10
208.2564708145
 20
41.8420061488
 30
0.0
 10
209.4271531052
 20
42.1710957478
 30
0.0
 10
210.3962652201
 20
42.8769166865
 30
0.0
 10
210.8560494312
 20
43.5322807523
 30
0.0
 10
211.0443206944
 20
43.8901596849
 30
0.0
  0
SPLINE
  5
44F
100
AcDbEntity
  8
0
100
AcDbSpline
 62
7
  6
CONTINUOUS
 70
0
 71
3
 72
9
 73
5
 74
0
 42
0.0000001
 43
0.0000001
 44
0.0000000001
 40
0.0
 40
0.0
 40
0.0
 40
0.0
 40
0.4999988717
 40
1.0
 40
1.0
 40
1.0
 40
1.0
 10
120.26285036
 20
252.8634686344
 30
0.0
 10
120.4227789367
 20
252.7711359164
 30
0.0
 10
120.6754647637
 20
252.4795220472
 30
0.0
 10
120.8016679705
 20
252.1148837404
 30
0.0
 10
120.8016679705
 20
251.9302143376
 30
0.0
  0
SPLINE
  5
450
100
AcDbEntity
  8
0
100
AcDbSpline
 62
7
  6
CONTINUOUS
 70
0
 71
3
 72
9
 73
5
 74
0
 42
0.0000001
 43
0.0000001
 44
0.0000000001
 40
0.0
 40
0.0
 40
0.0
 40
0.0
 40
0.4491512824
 40
1.0
 40
1.0
 40
1.0
 40
1.0
 10
122.4810517312
 20
253.944168018
 30
0.0
 10
122.3611446552
 20
254.0134242329
 30
0.0
 10
122.1539970564
 20
254.2727301541
 30
0.0
 10
122.1127978519
 20
254.5882742332
 30
0.0
 10
122.1127978519
 20
254.7580976343
 30
0.0
  0
SPLINE
  5
451
100
AcDbEntity
  8
0
100
AcDbSpline
 62
7
  6
CONTINUOUS
 70
0
 71
3
 72
9
 73
5
 74
0
 42
0.0000001
 43
0.0000001
 44
0.0000000001
 40
0.0
 40
0.0
 40
0.0
 40
0.0
 40
0.2781842823
 40
1.0
 40
1.0
 40
1.0
 40
1.0
 10
211.0443130646
 20
39.141603201
 30
0.0
 10
211.0443130646
 20
38.8408159025
 30
0.0
 10
210.9887503101
 20
37.764032371
 30
0.0
 10
210.677442205
 20
36.6735462961
 30
0.0
 10
210.2501443421
 20
36.0204447629
 30
0.0
  0
SPLINE
  5
452
100
AcDbEntity
  8
0
100
AcDbSpline
 62
7
  6
CONTINUOUS
 70
0
 71
3
 72
11
 73
7
 74
0
 42
0.0000001
 43
0.0000001
 44
0.0000000001
 40
0.0
 40
0.0
 40
0.0
 40
0.0
 40
0.2311530336
 40
0.460303587
 40
0.7116497538
 40
1.0
 40
1.0
 40
1.0
 40
1.0
 10
210.1785889994
 20
35.9150487206
 30
0.0
 10
209.9294059614
 20
35.5613153361
 30
0.0
 10
209.2940860189
 20
34.9370227101
 30
0.0
 10
207.9993979457
 20
34.4849411874
 30
0.0
 10
206.5342678864
 20
34.5666769813
 30
0.0
 10
205.574362715
 20
34.9192761851
 30
0.0
 10
205.0893738036
 20
35.1561741877
 30
0.0
  0
SPLINE
  5
453
100
AcDbEntity
  8
0
100
AcDbSpline
 62
7
  6
CONTINUOUS
 70
0
 71
3
 72
9
 73
5
 74
0
 42
0.0000001
 43
0.0000001
 44
0.0000000001
 40
0.0
 40
0.0
 40
0.0
 40
0.0
 40
0.2270985996
 40
1.0
 40
1.0
 40
1.0
 40
1.0
 10
80.4839134073
 20
368.7754392995
 30
0.0
 10
80.4108139557
 20
368.733235577
 30
0.0
 10
80.1057673708
 20
368.5187418991
 30
0.0
 10
79.8655517007
 20
368.2198260912
 30
0.0
 10
79.7219165713
 20
367.9710413927
 30
0.0
  0
SPLINE
  5
454
100
AcDbEntity
  8
0
100
AcDbSpline
 62
7
  6
CONTINUOUS
 70
0
 71
3
 72
9
 73
5
 74
0
 42
0.0000001
 43
0.0000001
 44
0.0000000001
 40
0.0
 40
0.0
 40
0.0
 40
0.0
 40
0.2457509262
 40
1.0
 40
1.0
 40
1.0
 40
1.0
 10
122.594312954
 20
237.9623512103
 30
0.0
 10
122.6323373788
 20
237.9843124161
 30
0.0
 10
122.7920125591
 20
238.0650396868
 30
0.0
 10
122.9695960437
 20
238.1084722425
 30
0.0
 10
123.1037514074
 20
238.1213189311
 30
0.0
  0
SPLINE
  5
455
100
AcDbEntity
  8
0
100
AcDbSpline
 62
7
  6
CONTINUOUS
 70
0
 71
3
 72
11
 73
7
 74
0
 42
0.0000001
 43
0.0000001
 44
0.0000000001
 40
0.0
 40
0.0
 40
0.0
 40
0.0
 40
0.2896688958
 40
0.5491254996
 40
0.7822407796
 40
1.0
 40
1.0
 40
1.0
 40
1.0
 10
84.7538762918
 20
257.7682722776
 30
0.0
 10
84.7538762918
 20
257.5891983637
 30
0.0
 10
84.7266874359
 20
257.2485758713
 30
0.0
 10
84.5887507401
 20
256.7806025035
 30
0.0
 10
84.3565496927
 20
256.400805465
 30
0.0
 10
84.1383733747
 20
256.2174836515
 30
0.0
 10
84.0218000728
 20
256.1501561304
 30
0.0
  0
SPLINE
  5
456
100
AcDbEntity
  8
0
100
AcDbSpline
 62
7
  6
CONTINUOUS
 70
0
 71
3
 72
9
 73
5
 74
0
 42
0.0000001
 43
0.0000001
 44
0.0000000001
 40
0.0
 40
0.0
 40
0.0
 40
0.0
 40
0.5210024926
 40
1.0
 40
1.0
 40
1.0
 40
1.0
 10
83.3454149006
 20
261.1780639846
 30
0.0
 10
83.7746314092
 20
260.6898210651
 30
0.0
 10
84.4402878233
 20
259.6104705241
 30
0.0
 10
84.7538762918
 20
258.3659434222
 30
0.0
 10
84.7538762918
 20
257.7682722776
 30
0.0
  0
SPLINE
  5
457
100
AcDbEntity
  8
0
100
AcDbSpline
 62
7
  6
CONTINUOUS
 70
0
 71
3
 72
9
 73
5
 74
0
 42
0.0000001
 43
0.0000001
 44
0.0000000001
 40
0.0
 40
0.0
 40
0.0
 40
0.0
 40
0.4887768861
 40
1.0
 40
1.0
 40
1.0
 40
1.0
 10
83.3863614747
 20
261.1827807972
 30
0.0
 10
83.4945238133
 20
261.1965804321
 30
0.0
 10
83.7272465388
 20
261.1420153645
 30
0.0
 10
83.8979558147
 20
260.9861346964
 30
0.0
 10
83.9645020509
 20
260.8935160947
 30
0.0
  0
SPLINE
  5
458
100
AcDbEntity
  8
0
100
AcDbSpline
 62
7
  6
CONTINUOUS
 70
0
 71
3
 72
8
 73
4
 74
0
 42
0.0000001
 43
0.0000001
 44
0.0000000001
 40
0.0
 40
0.0
 40
0.0
 40
0.0
 40
1.0
 40
1.0
 40
1.0
 40
1.0
 10
83.3454149006
 20
261.1780639846
 30
0.0
 10
83.3590529152
 20
261.1794688747
 30
0.0
 10
83.3727058689
 20
261.1808654177
 30
0.0
 10
83.3862460292
 20
261.1830179089
 30
0.0
  0
SPLINE
  5
459
100
AcDbEntity
  8
0
100
AcDbSpline
 62
7
  6
CONTINUOUS
 70
0
 71
3
 72
9
 73
5
 74
0
 42
0.0000001
 43
0.0000001
 44
0.0000000001
 40
0.0
 40
0.0
 40
0.0
 40
0.0
 40
0.5195204445
 40
1.0
 40
1.0
 40
1.0
 40
1.0
 10
83.2884956789
 20
276.2994308655
 30
0.0
 10
82.9563899729
 20
276.2217508451
 30
0.0
 10
82.2888322601
 20
276.1889475575
 30
0.0
 10
81.6360490225
 20
276.3670545965
 30
0.0
 10
81.362869458
 20
276.5247713236
 30
0.0
  0
SPLINE
  5
45A
100
AcDbEntity
  8
0
100
AcDbSpline
 62
7
  6
CONTINUOUS
 70
0
 71
3
 72
9
 73
5
 74
0
 42
0.0000001
 43
0.0000001
 44
0.0000000001
 40
0.0
 40
0.0
 40
0.0
 40
0.0
 40
0.5508487176
 40
1.0
 40
1.0
 40
1.0
 40
1.0
 10
82.886875803
 20
277.4046819543
 30
0.0
 10
82.886875803
 20
277.2348585531
 30
0.0
 10
82.9280750075
 20
276.9193144741
 30
0.0
 10
83.1352226063
 20
276.6600085529
 30
0.0
 10
83.2551296823
 20
276.590752338
 30
0.0
  0
SPLINE
  5
45B
100
AcDbEntity
  8
0
100
AcDbSpline
 62
7
  6
CONTINUOUS
 70
0
 71
3
 72
8
 73
4
 74
0
 42
0.0000001
 43
0.0000001
 44
0.0000000001
 40
0.0
 40
0.0
 40
0.0
 40
0.0
 40
1.0
 40
1.0
 40
1.0
 40
1.0
 10
83.5865737478
 20
276.3527723647
 30
0.0
 10
83.5191827197
 20
276.351297488
 30
0.0
 10
83.451343567
 20
276.3422548096
 30
0.0
 10
83.3863614747
 20
276.3243368408
 30
0.0
  0
SPLINE
  5
45C
100
AcDbEntity
  8
0
100
AcDbSpline
 62
7
  6
CONTINUOUS
 70
0
 71
3
 72
9
 73
5
 74
0
 42
0.0000001
 43
0.0000001
 44
0.0000000001
 40
0.0
 40
0.0
 40
0.0
 40
0.0
 40
0.2831715515
 40
1.0
 40
1.0
 40
1.0
 40
1.0
 10
83.3863614747
 20
276.3243368408
 30
0.0
 10
83.3875852289
 20
276.3410131165
 30
0.0
 10
83.3935808427
 20
276.3994067385
 30
0.0
 10
83.4086658316
 20
276.4594257897
 30
0.0
 10
83.4323128944
 20
276.4945327967
 30
0.0
  0
SPLINE
  5
45D
100
AcDbEntity
  8
0
100
AcDbSpline
 62
7
  6
CONTINUOUS
 70
0
 71
3
 72
9
 73
5
 74
0
 42
0.0000001
 43
0.0000001
 44
0.0000000001
 40
0.0
 40
0.0
 40
0.0
 40
0.0
 40
0.5508499863
 40
1.0
 40
1.0
 40
1.0
 40
1.0
 10
123.6368041969
 20
252.118455867
 30
0.0
 10
123.4897352134
 20
252.2033642633
 30
0.0
 10
123.2370694658
 20
252.396807899
 30
0.0
 10
123.1160766208
 20
252.7058470415
 30
0.0
 10
123.1160511658
 20
252.8443139736
 30
0.0
  0
SPLINE
  5
45E
100
AcDbEntity
  8
0
100
AcDbSpline
 62
7
  6
CONTINUOUS
 70
0
 71
3
 72
11
 73
7
 74
0
 42
0.0000001
 43
0.0000001
 44
0.0000000001
 40
0.0
 40
0.0
 40
0.0
 40
0.0
 40
0.2372444228
 40
0.5000010918
 40
0.7627571666
 40
1.0
 40
1.0
 40
1.0
 40
1.0
 10
122.1487100527
 20
145.2168735128
 30
0.0
 10
122.1487100527
 20
145.4524253048
 30
0.0
 10
122.0603366233
 20
145.9491762023
 30
0.0
 10
121.7524095678
 20
146.6471946765
 30
0.0
 10
121.301869514
 20
147.2628732467
 30
0.0
 10
120.915856714
 20
147.5877785289
 30
0.0
 10
120.7118630912
 20
147.7055516376
 30
0.0
  0
SPLINE
  5
45F
100
AcDbEntity
  8
0
100
AcDbSpline
 62
7
  6
CONTINUOUS
 70
0
 71
3
 72
9
 73
5
 74
0
 42
0.0000001
 43
0.0000001
 44
0.0000000001
 40
0.0
 40
0.0
 40
0.0
 40
0.0
 40
0.2736999556
 40
1.0
 40
1.0
 40
1.0
 40
1.0
 10
86.4430630595
 20
167.490204972
 30
0.0
 10
86.3917067496
 20
167.5198548806
 30
0.0
 10
86.1995006822
 20
167.6190140273
 30
0.0
 10
85.9839988076
 20
167.6810942519
 30
0.0
 10
85.8267017333
 20
167.6856418206
 30
0.0
  0
SPLINE
  5
460
100
AcDbEntity
  8
0
100
AcDbSpline
 62
7
  6
CONTINUOUS
 70
0
 71
3
 72
9
 73
5
 74
0
 42
0.0000001
 43
0.0000001
 44
0.0000000001
 40
0.0
 40
0.0
 40
0.0
 40
0.0
 40
0.2628346863
 40
1.0
 40
1.0
 40
1.0
 40
1.0
 10
85.8267017333
 20
167.6856418206
 30
0.0
 10
85.790477295
 20
167.6866890945
 30
0.0
 10
85.6526431274
 20
167.6826960687
 30
0.0
 10
85.5151127368
 20
167.641619969
 30
0.0
 10
85.4270896479
 20
167.5908001325
 30
0.0
  0
SPLINE
  5
461
100
AcDbEntity
  8
0
100
AcDbSpline
 62
7
  6
CONTINUOUS
 70
0
 71
3
 72
9
 73
5
 74
0
 42
0.0000001
 43
0.0000001
 44
0.0000000001
 40
0.0
 40
0.0
 40
0.0
 40
0.0
 40
0.5000011283
 40
1.0
 40
1.0
 40
1.0
 40
1.0
 10
121.0351536576
 20
252.0650165572
 30
0.0
 10
121.0351536576
 20
252.24968596
 30
0.0
 10
120.9089504508
 20
252.6143242668
 30
0.0
 10
120.6562646238
 20
252.905938136
 30
0.0
 10
120.496336047
 20
252.998270854
 30
0.0
  0
SPLINE
  5
462
100
AcDbEntity
  8
0
100
AcDbSpline
 62
7
  6
CONTINUOUS
 70
0
 71
3
 72
9
 73
5
 74
0
 42
0.0000001
 43
0.0000001
 44
0.0000000001
 40
0.0
 40
0.0
 40
0.0
 40
0.0
 40
0.4756078477
 40
1.0
 40
1.0
 40
1.0
 40
1.0
 10
85.0232828538
 20
257.9238133002
 30
0.0
 10
85.0232828538
 20
258.4292440382
 30
0.0
 10
84.79384109
 20
259.4910871414
 30
0.0
 10
84.2896719313
 20
260.4409468534
 30
0.0
 10
83.9645020509
 20
260.8935160947
 30
0.0
  0
SPLINE
  5
463
100
AcDbEntity
  8
0
100
AcDbSpline
 62
7
  6
CONTINUOUS
 70
0
 71
3
 72
9
 73
5
 74
0
 42
0.0000001
 43
0.0000001
 44
0.0000000001
 40
0.0
 40
0.0
 40
0.0
 40
0.0
 40
0.4756078477
 40
1.0
 40
1.0
 40
1.0
 40
1.0
 10
85.0232828538
 20
228.4742041192
 30
0.0
 10
85.0232828538
 20
228.9796348572
 30
0.0
 10
84.79384109
 20
230.0414779604
 30
0.0
 10
84.2896719313
 20
230.9913376724
 30
0.0
 10
83.9645020509
 20
231.4439069137
 30
0.0
  0
SPLINE
  5
464
100
AcDbEntity
  8
0
100
AcDbSpline
 62
7
  6
CONTINUOUS
 70
0
 71
3
 72
9
 73
5
 74
0
 42
0.0000001
 43
0.0000001
 44
0.0000000001
 40
0.0
 40
0.0
 40
0.0
 40
0.0
 40
0.4887768861
 40
1.0
 40
1.0
 40
1.0
 40
1.0
 10
83.3863614747
 20
231.7331716161
 30
0.0
 10
83.4945238133
 20
231.7469712511
 30
0.0
 10
83.7272465388
 20
231.6924061835
 30
0.0
 10
83.8979558147
 20
231.5365255154
 30
0.0
 10
83.9645020509
 20
231.4439069137
 30
0.0
  0
SPLINE
  5
465
100
AcDbEntity
  8
0
100
AcDbSpline
 62
7
  6
CONTINUOUS
 70
0
 71
3
 72
8
 73
4
 74
0
 42
0.0000001
 43
0.0000001
 44
0.0000000001
 40
0.0
 40
0.0
 40
0.0
 40
0.0
 40
1.0
 40
1.0
 40
1.0
 40
1.0
 10
83.3454149006
 20
231.7284548035
 30
0.0
 10
83.3590529152
 20
231.7298596937
 30
0.0
 10
83.3727058689
 20
231.7312562367
 30
0.0
 10
83.3862460292
 20
231.7334087279
 30
0.0
  0
SPLINE
  5
466
100
AcDbEntity
  8
0
100
AcDbSpline
 62
7
  6
CONTINUOUS
 70
0
 71
3
 72
11
 73
7
 74
0
 42
0.0000001
 43
0.0000001
 44
0.0000000001
 40
0.0
 40
0.0
 40
0.0
 40
0.0
 40
0.2896688958
 40
0.5491254996
 40
0.7822407796
 40
1.0
 40
1.0
 40
1.0
 40
1.0
 10
84.7538762918
 20
228.3186630966
 30
0.0
 10
84.7538762918
 20
228.1395891826
 30
0.0
 10
84.7266874359
 20
227.7989666903
 30
0.0
 10
84.5887507401
 20
227.3309933225
 30
0.0
 10
84.3565496927
 20
226.951196284
 30
0.0
 10
84.1383733747
 20
226.7678744705
 30
0.0
 10
84.0218000728
 20
226.7005469493
 30
0.0
  0
SPLINE
  5
467
100
AcDbEntity
  8
0
100
AcDbSpline
 62
7
  6
CONTINUOUS
 70
0
 71
3
 72
9
 73
5
 74
0
 42
0.0000001
 43
0.0000001
 44
0.0000000001
 40
0.0
 40
0.0
 40
0.0
 40
0.0
 40
0.5210024926
 40
1.0
 40
1.0
 40
1.0
 40
1.0
 10
83.3454149006
 20
231.7284548035
 30
0.0
 10
83.7746314092
 20
231.2402118841
 30
0.0
 10
84.4402878233
 20
230.160861343
 30
0.0
 10
84.7538762918
 20
228.9163342411
 30
0.0
 10
84.7538762918
 20
228.3186630966
 30
0.0
  0
SPLINE
  5
468
100
AcDbEntity
  8
0
100
AcDbSpline
 62
7
  6
CONTINUOUS
 70
0
 71
3
 72
11
 73
7
 74
0
 42
0.0000001
 43
0.0000001
 44
0.0000000001
 40
0.0
 40
0.0
 40
0.0
 40
0.0
 40
0.2510486471
 40
0.5190417869
 40
0.776267416
 40
1.0
 40
1.0
 40
1.0
 40
1.0
 10
83.3863534396
 20
86.8723767656
 30
0.0
 10
83.2187147339
 20
86.8261522553
 30
0.0
 10
82.8615715088
 20
86.7683709397
 30
0.0
 10
82.3210504368
 20
86.7689607476
 30
0.0
 10
81.8093755901
 20
86.8701781714
 30
0.0
 10
81.4970816875
 20
86.9953228732
 30
0.0
 10
81.362869458
 20
87.0728080376
 30
0.0
  0
SPLINE
  5
469
100
AcDbEntity
  8
0
100
AcDbSpline
 62
7
  6
CONTINUOUS
 70
0
 71
3
 72
11
 73
7
 74
0
 42
0.0000001
 43
0.0000001
 44
0.0000000001
 40
0.0
 40
0.0
 40
0.0
 40
0.0
 40
0.2453963683
 40
0.5119968569
 40
0.7718034882
 40
1.0
 40
1.0
 40
1.0
 40
1.0
 10
83.4368668189
 20
85.885547598
 30
0.0
 10
83.2672084374
 20
85.8352113048
 30
0.0
 10
82.900254326
 20
85.7736569317
 30
0.0
 10
82.3402746073
 20
85.7792827751
 30
0.0
 10
81.8059188477
 20
85.8989315522
 30
0.0
 10
81.4804156536
 20
86.0423995187
 30
0.0
 10
81.3413548931
 20
86.1303969221
 30
0.0
  0
SPLINE
  5
46A
100
AcDbEntity
  8
0
100
AcDbSpline
 62
7
  6
CONTINUOUS
 70
0
 71
3
 72
9
 73
5
 74
0
 42
0.0000001
 43
0.0000001
 44
0.0000000001
 40
0.0
 40
0.0
 40
0.0
 40
0.0
 40
0.2568212805
 40
1.0
 40
1.0
 40
1.0
 40
1.0
 10
83.3863614747
 20
86.872369721
 30
0.0
 10
83.3863648051
 20
86.7877575306
 30
0.0
 10
83.3903884253
 20
86.4583211363
 30
0.0
 10
83.4108805136
 20
86.1290029338
 30
0.0
 10
83.4368701529
 20
85.8855389629
 30
0.0
  0
SPLINE
  5
46B
100
AcDbEntity
  8
0
100
AcDbSpline
 62
7
  6
CONTINUOUS
 70
0
 71
3
 72
9
 73
5
 74
0
 42
0.0000001
 43
0.0000001
 44
0.0000000001
 40
0.0
 40
0.0
 40
0.0
 40
0.0
 40
0.2592943686
 40
1.0
 40
1.0
 40
1.0
 40
1.0
 10
86.7124724438
 20
82.8474631312
 30
0.0
 10
86.6429489919
 20
82.8404981642
 30
0.0
 10
86.3741811742
 20
82.8209815833
 30
0.0
 10
86.1028575692
 20
82.8321301956
 30
0.0
 10
85.9052558865
 20
82.860276955
 30
0.0
  0
SPLINE
  5
46C
100
AcDbEntity
  8
0
100
AcDbSpline
 62
7
  6
CONTINUOUS
 70
0
 71
3
 72
9
 73
5
 74
0
 42
0.0000001
 43
0.0000001
 44
0.0000000001
 40
0.0
 40
0.0
 40
0.0
 40
0.0
 40
0.2543564405
 40
1.0
 40
1.0
 40
1.0
 40
1.0
 10
85.9052558865
 20
82.860276955
 30
0.0
 10
85.8607513832
 20
82.866616261
 30
0.0
 10
85.6863736887
 20
82.8954762102
 30
0.0
 10
85.5146048838
 20
82.9404757159
 30
0.0
 10
85.3899756295
 20
82.983299731
 30
0.0
  0
SPLINE
  5
46D
100
AcDbEntity
  8
0
100
AcDbSpline
 62
7
  6
CONTINUOUS
 70
0
 71
3
 72
11
 73
7
 74
0
 42
0.0000001
 43
0.0000001
 44
0.0000000001
 40
0.0
 40
0.0
 40
0.0
 40
0.0
 40
0.2273726531
 40
0.4607917336
 40
0.7152461048
 40
1.0
 40
1.0
 40
1.0
 40
1.0
 10
85.3899756295
 20
82.983299731
 30
0.0
 10
85.1255494907
 20
83.0741595296
 30
0.0
 10
84.6148333912
 20
83.347848527
 30
0.0
 10
84.0153914451
 20
84.0117436353
 30
0.0
 10
83.6067583427
 20
84.8816056292
 30
0.0
 10
83.4741160381
 20
85.5373868494
 30
0.0
 10
83.4369025778
 20
85.8855666621
 30
0.0
  0
SPLINE
  5
46E
100
AcDbEntity
  8
0
100
AcDbSpline
 62
7
  6
CONTINUOUS
 70
0
 71
3
 72
11
 73
7
 74
0
 42
0.0000001
 43
0.0000001
 44
0.0000000001
 40
0.0
 40
0.0
 40
0.0
 40
0.0
 40
0.2897015311
 40
0.549086334
 40
0.7822187935
 40
1.0
 40
1.0
 40
1.0
 40
1.0
 10
83.9645020509
 20
86.8151027259
 30
0.0
 10
83.9645020509
 20
86.4290117499
 30
0.0
 10
84.0230462984
 20
85.6947518925
 30
0.0
 10
84.3203570747
 20
84.6858863386
 30
0.0
 10
84.8210790101
 20
83.8672729993
 30
0.0
 10
85.2913752507
 20
83.4719512719
 30
0.0
 10
85.542697928
 20
83.3267722677
 30
0.0
  0
SPLINE
  5
46F
100
AcDbEntity
  8
0
100
AcDbSpline
 62
7
  6
CONTINUOUS
 70
0
 71
3
 72
9
 73
5
 74
0
 42
0.0000001
 43
0.0000001
 44
0.0000000001
 40
0.0
 40
0.0
 40
0.0
 40
0.0
 40
0.257109663
 40
1.0
 40
1.0
 40
1.0
 40
1.0
 10
83.3863614747
 20
86.872369721
 30
0.0
 10
83.4349688909
 20
86.8857725853
 30
0.0
 10
83.6280921856
 20
86.9178647136
 30
0.0
 10
83.8383325726
 20
86.8879450603
 30
0.0
 10
83.9645020509
 20
86.8151027259
 30
0.0
  0
SPLINE
  5
470
100
AcDbEntity
  8
0
100
AcDbSpline
 62
7
  6
CONTINUOUS
 70
0
 71
3
 72
11
 73
7
 74
0
 42
0.0000001
 43
0.0000001
 44
0.0000000001
 40
0.0
 40
0.0
 40
0.0
 40
0.0
 40
0.2806864858
 40
0.5072006145
 40
0.7287863286
 40
1.0
 40
1.0
 40
1.0
 40
1.0
 10
162.534875793
 20
40.0938188739
 30
0.0
 10
162.5348578111
 20
39.9951390662
 30
0.0
 10
162.5106987859
 20
39.8140594687
 30
0.0
 10
162.3479622297
 20
39.5915697627
 30
0.0
 10
162.0785495157
 20
39.546560532
 30
0.0
 10
161.9125931548
 20
39.6136884127
 30
0.0
 10
161.8300088556
 20
39.6613471879
 30
0.0
  0
SPLINE
  5
471
100
AcDbEntity
  8
0
100
AcDbSpline
 62
7
  6
CONTINUOUS
 70
0
 71
3
 72
11
 73
7
 74
0
 42
0.0000001
 43
0.0000001
 44
0.0000000001
 40
0.0
 40
0.0
 40
0.0
 40
0.0
 40
0.2377762544
 40
0.4999997494
 40
0.7622279772
 40
1.0
 40
1.0
 40
1.0
 40
1.0
 10
161.8192191457
 20
263.925280246
 30
0.0
 10
161.9210308478
 20
263.8664757394
 30
0.0
 10
162.112478949
 20
263.7038609511
 30
0.0
 10
162.3384404482
 20
263.3986876175
 30
0.0
 10
162.4897397834
 20
263.0504126682
 30
0.0
 10
162.5348518079
 20
262.803308061
 30
0.0
 10
162.534874725
 20
262.6857363802
 30
0.0
  0
SPLINE
  5
472
100
AcDbEntity
  8
0
100
AcDbSpline
 62
7
  6
CONTINUOUS
 70
0
 71
3
 72
11
 73
7
 74
0
 42
0.0000001
 43
0.0000001
 44
0.0000000001
 40
0.0
 40
0.0
 40
0.0
 40
0.0
 40
0.2754583508
 40
0.4999996778
 40
0.724533271
 40
1.0
 40
1.0
 40
1.0
 40
1.0
 10
42.4647989267
 20
332.0066587152
 30
0.0
 10
42.4648177692
 20
332.1033140286
 30
0.0
 10
42.4897136915
 20
332.2821567826
 30
0.0
 10
42.6581396805
 20
332.4981449717
 30
0.0
 10
42.929406632
 20
332.5360357518
 30
0.0
 10
43.0967366936
 20
332.4681663913
 30
0.0
 10
43.1804545093
 20
332.4198533949
 30
0.0
  0
SPLINE
  5
473
100
AcDbEntity
  8
0
100
AcDbSpline
 62
7
  6
CONTINUOUS
 70
0
 71
3
 72
10
 73
6
 74
0
 42
0.0000001
 43
0.0000001
 44
0.0000000001
 40
0.0
 40
0.0
 40
0.0
 40
0.0
 40
0.2363910244
 40
0.4981910437
 40
1.0
 40
1.0
 40
1.0
 40
1.0
 10
43.1696647996
 20
108.1683793916
 30
0.0
 10
43.0687676641
 20
108.2266557497
 30
0.0
 10
42.8787755273
 20
108.3894369566
 30
0.0
 10
42.5892997402
 20
108.7889512646
 30
0.0
 10
42.4648433319
 20
109.1673994623
 30
0.0
 10
42.4647982568
 20
109.4147422123
 30
0.0
  0
SPLINE
  5
474
100
AcDbEntity
  8
0
100
AcDbSpline
 62
7
  6
CONTINUOUS
 70
0
 71
3
 72
8
 73
4
 74
0
 42
0.0000001
 43
0.0000001
 44
0.0000000001
 40
0.0
 40
0.0
 40
0.0
 40
0.0
 40
1.0
 40
1.0
 40
1.0
 40
1.0
 10
81.3628529172
 20
87.0728137515
 30
0.0
 10
81.3628796797
 20
86.7585978378
 30
0.0
 10
81.3547453917
 20
86.4443413545
 30
0.0
 10
81.3413403085
 20
86.1304115139
 30
0.0
  0
SPLINE
  5
475
100
AcDbEntity
  8
0
100
AcDbSpline
 62
7
  6
CONTINUOUS
 70
0
 71
3
 72
11
 73
7
 74
0
 42
0.0000001
 43
0.0000001
 44
0.0000000001
 40
0.0
 40
0.0
 40
0.0
 40
0.0
 40
0.2754154089
 40
0.4999980827
 40
0.7245821068
 40
1.0
 40
1.0
 40
1.0
 40
1.0
 10
82.8868758029
 20
277.4046819543
 30
0.0
 10
82.708610425
 20
277.5076011899
 30
0.0
 10
82.3522726725
 20
277.6555686821
 30
0.0
 10
81.7763836015
 20
277.568319714
 30
0.0
 10
81.4128905327
 20
277.1131989922
 30
0.0
 10
81.362869458
 20
276.7306151441
 30
0.0
 10
81.362869458
 20
276.5247713236
 30
0.0
  0
SPLINE
  5
476
100
AcDbEntity
  8
0
100
AcDbSpline
 62
7
  6
CONTINUOUS
 70
0
 71
3
 72
9
 73
5
 74
0
 42
0.0000001
 43
0.0000001
 44
0.0000000001
 40
0.0
 40
0.0
 40
0.0
 40
0.0
 40
0.2304800729
 40
1.0
 40
1.0
 40
1.0
 40
1.0
 10
123.6368041969
 20
252.1184558671
 30
0.0
 10
123.6368041969
 20
252.214007241
 30
0.0
 10
123.6073150838
 20
252.6284634341
 30
0.0
 10
123.479082218
 20
253.0322884275
 30
0.0
 10
123.3452603044
 20
253.3218882202
 30
0.0
  0
SPLINE
  5
477
100
AcDbEntity
  8
0
100
AcDbSpline
 62
7
  6
CONTINUOUS
 70
0
 71
3
 72
9
 73
5
 74
0
 42
0.0000001
 43
0.0000001
 44
0.0000000001
 40
0.0
 40
0.0
 40
0.0
 40
0.0
 40
0.5245243138
 40
1.0
 40
1.0
 40
1.0
 40
1.0
 10
123.3452603044
 20
253.3218882202
 30
0.0
 10
123.2049450872
 20
253.6255399671
 30
0.0
 10
122.8594729042
 20
254.1703403516
 30
0.0
 10
122.3753990715
 20
254.6064881793
 30
0.0
 10
122.112797852
 20
254.7580976343
 30
0.0
  0
SPLINE
  5
478
100
AcDbEntity
  8
0
100
AcDbSpline
 62
7
  6
CONTINUOUS
 70
0
 71
3
 72
9
 73
5
 74
0
 42
0.0000001
 43
0.0000001
 44
0.0000000001
 40
0.0
 40
0.0
 40
0.0
 40
0.0
 40
0.2530281025
 40
1.0
 40
1.0
 40
1.0
 40
1.0
 10
123.6583333413
 20
61.6992369049
 30
0.0
 10
123.6550153079
 20
61.7807723215
 30
0.0
 10
123.6431019911
 20
62.1030544549
 30
0.0
 10
123.636800221
 20
62.4255768089
 30
0.0
 10
123.6368207375
 20
62.6664791958
 30
0.0
  0
SPLINE
  5
479
100
AcDbEntity
  8
0
100
AcDbSpline
 62
7
  6
CONTINUOUS
 70
0
 71
3
 72
11
 73
7
 74
0
 42
0.0000001
 43
0.0000001
 44
0.0000000001
 40
0.0
 40
0.0
 40
0.0
 40
0.0
 40
0.2259196981
 40
0.494770432
 40
0.7666409869
 40
1.0
 40
1.0
 40
1.0
 40
1.0
 10
161.8192187505
 20
263.9253209163
 30
0.0
 10
161.8192206223
 20
264.7251375165
 30
0.0
 10
162.1031708163
 20
266.478080874
 30
0.0
 10
163.1502797309
 20
269.004265548
 30
0.0
 10
164.7209398758
 20
271.2746663205
 30
0.0
 10
166.0540662119
 20
272.4992224951
 30
0.0
 10
166.7377528023
 20
272.9630141656
 30
0.0
  0
SPLINE
  5
47A
100
AcDbEntity
  8
0
100
AcDbSpline
 62
7
  6
CONTINUOUS
 70
0
 71
3
 72
11
 73
7
 74
0
 42
0.0000001
 43
0.0000001
 44
0.0000000001
 40
0.0
 40
0.0
 40
0.0
 40
0.0
 40
0.2333595171
 40
0.5052305762
 40
0.7740812346
 40
1.0
 40
1.0
 40
1.0
 40
1.0
 10
172.8210527817
 20
262.4264916309
 30
0.0
 10
172.0775515118
 20
262.0662999688
 30
0.0
 10
170.3504891383
 20
261.5240589363
 30
0.0
 10
167.598934101
 20
261.2990197619
 30
0.0
 10
164.8876414002
 20
261.6552711042
 30
0.0
 10
163.2275716636
 20
262.2858175941
 30
0.0
 10
162.5349088155
 20
262.6857159559
 30
0.0
  0
SPLINE
  5
47B
100
AcDbEntity
  8
0
100
AcDbSpline
 62
7
  6
CONTINUOUS
 70
0
 71
3
 72
9
 73
5
 74
0
 42
0.0000001
 43
0.0000001
 44
0.0000000001
 40
0.0
 40
0.0
 40
0.0
 40
0.0
 40
0.5196450197
 40
1.0
 40
1.0
 40
1.0
 40
1.0
 10
209.6371681256
 20
283.322427924
 30
0.0
 10
209.4627867368
 20
283.3224275752
 30
0.0
 10
209.1269752347
 20
283.2864560557
 30
0.0
 10
208.8026305958
 20
283.1868546353
 30
0.0
 10
208.6575610869
 20
283.1165755095
 30
0.0
  0
SPLINE
  5
47C
100
AcDbEntity
  8
0
100
AcDbSpline
 62
7
  6
CONTINUOUS
 70
0
 71
3
 72
9
 73
5
 74
0
 42
0.0000001
 43
0.0000001
 44
0.0000000001
 40
0.0
 40
0.0
 40
0.0
 40
0.0
 40
0.2642141996
 40
1.0
 40
1.0
 40
1.0
 40
1.0
 10
204.3889349468
 20
295.9950920549
 30
0.0
 10
204.4392848648
 20
296.0796757583
 30
0.0
 10
204.6475751569
 20
296.3878921637
 30
0.0
 10
204.9246277748
 20
296.6575658723
 30
0.0
 10
205.1633946182
 20
296.7922288
 30
0.0
  0
SPLINE
  5
47D
100
AcDbEntity
  8
0
100
AcDbSpline
 62
7
  6
CONTINUOUS
 70
0
 71
3
 72
11
 73
7
 74
0
 42
0.0000001
 43
0.0000001
 44
0.0000000001
 40
0.0
 40
0.0
 40
0.0
 40
0.0
 40
0.2373151389
 40
0.5000006994
 40
0.7626855429
 40
1.0
 40
1.0
 40
1.0
 40
1.0
 10
209.6328312544
 20
283.5172735492
 30
0.0
 10
209.580580135
 20
284.5298414672
 30
0.0
 10
209.131926223
 20
286.6473464487
 30
0.0
 10
207.776920429
 20
289.6325642146
 30
0.0
 10
205.869025897
 20
292.2985545481
 30
0.0
 10
204.259534765
 20
293.7458090115
 30
0.0
 10
203.4087845608
 20
294.2973905118
 30
0.0
  0
SPLINE
  5
47E
100
AcDbEntity
  8
0
100
AcDbSpline
 62
7
  6
CONTINUOUS
 70
0
 71
3
 72
9
 73
5
 74
0
 42
0.0000001
 43
0.0000001
 44
0.0000000001
 40
0.0
 40
0.0
 40
0.0
 40
0.0
 40
0.239919709
 40
1.0
 40
1.0
 40
1.0
 40
1.0
 10
204.388995229
 20
295.9950571548
 30
0.0
 10
204.5298069032
 20
295.910081758
 30
0.0
 10
205.1077491813
 20
295.5411136007
 30
0.0
 10
205.6502705439
 20
295.1177378316
 30
0.0
 10
206.0418476812
 20
294.774015439
 30
0.0
  0
SPLINE
  5
47F
100
AcDbEntity
  8
0
100
AcDbSpline
 62
7
  6
CONTINUOUS
 70
0
 71
3
 72
11
 73
7
 74
0
 42
0.0000001
 43
0.0000001
 44
0.0000000001
 40
0.0
 40
0.0
 40
0.0
 40
0.0
 40
0.2436042062
 40
0.4997598075
 40
0.7560428182
 40
1.0
 40
1.0
 40
1.0
 40
1.0
 10
206.0418476812
 20
294.774015439
 30
0.0
 10
206.6967979534
 20
294.1991068114
 30
0.0
 10
207.9277884996
 20
292.8880766717
 30
0.0
 10
209.4519999763
 20
290.6418739995
 30
0.0
 10
210.6234109702
 20
288.1917058381
 30
0.0
 10
211.1355872954
 20
286.4660871114
 30
0.0
 10
211.3026148141
 20
285.6094751099
 30
0.0
  0
SPLINE
  5
480
100
AcDbEntity
  8
0
100
AcDbSpline
 62
7
  6
CONTINUOUS
 70
0
 71
3
 72
9
 73
5
 74
0
 42
0.0000001
 43
0.0000001
 44
0.0000000001
 40
0.0
 40
0.0
 40
0.0
 40
0.0
 40
0.259989976
 40
1.0
 40
1.0
 40
1.0
 40
1.0
 10
211.3026148141
 20
285.6094751099
 30
0.0
 10
211.3375384625
 20
285.4303668013
 30
0.0
 10
211.4577307131
 20
284.7388770683
 30
0.0
 10
211.5208517928
 20
284.0367316398
 30
0.0
 10
211.5266563675
 20
283.5173669856
 30
0.0
  0
SPLINE
  5
481
100
AcDbEntity
  8
0
100
AcDbSpline
 62
7
  6
CONTINUOUS
 70
0
 71
3
 72
9
 73
5
 74
0
 42
0.0000001
 43
0.0000001
 44
0.0000000001
 40
0.0
 40
0.0
 40
0.0
 40
0.0
 40
0.5181147551
 40
1.0
 40
1.0
 40
1.0
 40
1.0
 10
209.6329540422
 20
283.5172764378
 30
0.0
 10
209.4585817059
 20
283.5121067045
 30
0.0
 10
209.1228681976
 20
283.4660792864
 30
0.0
 10
208.8004117427
 20
283.3574783177
 30
0.0
 10
208.6560269795
 20
283.2834630195
 30
0.0
  0
SPLINE
  5
482
100
AcDbEntity
  8
0
100
AcDbSpline
 62
7
  6
CONTINUOUS
 70
0
 71
3
 72
9
 73
5
 74
0
 42
0.0000001
 43
0.0000001
 44
0.0000000001
 40
0.0
 40
0.0
 40
0.0
 40
0.0
 40
0.5181679712
 40
1.0
 40
1.0
 40
1.0
 40
1.0
 10
203.4088220935
 20
294.2974851728
 30
0.0
 10
203.3171331848
 20
294.1490410885
 30
0.0
 10
203.1093786602
 20
293.8813189863
 30
0.0
 10
202.854055776
 20
293.6563793868
 30
0.0
 10
202.717757288
 20
293.568371268
 30
0.0
  0
SPLINE
  5
483
100
AcDbEntity
  8
0
100
AcDbSpline
 62
7
  6
CONTINUOUS
 70
0
 71
3
 72
9
 73
5
 74
0
 42
0.0000001
 43
0.0000001
 44
0.0000000001
 40
0.0
 40
0.0
 40
0.0
 40
0.0
 40
0.4803548581
 40
1.0
 40
1.0
 40
1.0
 40
1.0
 10
202.5741991188
 20
293.6532090447
 30
0.0
 10
202.7075975492
 20
293.7437027256
 30
0.0
 10
202.9560272744
 20
293.9747923369
 30
0.0
 10
203.1550842459
 20
294.247628263
 30
0.0
 10
203.2422744234
 20
294.3986470999
 30
0.0
  0
SPLINE
  5
484
100
AcDbEntity
  8
0
100
AcDbSpline
 62
7
  6
CONTINUOUS
 70
0
 71
3
 72
11
 73
7
 74
0
 42
0.0000001
 43
0.0000001
 44
0.0000000001
 40
0.0
 40
0.0
 40
0.0
 40
0.0
 40
0.2352091165
 40
0.5000012713
 40
0.7647927627
 40
1.0
 40
1.0
 40
1.0
 40
1.0
 10
172.8211004425
 20
262.4264510779
 30
0.0
 10
172.7481915016
 20
263.4022202501
 30
0.0
 10
172.2622215563
 20
265.4511918594
 30
0.0
 10
170.9197807048
 20
268.3531775873
 30
0.0
 10
169.0777907695
 20
270.9667183487
 30
0.0
 10
167.54635208
 20
272.4121084191
 30
0.0
 10
166.7377438121
 20
272.9630880565
 30
0.0
  0
SPLINE
  5
485
100
AcDbEntity
  8
0
100
AcDbSpline
 62
7
  6
CONTINUOUS
 70
0
 71
3
 72
9
 73
5
 74
0
 42
0.0000001
 43
0.0000001
 44
0.0000000001
 40
0.0
 40
0.0
 40
0.0
 40
0.0
 40
0.2653795077
 40
1.0
 40
1.0
 40
1.0
 40
1.0
 10
79.6466100471
 20
368.0135200971
 30
0.0
 10
79.6946130344
 20
368.0992852642
 30
0.0
 10
79.8933706847
 20
368.4110459793
 30
0.0
 10
80.1619053697
 20
368.6866487548
 30
0.0
 10
80.3961624743
 20
368.8250197415
 30
0.0
  0
SPLINE
  5
486
100
AcDbEntity
  8
0
100
AcDbSpline
 62
7
  6
CONTINUOUS
 70
0
 71
3
 72
11
 73
7
 74
0
 42
0.0000001
 43
0.0000001
 44
0.0000000001
 40
0.0
 40
0.0
 40
0.0
 40
0.0
 40
0.2374858507
 40
0.499871097
 40
0.7623230935
 40
1.0
 40
1.0
 40
1.0
 40
1.0
 10
202.7171928105
 20
293.5687204612
 30
0.0
 10
203.5390063203
 20
293.0553110474
 30
0.0
 10
205.0909980434
 20
291.6879681792
 30
0.0
 10
206.9253410054
 20
289.150893268
 30
0.0
 10
208.2085281386
 20
286.2946520733
 30
0.0
 10
208.6208680748
 20
284.2665350229
 30
0.0
 10
208.6554433982
 20
283.2973690874
 30
0.0
  0
SPLINE
  5
487
100
AcDbEntity
  8
0
100
AcDbSpline
 62
7
  6
CONTINUOUS
 70
0
 71
3
 72
9
 73
5
 74
0
 42
0.0000001
 43
0.0000001
 44
0.0000000001
 40
0.0
 40
0.0
 40
0.0
 40
0.0
 40
0.5196451413
 40
1.0
 40
1.0
 40
1.0
 40
1.0
 10
78.8373667106
 20
366.2222291899
 30
0.0
 10
78.7501765608
 20
366.0712103312
 30
0.0
 10
78.5511196422
 20
365.7983743548
 30
0.0
 10
78.3026899733
 20
365.5672846721
 30
0.0
 10
78.1692915682
 20
365.4767909448
 30
0.0
  0
SPLINE
  5
488
100
AcDbEntity
  8
0
100
AcDbSpline
 62
7
  6
CONTINUOUS
 70
0
 71
3
 72
9
 73
5
 74
0
 42
0.0000001
 43
0.0000001
 44
0.0000000001
 40
0.0
 40
0.0
 40
0.0
 40
0.0
 40
0.5209789294
 40
1.0
 40
1.0
 40
1.0
 40
1.0
 10
78.6665561973
 20
366.3159786912
 30
0.0
 10
78.5843796998
 20
366.1633105384
 30
0.0
 10
78.3952865256
 20
365.886877014
 30
0.0
 10
78.1555017534
 20
365.6506467984
 30
0.0
 10
78.0259156544
 20
365.5577973757
 30
0.0
  0
SPLINE
  5
489
100
AcDbEntity
  8
0
100
AcDbSpline
 62
7
  6
CONTINUOUS
 70
0
 71
3
 72
11
 73
7
 74
0
 42
0.0000001
 43
0.0000001
 44
0.0000000001
 40
0.0
 40
0.0
 40
0.0
 40
0.0
 40
0.2945769628
 40
0.5555732998
 40
0.7866320883
 40
1.0
 40
1.0
 40
1.0
 40
1.0
 10
48.0989728273
 20
341.4576561507
 30
0.0
 10
47.6509941152
 20
341.676297086
 30
0.0
 10
46.7694197729
 20
342.0212995703
 30
0.0
 10
45.4422405274
 20
342.2336534028
 30
0.0
 10
44.2379821032
 20
342.0887807268
 30
0.0
 10
43.5510669602
 20
341.7345778437
 30
0.0
 10
43.2685996067
 20
341.5096798081
 30
0.0
  0
SPLINE
  5
48A
100
AcDbEntity
  8
0
100
AcDbSpline
 62
7
  6
CONTINUOUS
 70
0
 71
3
 72
11
 73
7
 74
0
 42
0.0000001
 43
0.0000001
 44
0.0000000001
 40
0.0
 40
0.0
 40
0.0
 40
0.0
 40
0.2730311718
 40
0.5316779994
 40
0.7725493935
 40
1.0
 40
1.0
 40
1.0
 40
1.0
 10
43.1696659456
 20
108.1683385938
 30
0.0
 10
43.1696659301
 20
107.8047439507
 30
0.0
 10
43.2229333025
 20
107.0946593504
 30
0.0
 10
43.501939769
 20
106.0955736149
 30
0.0
 10
43.9980736595
 20
105.2484357551
 30
0.0
 10
44.4839652199
 20
104.8335283471
 30
0.0
 10
44.7462892717
 20
104.682096602
 30
0.0
  0
SPLINE
  5
48B
100
AcDbEntity
  8
0
100
AcDbSpline
 62
7
  6
CONTINUOUS
 70
0
 71
3
 72
11
 73
7
 74
0
 42
0.0000001
 43
0.0000001
 44
0.0000000001
 40
0.0
 40
0.0
 40
0.0
 40
0.0
 40
0.2873847108
 40
0.546013527
 40
0.7799021271
 40
1.0
 40
1.0
 40
1.0
 40
1.0
 10
81.3413551156
 20
86.1304021408
 30
0.0
 10
81.3290862868
 20
85.7519947117
 30
0.0
 10
81.3695380688
 20
85.0282307979
 30
0.0
 10
81.6511496602
 20
84.0298335067
 30
0.0
 10
82.1444486633
 20
83.2153934081
 30
0.0
 10
82.6117994135
 20
82.8211363028
 30
0.0
 10
82.8623218339
 20
82.6751361239
 30
0.0
  0
SPLINE
  5
48C
100
AcDbEntity
  8
0
100
AcDbSpline
 62
7
  6
CONTINUOUS
 70
0
 71
3
 72
9
 73
5
 74
0
 42
0.0000001
 43
0.0000001
 44
0.0000000001
 40
0.0
 40
0.0
 40
0.0
 40
0.0
 40
0.2605589955
 40
1.0
 40
1.0
 40
1.0
 40
1.0
 10
86.6115092068
 20
82.6798076019
 30
0.0
 10
86.576713287
 20
82.6309600124
 30
0.0
 10
86.4310397656
 20
82.4534236298
 30
0.0
 10
86.2220834169
 20
82.3200498396
 30
0.0
 10
86.0558585881
 20
82.2834825635
 30
0.0
  0
SPLINE
  5
48D
100
AcDbEntity
  8
0
100
AcDbSpline
 62
7
  6
CONTINUOUS
 70
0
 71
3
 72
9
 73
5
 74
0
 42
0.0000001
 43
0.0000001
 44
0.0000000001
 40
0.0
 40
0.0
 40
0.0
 40
0.0
 40
0.2578627506
 40
1.0
 40
1.0
 40
1.0
 40
1.0
 10
78.6665065311
 20
366.3158653691
 30
0.0
 10
78.577685497
 20
366.3612123474
 30
0.0
 10
78.230236069
 20
366.5310678784
 30
0.0
 10
77.870520177
 20
366.6763461202
 30
0.0
 10
77.5980381436
 20
366.7665292662
 30
0.0
  0
SPLINE
  5
48E
100
AcDbEntity
  8
0
100
AcDbSpline
 62
7
  6
CONTINUOUS
 70
0
 71
3
 72
11
 73
7
 74
0
 42
0.0000001
 43
0.0000001
 44
0.0000000001
 40
0.0
 40
0.0
 40
0.0
 40
0.0
 40
0.2823008934
 40
0.5342582525
 40
0.7676010163
 40
1.0
 40
1.0
 40
1.0
 40
1.0
 10
77.5980381436
 20
366.7665292662
 30
0.0
 10
77.1832842371
 20
366.9038000125
 30
0.0
 10
76.3682687403
 20
367.0879142271
 30
0.0
 10
75.1640536167
 20
367.0344661052
 30
0.0
 10
74.1094930588
 20
366.6186841919
 30
0.0
 10
73.5666928731
 20
366.1176212754
 30
0.0
 10
73.3455682757
 20
365.8339764096
 30
0.0
  0
SPLINE
  5
48F
100
AcDbEntity
  8
0
100
AcDbSpline
 62
7
  6
CONTINUOUS
 70
0
 71
3
 72
11
 73
7
 74
0
 42
0.0000001
 43
0.0000001
 44
0.0000000001
 40
0.0
 40
0.0
 40
0.0
 40
0.0
 40
0.2259191815
 40
0.4947699694
 40
0.7666408428
 40
1.0
 40
1.0
 40
1.0
 40
1.0
 10
162.5349088155
 20
40.0938009483
 30
0.0
 10
163.2275735877
 20
39.6938999267
 30
0.0
 10
164.8876467259
 20
39.0633477087
 30
0.0
 10
167.5989450096
 20
38.7070886568
 30
0.0
 10
170.3505043898
 20
38.9321220831
 30
0.0
 10
172.0775691319
 20
39.4743611925
 30
0.0
 10
172.8210709086
 20
39.8345524944
 30
0.0
  0
SPLINE
  5
490
100
AcDbEntity
  8
0
100
AcDbSpline
 62
7
  6
CONTINUOUS
 70
0
 71
3
 72
9
 73
5
 74
0
 42
0.0000001
 43
0.0000001
 44
0.0000000001
 40
0.0
 40
0.0
 40
0.0
 40
0.0
 40
0.4924913938
 40
1.0
 40
1.0
 40
1.0
 40
1.0
 10
209.8517328366
 20
46.4380778834
 30
0.0
 10
209.7741345422
 20
46.4850084335
 30
0.0
 10
209.634810971
 20
46.6256207205
 30
0.0
 10
209.6162650827
 20
46.8220867318
 30
0.0
 10
209.6280089297
 20
46.9147972306
 30
0.0
  0
SPLINE
  5
491
100
AcDbEntity
  8
0
100
AcDbSpline
 62
7
  6
CONTINUOUS
 70
0
 71
3
 72
9
 73
5
 74
0
 42
0.0000001
 43
0.0000001
 44
0.0000000001
 40
0.0
 40
0.0
 40
0.0
 40
0.0
 40
0.2413844582
 40
1.0
 40
1.0
 40
1.0
 40
1.0
 10
210.2919583333
 20
45.8025158039
 30
0.0
 10
210.2618917149
 20
45.8570374672
 30
0.0
 10
210.1309114568
 20
46.0793714485
 30
0.0
 10
209.9765862245
 20
46.2874130072
 30
0.0
 10
209.8517259377
 20
46.4380755497
 30
0.0
  0
SPLINE
  5
492
100
AcDbEntity
  8
0
100
AcDbSpline
 62
7
  6
CONTINUOUS
 70
0
 71
3
 72
8
 73
4
 74
0
 42
0.0000001
 43
0.0000001
 44
0.0000000001
 40
0.0
 40
0.0
 40
0.0
 40
0.0
 40
1.0
 40
1.0
 40
1.0
 40
1.0
 10
210.2919659512
 20
45.802604115
 30
0.0
 10
209.9805207936
 20
45.76682087
 30
0.0
 10
209.6697048046
 20
45.6365416098
 30
0.0
 10
209.4227929598
 20
45.4433757026
 30
0.0
  0
SPLINE
  5
493
100
AcDbEntity
  8
0
100
AcDbSpline
 62
7
  6
CONTINUOUS
 70
0
 71
3
 72
9
 73
5
 74
0
 42
0.0000001
 43
0.0000001
 44
0.0000000001
 40
0.0
 40
0.0
 40
0.0
 40
0.0
 40
0.2530926968
 40
1.0
 40
1.0
 40
1.0
 40
1.0
 10
208.9321789662
 20
45.9605683544
 30
0.0
 10
208.9952910941
 20
46.0220433442
 30
0.0
 10
209.2636726658
 20
46.244043933
 30
0.0
 10
209.5954673438
 20
46.3940787459
 30
0.0
 10
209.8517250981
 20
46.4380660477
 30
0.0
  0
SPLINE
  5
494
100
AcDbEntity
  8
0
100
AcDbSpline
 62
7
  6
CONTINUOUS
 70
0
 71
3
 72
9
 73
5
 74
0
 42
0.0000001
 43
0.0000001
 44
0.0000000001
 40
0.0
 40
0.0
 40
0.0
 40
0.0
 40
0.4789691827
 40
1.0
 40
1.0
 40
1.0
 40
1.0
 10
208.6592198742
 20
46.754435125
 30
0.0
 10
208.8038181317
 20
46.8173231845
 30
0.0
 10
209.1260042753
 20
46.9012788446
 30
0.0
 10
209.4566319069
 20
46.9220352081
 30
0.0
 10
209.6280081319
 20
46.9147975268
 30
0.0
  0
SPLINE
  5
495
100
AcDbEntity
  8
0
100
AcDbSpline
 62
7
  6
CONTINUOUS
 70
0
 71
3
 72
9
 73
5
 74
0
 42
0.0000001
 43
0.0000001
 44
0.0000000001
 40
0.0
 40
0.0
 40
0.0
 40
0.0
 40
0.4803549855
 40
1.0
 40
1.0
 40
1.0
 40
1.0
 10
208.6575606052
 20
46.9996373393
 30
0.0
 10
208.8026302339
 20
47.0699163277
 30
0.0
 10
209.1269750607
 20
47.1695174529
 30
0.0
 10
209.4627866885
 20
47.2054886859
 30
0.0
 10
209.6371681256
 20
47.2054888918
 30
0.0
  0
SPLINE
  5
496
100
AcDbEntity
  8
0
100
AcDbSpline
 62
7
  6
CONTINUOUS
 70
0
 71
3
 72
10
 73
6
 74
0
 42
0.0000001
 43
0.0000001
 44
0.0000000001
 40
0.0
 40
0.0
 40
0.0
 40
0.0
 40
0.5212342574
 40
0.7591591044
 40
1.0
 40
1.0
 40
1.0
 40
1.0
 10
209.5173837956
 20
45.3155392891
 30
0.0
 10
209.3674695415
 20
44.7116087792
 30
0.0
 10
208.9706402511
 20
43.836268951
 30
0.0
 10
208.0212334409
 20
43.0818181161
 30
0.0
 10
207.4724379501
 20
42.8850634486
 30
0.0
 10
207.1904703864
 20
42.8288298596
 30
0.0
  0
SPLINE
  5
497
100
AcDbEntity
  8
0
100
AcDbSpline
 62
7
  6
CONTINUOUS
 70
0
 71
3
 72
9
 73
5
 74
0
 42
0.0000001
 43
0.0000001
 44
0.0000000001
 40
0.0
 40
0.0
 40
0.0
 40
0.0
 40
0.2606051417
 40
1.0
 40
1.0
 40
1.0
 40
1.0
 10
208.932306155
 20
45.9604402356
 30
0.0
 10
208.9782281285
 20
45.918874301
 30
0.0
 10
209.1518616308
 20
45.7566411617
 30
0.0
 10
209.3144975206
 20
45.5819439664
 30
0.0
 10
209.4229464364
 20
45.4436599913
 30
0.0
  0
SPLINE
  5
498
100
AcDbEntity
  8
0
100
AcDbSpline
 62
7
  6
CONTINUOUS
 70
0
 71
3
 72
9
 73
5
 74
0
 42
0.0000001
 43
0.0000001
 44
0.0000000001
 40
0.0
 40
0.0
 40
0.0
 40
0.0
 40
0.5530008578
 40
1.0
 40
1.0
 40
1.0
 40
1.0
 10
208.6592212275
 20
46.7544688977
 30
0.0
 10
208.6547173152
 20
46.5959033695
 30
0.0
 10
208.6787634915
 20
46.3024290559
 30
0.0
 10
208.8372536657
 20
46.0464819828
 30
0.0
 10
208.9323208459
 20
45.9604396557
 30
0.0
  0
SPLINE
  5
499
100
AcDbEntity
  8
0
100
AcDbSpline
 62
7
  6
CONTINUOUS
 70
0
 71
3
 72
9
 73
5
 74
0
 42
0.0000001
 43
0.0000001
 44
0.0000000001
 40
0.0
 40
0.0
 40
0.0
 40
0.0
 40
0.2429612009
 40
1.0
 40
1.0
 40
1.0
 40
1.0
 10
210.3725634635
 20
45.6456300348
 30
0.0
 10
210.4498552378
 20
45.629297212
 30
0.0
 10
210.7625138926
 20
45.5372238988
 30
0.0
 10
211.0452988463
 20
45.3521431756
 30
0.0
 10
211.2215644274
 20
45.1803279023
 30
0.0
  0
SPLINE
  5
49A
100
AcDbEntity
  8
0
100
AcDbSpline
 62
7
  6
CONTINUOUS
 70
0
 71
3
 72
8
 73
4
 74
0
 42
0.0000001
 43
0.0000001
 44
0.0000000001
 40
0.0
 40
0.0
 40
0.0
 40
0.0
 40
1.0
 40
1.0
 40
1.0
 40
1.0
 10
209.517433099
 20
45.3154980645
 30
0.0
 10
209.76337716
 20
45.496797935
 30
0.0
 10
210.0684829918
 20
45.6156537059
 30
0.0
 10
210.3725539568
 20
45.6456365754
 30
0.0
  0
SPLINE
  5
49B
100
AcDbEntity
  8
0
100
AcDbSpline
 62
7
  6
CONTINUOUS
 70
0
 71
3
 72
9
 73
5
 74
0
 42
0.0000001
 43
0.0000001
 44
0.0000000001
 40
0.0
 40
0.0
 40
0.0
 40
0.0
 40
0.2584040714
 40
1.0
 40
1.0
 40
1.0
 40
1.0
 10
211.2303688217
 20
45.0808777111
 30
0.0
 10
211.1035433226
 20
45.1641161239
 30
0.0
 10
210.5773362648
 20
45.4235417931
 30
0.0
 10
209.92416047
 20
45.4707408093
 30
0.0
 10
209.5173899113
 20
45.3155501087
 30
0.0
  0
SPLINE
  5
49C
100
AcDbEntity
  8
0
100
AcDbSpline
 62
7
  6
CONTINUOUS
 70
0
 71
3
 72
9
 73
5
 74
0
 42
0.0000001
 43
0.0000001
 44
0.0000000001
 40
0.0
 40
0.0
 40
0.0
 40
0.0
 40
0.5020488864
 40
1.0
 40
1.0
 40
1.0
 40
1.0
 10
213.2303546799
 20
45.2561721269
 30
0.0
 10
212.9405964939
 20
45.0707811478
 30
0.0
 10
212.2516341397
 20
44.8828273704
 30
0.0
 10
211.5488174544
 20
44.958422213
 30
0.0
 10
211.23036855
 20
45.0808810374
 30
0.0
  0
SPLINE
  5
49D
100
AcDbEntity
  8
0
100
AcDbSpline
 62
7
  6
CONTINUOUS
 70
0
 71
3
 72
11
 73
7
 74
0
 42
0.0000001
 43
0.0000001
 44
0.0000000001
 40
0.0
 40
0.0
 40
0.0
 40
0.0
 40
0.2437194234
 40
0.5064875343
 40
0.7657701067
 40
1.0
 40
1.0
 40
1.0
 40
1.0
 10
271.8462482888
 20
321.4771833631
 30
0.0
 10
271.766549434
 20
322.3587093219
 30
0.0
 10
271.3296528599
 20
324.1686393052
 30
0.0
 10
270.1043564189
 20
326.6854766174
 30
0.0
 10
268.4180375063
 20
328.876390816
 30
0.0
 10
267.012888926
 20
330.0302649957
 30
0.0
 10
266.2761932581
 20
330.4555868158
 30
0.0
  0
SPLINE
  5
49E
100
AcDbEntity
  8
0
100
AcDbSpline
 62
7
  6
CONTINUOUS
 70
0
 71
3
 72
9
 73
5
 74
0
 42
0.0000001
 43
0.0000001
 44
0.0000000001
 40
0.0
 40
0.0
 40
0.0
 40
0.0
 40
0.2730098456
 40
1.0
 40
1.0
 40
1.0
 40
1.0
 10
143.7670292034
 20
401.184685555
 30
0.0
 10
143.5768651639
 20
401.2944743306
 30
0.0
 10
142.8643212152
 20
401.6651164204
 30
0.0
 10
142.0709812885
 20
401.9043039476
 30
0.0
 10
141.4874272339
 20
401.9411594663
 30
0.0
  0
SPLINE
  5
49F
100
AcDbEntity
  8
0
100
AcDbSpline
 62
7
  6
CONTINUOUS
 70
0
 71
3
 72
11
 73
7
 74
0
 42
0.0000001
 43
0.0000001
 44
0.0000000001
 40
0.0
 40
0.0
 40
0.0
 40
0.0
 40
0.2177833598
 40
0.4509104088
 40
0.7102966711
 40
1.0
 40
1.0
 40
1.0
 40
1.0
 10
269.9980286207
 20
70.6575231044
 30
0.0
 10
270.2827332603
 20
70.8218964745
 30
0.0
 10
270.8154039392
 20
71.2697116516
 30
0.0
 10
271.3824950087
 20
72.1969313717
 30
0.0
 10
271.7193137546
 20
73.3396107797
 30
0.0
 10
271.785616943
 20
74.1712869457
 30
0.0
 10
271.785616943
 20
74.6085996464
 30
0.0
  0
SPLINE
  5
4A0
100
AcDbEntity
  8
0
100
AcDbSpline
 62
7
  6
CONTINUOUS
 70
0
 71
3
 72
9
 73
5
 74
0
 42
0.0000001
 43
0.0000001
 44
0.0000000001
 40
0.0
 40
0.0
 40
0.0
 40
0.0
 40
0.2419499667
 40
1.0
 40
1.0
 40
1.0
 40
1.0
 10
263.4735285829
 20
332.1721128067
 30
0.0
 10
263.4901043222
 20
332.1549780229
 30
0.0
 10
263.5555480228
 20
332.0812111272
 30
0.0
 10
263.6083245396
 20
331.996571889
 30
0.0
 10
263.6411310215
 20
331.9294686405
 30
0.0
  0
SPLINE
  5
4A1
100
AcDbEntity
  8
0
100
AcDbSpline
 62
7
  6
CONTINUOUS
 70
0
 71
3
 72
9
 73
5
 74
0
 42
0.0000001
 43
0.0000001
 44
0.0000000001
 40
0.0
 40
0.0
 40
0.0
 40
0.0
 40
0.2585914127
 40
1.0
 40
1.0
 40
1.0
 40
1.0
 10
271.8492640751
 20
321.4295820617
 30
0.0
 10
271.870914935
 20
321.416042587
 30
0.0
 10
271.9536466767
 20
321.3621278406
 30
0.0
 10
272.0323049887
 20
321.3018299564
 30
0.0
 10
272.0871432852
 20
321.2533219903
 30
0.0
  0
SPLINE
  5
4A2
100
AcDbEntity
  8
0
100
AcDbSpline
 62
7
  6
CONTINUOUS
 70
0
 71
3
 72
9
 73
5
 74
0
 42
0.0000001
 43
0.0000001
 44
0.0000000001
 40
0.0
 40
0.0
 40
0.0
 40
0.0
 40
0.2727934948
 40
1.0
 40
1.0
 40
1.0
 40
1.0
 10
272.0871432852
 20
321.2533219903
 30
0.0
 10
272.1295091189
 20
321.2158467121
 30
0.0
 10
272.2771161361
 20
321.0706978265
 30
0.0
 10
272.3906858014
 20
320.8860539767
 30
0.0
 10
272.4321206042
 20
320.7410771928
 30
0.0
  0
SPLINE
  5
4A3
100
AcDbEntity
  8
0
100
AcDbSpline
 62
7
  6
CONTINUOUS
 70
0
 71
3
 72
9
 73
5
 74
0
 42
0.0000001
 43
0.0000001
 44
0.0000000001
 40
0.0
 40
0.0
 40
0.0
 40
0.0
 40
0.4687353295
 40
1.0
 40
1.0
 40
1.0
 40
1.0
 10
169.6948094785
 20
347.6177101086
 30
0.0
 10
169.694834933
 20
347.5269188654
 30
0.0
 10
169.7464791137
 20
347.33162185
 30
0.0
 10
169.8733200144
 20
347.1789394307
 30
0.0
 10
169.9492209139
 20
347.1094553214
 30
0.0
  0
SPLINE
  5
4A4
100
AcDbEntity
  8
0
100
AcDbSpline
 62
7
  6
CONTINUOUS
 70
0
 71
3
 72
9
 73
5
 74
0
 42
0.0000001
 43
0.0000001
 44
0.0000000001
 40
0.0
 40
0.0
 40
0.0
 40
0.0
 40
0.2387886015
 40
1.0
 40
1.0
 40
1.0
 40
1.0
 10
169.9492209139
 20
347.1094553214
 30
0.0
 10
169.9658490244
 20
347.0942329794
 30
0.0
 10
170.0374626405
 20
347.03265487
 30
0.0
 10
170.1162231713
 20
346.9796042275
 30
0.0
 10
170.178461938
 20
346.9436757714
 30
0.0
  0
SPLINE
  5
4A5
100
AcDbEntity
  8
0
100
AcDbSpline
 62
7
  6
CONTINUOUS
 70
0
 71
3
 72
11
 73
7
 74
0
 42
0.0000001
 43
0.0000001
 44
0.0000000001
 40
0.0
 40
0.0
 40
0.0
 40
0.0
 40
0.2363357734
 40
0.4981268727
 40
0.7609388086
 40
1.0
 40
1.0
 40
1.0
 40
1.0
 10
170.178461938
 20
346.9436757714
 30
0.0
 10
170.3408427897
 20
346.8499384819
 30
0.0
 10
170.7178230255
 20
346.7119689965
 30
0.0
 10
171.3218477956
 20
346.6423913998
 30
0.0
 10
171.9291117469
 20
346.7020618144
 30
0.0
 10
172.3113679476
 20
346.8333195958
 30
0.0
 10
172.4779711077
 20
346.9239456278
 30
0.0
  0
SPLINE
  5
4A6
100
AcDbEntity
  8
0
100
AcDbSpline
 62
7
  6
CONTINUOUS
 70
0
 71
3
 72
11
 73
7
 74
0
 42
0.0000001
 43
0.0000001
 44
0.0000000001
 40
0.0
 40
0.0
 40
0.0
 40
0.0
 40
0.2249693815
 40
0.462858515
 40
0.7201016795
 40
1.0
 40
1.0
 40
1.0
 40
1.0
 10
166.1644715501
 20
354.0237505773
 30
0.0
 10
166.2247704443
 20
353.5204177568
 30
0.0
 10
166.4843110011
 20
352.4972811177
 30
0.0
 10
167.2471804409
 20
351.051002702
 30
0.0
 10
168.3639503954
 20
349.6952787854
 30
0.0
 10
169.2862326094
 20
348.9026043753
 30
0.0
 10
169.7918085236
 20
348.5255339546
 30
0.0
  0
SPLINE
  5
4A7
100
AcDbEntity
  8
0
100
AcDbSpline
 62
7
  6
CONTINUOUS
 70
0
 71
3
 72
17
 73
13
 74
0
 42
0.0000001
 43
0.0000001
 44
0.0000000001
 40
0.0
 40
0.0
 40
0.0
 40
0.0
 40
0.0429439536
 40
0.087742603
 40
0.1354335274
 40
0.1867046281
 40
0.3008484967
 40
0.4299295864
 40
0.5702316302
 40
0.716221423
 40
0.8615504189
 40
1.0
 40
1.0
 40
1.0
 40
1.0
 10
119.6989742891
 20
374.5554387111
 30
0.0
 10
119.7504213049
 20
373.9802937035
 30
0.0
 10
119.9899318992
 20
372.813654571
 30
0.0
 10
120.7271493938
 20
371.1358692163
 30
0.0
 10
121.8285244517
 20
369.534809394
 30
0.0
 10
123.8233885887
 20
367.4631510295
 30
0.0
 10
127.1549831927
 20
365.2404128937
 30
0.0
 10
131.9703212345
 20
363.3207721688
 30
0.0
 10
137.4573571992
 20
362.1550666373
 30
0.0
 10
143.2724911011
 20
361.8168525256
 30
0.0
 10
149.0486125942
 20
362.3250658819
 30
0.0
 10
152.7739955387
 20
363.2431098384
 30
0.0
 10
154.5328208808
 20
363.853246117
 30
0.0
  0
SPLINE
  5
4A8
100
AcDbEntity
  8
0
100
AcDbSpline
 62
7
  6
CONTINUOUS
 70
0
 71
3
 72
9
 73
5
 74
0
 42
0.0000001
 43
0.0000001
 44
0.0000000001
 40
0.0
 40
0.0
 40
0.0
 40
0.0
 40
0.7416648402
 40
1.0
 40
1.0
 40
1.0
 40
1.0
 10
121.9042203224
 20
383.2245197724
 30
0.0
 10
121.904289865
 20
383.1297613212
 30
0.0
 10
121.9282158876
 20
383.0007583383
 30
0.0
 10
121.9781452265
 20
382.8831071944
 30
0.0
 10
121.9925525489
 20
382.8534115696
 30
0.0
  0
SPLINE
  5
4A9
100
AcDbEntity
  8
0
100
AcDbSpline
 62
7
  6
CONTINUOUS
 70
0
 71
3
 72
9
 73
5
 74
0
 42
0.0000001
 43
0.0000001
 44
0.0000000001
 40
0.0
 40
0.0
 40
0.0
 40
0.0
 40
0.2274590976
 40
1.0
 40
1.0
 40
1.0
 40
1.0
 10
122.0520324125
 20
382.7475924485
 30
0.0
 10
122.0834964477
 20
382.6984950005
 30
0.0
 10
122.2390927063
 20
382.4936216718
 30
0.0
 10
122.451178489
 20
382.3370255504
 30
0.0
 10
122.6237934858
 20
382.2399120019
 30
0.0
  0
SPLINE
  5
4AA
100
AcDbEntity
  8
0
100
AcDbSpline
 62
7
  6
CONTINUOUS
 70
0
 71
3
 72
17
 73
13
 74
0
 42
0.0000001
 43
0.0000001
 44
0.0000000001
 40
0.0
 40
0.0
 40
0.0
 40
0.0
 40
0.0429439536
 40
0.087742603
 40
0.1354335274
 40
0.1867046281
 40
0.3008484967
 40
0.4299295864
 40
0.5702316302
 40
0.716221423
 40
0.8615504189
 40
1.0
 40
1.0
 40
1.0
 40
1.0
 10
196.2110749889
 20
330.382156109
 30
0.0
 10
196.2625220047
 20
329.8070111014
 30
0.0
 10
196.502032599
 20
328.6403719689
 30
0.0
 10
197.2392500936
 20
326.9625866142
 30
0.0
 10
198.3406251515
 20
325.3615267919
 30
0.0
 10
200.3354892885
 20
323.2898684274
 30
0.0
 10
203.6670838925
 20
321.0671302915
 30
0.0
 10
208.4824219344
 20
319.1474895667
 30
0.0
 10
213.969457899
 20
317.9817840352
 30
0.0
 10
219.7845918009
 20
317.6435699235
 30
0.0
 10
225.560713294
 20
318.1517832798
 30
0.0
 10
229.2860962385
 20
319.0698272363
 30
0.0
 10
231.0449215806
 20
319.6799635149
 30
0.0
  0
SPLINE
  5
4AB
100
AcDbEntity
  8
0
100
AcDbSpline
 62
7
  6
CONTINUOUS
 70
0
 71
3
 72
9
 73
5
 74
0
 42
0.0000001
 43
0.0000001
 44
0.0000000001
 40
0.0
 40
0.0
 40
0.0
 40
0.0
 40
0.7416648402
 40
1.0
 40
1.0
 40
1.0
 40
1.0
 10
198.4163210222
 20
339.0512371703
 30
0.0
 10
198.4163905648
 20
338.9564787191
 30
0.0
 10
198.4403165875
 20
338.8274757362
 30
0.0
 10
198.4902459263
 20
338.7098245923
 30
0.0
 10
198.5046532487
 20
338.6801289675
 30
0.0
  0
SPLINE
  5
4AC
100
AcDbEntity
  8
0
100
AcDbSpline
 62
7
  6
CONTINUOUS
 70
0
 71
3
 72
9
 73
5
 74
0
 42
0.0000001
 43
0.0000001
 44
0.0000000001
 40
0.0
 40
0.0
 40
0.0
 40
0.0
 40
0.2274590976
 40
1.0
 40
1.0
 40
1.0
 40
1.0
 10
198.5641331123
 20
338.5743098464
 30
0.0
 10
198.5955971475
 20
338.5252123984
 30
0.0
 10
198.7511934061
 20
338.3203390697
 30
0.0
 10
198.9632791888
 20
338.1637429483
 30
0.0
 10
199.1358941856
 20
338.0666293998
 30
0.0
  0
SPLINE
  5
4AD
100
AcDbEntity
  8
0
100
AcDbSpline
 62
7
  6
CONTINUOUS
 70
0
 71
3
 72
9
 73
5
 74
0
 42
0.0000001
 43
0.0000001
 44
0.0000000001
 40
0.0
 40
0.0
 40
0.0
 40
0.0
 40
0.254556557
 40
1.0
 40
1.0
 40
1.0
 40
1.0
 10
93.0420383233
 20
370.6465097778
 30
0.0
 10
93.0076337093
 20
370.6922959413
 30
0.0
 10
92.8694094014
 20
370.8698247721
 30
0.0
 10
92.71896131
 20
371.0379203281
 30
0.0
 10
92.600117602
 20
371.1562602308
 30
0.0
  0
SPLINE
  5
4AE
100
AcDbEntity
  8
0
100
AcDbSpline
 62
7
  6
CONTINUOUS
 70
0
 71
3
 72
9
 73
5
 74
0
 42
0.0000001
 43
0.0000001
 44
0.0000000001
 40
0.0
 40
0.0
 40
0.0
 40
0.0
 40
0.262972806
 40
1.0
 40
1.0
 40
1.0
 40
1.0
 10
92.600117602
 20
371.1562602308
 30
0.0
 10
92.5422652318
 20
371.2138673517
 30
0.0
 10
92.3161647903
 20
371.4265445557
 30
0.0
 10
92.0650329498
 20
371.6138798592
 30
0.0
 10
91.8668704919
 20
371.7282864193
 30
0.0
  0
SPLINE
  5
4AF
100
AcDbEntity
  8
0
100
AcDbSpline
 62
7
  6
CONTINUOUS
 70
0
 71
3
 72
11
 73
7
 74
0
 42
0.0000001
 43
0.0000001
 44
0.0000000001
 40
0.0
 40
0.0
 40
0.0
 40
0.0
 40
0.289702329
 40
0.5490881649
 40
0.7822156415
 40
1.0
 40
1.0
 40
1.0
 40
1.0
 10
141.0900173251
 20
402.0821736786
 30
0.0
 10
140.7113027048
 20
402.3008197201
 30
0.0
 10
139.9579172065
 20
402.6592199716
 30
0.0
 10
138.7999487046
 20
402.9388486178
 30
0.0
 10
137.713435485
 20
402.9113383003
 30
0.0
 10
137.0592965139
 20
402.6739462021
 30
0.0
 10
136.7745981784
 20
402.5095764716
 30
0.0
  0
SPLINE
  5
4B0
100
AcDbEntity
  8
0
100
AcDbSpline
 62
7
  6
CONTINUOUS
 70
0
 71
3
 72
8
 73
4
 74
0
 42
0.0000001
 43
0.0000001
 44
0.0000000001
 40
0.0
 40
0.0
 40
0.0
 40
0.0
 40
1.0
 40
1.0
 40
1.0
 40
1.0
 10
231.0449215806
 20
319.6799635149
 30
0.0
 10
231.092170836
 20
319.6394682716
 30
0.0
 10
231.1417698893
 20
319.6016080956
 30
0.0
 10
231.1929751596
 20
319.566247423
 30
0.0
  0
SPLINE
  5
4B1
100
AcDbEntity
  8
0
100
AcDbSpline
 62
7
  6
CONTINUOUS
 70
0
 71
3
 72
8
 73
4
 74
0
 42
0.0000001
 43
0.0000001
 44
0.0000000001
 40
0.0
 40
0.0
 40
0.0
 40
0.0
 40
1.0
 40
1.0
 40
1.0
 40
1.0
 10
231.1929751596
 20
319.566247423
 30
0.0
 10
231.2464742586
 20
319.5293027079
 30
0.0
 10
231.3018943648
 20
319.4950400629
 30
0.0
 10
231.3585853715
 20
319.4632093335
 30
0.0
  0
SPLINE
  5
4B2
100
AcDbEntity
  8
0
100
AcDbSpline
 62
7
  6
CONTINUOUS
 70
0
 71
3
 72
11
 73
7
 74
0
 42
0.0000001
 43
0.0000001
 44
0.0000000001
 40
0.0
 40
0.0
 40
0.0
 40
0.0
 40
0.252521911
 40
0.5293532005
 40
0.7893707332
 40
1.0
 40
1.0
 40
1.0
 40
1.0
 10
231.3585853715
 20
319.4632093335
 30
0.0
 10
231.6605824675
 20
319.2936447339
 30
0.0
 10
232.3697283721
 20
319.0737406395
 30
0.0
 10
233.4638143889
 20
319.0484716409
 30
0.0
 10
234.4698549679
 20
319.2937660219
 30
0.0
 10
235.0314091939
 20
319.6705981981
 30
0.0
 10
235.2048739696
 20
319.9016080907
 30
0.0
  0
SPLINE
  5
4B3
100
AcDbEntity
  8
0
100
AcDbSpline
 62
7
  6
CONTINUOUS
 70
0
 71
3
 72
9
 73
5
 74
0
 42
0.0000001
 43
0.0000001
 44
0.0000000001
 40
0.0
 40
0.0
 40
0.0
 40
0.0
 40
0.2673026366
 40
1.0
 40
1.0
 40
1.0
 40
1.0
 10
235.2048739696
 20
319.9016080907
 30
0.0
 10
235.2362370134
 20
319.9433754947
 30
0.0
 10
235.3434761337
 20
320.1066262515
 30
0.0
 10
235.4010576657
 20
320.304882717
 30
0.0
 10
235.401096284
 20
320.4480540322
 30
0.0
  0
SPLINE
  5
4B4
100
AcDbEntity
  8
0
100
AcDbSpline
 62
7
  6
CONTINUOUS
 70
0
 71
3
 72
11
 73
7
 74
0
 42
0.0000001
 43
0.0000001
 44
0.0000000001
 40
0.0
 40
0.0
 40
0.0
 40
0.0
 40
0.2870937702
 40
0.5471135519
 40
0.7824764576
 40
1.0
 40
1.0
 40
1.0
 40
1.0
 10
235.1534275608
 20
321.4972365642
 30
0.0
 10
236.085342342
 20
322.015327404
 30
0.0
 10
237.7958842281
 20
323.131034842
 30
0.0
 10
239.9213786637
 20
325.1402173086
 30
0.0
 10
241.4167007882
 20
327.3553168317
 30
0.0
 10
241.9600268927
 20
328.9763446476
 30
0.0
 10
242.0953565908
 20
329.7727972039
 30
0.0
  0
SPLINE
  5
4B5
100
AcDbEntity
  8
0
100
AcDbSpline
 62
7
  6
CONTINUOUS
 70
0
 71
3
 72
9
 73
5
 74
0
 42
0.0000001
 43
0.0000001
 44
0.0000000001
 40
0.0
 40
0.0
 40
0.0
 40
0.0
 40
0.2600892697
 40
1.0
 40
1.0
 40
1.0
 40
1.0
 10
236.3179027016
 20
339.0501318778
 30
0.0
 10
236.3380320532
 20
339.0676781279
 30
0.0
 10
236.4137485401
 20
339.1370099819
 30
0.0
 10
236.4825296065
 20
339.2141524559
 30
0.0
 10
236.5273965639
 20
339.2754535221
 30
0.0
  0
SPLINE
  5
4B6
100
AcDbEntity
  8
0
100
AcDbSpline
 62
7
  6
CONTINUOUS
 70
0
 71
3
 72
9
 73
5
 74
0
 42
0.0000001
 43
0.0000001
 44
0.0000000001
 40
0.0
 40
0.0
 40
0.0
 40
0.0
 40
0.2668667477
 40
1.0
 40
1.0
 40
1.0
 40
1.0
 10
236.5273965639
 20
339.2754535221
 30
0.0
 10
236.5574168097
 20
339.3164697437
 30
0.0
 10
236.6600573854
 20
339.4768384608
 30
0.0
 10
236.7146661195
 20
339.6700990806
 30
0.0
 10
236.7145715665
 20
339.8097347657
 30
0.0
  0
SPLINE
  5
4B7
100
AcDbEntity
  8
0
100
AcDbSpline
 62
7
  6
CONTINUOUS
 70
0
 71
3
 72
8
 73
4
 74
0
 42
0.0000001
 43
0.0000001
 44
0.0000000001
 40
0.0
 40
0.0
 40
0.0
 40
0.0
 40
1.0
 40
1.0
 40
1.0
 40
1.0
 10
154.5328208808
 20
363.853246117
 30
0.0
 10
154.5800701362
 20
363.8127508737
 30
0.0
 10
154.6296691895
 20
363.7748906977
 30
0.0
 10
154.6808744598
 20
363.7395300251
 30
0.0
  0
SPLINE
  5
4B8
100
AcDbEntity
  8
0
100
AcDbSpline
 62
7
  6
CONTINUOUS
 70
0
 71
3
 72
8
 73
4
 74
0
 42
0.0000001
 43
0.0000001
 44
0.0000000001
 40
0.0
 40
0.0
 40
0.0
 40
0.0
 40
1.0
 40
1.0
 40
1.0
 40
1.0
 10
154.6808744598
 20
363.7395300251
 30
0.0
 10
154.7343735588
 20
363.70258531
 30
0.0
 10
154.789793665
 20
363.6683226651
 30
0.0
 10
154.8464846717
 20
363.6364919357
 30
0.0
  0
SPLINE
  5
4B9
100
AcDbEntity
  8
0
100
AcDbSpline
 62
7
  6
CONTINUOUS
 70
0
 71
3
 72
11
 73
7
 74
0
 42
0.0000001
 43
0.0000001
 44
0.0000000001
 40
0.0
 40
0.0
 40
0.0
 40
0.0
 40
0.252521911
 40
0.5293532005
 40
0.7893707332
 40
1.0
 40
1.0
 40
1.0
 40
1.0
 10
154.8464846717
 20
363.6364919357
 30
0.0
 10
155.1484817677
 20
363.4669273361
 30
0.0
 10
155.8576276723
 20
363.2470232416
 30
0.0
 10
156.9517136891
 20
363.221754243
 30
0.0
 10
157.9577542681
 20
363.467048624
 30
0.0
 10
158.5193084941
 20
363.8438808002
 30
0.0
 10
158.6927732698
 20
364.0748906928
 30
0.0
  0
SPLINE
  5
4BA
100
AcDbEntity
  8
0
100
AcDbSpline
 62
7
  6
CONTINUOUS
 70
0
 71
3
 72
9
 73
5
 74
0
 42
0.0000001
 43
0.0000001
 44
0.0000000001
 40
0.0
 40
0.0
 40
0.0
 40
0.0
 40
0.2673026366
 40
1.0
 40
1.0
 40
1.0
 40
1.0
 10
158.6927732698
 20
364.0748906928
 30
0.0
 10
158.7241363135
 20
364.1166580968
 30
0.0
 10
158.8313754339
 20
364.2799088536
 30
0.0
 10
158.8889569659
 20
364.4781653191
 30
0.0
 10
158.8889955842
 20
364.6213366343
 30
0.0
  0
SPLINE
  5
4BB
100
AcDbEntity
  8
0
100
AcDbSpline
 62
7
  6
CONTINUOUS
 70
0
 71
3
 72
11
 73
7
 74
0
 42
0.0000001
 43
0.0000001
 44
0.0000000001
 40
0.0
 40
0.0
 40
0.0
 40
0.0
 40
0.2870937702
 40
0.5471135519
 40
0.7824764576
 40
1.0
 40
1.0
 40
1.0
 40
1.0
 10
158.641326861
 20
365.6705191663
 30
0.0
 10
159.5732416422
 20
366.1886100061
 30
0.0
 10
161.2837835283
 20
367.3043174441
 30
0.0
 10
163.4092779639
 20
369.3134999107
 30
0.0
 10
164.9046000884
 20
371.5285994338
 30
0.0
 10
165.4479261929
 20
373.1496272497
 30
0.0
 10
165.583255891
 20
373.946079806
 30
0.0
  0
SPLINE
  5
4BC
100
AcDbEntity
  8
0
100
AcDbSpline
 62
7
  6
CONTINUOUS
 70
0
 71
3
 72
9
 73
5
 74
0
 42
0.0000001
 43
0.0000001
 44
0.0000000001
 40
0.0
 40
0.0
 40
0.0
 40
0.0
 40
0.2600892697
 40
1.0
 40
1.0
 40
1.0
 40
1.0
 10
159.8058020018
 20
383.2234144799
 30
0.0
 10
159.8259313534
 20
383.24096073
 30
0.0
 10
159.9016478403
 20
383.310292584
 30
0.0
 10
159.9704289067
 20
383.387435058
 30
0.0
 10
160.0152958641
 20
383.4487361242
 30
0.0
  0
SPLINE
  5
4BD
100
AcDbEntity
  8
0
100
AcDbSpline
 62
7
  6
CONTINUOUS
 70
0
 71
3
 72
9
 73
5
 74
0
 42
0.0000001
 43
0.0000001
 44
0.0000000001
 40
0.0
 40
0.0
 40
0.0
 40
0.0
 40
0.2668667477
 40
1.0
 40
1.0
 40
1.0
 40
1.0
 10
160.0152958641
 20
383.4487361242
 30
0.0
 10
160.0453161099
 20
383.4897523458
 30
0.0
 10
160.1479566856
 20
383.650121063
 30
0.0
 10
160.2025654197
 20
383.8433816827
 30
0.0
 10
160.2024708667
 20
383.9830173678
 30
0.0
  0
SPLINE
  5
4BE
100
AcDbEntity
  8
0
100
AcDbSpline
 62
7
  6
CONTINUOUS
 70
0
 71
3
 72
9
 73
5
 74
0
 42
0.0000001
 43
0.0000001
 44
0.0000000001
 40
0.0
 40
0.0
 40
0.0
 40
0.0
 40
0.263198246
 40
1.0
 40
1.0
 40
1.0
 40
1.0
 10
197.5041193529
 20
361.4995142808
 30
0.0
 10
197.5200342629
 20
361.5248860015
 30
0.0
 10
197.5747691188
 20
361.6246605359
 30
0.0
 10
197.6025953222
 20
361.7399475431
 30
0.0
 10
197.6025718158
 20
361.8237903752
 30
0.0
  0
SPLINE
  5
4BF
100
AcDbEntity
  8
0
100
AcDbSpline
 62
7
  6
CONTINUOUS
 70
0
 71
3
 72
9
 73
5
 74
0
 42
0.0000001
 43
0.0000001
 44
0.0000000001
 40
0.0
 40
0.0
 40
0.0
 40
0.0
 40
0.2379540706
 40
1.0
 40
1.0
 40
1.0
 40
1.0
 10
172.4779711077
 20
346.9239456278
 30
0.0
 10
172.8984077052
 20
346.7231605941
 30
0.0
 10
174.6965075134
 20
345.9452226754
 30
0.0
 10
176.5972555626
 20
345.4145178993
 30
0.0
 10
178.0620046733
 20
345.1301091758
 30
0.0
  0
SPLINE
  5
4C0
100
AcDbEntity
  8
0
100
AcDbSpline
 62
7
  6
CONTINUOUS
 70
0
 71
3
 72
15
 73
11
 74
0
 42
0.0000001
 43
0.0000001
 44
0.0000000001
 40
0.0
 40
0.0
 40
0.0
 40
0.0
 40
0.1458052491
 40
0.2937709511
 40
0.4387903241
 40
0.5760911013
 40
0.7017904739
 40
0.8136091125
 40
0.911771067
 40
1.0
 40
1.0
 40
1.0
 40
1.0
 10
178.0620046733
 20
345.1301091758
 30
0.0
 10
179.3489757284
 20
344.8802194219
 30
0.0
 10
181.9808006024
 20
344.5616812119
 30
0.0
 10
185.9364342009
 20
344.6019454858
 30
0.0
 10
189.7785174522
 20
345.1494358721
 30
0.0
 10
193.3146440232
 20
346.1772238838
 30
0.0
 10
196.3721926264
 20
347.6365616507
 30
0.0
 10
198.8041965523
 20
349.4671697124
 30
0.0
 10
200.4883297019
 20
351.6014566501
 30
0.0
 10
201.0379858788
 20
353.2335145678
 30
0.0
 10
201.13263669
 20
354.0211577898
 30
0.0
  0
SPLINE
  5
4C1
100
AcDbEntity
  8
0
100
AcDbSpline
 62
7
  6
CONTINUOUS
 70
0
 71
3
 72
9
 73
5
 74
0
 42
0.0000001
 43
0.0000001
 44
0.0000000001
 40
0.0
 40
0.0
 40
0.0
 40
0.0
 40
0.4493094031
 40
1.0
 40
1.0
 40
1.0
 40
1.0
 10
145.7844870946
 20
400.1538207129
 30
0.0
 10
145.6284457941
 20
400.2438732083
 30
0.0
 10
145.2016746528
 20
400.3087651026
 30
0.0
 10
144.8194832129
 20
400.1498247656
 30
0.0
 10
144.6282529678
 20
400.0394185912
 30
0.0
  0
SPLINE
  5
4C2
100
AcDbEntity
  8
0
100
AcDbSpline
 62
7
  6
CONTINUOUS
 70
0
 71
3
 72
9
 73
5
 74
0
 42
0.0000001
 43
0.0000001
 44
0.0000000001
 40
0.0
 40
0.0
 40
0.0
 40
0.0
 40
0.5506933135
 40
1.0
 40
1.0
 40
1.0
 40
1.0
 10
271.785616943
 20
74.6085996464
 30
0.0
 10
271.9768485589
 20
74.7190066123
 30
0.0
 10
272.3055935296
 20
74.9705215633
 30
0.0
 10
272.4627828708
 20
75.3725638967
 30
0.0
 10
272.4628140327
 20
75.5527251885
 30
0.0
  0
SPLINE
  5
4C3
100
AcDbEntity
  8
0
100
AcDbSpline
 62
7
  6
CONTINUOUS
 70
0
 71
3
 72
11
 73
7
 74
0
 42
0.0000001
 43
0.0000001
 44
0.0000000001
 40
0.0
 40
0.0
 40
0.0
 40
0.0
 40
0.2372413576
 40
0.5000010231
 40
0.762760128
 40
1.0
 40
1.0
 40
1.0
 40
1.0
 10
271.785616943
 20
319.5795740452
 30
0.0
 10
271.785616943
 20
320.5800712906
 30
0.0
 10
271.4103355656
 20
322.6900400029
 30
0.0
 10
270.1024063507
 20
325.6549060493
 30
0.0
 10
268.1887137882
 20
328.2700254419
 30
0.0
 10
266.5490649798
 20
329.6499973777
 30
0.0
 10
265.682609474
 20
330.1502343803
 30
0.0
  0
SPLINE
  5
4C4
100
AcDbEntity
  8
0
100
AcDbSpline
 62
7
  6
CONTINUOUS
 70
0
 71
3
 72
11
 73
7
 74
0
 42
0.0000001
 43
0.0000001
 44
0.0000000001
 40
0.0
 40
0.0
 40
0.0
 40
0.0
 40
0.2895713072
 40
0.5489711443
 40
0.7821044753
 40
1.0
 40
1.0
 40
1.0
 40
1.0
 10
213.1057330648
 20
301.7325799911
 30
0.0
 10
212.9724972894
 20
301.8095019617
 30
0.0
 10
212.707345051
 20
301.9355221969
 30
0.0
 10
212.2999084001
 20
302.0341381604
 30
0.0
 10
211.9173593848
 20
302.0245374951
 30
0.0
 10
211.6871658437
 20
301.940754334
 30
0.0
 10
211.5868635587
 20
301.8829513162
 30
0.0
  0
SPLINE
  5
4C5
100
AcDbEntity
  8
0
100
AcDbSpline
 62
7
  6
CONTINUOUS
 70
0
 71
3
 72
9
 73
5
 74
0
 42
0.0000001
 43
0.0000001
 44
0.0000000001
 40
0.0
 40
0.0
 40
0.0
 40
0.0
 40
0.2663208392
 40
1.0
 40
1.0
 40
1.0
 40
1.0
 10
262.1443738313
 20
332.1929894678
 30
0.0
 10
262.186489798
 20
332.2173049873
 30
0.0
 10
262.3475822395
 20
332.3031293924
 30
0.0
 10
262.5216302005
 20
332.3666885855
 30
0.0
 10
262.6529995983
 20
332.3929713468
 30
0.0
  0
SPLINE
  5
4C6
100
AcDbEntity
  8
0
100
AcDbSpline
 62
7
  6
CONTINUOUS
 70
0
 71
3
 72
9
 73
5
 74
0
 42
0.0000001
 43
0.0000001
 44
0.0000000001
 40
0.0
 40
0.0
 40
0.0
 40
0.0
 40
0.2661541038
 40
1.0
 40
1.0
 40
1.0
 40
1.0
 10
262.6529995983
 20
332.3929713468
 30
0.0
 10
262.6930658016
 20
332.4009872962
 30
0.0
 10
262.8447759956
 20
332.4239945644
 30
0.0
 10
263.0025286773
 20
332.4151522331
 30
0.0
 10
263.111291196
 20
332.3857730891
 30
0.0
  0
SPLINE
  5
4C7
100
AcDbEntity
  8
0
100
AcDbSpline
 62
7
  6
CONTINUOUS
 70
0
 71
3
 72
8
 73
4
 74
0
 42
0.0000001
 43
0.0000001
 44
0.0000000001
 40
0.0
 40
0.0
 40
0.0
 40
0.0
 40
1.0
 40
1.0
 40
1.0
 40
1.0
 10
263.111291196
 20
332.3857730891
 30
0.0
 10
263.1772283599
 20
332.3679620136
 30
0.0
 10
263.2414518452
 20
332.3415309845
 30
0.0
 10
263.3006079582
 20
332.3073915895
 30
0.0
  0
SPLINE
  5
4C8
100
AcDbEntity
  8
0
100
AcDbSpline
 62
7
  6
CONTINUOUS
 70
0
 71
3
 72
9
 73
5
 74
0
 42
0.0000001
 43
0.0000001
 44
0.0000000001
 40
0.0
 40
0.0
 40
0.0
 40
0.0
 40
0.4493066865
 40
1.0
 40
1.0
 40
1.0
 40
1.0
 10
272.4628140327
 20
320.5236995873
 30
0.0
 10
272.4627828708
 20
320.3435382955
 30
0.0
 10
272.3055935296
 20
319.9414959621
 30
0.0
 10
271.9768485589
 20
319.6899810111
 30
0.0
 10
271.785616943
 20
319.5795740452
 30
0.0
  0
ENDSEC
  0
SECTION
  2
OBJECTS
  0
DICTIONARY
  5
C
100
AcDbDictionary
280
0
281
1
  3
ACAD_GROUP
350
D
  3
ACAD_MLINESTYLE
350
17
  3
ACAD_LAYOUT
350
1A
  3
ACAD_PLOTSETTINGS
350
19
  3
ACAD_PLOTSTYLENAME
350
E
  0
DICTIONARY
  5
D
102
{ACAD_REACTORS
330
C
102
}
100
AcDbDictionary
280
0
281
1
  0
ACDBDICTIONARYWDFLT
  5
E
102
{ACAD_REACTORS
330
C
102
}
100
AcDbDictionary
281
1
  3
Normal
350
F
100
AcDbDictionaryWithDefault
340
F
  0
DICTIONARY
  5
17
102
{ACAD_REACTORS
330
C
102
}
100
AcDbDictionary
280
0
281
1
  3
Standard
350
18
  0
DICTIONARY
  5
19
102
{ACAD_REACTORS
330
C
102
}
100
AcDbDictionary
281
1
  0
DICTIONARY
  5
1A
102
{ACAD_REACTORS
330
C
102
}
100
AcDbDictionary
281
1
  3
Model
350
4C9
  3
Layout1
350
4CA
  0
ACDBPLACEHOLDER
  5
F
102
{ACAD_REACTORS
330
E
102
}
  0
MLINESTYLE
  5
18
102
{ACAD_REACTORS
330
17
102
}
100
AcDbMlineStyle
  2
STANDARD
 70
0
  3

 62
256
 51
90.0
 52
90.0
 71
2
 49
0.5
 62
256
  6
BYLAYER
 49
-0.5
 62
256
  6
BYLAYER
  0
LAYOUT
  5
4C9
102
{ACAD_REACTORS
330
1A
102
}
100
AcDbPlotSettings
  1

  2
none_device
  4

  6

 40
0.0
 41
0.0
 42
0.0
 43
0.0
 44
210.0
 45
297.0
 46
0.0
 47
0.0
 48
0.0
 49
0.0
140
0.0
141
0.0
142
1.0
143
1.0
 70
1024
 72
1
 73
0
 74
0
  7

 75
0
147
1.0
148
0.0
149
0.0
100
AcDbLayout
  1
Model
 70
0
 71
0
 10
0.0
 20
0.0
 11
210.0
 21
297.0
 12
0.0
 22
0.0
 32
0.0
 14
0.0
 24
0.0
 34
0.0
 15
0.0
 25
0.0
 35
0.0
146
0.0
 13
0.0
 23
0.0
 33
0.0
 16
1.0
 26
0.0
 36
0.0
 17
0.0
 27
1.0
 37
0.0
 76
0
330
210
345
0
346
0
  0
LAYOUT
  5
4CA
102
{ACAD_REACTORS
330
1A
102
}
100
AcDbPlotSettings
  1

  2
none_device
  4

  6

 40
0.0
 41
0.0
 42
0.0
 43
0.0
 44
210.0
 45
297.0
 46
0.0
 47
0.0
 48
0.0
 49
0.0
140
0.0
141
0.0
142
1.0
143
1.0
 70
0
 72
1
 73
0
 74
0
  7

 75
0
147
1.0
148
0.0
149
0.0
100
AcDbLayout
  1
Layout1
 70
0
 71
1
 10
0.0
 20
0.0
 11
210.0
 21
297.0
 12
0.0
 22
0.0
 32
0.0
 14
0.0
 24
0.0
 34
0.0
 15
0.0
 25
0.0
 35
0.0
146
0.0
 13
0.0
 23
0.0
 33
0.0
 16
1.0
 26
0.0
 36
0.0
 17
0.0
 27
1.0
 37
0.0
 76
0
330
211
345
0
346
0
  0
ENDSEC
  0
EOF
