999
DXF file: C:\Users\sesa63760\Dev\_Creo\CAD\MCADID0002171_3D-CAD\drw0001_6.dxf
999
Pro/ENGINEER 2019471 by Parametric Technology Corporation
  0
SECTION
  2
HEADER
  9
$ACADVER
  1
AC1024
  9
$DWGCODEPAGE
  3
ANSI_1252
  9
$EXTMAX
 10
67.0730433125
 20
94.8604469705
 30
0.0
  9
$EXTMIN
 10
0.0
 20
0.0
 30
0.0
  9
$LIMMIN
 10
0.0
 20
0.0
  9
$LIMMAX
 10
67.0730433125
 20
94.8604469705
  9
$VIEWCTR
 10
33.5365216562
 20
47.4302234852
  9
$VIEWSIZE
 40
94.8604469705
  9
$CLAYER
  8
0
  9
$LTSCALE
 40
6.1834958025
  9
$CELTYPE
  6
BYLAYER
  9
$DIMSCALE
 40
1.0
  9
$DIMASZ
 40
0.7984886109
  9
$DIMEXO
 40
1.0
  9
$DIMDLI
 40
4.2722334636
  9
$DIMEXE
 40
1.0
  9
$DIMCEN
 40
1.0118447677
  9
$DIMLFAC
 40
1.0
  9
$DIMBLK
  1
_FILLED
  9
$DIMALT
 70
0
  9
$DIMALTF
 40
0.0393700787
  9
$DIMTXT
 40
1.1178840552
  9
$DIMTOL
 70
1
  9
$DIMLIM
 70
0
  9
$DIMTFAC
 40
1.0
  9
$DIMTP
 40
0.01
  9
$DIMTM
 40
0.01
  9
$DIMGAP
 40
0.625
  9
$DIMDSEP
 70
46
  9
$AUNITS
 70
0
  9
$PDMODE
 70
3
  9
$PDSIZE
 40
0.3125
  9
$HANDSEED
  5
4DD
  9
$TILEMODE
 70
1
  9
$MEASUREMENT
 70
1
  9
$INSUNITS
 70
4
  0
ENDSEC
  0
SECTION
  2
CLASSES
  0
CLASS
  1
ACDBDICTIONARYWDFLT
  2
AcDbDictionaryWithDefault
  3
AutoCAD 2000
 90
0
 91
1
280
0
281
0
  0
CLASS
  1
ACDBPLACEHOLDER
  2
AcDbPlaceHolder
  3
AutoCAD 2000
 90
0
 91
1
280
0
281
0
  0
CLASS
  1
LAYOUT
  2
AcDbLayout
  3
AutoCAD 2000
 90
0
 91
0
280
0
281
0
  0
ENDSEC
  0
SECTION
  2
TABLES
  0
TABLE
  2
VPORT
  5
8
100
AcDbSymbolTable
 70
2
  0
VPORT
  5
1F4
100
AcDbSymbolTableRecord
100
AcDbViewportTableRecord
  2
*ACTIVE
 70
0
 10
0.0
 20
0.0
 11
1.0
 21
1.0
 12
33.5365216562
 22
47.4302234852
 13
0.0
 23
0.0
 14
1.0
 24
1.0
 15
0.0
 25
0.0
 16
0.0
 26
0.0
 36
1.0
 17
0.0
 27
0.0
 37
0.0
 40
94.8604469705
 41
0.7070707071
 42
50.0
 43
0.0
 44
0.0
 50
0.0
 51
0.0
 71
0
 72
100
 73
1
 74
1
 75
0
 76
0
 77
0
 78
0
  0
ENDTAB
  0
TABLE
  2
LTYPE
  5
5
100
AcDbSymbolTable
 70
6
  0
LTYPE
  5
14
100
AcDbSymbolTableRecord
100
AcDbLinetypeTableRecord
  2
BYBLOCK
 70
0
  3

 72
65
 73
0
 40
0.0
  0
LTYPE
  5
15
100
AcDbSymbolTableRecord
100
AcDbLinetypeTableRecord
  2
BYLAYER
 70
0
  3

 72
65
 73
0
 40
0.0
  0
LTYPE
  5
16
100
AcDbSymbolTableRecord
100
AcDbLinetypeTableRecord
  2
CONTINUOUS
 70
64
  3
Solid line
 72
65
 73
0
 40
0.0
  0
LTYPE
  5
1F5
100
AcDbSymbolTableRecord
100
AcDbLinetypeTableRecord
  2
CENTER
 70
64
  3
____ _ ____ _ ____ _ ____ _ ____ _ ____ _ ____
 72
65
 73
4
 40
0.6
 49
0.375
 74
0
 49
-0.075
 74
0
 49
0.075
 74
0
 49
-0.075
 74
0
  0
LTYPE
  5
1F6
100
AcDbSymbolTableRecord
100
AcDbLinetypeTableRecord
  2
HIDDEN
 70
64
  3
- - - - - - - - - - - - - - - - - - - -
 72
65
 73
2
 40
0.2
 49
0.1
 74
0
 49
-0.1
 74
0
  0
LTYPE
  5
1F7
100
AcDbSymbolTableRecord
100
AcDbLinetypeTableRecord
  2
PHANTOM
 70
64
  3
_____ _ _ _____ _ _ _____ _ _ _____
 72
65
 73
6
 40
0.8
 49
0.45
 74
0
 49
-0.05
 74
0
 49
0.1
 74
0
 49
-0.05
 74
0
 49
0.1
 74
0
 49
-0.05
 74
0
  0
LTYPE
  5
1F8
100
AcDbSymbolTableRecord
100
AcDbLinetypeTableRecord
  2
DOT
 70
64
  3
. . . . . . . . . . . . . . . . . . . .
 72
65
 73
2
 40
0.2
 49
0.1
 74
0
 49
-0.1
 74
0
  0
LTYPE
  5
1F9
100
AcDbSymbolTableRecord
100
AcDbLinetypeTableRecord
  2
DASHED
 70
64
  3
- - - - - - - - - - - - - - - - - - - -
 72
65
 73
2
 40
0.2
 49
0.1
 74
0
 49
-0.1
 74
0
  0
ENDTAB
  0
TABLE
  2
LAYER
  5
2
100
AcDbSymbolTable
 70
36
  0
LAYER
  5
10
100
AcDbSymbolTableRecord
100
AcDbLayerTableRecord
  2
0
 70
0
 62
7
  6
CONTINUOUS
370
-3
390
F
  0
LAYER
  5
1FA
100
AcDbSymbolTableRecord
100
AcDbLayerTableRecord
  2
DEFAULT_1
 70
0
 62
7
  6
CENTER
370
-3
390
F
  0
LAYER
  5
1FB
100
AcDbSymbolTableRecord
100
AcDbLayerTableRecord
  2
DEFAULT_2
 70
0
 62
8
  6
HIDDEN
370
-3
390
F
  0
LAYER
  5
1FC
100
AcDbSymbolTableRecord
100
AcDbLayerTableRecord
  2
DEFAULT_3
 70
0
 62
7
  6
PHANTOM
370
-3
390
F
  0
LAYER
  5
1FD
100
AcDbSymbolTableRecord
100
AcDbLayerTableRecord
  2
00_COMPONENTS
 70
0
 62
7
  6
CONTINUOUS
370
-3
390
F
  0
LAYER
  5
1FE
100
AcDbSymbolTableRecord
100
AcDbLayerTableRecord
  2
01_1_DEFAULT_DATUMS
 70
0
 62
7
  6
CONTINUOUS
370
-3
390
F
  0
LAYER
  5
1FF
100
AcDbSymbolTableRecord
100
AcDbLayerTableRecord
  2
01_PLANES
 70
0
 62
7
  6
CONTINUOUS
370
-3
390
F
  0
LAYER
  5
200
100
AcDbSymbolTableRecord
100
AcDbLayerTableRecord
  2
02_COORD_SYS
 70
0
 62
7
  6
CONTINUOUS
370
-3
390
F
  0
LAYER
  5
201
100
AcDbSymbolTableRecord
100
AcDbLayerTableRecord
  2
03_AXES
 70
0
 62
7
  6
CONTINUOUS
370
-3
390
F
  0
LAYER
  5
202
100
AcDbSymbolTableRecord
100
AcDbLayerTableRecord
  2
04_POINTS
 70
0
 62
7
  6
CONTINUOUS
370
-3
390
F
  0
LAYER
  5
203
100
AcDbSymbolTableRecord
100
AcDbLayerTableRecord
  2
05_CURVES
 70
0
 62
7
  6
CONTINUOUS
370
-3
390
F
  0
LAYER
  5
204
100
AcDbSymbolTableRecord
100
AcDbLayerTableRecord
  2
06_SURFS
 70
0
 62
7
  6
CONTINUOUS
370
-3
390
F
  0
LAYER
  5
205
100
AcDbSymbolTableRecord
100
AcDbLayerTableRecord
  2
07_COSMETICS
 70
0
 62
7
  6
CONTINUOUS
370
-3
390
F
  0
LAYER
  5
206
100
AcDbSymbolTableRecord
100
AcDbLayerTableRecord
  2
10_NOTES
 70
0
 62
7
  6
CONTINUOUS
370
-3
390
F
  0
LAYER
  5
207
100
AcDbSymbolTableRecord
100
AcDbLayerTableRecord
  2
11_NOTES_PUB
 70
0
 62
7
  6
CONTINUOUS
370
-3
390
F
  0
LAYER
  5
208
100
AcDbSymbolTableRecord
100
AcDbLayerTableRecord
  2
13_REF_GTOL
 70
0
 62
7
  6
CONTINUOUS
370
-3
390
F
  0
LAYER
  5
209
100
AcDbSymbolTableRecord
100
AcDbLayerTableRecord
  2
16_MISC
 70
0
 62
7
  6
CONTINUOUS
370
-3
390
F
  0
LAYER
  5
20A
100
AcDbSymbolTableRecord
100
AcDbLayerTableRecord
  2
17_NO_PRINT
 70
0
 62
7
  6
CONTINUOUS
370
-3
390
F
  0
LAYER
  5
20B
100
AcDbSymbolTableRecord
100
AcDbLayerTableRecord
  2
18_DATUM_CAMS_JOINTS
 70
0
 62
7
  6
CONTINUOUS
370
-3
390
F
  0
LAYER
  5
20C
100
AcDbSymbolTableRecord
100
AcDbLayerTableRecord
  2
19_DATUM_FUNCTIONAL
 70
0
 62
7
  6
CONTINUOUS
370
-3
390
F
  0
LAYER
  5
20D
100
AcDbSymbolTableRecord
100
AcDbLayerTableRecord
  2
20_DATUM_KINEMATIC_SCHEME
 70
0
 62
7
  6
CONTINUOUS
370
-3
390
F
  0
ENDTAB
  0
TABLE
  2
STYLE
  5
3
100
AcDbSymbolTable
 70
1
  0
STYLE
  5
11
100
AcDbSymbolTableRecord
100
AcDbTextStyleTableRecord
  2
STANDARD
 70
0
 40
0.0
 41
0.8
 50
0.0
 71
0
 42
0.2
  3
txt
  4

  0
STYLE
  5
20E
100
AcDbSymbolTableRecord
100
AcDbTextStyleTableRecord
  2
TEXTSTYLE_1
 70
0
 40
0.0
 41
0.8
 50
0.0
 71
0
 42
0.2
  3
gdt
  4

  0
ENDTAB
  0
TABLE
  2
VIEW
  5
6
100
AcDbSymbolTable
 70
0
  0
ENDTAB
  0
TABLE
  2
UCS
  5
7
100
AcDbSymbolTable
 70
0
  0
ENDTAB
  0
TABLE
  2
APPID
  5
9
100
AcDbSymbolTable
 70
1
  0
APPID
  5
20F
100
AcDbSymbolTableRecord
100
AcDbRegAppTableRecord
  2
ACAD
 70
0
  0
ENDTAB
  0
TABLE
  2
BLOCK_RECORD
  5
1
100
AcDbSymbolTable
 70
0
  0
BLOCK_RECORD
  5
210
100
AcDbSymbolTableRecord
100
AcDbBlockTableRecord
  2
*Model_Space
  0
BLOCK_RECORD
  5
211
100
AcDbSymbolTableRecord
100
AcDbBlockTableRecord
  2
*Paper_Space
  0
BLOCK_RECORD
  5
212
100
AcDbSymbolTableRecord
100
AcDbBlockTableRecord
  2
_FILLED
  0
ENDTAB
  0
TABLE
  2
DIMSTYLE
  5
A
100
AcDbSymbolTable
 70
1
100
AcDbDimStyleTable
 71
0
  0
DIMSTYLE
105
213
100
AcDbSymbolTableRecord
100
AcDbDimStyleTableRecord
  2
STANDARD
 70
0
  3

  4

 40
1.0
 41
0.7984886109
 42
1.0
 43
0.38
 44
1.0
 45
0.0
 46
0.0
 47
0.01
 48
0.01
140
1.1178840552
141
0.09
142
0.0
143
25.4
144
1.0
145
0.0
146
1.0
147
0.625
 71
1
 72
0
 73
0
 74
0
 75
0
 76
0
 77
1
 78
8
 79
2
170
0
171
1
172
0
173
0
174
0
175
0
176
0
177
0
178
0
270
2
179
2
271
2
272
2
273
2
274
2
275
0
280
0
281
0
282
0
283
1
284
8
285
0
286
0
287
3
288
0
340
11
278
46
341
212
342
212
343
212
344
212
  0
ENDTAB
  0
ENDSEC
  0
SECTION
  2
BLOCKS
  0
BLOCK
  5
20
100
AcDbEntity
  8
0
100
AcDbBlockBegin
  2
*Model_Space
 70
0
 10
0.0
 20
0.0
 30
0.0
  3
*Model_Space
  1

  0
ENDBLK
  5
21
100
AcDbEntity
  8
0
100
AcDbBlockEnd
  0
BLOCK
  5
1C
100
AcDbEntity
  8
0
100
AcDbBlockBegin
  2
*Paper_Space
 70
0
 10
0.0
 20
0.0
 30
0.0
  3
*Paper_Space
  1

  0
ENDBLK
  5
1D
100
AcDbEntity
  8
0
100
AcDbBlockEnd
  0
BLOCK
  5
214
100
AcDbEntity
  8
0
100
AcDbBlockBegin
  2
_FILLED
 70
64
 10
0.0
 20
0.0
  3
_FILLED
  1

  0
SOLID
  5
215
100
AcDbEntity
  8
0
  6
BYBLOCK
 62
0
100
AcDbTrace
 10
0.0
 20
0.0
 11
-1.0
 21
0.25
 12
-1.0
 22
-0.25
 13
-1.0
 23
-0.25
  0
ENDBLK
  5
216
100
AcDbEntity
  8
0
  6
BYBLOCK
 62
0
100
AcDbBlockEnd
  0
ENDSEC
  0
SECTION
  2
ENTITIES
  0
LINE
  5
217
100
AcDbEntity
  8
0
100
AcDbLine
 62
7
  6
CONTINUOUS
 10
53.216819726
 20
7.8373074361
 11
51.301307902
 21
7.8373074361
  0
LINE
  5
218
100
AcDbEntity
  8
0
100
AcDbLine
 62
7
  6
CONTINUOUS
 10
51.2168141375
 20
7.8373074361
 11
44.0173061688
 21
7.8373074361
  0
LINE
  5
219
100
AcDbEntity
  8
0
100
AcDbLine
 62
7
  6
CONTINUOUS
 10
42.716819726
 20
7.8373074361
 11
35.5173117562
 21
7.8373074361
  0
LINE
  5
21A
100
AcDbEntity
  8
0
100
AcDbLine
 62
7
  6
CONTINUOUS
 10
32.716819726
 20
7.8373074361
 11
25.5173117562
 21
7.8373074361
  0
LINE
  5
21B
100
AcDbEntity
  8
0
100
AcDbLine
 62
7
  6
CONTINUOUS
 10
24.2168197259
 20
7.8373074361
 11
17.0173117561
 21
7.8373074361
  0
LINE
  5
21C
100
AcDbEntity
  8
0
100
AcDbLine
 62
7
  6
CONTINUOUS
 10
16.9420557744
 20
7.8373074361
 11
15.0173117561
 21
7.8373074361
  0
LINE
  5
21D
100
AcDbEntity
  8
0
100
AcDbLine
 62
7
  6
CONTINUOUS
 10
14.4173231386
 20
8.037307427
 11
53.816805066
 21
8.037307427
  0
LINE
  5
21E
100
AcDbEntity
  8
0
100
AcDbLine
 62
7
  6
CONTINUOUS
 10
13.1170629474
 20
13.8373074361
 11
14.4086043359
 21
12.5457660476
  0
LINE
  5
21F
100
AcDbEntity
  8
0
100
AcDbLine
 62
7
  6
CONTINUOUS
 10
25.9170629474
 20
12.5457694383
 11
33.1170629474
 21
12.5457694383
  0
LINE
  5
220
100
AcDbEntity
  8
0
100
AcDbLine
 62
7
  6
CONTINUOUS
 10
35.1170629474
 20
12.5457694383
 11
42.3170629474
 21
12.5457694383
  0
LINE
  5
221
100
AcDbEntity
  8
0
100
AcDbLine
 62
7
  6
CONTINUOUS
 10
42.3170629474
 20
13.8373074361
 11
35.1170629474
 21
13.8373074361
  0
LINE
  5
222
100
AcDbEntity
  8
0
100
AcDbLine
 62
7
  6
CONTINUOUS
 10
33.1170629474
 20
13.8373074361
 11
25.9170629474
 21
13.8373074361
  0
LINE
  5
223
100
AcDbEntity
  8
0
100
AcDbLine
 62
7
  6
CONTINUOUS
 10
14.1170629474
 20
14.0373074499
 11
25.9170629474
 21
14.0373074696
  0
LINE
  5
224
100
AcDbEntity
  8
0
100
AcDbLine
 62
7
  6
CONTINUOUS
 10
33.1170629474
 20
14.0373074696
 11
35.1170629474
 21
14.0373074696
  0
LINE
  5
225
100
AcDbEntity
  8
0
100
AcDbLine
 62
7
  6
CONTINUOUS
 10
42.3170629474
 20
14.0373074696
 11
54.1170629474
 21
14.0373074499
  0
LINE
  5
226
100
AcDbEntity
  8
0
100
AcDbLine
 62
7
  6
CONTINUOUS
 10
53.9170629474
 20
14.2373074361
 11
52.5339632471
 21
14.2373074361
  0
LINE
  5
227
100
AcDbEntity
  8
0
100
AcDbLine
 62
7
  6
CONTINUOUS
 10
51.0670629474
 20
14.2373074361
 11
42.5170629474
 21
14.2373074361
  0
LINE
  5
228
100
AcDbEntity
  8
0
100
AcDbLine
 62
7
  6
CONTINUOUS
 10
25.7170629473
 20
14.2373074361
 11
17.1670629474
 21
14.2373074361
  0
LINE
  5
229
100
AcDbEntity
  8
0
100
AcDbLine
 62
7
  6
CONTINUOUS
 10
15.7001626477
 20
14.2373074361
 11
14.3170629474
 21
14.2373074361
  0
LINE
  5
22A
100
AcDbEntity
  8
0
100
AcDbLine
 62
7
  6
CONTINUOUS
 10
33.1170629474
 20
14.2373074361
 11
35.1170629474
 21
14.2373074361
  0
LINE
  5
22B
100
AcDbEntity
  8
0
100
AcDbLine
 62
7
  6
CONTINUOUS
 10
34.7170629474
 20
14.4373074361
 11
33.5170629474
 21
14.4373074361
  0
LINE
  5
22C
100
AcDbEntity
  8
0
100
AcDbLine
 62
7
  6
CONTINUOUS
 10
13.1170629474
 20
15.0373074361
 11
14.1170629474
 21
15.0373074361
  0
LINE
  5
22D
100
AcDbEntity
  8
0
100
AcDbLine
 62
7
  6
CONTINUOUS
 10
25.9170629474
 20
15.0373074361
 11
33.1170629474
 21
15.0373074361
  0
LINE
  5
22E
100
AcDbEntity
  8
0
100
AcDbLine
 62
7
  6
CONTINUOUS
 10
35.1170629474
 20
15.0373074361
 11
42.3170629474
 21
15.0373074361
  0
LINE
  5
22F
100
AcDbEntity
  8
0
100
AcDbLine
 62
7
  6
CONTINUOUS
 10
54.1170629474
 20
15.0373074361
 11
55.1170629474
 21
15.0373074361
  0
LINE
  5
230
100
AcDbEntity
  8
0
100
AcDbLine
 62
7
  6
CONTINUOUS
 10
52.4170629474
 20
16.7373074361
 11
51.2170629474
 21
16.7373074361
  0
LINE
  5
231
100
AcDbEntity
  8
0
100
AcDbLine
 62
7
  6
CONTINUOUS
 10
17.0170629474
 20
16.7373074361
 11
15.8170629474
 21
16.7373074361
  0
LINE
  5
232
100
AcDbEntity
  8
0
100
AcDbLine
 62
7
  6
CONTINUOUS
 10
17.1670629474
 20
17.7373074361
 11
25.7170629473
 21
17.7373074361
  0
LINE
  5
233
100
AcDbEntity
  8
0
100
AcDbLine
 62
7
  6
CONTINUOUS
 10
32.5170629474
 20
17.7373074361
 11
33.5170629474
 21
17.7373074361
  0
LINE
  5
234
100
AcDbEntity
  8
0
100
AcDbLine
 62
7
  6
CONTINUOUS
 10
34.7170629474
 20
17.7373074361
 11
35.7170629474
 21
17.7373074361
  0
LINE
  5
235
100
AcDbEntity
  8
0
100
AcDbLine
 62
7
  6
CONTINUOUS
 10
42.5170629474
 20
17.7373074361
 11
51.0670629474
 21
17.7373074361
  0
LINE
  5
236
100
AcDbEntity
  8
0
100
AcDbLine
 62
7
  6
CONTINUOUS
 10
17.0170629474
 20
17.9373074361
 11
33.5170629474
 21
17.9373074361
  0
LINE
  5
237
100
AcDbEntity
  8
0
100
AcDbLine
 62
7
  6
CONTINUOUS
 10
34.7170629474
 20
17.9373074361
 11
51.2170629474
 21
17.9373074361
  0
LINE
  5
238
100
AcDbEntity
  8
0
100
AcDbLine
 62
7
  6
CONTINUOUS
 10
47.6344277652
 20
18.0373074361
 11
20.5996981296
 21
18.0373074361
  0
LINE
  5
239
100
AcDbEntity
  8
0
100
AcDbLine
 62
7
  6
CONTINUOUS
 10
20.6170629474
 20
18.4373074361
 11
20.1170629474
 21
18.4373074361
  0
LINE
  5
23A
100
AcDbEntity
  8
0
100
AcDbLine
 62
7
  6
CONTINUOUS
 10
14.3170629474
 20
19.5373074361
 11
15.8170629474
 21
19.5373074361
  0
LINE
  5
23B
100
AcDbEntity
  8
0
100
AcDbLine
 62
7
  6
CONTINUOUS
 10
52.4170629474
 20
19.5373074361
 11
53.9166845975
 21
19.5373074361
  0
LINE
  5
23C
100
AcDbEntity
  8
0
100
AcDbLine
 62
7
  6
CONTINUOUS
 10
14.1170629474
 20
19.8373074361
 11
15.8170629474
 21
19.8373074361
  0
LINE
  5
23D
100
AcDbEntity
  8
0
100
AcDbLine
 62
7
  6
CONTINUOUS
 10
52.4170629474
 20
19.8373074361
 11
54.1170629474
 21
19.8373074361
  0
LINE
  5
23E
100
AcDbEntity
  8
0
100
AcDbLine
 62
7
  6
CONTINUOUS
 10
15.7001626477
 20
14.2373074361
 11
15.7354280467
 21
14.0373074202
  0
LINE
  5
23F
100
AcDbEntity
  8
0
100
AcDbLine
 62
7
  6
CONTINUOUS
 10
14.179147827
 20
14.0373078932
 11
15.1021805758
 21
8.0373072022
  0
LINE
  5
240
100
AcDbEntity
  8
0
100
AcDbLine
 62
7
  6
CONTINUOUS
 10
16.1021643645
 20
8.0373074361
 11
15.1822516386
 21
14.0373074361
  0
LINE
  5
241
100
AcDbEntity
  8
0
100
AcDbLine
 62
7
  6
CONTINUOUS
 10
13.1170629474
 20
13.8373074361
 11
13.1170629474
 21
15.0373074361
  0
LINE
  5
242
100
AcDbEntity
  8
0
100
AcDbLine
 62
7
  6
CONTINUOUS
 10
13.1170629474
 20
55.7873074361
 11
13.1170629474
 21
56.4264362474
  0
LINE
  5
243
100
AcDbEntity
  8
0
100
AcDbLine
 62
7
  6
CONTINUOUS
 10
14.1170629471
 20
74.9086609484
 11
14.1251437555
 21
75.0641548629
  0
LINE
  5
244
100
AcDbEntity
  8
0
100
AcDbLine
 62
7
  6
CONTINUOUS
 10
20.1170629474
 20
23.9373074361
 11
20.6170629474
 21
23.9373074361
  0
LINE
  5
245
100
AcDbEntity
  8
0
100
AcDbLine
 62
7
  6
CONTINUOUS
 10
20.5996981296
 20
25.5373074361
 11
46.1572161357
 21
25.5373074361
  0
LINE
  5
246
100
AcDbEntity
  8
0
100
AcDbLine
 62
7
  6
CONTINUOUS
 10
16.1791480204
 20
14.0373081906
 11
17.1021822934
 21
8.0373074094
  0
LINE
  5
247
100
AcDbEntity
  8
0
100
AcDbLine
 62
7
  6
CONTINUOUS
 10
18.3464291485
 20
8.0373074361
 11
17.42721642
 21
14.0373074361
  0
LINE
  5
248
100
AcDbEntity
  8
0
100
AcDbLine
 62
7
  6
CONTINUOUS
 10
14.1170629474
 20
14.0373074378
 11
14.1170629474
 21
30.0373074361
  0
LINE
  5
249
100
AcDbEntity
  8
0
100
AcDbLine
 62
7
  6
CONTINUOUS
 10
14.1250598939
 20
84.2061938566
 11
14.1250598939
 21
84.1710869649
  0
LINE
  5
24A
100
AcDbEntity
  8
0
100
AcDbLine
 62
7
  6
CONTINUOUS
 10
14.1251437555
 20
75.064154863
 11
14.1251437555
 21
75.2873074361
  0
LINE
  5
24B
100
AcDbEntity
  8
0
100
AcDbLine
 62
7
  6
CONTINUOUS
 10
14.1316916741
 20
75.2873074361
 11
14.1316916741
 21
84.009003879
  0
LINE
  5
24C
100
AcDbEntity
  8
0
100
AcDbLine
 62
7
  6
CONTINUOUS
 10
14.1876934464
 20
84.009003879
 11
14.1876934464
 21
75.2873074361
  0
LINE
  5
24D
100
AcDbEntity
  8
0
100
AcDbLine
 62
7
  6
CONTINUOUS
 10
14.2923003851
 20
84.2723221278
 11
14.2923003851
 21
84.1064923553
  0
LINE
  5
24E
100
AcDbEntity
  8
0
100
AcDbLine
 62
7
  6
CONTINUOUS
 10
14.2946538117
 20
75.2873074361
 11
14.2946538117
 21
84.009003879
  0
LINE
  5
24F
100
AcDbEntity
  8
0
100
AcDbLine
 62
7
  6
CONTINUOUS
 10
14.3252433405
 20
84.9111181729
 11
14.3252433405
 21
84.6116298283
  0
LINE
  5
250
100
AcDbEntity
  8
0
100
AcDbLine
 62
7
  6
CONTINUOUS
 10
14.4170652626
 20
8.037307427
 11
14.4170652626
 21
12.4907600181
  0
LINE
  5
251
100
AcDbEntity
  8
0
100
AcDbLine
 62
7
  6
CONTINUOUS
 10
14.4620455615
 20
84.009003879
 11
14.4620455615
 21
75.2873074361
  0
LINE
  5
252
100
AcDbEntity
  8
0
100
AcDbLine
 62
7
  6
CONTINUOUS
 10
14.6116682758
 20
84.911118173
 11
14.6116682758
 21
75.2873074361
  0
LINE
  5
253
100
AcDbEntity
  8
0
100
AcDbLine
 62
7
  6
CONTINUOUS
 10
14.6170629474
 20
36.1954040693
 11
14.6170629474
 21
31.6373074361
  0
LINE
  5
254
100
AcDbEntity
  8
0
100
AcDbLine
 62
7
  6
CONTINUOUS
 10
14.6745555379
 20
84.3378356049
 11
14.6745555379
 21
84.0397005688
  0
LINE
  5
255
100
AcDbEntity
  8
0
100
AcDbLine
 62
7
  6
CONTINUOUS
 10
14.6747944118
 20
75.2873074361
 11
14.6747944118
 21
84.009003879
  0
LINE
  5
256
100
AcDbEntity
  8
0
100
AcDbLine
 62
7
  6
CONTINUOUS
 10
14.9517421601
 20
84.009003879
 11
14.9517421601
 21
75.2873074361
  0
LINE
  5
257
100
AcDbEntity
  8
0
100
AcDbLine
 62
7
  6
CONTINUOUS
 10
15.0170601532
 20
7.8373074362
 11
15.0170601532
 21
8.037307427
  0
LINE
  5
258
100
AcDbEntity
  8
0
100
AcDbLine
 62
7
  6
CONTINUOUS
 10
15.1117983968
 20
84.9111181729
 11
15.1117983968
 21
75.2873074361
  0
LINE
  5
259
100
AcDbEntity
  8
0
100
AcDbLine
 62
7
  6
CONTINUOUS
 10
15.267637285
 20
84.4028498532
 11
15.267637285
 21
75.2873074361
  0
LINE
  5
25A
100
AcDbEntity
  8
0
100
AcDbLine
 62
7
  6
CONTINUOUS
 10
15.6170162818
 20
14.0373074361
 11
15.6170162818
 21
14.2373074361
  0
LINE
  5
25B
100
AcDbEntity
  8
0
100
AcDbLine
 62
7
  6
CONTINUOUS
 10
15.6514180239
 20
84.009003879
 11
15.6514180239
 21
75.2873074361
  0
LINE
  5
25C
100
AcDbEntity
  8
0
100
AcDbLine
 62
7
  6
CONTINUOUS
 10
15.7670629474
 20
31.6373074361
 11
15.7670629474
 21
30.0373074361
  0
LINE
  5
25D
100
AcDbEntity
  8
0
100
AcDbLine
 62
7
  6
CONTINUOUS
 10
15.8170629474
 20
30.0373074361
 11
15.8170629474
 21
16.7373074361
  0
LINE
  5
25E
100
AcDbEntity
  8
0
100
AcDbLine
 62
7
  6
CONTINUOUS
 10
15.8201541734
 20
84.9111181729
 11
15.8201541734
 21
75.2873074361
  0
LINE
  5
25F
100
AcDbEntity
  8
0
100
AcDbLine
 62
7
  6
CONTINUOUS
 10
16.0650476985
 20
84.4671055672
 11
16.0650476985
 21
75.2873074361
  0
LINE
  5
260
100
AcDbEntity
  8
0
100
AcDbLine
 62
7
  6
CONTINUOUS
 10
16.4170629474
 20
42.5373074361
 11
16.4170629474
 21
40.0373138666
  0
LINE
  5
261
100
AcDbEntity
  8
0
100
AcDbLine
 62
7
  6
CONTINUOUS
 10
16.4170629474
 20
8.0373074124
 11
16.4170629474
 21
12.4907632319
  0
LINE
  5
262
100
AcDbEntity
  8
0
100
AcDbLine
 62
7
  6
CONTINUOUS
 10
16.5534073576
 20
84.009003879
 11
16.5534073576
 21
75.2873074361
  0
LINE
  5
263
100
AcDbEntity
  8
0
100
AcDbLine
 62
7
  6
CONTINUOUS
 10
16.7289747113
 20
84.9111181729
 11
16.7289747113
 21
75.2873074361
  0
LINE
  5
264
100
AcDbEntity
  8
0
100
AcDbLine
 62
7
  6
CONTINUOUS
 10
17.0170601532
 20
7.8373074362
 11
17.0170601532
 21
8.0373074124
  0
LINE
  5
265
100
AcDbEntity
  8
0
100
AcDbLine
 62
7
  6
CONTINUOUS
 10
17.0170629474
 20
16.7373074361
 11
17.0170629474
 21
17.9373074361
  0
LINE
  5
266
100
AcDbEntity
  8
0
100
AcDbLine
 62
7
  6
CONTINUOUS
 10
17.0565906809
 20
17.9373074361
 11
17.0565906809
 21
21.9961858935
  0
LINE
  5
267
100
AcDbEntity
  8
0
100
AcDbLine
 62
7
  6
CONTINUOUS
 10
17.0580501831
 20
84.5303910633
 11
17.0580501831
 21
75.2873074361
  0
LINE
  5
268
100
AcDbEntity
  8
0
100
AcDbLine
 62
7
  6
CONTINUOUS
 10
17.0650400837
 20
75.2873074361
 11
17.0650400837
 21
84.009003879
  0
LINE
  5
269
100
AcDbEntity
  8
0
100
AcDbLine
 62
7
  6
CONTINUOUS
 10
17.1670629474
 20
14.0373074521
 11
17.1670629474
 21
17.9373074361
  0
LINE
  5
26A
100
AcDbEntity
  8
0
100
AcDbLine
 62
7
  6
CONTINUOUS
 10
17.6170162818
 20
14.0373074361
 11
17.6170162818
 21
14.2373074361
  0
LINE
  5
26B
100
AcDbEntity
  8
0
100
AcDbLine
 62
7
  6
CONTINUOUS
 10
17.6176475374
 20
68.9645485799
 11
17.6176475374
 21
69.1142204332
  0
LINE
  5
26C
100
AcDbEntity
  8
0
100
AcDbLine
 62
7
  6
CONTINUOUS
 10
17.6478277774
 20
84.0090038791
 11
17.6478277774
 21
75.2873074361
  0
LINE
  5
26D
100
AcDbEntity
  8
0
100
AcDbLine
 62
7
  6
CONTINUOUS
 10
17.8283027826
 20
84.9111181729
 11
17.8283027826
 21
75.2873074361
  0
LINE
  5
26E
100
AcDbEntity
  8
0
100
AcDbLine
 62
7
  6
CONTINUOUS
 10
18.1170629474
 20
53.1873074361
 11
18.1170629474
 21
47.6873074361
  0
LINE
  5
26F
100
AcDbEntity
  8
0
100
AcDbLine
 62
7
  6
CONTINUOUS
 10
18.1483435247
 20
47.6873074361
 11
18.1483435247
 21
51.6873074361
  0
LINE
  5
270
100
AcDbEntity
  8
0
100
AcDbLine
 62
7
  6
CONTINUOUS
 10
18.2357651957
 20
84.5925132261
 11
18.2357651957
 21
75.2873074361
  0
LINE
  5
271
100
AcDbEntity
  8
0
100
AcDbLine
 62
7
  6
CONTINUOUS
 10
18.2492881193
 20
75.2873074361
 11
18.2492881193
 21
84.009003879
  0
LINE
  5
272
100
AcDbEntity
  8
0
100
AcDbLine
 62
7
  6
CONTINUOUS
 10
18.4336453991
 20
51.6873074361
 11
18.4336453991
 21
47.6873074361
  0
LINE
  5
273
100
AcDbEntity
  8
0
100
AcDbLine
 62
7
  6
CONTINUOUS
 10
18.9226885842
 20
84.009003879
 11
18.9226885842
 21
75.2873074361
  0
LINE
  5
274
100
AcDbEntity
  8
0
100
AcDbLine
 62
7
  6
CONTINUOUS
 10
18.9512834893
 20
47.6873074361
 11
18.9512834893
 21
51.6873074361
  0
LINE
  5
275
100
AcDbEntity
  8
0
100
AcDbLine
 62
7
  6
CONTINUOUS
 10
19.1060939191
 20
84.9111181729
 11
19.1060939191
 21
75.2873074361
  0
LINE
  5
276
100
AcDbEntity
  8
0
100
AcDbLine
 62
7
  6
CONTINUOUS
 10
19.1170629474
 20
55.7873074361
 11
19.1170629474
 21
55.2873074361
  0
LINE
  5
277
100
AcDbEntity
  8
0
100
AcDbLine
 62
7
  6
CONTINUOUS
 10
19.1170629474
 20
53.7873074361
 11
19.1170629474
 21
54.7873074361
  0
LINE
  5
278
100
AcDbEntity
  8
0
100
AcDbLine
 62
7
  6
CONTINUOUS
 10
14.1170629474
 20
30.0373074361
 11
54.1170629474
 21
30.0373074361
  0
LINE
  5
279
100
AcDbEntity
  8
0
100
AcDbLine
 62
7
  6
CONTINUOUS
 10
53.6170629474
 20
31.6373074361
 11
14.6170629474
 21
31.6373074361
  0
LINE
  5
27A
100
AcDbEntity
  8
0
100
AcDbLine
 62
7
  6
CONTINUOUS
 10
42.9691575296
 20
14.0373074361
 11
48.2038864357
 21
8.0373074361
  0
LINE
  5
27B
100
AcDbEntity
  8
0
100
AcDbLine
 62
7
  6
CONTINUOUS
 10
19.5852894444
 20
84.6533379009
 11
19.5852894444
 21
75.2873074361
  0
LINE
  5
27C
100
AcDbEntity
  8
0
100
AcDbLine
 62
7
  6
CONTINUOUS
 10
19.6073868166
 20
75.2873074361
 11
19.6073868166
 21
84.009003879
  0
LINE
  5
27D
100
AcDbEntity
  8
0
100
AcDbLine
 62
7
  6
CONTINUOUS
 10
19.6288168375
 20
51.6873074361
 11
19.6288168375
 21
47.6873074361
  0
LINE
  5
27E
100
AcDbEntity
  8
0
100
AcDbLine
 62
7
  6
CONTINUOUS
 10
19.7670629474
 20
60.0090498145
 11
19.7670629474
 21
63.2873074361
  0
LINE
  5
27F
100
AcDbEntity
  8
0
100
AcDbLine
 62
7
  6
CONTINUOUS
 10
19.7670629474
 20
65.2873074361
 11
19.7670629474
 21
67.2873074361
  0
LINE
  5
280
100
AcDbEntity
  8
0
100
AcDbLine
 62
7
  6
CONTINUOUS
 10
19.7877462614
 20
51.6873074361
 11
19.7877462614
 21
47.6873074361
  0
LINE
  5
281
100
AcDbEntity
  8
0
100
AcDbLine
 62
7
  6
CONTINUOUS
 10
20.0670629474
 20
63.2873074361
 11
20.0670629474
 21
65.2873074361
  0
LINE
  5
282
100
AcDbEntity
  8
0
100
AcDbLine
 62
7
  6
CONTINUOUS
 10
20.1170629474
 20
23.9373074361
 11
20.1170629474
 21
18.4373074361
  0
LINE
  5
283
100
AcDbEntity
  8
0
100
AcDbLine
 62
7
  6
CONTINUOUS
 10
20.364022136
 20
84.009003879
 11
20.364022136
 21
75.2873074361
  0
LINE
  5
284
100
AcDbEntity
  8
0
100
AcDbLine
 62
7
  6
CONTINUOUS
 10
20.3649684941
 20
18.4373074361
 11
20.3649684941
 21
23.9373074361
  0
LINE
  5
285
100
AcDbEntity
  8
0
100
AcDbLine
 62
7
  6
CONTINUOUS
 10
20.5483483733
 20
84.9111181729
 11
20.5483483733
 21
75.2873074361
  0
LINE
  5
286
100
AcDbEntity
  8
0
100
AcDbLine
 62
7
  6
CONTINUOUS
 10
20.5996981296
 20
25.5373074361
 11
20.5996981296
 21
23.9373074361
  0
LINE
  5
287
100
AcDbEntity
  8
0
100
AcDbLine
 62
7
  6
CONTINUOUS
 10
20.5996981296
 20
18.4373074361
 11
20.5996981296
 21
18.0373074361
  0
LINE
  5
288
100
AcDbEntity
  8
0
100
AcDbLine
 62
7
  6
CONTINUOUS
 10
20.6170629474
 20
18.4373074361
 11
20.6170629474
 21
23.9373074361
  0
LINE
  5
289
100
AcDbEntity
  8
0
100
AcDbLine
 62
7
  6
CONTINUOUS
 10
20.6279867669
 20
86.6136398179
 11
20.6279867669
 21
86.3118162747
  0
LINE
  5
28A
100
AcDbEntity
  8
0
100
AcDbLine
 62
7
  6
CONTINUOUS
 10
20.7877462614
 20
47.6873074361
 11
20.7877462614
 21
51.6873074361
  0
LINE
  5
28B
100
AcDbEntity
  8
0
100
AcDbLine
 62
7
  6
CONTINUOUS
 10
21.0918372588
 20
84.7125565003
 11
21.0918372588
 21
75.2873074361
  0
LINE
  5
28C
100
AcDbEntity
  8
0
100
AcDbLine
 62
7
  6
CONTINUOUS
 10
21.1244565619
 20
75.2873074361
 11
21.1244565619
 21
84.009003879
  0
LINE
  5
28D
100
AcDbEntity
  8
0
100
AcDbLine
 62
7
  6
CONTINUOUS
 10
21.395206043
 20
51.6873074361
 11
21.395206043
 21
47.6873074361
  0
LINE
  5
28E
100
AcDbEntity
  8
0
100
AcDbLine
 62
7
  6
CONTINUOUS
 10
21.6946579107
 20
86.4276203878
 11
21.6946579107
 21
86.7097843835
  0
LINE
  5
28F
100
AcDbEntity
  8
0
100
AcDbLine
 62
7
  6
CONTINUOUS
 10
21.9560368811
 20
84.009003879
 11
21.9560368811
 21
75.2873074361
  0
LINE
  5
290
100
AcDbEntity
  8
0
100
AcDbLine
 62
7
  6
CONTINUOUS
 10
22.1183663756
 20
51.6873074361
 11
22.1183663756
 21
47.6873074361
  0
LINE
  5
291
100
AcDbEntity
  8
0
100
AcDbLine
 62
7
  6
CONTINUOUS
 10
22.139264504
 20
84.9111181729
 11
22.139264504
 21
75.2873074361
  0
LINE
  5
292
100
AcDbEntity
  8
0
100
AcDbLine
 62
7
  6
CONTINUOUS
 10
22.6147007885
 20
53.7873074361
 11
22.6147007885
 21
54.7873074361
  0
LINE
  5
293
100
AcDbEntity
  8
0
100
AcDbLine
 62
7
  6
CONTINUOUS
 10
22.7389025861
 20
84.7700064243
 11
22.7389025861
 21
75.2873074361
  0
LINE
  5
294
100
AcDbEntity
  8
0
100
AcDbLine
 62
7
  6
CONTINUOUS
 10
22.7838760216
 20
75.2873074361
 11
22.7838760216
 21
84.009003879
  0
LINE
  5
295
100
AcDbEntity
  8
0
100
AcDbLine
 62
7
  6
CONTINUOUS
 10
23.1170379563
 20
47.6873074361
 11
23.1170379563
 21
42.5373074361
  0
LINE
  5
296
100
AcDbEntity
  8
0
100
AcDbLine
 62
7
  6
CONTINUOUS
 10
23.117046937
 20
55.2873074361
 11
23.117046937
 21
54.7873074361
  0
LINE
  5
297
100
AcDbEntity
  8
0
100
AcDbLine
 62
7
  6
CONTINUOUS
 10
23.117046937
 20
53.7873074361
 11
23.117046937
 21
53.1873074361
  0
LINE
  5
298
100
AcDbEntity
  8
0
100
AcDbLine
 62
7
  6
CONTINUOUS
 10
23.5325799379
 20
47.6873074361
 11
23.5325799379
 21
51.6873074361
  0
LINE
  5
299
100
AcDbEntity
  8
0
100
AcDbLine
 62
7
  6
CONTINUOUS
 10
23.6170621945
 20
14.0373074361
 11
23.6170621945
 21
14.2373074361
  0
LINE
  5
29A
100
AcDbEntity
  8
0
100
AcDbLine
 62
7
  6
CONTINUOUS
 10
23.6812903726
 20
84.009003879
 11
23.6812903726
 21
75.2873074361
  0
LINE
  5
29B
100
AcDbEntity
  8
0
100
AcDbLine
 62
7
  6
CONTINUOUS
 10
23.8614119009
 20
84.911118173
 11
23.8614119009
 21
75.2873074361
  0
LINE
  5
29C
100
AcDbEntity
  8
0
100
AcDbLine
 62
7
  6
CONTINUOUS
 10
24.0285687726
 20
51.6873074361
 11
24.0285687726
 21
47.6873074361
  0
LINE
  5
29D
100
AcDbEntity
  8
0
100
AcDbLine
 62
7
  6
CONTINUOUS
 10
24.2170601532
 20
7.8373074362
 11
24.2170601532
 21
8.0373074124
  0
LINE
  5
29E
100
AcDbEntity
  8
0
100
AcDbLine
 62
7
  6
CONTINUOUS
 10
24.5084398337
 20
84.8254942527
 11
24.5084398337
 21
75.2873074361
  0
LINE
  5
29F
100
AcDbEntity
  8
0
100
AcDbLine
 62
7
  6
CONTINUOUS
 10
24.5674642489
 20
75.2873074361
 11
24.5674642489
 21
84.009003879
  0
LINE
  5
2A0
100
AcDbEntity
  8
0
100
AcDbLine
 62
7
  6
CONTINUOUS
 10
25.2666778322
 20
51.6873074361
 11
25.2666778322
 21
47.6873074361
  0
LINE
  5
2A1
100
AcDbEntity
  8
0
100
AcDbLine
 62
7
  6
CONTINUOUS
 10
25.5170601531
 20
7.8373074362
 11
25.5170601531
 21
8.0373074078
  0
LINE
  5
2A2
100
AcDbEntity
  8
0
100
AcDbLine
 62
7
  6
CONTINUOUS
 10
25.5208803722
 20
84.009003879
 11
25.5208803722
 21
75.2873074361
  0
LINE
  5
2A3
100
AcDbEntity
  8
0
100
AcDbLine
 62
7
  6
CONTINUOUS
 10
27.7925076278
 20
36.1954100549
 11
40.4416182669
 21
36.1954100549
  0
LINE
  5
2A4
100
AcDbEntity
  8
0
100
AcDbLine
 62
7
  6
CONTINUOUS
 10
14.6170629474
 20
36.2003074361
 11
27.7925076278
 21
36.2003074361
  0
LINE
  5
2A5
100
AcDbEntity
  8
0
100
AcDbLine
 62
7
  6
CONTINUOUS
 10
40.4416182669
 20
36.2003074361
 11
53.6170629477
 21
36.2003074361
  0
LINE
  5
2A6
100
AcDbEntity
  8
0
100
AcDbLine
 62
7
  6
CONTINUOUS
 10
14.8999700632
 20
36.8924066564
 11
27.9732006829
 21
36.8924066564
  0
LINE
  5
2A7
100
AcDbEntity
  8
0
100
AcDbLine
 62
7
  6
CONTINUOUS
 10
40.2609252118
 20
36.8924066564
 11
53.3341558315
 21
36.8924066564
  0
LINE
  5
2A8
100
AcDbEntity
  8
0
100
AcDbLine
 62
7
  6
CONTINUOUS
 10
28.006537719
 20
36.9638194958
 11
40.2275881757
 21
36.9638194958
  0
LINE
  5
2A9
100
AcDbEntity
  8
0
100
AcDbLine
 62
7
  6
CONTINUOUS
 10
17.6176475374
 20
68.9645485799
 11
18.0670629474
 21
67.2873074361
  0
LINE
  5
2AA
100
AcDbEntity
  8
0
100
AcDbLine
 62
7
  6
CONTINUOUS
 10
25.6170629474
 20
17.7373074361
 11
25.6170629474
 21
14.2373074361
  0
LINE
  5
2AB
100
AcDbEntity
  8
0
100
AcDbLine
 62
7
  6
CONTINUOUS
 10
25.6959223566
 20
84.9111181729
 11
25.6959223566
 21
75.2873074361
  0
LINE
  5
2AC
100
AcDbEntity
  8
0
100
AcDbLine
 62
7
  6
CONTINUOUS
 10
25.7170629473
 20
17.9373074361
 11
25.7170629473
 21
14.0373074671
  0
LINE
  5
2AD
100
AcDbEntity
  8
0
100
AcDbLine
 62
7
  6
CONTINUOUS
 10
25.7330572653
 20
18.0373074361
 11
25.7330572653
 21
25.5373074361
  0
LINE
  5
2AE
100
AcDbEntity
  8
0
100
AcDbLine
 62
7
  6
CONTINUOUS
 10
25.7418061304
 20
17.9373074361
 11
25.7418061304
 21
18.0373074361
  0
LINE
  5
2AF
100
AcDbEntity
  8
0
100
AcDbLine
 62
7
  6
CONTINUOUS
 10
25.7418061304
 20
25.5373074361
 11
25.7418061304
 21
27.9885933777
  0
LINE
  5
2B0
100
AcDbEntity
  8
0
100
AcDbLine
 62
7
  6
CONTINUOUS
 10
25.9170629474
 20
12.5457694383
 11
25.9170629474
 21
15.0373074361
  0
LINE
  5
2B1
100
AcDbEntity
  8
0
100
AcDbLine
 62
7
  6
CONTINUOUS
 10
26.3810615813
 20
84.8789993802
 11
26.3810615813
 21
75.2873074361
  0
LINE
  5
2B2
100
AcDbEntity
  8
0
100
AcDbLine
 62
7
  6
CONTINUOUS
 10
26.4556798779
 20
75.2873074361
 11
26.4556798779
 21
84.009003879
  0
LINE
  5
2B3
100
AcDbEntity
  8
0
100
AcDbLine
 62
7
  6
CONTINUOUS
 10
26.7170629474
 20
17.9373074361
 11
26.7170629474
 21
15.0373074361
  0
LINE
  5
2B4
100
AcDbEntity
  8
0
100
AcDbLine
 62
7
  6
CONTINUOUS
 10
26.9987286398
 20
47.6873074361
 11
26.9987286398
 21
51.6873074361
  0
LINE
  5
2B5
100
AcDbEntity
  8
0
100
AcDbLine
 62
7
  6
CONTINUOUS
 10
27.3494457082
 20
51.6873074361
 11
27.3494457082
 21
47.6873074361
  0
LINE
  5
2B6
100
AcDbEntity
  8
0
100
AcDbLine
 62
7
  6
CONTINUOUS
 10
27.454651947
 20
84.009003879
 11
27.454651947
 21
75.2873074361
  0
LINE
  5
2B7
100
AcDbEntity
  8
0
100
AcDbLine
 62
7
  6
CONTINUOUS
 10
27.6226965911
 20
84.911118173
 11
27.6226965911
 21
75.2873074361
  0
LINE
  5
2B8
100
AcDbEntity
  8
0
100
AcDbLine
 62
7
  6
CONTINUOUS
 10
27.7925076278
 20
31.6373074361
 11
27.7925076278
 21
36.1954100549
  0
LINE
  5
2B9
100
AcDbEntity
  8
0
100
AcDbLine
 62
7
  6
CONTINUOUS
 10
28.0838216958
 20
40.0373074361
 11
28.0838216958
 21
42.5373074361
  0
LINE
  5
2BA
100
AcDbEntity
  8
0
100
AcDbLine
 62
7
  6
CONTINUOUS
 10
28.3364082825
 20
75.2873074361
 11
28.3364082825
 21
84.9111181615
  0
LINE
  5
2BB
100
AcDbEntity
  8
0
100
AcDbLine
 62
7
  6
CONTINUOUS
 10
28.4278352231
 20
75.2873074361
 11
28.4278352231
 21
84.009003879
  0
LINE
  5
2BC
100
AcDbEntity
  8
0
100
AcDbLine
 62
7
  6
CONTINUOUS
 10
51.8170629474
 20
40.0373074361
 11
16.4170629474
 21
40.0373074361
  0
LINE
  5
2BD
100
AcDbEntity
  8
0
100
AcDbLine
 62
7
  6
CONTINUOUS
 10
46.1572161356
 20
25.5373074361
 11
47.6344277651
 21
24.0373074362
  0
LINE
  5
2BE
100
AcDbEntity
  8
0
100
AcDbLine
 62
7
  6
CONTINUOUS
 10
29.0181284086
 20
51.6873074361
 11
29.0181284086
 21
47.6873074361
  0
LINE
  5
2BF
100
AcDbEntity
  8
0
100
AcDbLine
 62
7
  6
CONTINUOUS
 10
29.4614182909
 20
84.009003879
 11
29.4614182909
 21
75.2873074361
  0
LINE
  5
2C0
100
AcDbEntity
  8
0
100
AcDbLine
 62
7
  6
CONTINUOUS
 10
29.6206244624
 20
84.9111181729
 11
29.6206244624
 21
75.2873074361
  0
LINE
  5
2C1
100
AcDbEntity
  8
0
100
AcDbLine
 62
7
  6
CONTINUOUS
 10
30.354666411
 20
75.2873074361
 11
30.354666411
 21
84.9111181615
  0
LINE
  5
2C2
100
AcDbEntity
  8
0
100
AcDbLine
 62
7
  6
CONTINUOUS
 10
30.4623229378
 20
75.2873074361
 11
30.4623229378
 21
84.009003879
  0
LINE
  5
2C3
100
AcDbEntity
  8
0
100
AcDbLine
 62
7
  6
CONTINUOUS
 10
30.9499800612
 20
47.6873074361
 11
30.9499800612
 21
51.6873074361
  0
LINE
  5
2C4
100
AcDbEntity
  8
0
100
AcDbLine
 62
7
  6
CONTINUOUS
 10
31.1315245746
 20
51.6873074361
 11
31.1315245746
 21
47.6873074361
  0
LINE
  5
2C5
100
AcDbEntity
  8
0
100
AcDbLine
 62
7
  6
CONTINUOUS
 10
31.5191928519
 20
84.009003879
 11
31.5191928519
 21
75.2873074361
  0
LINE
  5
2C6
100
AcDbEntity
  8
0
100
AcDbLine
 62
7
  6
CONTINUOUS
 10
53.6777008407
 20
73.8479469304
 11
51.8451341326
 21
72.0153800723
  0
LINE
  5
2C7
100
AcDbEntity
  8
0
100
AcDbLine
 62
7
  6
CONTINUOUS
 10
16.4170629474
 20
42.5373074361
 11
51.8170629474
 21
42.5373074361
  0
LINE
  5
2C8
100
AcDbEntity
  8
0
100
AcDbLine
 62
7
  6
CONTINUOUS
 10
31.6170629474
 20
15.0373074361
 11
31.6170629474
 21
17.9373074361
  0
LINE
  5
2C9
100
AcDbEntity
  8
0
100
AcDbLine
 62
7
  6
CONTINUOUS
 10
31.6678162546
 20
84.9111181729
 11
31.6678162546
 21
75.2873074361
  0
LINE
  5
2CA
100
AcDbEntity
  8
0
100
AcDbLine
 62
7
  6
CONTINUOUS
 10
32.4141461434
 20
75.2873074361
 11
32.4141461434
 21
84.9111181615
  0
LINE
  5
2CB
100
AcDbEntity
  8
0
100
AcDbLine
 62
7
  6
CONTINUOUS
 10
32.5170629474
 20
15.0373074361
 11
32.5170629474
 21
17.9373074361
  0
LINE
  5
2CC
100
AcDbEntity
  8
0
100
AcDbLine
 62
7
  6
CONTINUOUS
 10
32.5368527488
 20
75.2873074361
 11
32.5368527488
 21
84.009003879
  0
LINE
  5
2CD
100
AcDbEntity
  8
0
100
AcDbLine
 62
7
  6
CONTINUOUS
 10
32.6170629474
 20
15.0373074361
 11
32.6170629474
 21
17.7373074361
  0
LINE
  5
2CE
100
AcDbEntity
  8
0
100
AcDbLine
 62
7
  6
CONTINUOUS
 10
32.7170601531
 20
7.8373074362
 11
32.7170601531
 21
8.0373074078
  0
LINE
  5
2CF
100
AcDbEntity
  8
0
100
AcDbLine
 62
7
  6
CONTINUOUS
 10
33.1170629474
 20
51.6873074361
 11
33.1170629474
 21
47.6873074361
  0
LINE
  5
2D0
100
AcDbEntity
  8
0
100
AcDbLine
 62
7
  6
CONTINUOUS
 10
33.1170629474
 20
12.5457694383
 11
33.1170629474
 21
15.0373074361
  0
LINE
  5
2D1
100
AcDbEntity
  8
0
100
AcDbLine
 62
7
  6
CONTINUOUS
 10
33.5170629474
 20
14.0373074669
 11
33.5170629474
 21
17.9373074361
  0
LINE
  5
2D2
100
AcDbEntity
  8
0
100
AcDbLine
 62
7
  6
CONTINUOUS
 10
33.6054302213
 20
84.009003879
 11
33.6054302213
 21
75.2873074361
  0
LINE
  5
2D3
100
AcDbEntity
  8
0
100
AcDbLine
 62
7
  6
CONTINUOUS
 10
33.7418425061
 20
84.9111181729
 11
33.7418425061
 21
75.2873074361
  0
LINE
  5
2D4
100
AcDbEntity
  8
0
100
AcDbLine
 62
7
  6
CONTINUOUS
 10
34.4922833886
 20
75.2873074361
 11
34.4922833886
 21
84.9111181615
  0
LINE
  5
2D5
100
AcDbEntity
  8
0
100
AcDbLine
 62
7
  6
CONTINUOUS
 10
18.1170629474
 20
47.6873074361
 11
50.1170629474
 21
47.6873074361
  0
LINE
  5
2D6
100
AcDbEntity
  8
0
100
AcDbLine
 62
7
  6
CONTINUOUS
 10
34.6286956734
 20
75.2873074361
 11
34.6286956734
 21
84.009003879
  0
LINE
  5
2D7
100
AcDbEntity
  8
0
100
AcDbLine
 62
7
  6
CONTINUOUS
 10
34.7170629474
 20
14.0373074669
 11
34.7170629474
 21
17.9373074361
  0
LINE
  5
2D8
100
AcDbEntity
  8
0
100
AcDbLine
 62
7
  6
CONTINUOUS
 10
35.1170629474
 20
12.5457694383
 11
35.1170629474
 21
15.0373074361
  0
LINE
  5
2D9
100
AcDbEntity
  8
0
100
AcDbLine
 62
7
  6
CONTINUOUS
 10
35.1170629474
 20
47.6873074361
 11
35.1170629474
 21
51.6873074361
  0
LINE
  5
2DA
100
AcDbEntity
  8
0
100
AcDbLine
 62
7
  6
CONTINUOUS
 10
35.5170601531
 20
7.8373074362
 11
35.5170601531
 21
8.0373074078
  0
LINE
  5
2DB
100
AcDbEntity
  8
0
100
AcDbLine
 62
7
  6
CONTINUOUS
 10
35.6170629474
 20
15.0373074361
 11
35.6170629474
 21
17.7373074361
  0
LINE
  5
2DC
100
AcDbEntity
  8
0
100
AcDbLine
 62
7
  6
CONTINUOUS
 10
35.6972731459
 20
84.009003879
 11
35.6972731459
 21
75.2873074361
  0
LINE
  5
2DD
100
AcDbEntity
  8
0
100
AcDbLine
 62
7
  6
CONTINUOUS
 10
35.7170629474
 20
17.9373074361
 11
35.7170629474
 21
15.0373074361
  0
LINE
  5
2DE
100
AcDbEntity
  8
0
100
AcDbLine
 62
7
  6
CONTINUOUS
 10
35.8199797513
 20
84.9111181729
 11
35.8199797513
 21
75.2873074361
  0
LINE
  5
2DF
100
AcDbEntity
  8
0
100
AcDbLine
 62
7
  6
CONTINUOUS
 10
36.5663096401
 20
75.2873074361
 11
36.5663096401
 21
84.9111181615
  0
LINE
  5
2E0
100
AcDbEntity
  8
0
100
AcDbLine
 62
7
  6
CONTINUOUS
 10
36.6170629474
 20
17.9373074361
 11
36.6170629474
 21
15.0373074361
  0
LINE
  5
2E1
100
AcDbEntity
  8
0
100
AcDbLine
 62
7
  6
CONTINUOUS
 10
36.7149330428
 20
75.2873074361
 11
36.7149330428
 21
84.009003879
  0
LINE
  5
2E2
100
AcDbEntity
  8
0
100
AcDbLine
 62
7
  6
CONTINUOUS
 10
37.1026013201
 20
47.6873074361
 11
37.1026013201
 21
51.6873074361
  0
LINE
  5
2E3
100
AcDbEntity
  8
0
100
AcDbLine
 62
7
  6
CONTINUOUS
 10
37.2841458336
 20
51.6873074361
 11
37.2841458336
 21
47.6873074361
  0
LINE
  5
2E4
100
AcDbEntity
  8
0
100
AcDbLine
 62
7
  6
CONTINUOUS
 10
37.6630367994
 20
86.7097843868
 11
37.6630367994
 21
86.447558232
  0
LINE
  5
2E5
100
AcDbEntity
  8
0
100
AcDbLine
 62
7
  6
CONTINUOUS
 10
37.7718029569
 20
84.009003879
 11
37.7718029569
 21
75.2873074361
  0
LINE
  5
2E6
100
AcDbEntity
  8
0
100
AcDbLine
 62
7
  6
CONTINUOUS
 10
37.8794594837
 20
84.911118173
 11
37.8794594837
 21
75.2873074361
  0
LINE
  5
2E7
100
AcDbEntity
  8
0
100
AcDbLine
 62
7
  6
CONTINUOUS
 10
37.9101531259
 20
86.447558232
 11
37.9101531259
 21
86.691714526
  0
LINE
  5
2E8
100
AcDbEntity
  8
0
100
AcDbLine
 62
7
  6
CONTINUOUS
 10
38.6135014323
 20
75.2873074361
 11
38.6135014323
 21
84.9111181615
  0
LINE
  5
2E9
100
AcDbEntity
  8
0
100
AcDbLine
 62
7
  6
CONTINUOUS
 10
38.7727076038
 20
75.2873074361
 11
38.7727076038
 21
84.009003879
  0
LINE
  5
2EA
100
AcDbEntity
  8
0
100
AcDbLine
 62
7
  6
CONTINUOUS
 10
39.2159974861
 20
47.6873074361
 11
39.2159974861
 21
51.6873074361
  0
LINE
  5
2EB
100
AcDbEntity
  8
0
100
AcDbLine
 62
7
  6
CONTINUOUS
 10
39.8062906716
 20
84.009003879
 11
39.8062906716
 21
75.2873074361
  0
LINE
  5
2EC
100
AcDbEntity
  8
0
100
AcDbLine
 62
7
  6
CONTINUOUS
 10
39.8977176122
 20
84.9111181729
 11
39.8977176122
 21
75.2873074361
  0
LINE
  5
2ED
100
AcDbEntity
  8
0
100
AcDbLine
 62
7
  6
CONTINUOUS
 10
40.150304199
 20
42.5373074361
 11
40.150304199
 21
40.0373074361
  0
LINE
  5
2EE
100
AcDbEntity
  8
0
100
AcDbLine
 62
7
  6
CONTINUOUS
 10
40.4416182669
 20
36.1954100549
 11
40.4416182669
 21
31.6373074361
  0
LINE
  5
2EF
100
AcDbEntity
  8
0
100
AcDbLine
 62
7
  6
CONTINUOUS
 10
50.08578237
 20
51.6873074361
 11
49.8004804956
 21
51.6873074361
  0
LINE
  5
2F0
100
AcDbEntity
  8
0
100
AcDbLine
 62
7
  6
CONTINUOUS
 10
49.2828424054
 20
51.6873074361
 11
48.4463796333
 21
51.6873074361
  0
LINE
  5
2F1
100
AcDbEntity
  8
0
100
AcDbLine
 62
7
  6
CONTINUOUS
 10
47.4463796333
 20
51.6873074361
 11
46.1157595192
 21
51.6873074361
  0
LINE
  5
2F2
100
AcDbEntity
  8
0
100
AcDbLine
 62
7
  6
CONTINUOUS
 10
44.7015459568
 20
51.6873074361
 11
42.9674480625
 21
51.6873074361
  0
LINE
  5
2F3
100
AcDbEntity
  8
0
100
AcDbLine
 62
7
  6
CONTINUOUS
 10
41.2353972549
 20
51.6873074361
 11
39.2159974861
 21
51.6873074361
  0
LINE
  5
2F4
100
AcDbEntity
  8
0
100
AcDbLine
 62
7
  6
CONTINUOUS
 10
37.2841458336
 20
51.6873074361
 11
35.1170629474
 21
51.6873074361
  0
LINE
  5
2F5
100
AcDbEntity
  8
0
100
AcDbLine
 62
7
  6
CONTINUOUS
 10
33.1170629474
 20
51.6873074361
 11
30.9499800611
 21
51.6873074361
  0
LINE
  5
2F6
100
AcDbEntity
  8
0
100
AcDbLine
 62
7
  6
CONTINUOUS
 10
29.0181284086
 20
51.6873074361
 11
26.9987286398
 21
51.6873074361
  0
LINE
  5
2F7
100
AcDbEntity
  8
0
100
AcDbLine
 62
7
  6
CONTINUOUS
 10
25.2666778322
 20
51.6873074361
 11
23.5325799379
 21
51.6873074361
  0
LINE
  5
2F8
100
AcDbEntity
  8
0
100
AcDbLine
 62
7
  6
CONTINUOUS
 10
22.1183663756
 20
51.6873074361
 11
20.7877462614
 21
51.6873074361
  0
LINE
  5
2F9
100
AcDbEntity
  8
0
100
AcDbLine
 62
7
  6
CONTINUOUS
 10
19.7877462614
 20
51.6873074361
 11
18.9512834893
 21
51.6873074361
  0
LINE
  5
2FA
100
AcDbEntity
  8
0
100
AcDbLine
 62
7
  6
CONTINUOUS
 10
18.4336453991
 20
51.6873074361
 11
18.1483435247
 21
51.6873074361
  0
LINE
  5
2FB
100
AcDbEntity
  8
0
100
AcDbLine
 62
7
  6
CONTINUOUS
 10
18.1170629474
 20
53.1873074361
 11
50.1170629474
 21
53.1873074361
  0
LINE
  5
2FC
100
AcDbEntity
  8
0
100
AcDbLine
 62
7
  6
CONTINUOUS
 10
49.1170629474
 20
53.7873074361
 11
19.1170629474
 21
53.7873074361
  0
LINE
  5
2FD
100
AcDbEntity
  8
0
100
AcDbLine
 62
7
  6
CONTINUOUS
 10
14.556425054
 20
73.8479469304
 11
16.3889917621
 21
72.0153800723
  0
LINE
  5
2FE
100
AcDbEntity
  8
0
100
AcDbLine
 62
7
  6
CONTINUOUS
 10
40.6114293036
 20
75.2873074361
 11
40.6114293036
 21
84.9111181615
  0
LINE
  5
2FF
100
AcDbEntity
  8
0
100
AcDbLine
 62
7
  6
CONTINUOUS
 10
40.7794739477
 20
75.2873074361
 11
40.7794739477
 21
84.009003879
  0
LINE
  5
300
100
AcDbEntity
  8
0
100
AcDbLine
 62
7
  6
CONTINUOUS
 10
40.8846801865
 20
47.6873074361
 11
40.8846801865
 21
51.6873074361
  0
LINE
  5
301
100
AcDbEntity
  8
0
100
AcDbLine
 62
7
  6
CONTINUOUS
 10
41.2353972549
 20
51.6873074361
 11
41.2353972549
 21
47.6873074361
  0
LINE
  5
302
100
AcDbEntity
  8
0
100
AcDbLine
 62
7
  6
CONTINUOUS
 10
41.5170629474
 20
15.0373074361
 11
41.5170629474
 21
17.9373074361
  0
LINE
  5
303
100
AcDbEntity
  8
0
100
AcDbLine
 62
7
  6
CONTINUOUS
 10
41.7784460168
 20
84.009003879
 11
41.7784460168
 21
75.2873074361
  0
LINE
  5
304
100
AcDbEntity
  8
0
100
AcDbLine
 62
7
  6
CONTINUOUS
 10
41.8530643134
 20
75.2873074361
 11
41.8530643134
 21
84.8790215788
  0
LINE
  5
305
100
AcDbEntity
  8
0
100
AcDbLine
 62
7
  6
CONTINUOUS
 10
42.3170629474
 20
15.0373074361
 11
42.3170629474
 21
12.5457694384
  0
LINE
  5
306
100
AcDbEntity
  8
0
100
AcDbLine
 62
7
  6
CONTINUOUS
 10
42.4923197641
 20
18.0373074361
 11
42.4923197641
 21
17.9373074361
  0
LINE
  5
307
100
AcDbEntity
  8
0
100
AcDbLine
 62
7
  6
CONTINUOUS
 10
42.4923197641
 20
25.5373074361
 11
42.4923197641
 21
27.9885933707
  0
LINE
  5
308
100
AcDbEntity
  8
0
100
AcDbLine
 62
7
  6
CONTINUOUS
 10
42.5010686294
 20
25.5373074361
 11
42.5010686294
 21
18.0373074361
  0
LINE
  5
309
100
AcDbEntity
  8
0
100
AcDbLine
 62
7
  6
CONTINUOUS
 10
42.5170629474
 20
14.0373074671
 11
42.5170629474
 21
17.9373074361
  0
LINE
  5
30A
100
AcDbEntity
  8
0
100
AcDbLine
 62
7
  6
CONTINUOUS
 10
42.5382035381
 20
75.2873074361
 11
42.5382035381
 21
84.9111181614
  0
LINE
  5
30B
100
AcDbEntity
  8
0
100
AcDbLine
 62
7
  6
CONTINUOUS
 10
42.6170629474
 20
17.7373074361
 11
42.6170629474
 21
14.2373074361
  0
LINE
  5
30C
100
AcDbEntity
  8
0
100
AcDbLine
 62
7
  6
CONTINUOUS
 10
42.7132455225
 20
75.2873074361
 11
42.7132455225
 21
84.009003879
  0
LINE
  5
30D
100
AcDbEntity
  8
0
100
AcDbLine
 62
7
  6
CONTINUOUS
 10
42.7170601531
 20
7.8373074362
 11
42.7170601531
 21
8.0373074078
  0
LINE
  5
30E
100
AcDbEntity
  8
0
100
AcDbLine
 62
7
  6
CONTINUOUS
 10
42.9674480625
 20
47.6873074361
 11
42.9674480625
 21
51.6873074361
  0
LINE
  5
30F
100
AcDbEntity
  8
0
100
AcDbLine
 62
7
  6
CONTINUOUS
 10
19.1170629474
 20
54.7873074361
 11
49.1170629474
 21
54.7873074361
  0
LINE
  5
310
100
AcDbEntity
  8
0
100
AcDbLine
 62
7
  6
CONTINUOUS
 10
49.1170629474
 20
55.2873074361
 11
19.1170629474
 21
55.2873074361
  0
LINE
  5
311
100
AcDbEntity
  8
0
100
AcDbLine
 62
7
  6
CONTINUOUS
 10
55.1170629474
 20
55.7873074361
 11
13.1170629474
 21
55.7873074361
  0
LINE
  5
312
100
AcDbEntity
  8
0
100
AcDbLine
 62
7
  6
CONTINUOUS
 10
13.1170629474
 20
56.4264362474
 11
55.1170629474
 21
56.4264362474
  0
LINE
  5
313
100
AcDbEntity
  8
0
100
AcDbLine
 62
7
  6
CONTINUOUS
 10
43.6666616458
 20
84.009003879
 11
43.6666616458
 21
75.2873074361
  0
LINE
  5
314
100
AcDbEntity
  8
0
100
AcDbLine
 62
7
  6
CONTINUOUS
 10
43.725686061
 20
75.2873074361
 11
43.725686061
 21
84.8256485631
  0
LINE
  5
315
100
AcDbEntity
  8
0
100
AcDbLine
 62
7
  6
CONTINUOUS
 10
44.0170601532
 20
7.8373074361
 11
44.0170601532
 21
8.0373074124
  0
LINE
  5
316
100
AcDbEntity
  8
0
100
AcDbLine
 62
7
  6
CONTINUOUS
 10
44.0638731577
 20
86.6671740774
 11
44.0638731577
 21
86.7097843847
  0
LINE
  5
317
100
AcDbEntity
  8
0
100
AcDbLine
 62
7
  6
CONTINUOUS
 10
44.2055571222
 20
47.6873074361
 11
44.2055571222
 21
51.6873074361
  0
LINE
  5
318
100
AcDbEntity
  8
0
100
AcDbLine
 62
7
  6
CONTINUOUS
 10
44.3727139938
 20
75.2873074361
 11
44.3727139938
 21
84.9111181615
  0
LINE
  5
319
100
AcDbEntity
  8
0
100
AcDbLine
 62
7
  6
CONTINUOUS
 10
44.5528355221
 20
75.2873074361
 11
44.5528355221
 21
84.009003879
  0
LINE
  5
31A
100
AcDbEntity
  8
0
100
AcDbLine
 62
7
  6
CONTINUOUS
 10
44.7015459568
 20
51.6873074361
 11
44.7015459568
 21
47.6873074361
  0
LINE
  5
31B
100
AcDbEntity
  8
0
100
AcDbLine
 62
7
  6
CONTINUOUS
 10
45.1170631538
 20
55.2873074361
 11
45.1170631538
 21
54.7873074361
  0
LINE
  5
31C
100
AcDbEntity
  8
0
100
AcDbLine
 62
7
  6
CONTINUOUS
 10
45.1170631538
 20
53.7873074361
 11
45.1170631538
 21
53.1873074361
  0
LINE
  5
31D
100
AcDbEntity
  8
0
100
AcDbLine
 62
7
  6
CONTINUOUS
 10
45.1170643901
 20
47.6873074361
 11
45.1170643901
 21
42.5373074361
  0
LINE
  5
31E
100
AcDbEntity
  8
0
100
AcDbLine
 62
7
  6
CONTINUOUS
 10
45.4502498731
 20
84.0090038791
 11
45.4502498731
 21
75.2873074361
  0
LINE
  5
31F
100
AcDbEntity
  8
0
100
AcDbLine
 62
7
  6
CONTINUOUS
 10
45.4952233086
 20
75.2873074361
 11
45.4952233086
 21
84.7701923526
  0
LINE
  5
320
100
AcDbEntity
  8
0
100
AcDbLine
 62
7
  6
CONTINUOUS
 10
45.6194251063
 20
53.7873074361
 11
45.6194251063
 21
54.7873074361
  0
LINE
  5
321
100
AcDbEntity
  8
0
100
AcDbLine
 62
7
  6
CONTINUOUS
 10
46.0948613908
 20
75.2873074361
 11
46.0948613908
 21
84.9111181615
  0
LINE
  5
322
100
AcDbEntity
  8
0
100
AcDbLine
 62
7
  6
CONTINUOUS
 10
46.1157595192
 20
47.6873074361
 11
46.1157595192
 21
51.6873074361
  0
LINE
  5
323
100
AcDbEntity
  8
0
100
AcDbLine
 62
7
  6
CONTINUOUS
 10
46.2780890136
 20
75.2873074361
 11
46.2780890136
 21
84.009003879
  0
LINE
  5
324
100
AcDbEntity
  8
0
100
AcDbLine
 62
7
  6
CONTINUOUS
 10
50.6164783573
 20
68.9645485799
 11
50.1670629474
 21
67.2873074361
  0
LINE
  5
325
100
AcDbEntity
  8
0
100
AcDbLine
 62
7
  6
CONTINUOUS
 10
54.2657631404
 20
57.4153224447
 11
13.9683627543
 21
57.4153224447
  0
LINE
  5
326
100
AcDbEntity
  8
0
100
AcDbLine
 62
7
  6
CONTINUOUS
 10
18.0644633327
 20
58.0312774189
 11
50.169662562
 21
58.0312774189
  0
LINE
  5
327
100
AcDbEntity
  8
0
100
AcDbLine
 62
7
  6
CONTINUOUS
 10
46.6170162818
 20
14.0373074361
 11
46.6170162818
 21
14.2373074361
  0
LINE
  5
328
100
AcDbEntity
  8
0
100
AcDbLine
 62
7
  6
CONTINUOUS
 10
46.8389198517
 20
47.6873074361
 11
46.8389198517
 21
51.6873074361
  0
LINE
  5
329
100
AcDbEntity
  8
0
100
AcDbLine
 62
7
  6
CONTINUOUS
 10
47.1096693328
 20
84.009003879
 11
47.1096693328
 21
75.2873074361
  0
LINE
  5
32A
100
AcDbEntity
  8
0
100
AcDbLine
 62
7
  6
CONTINUOUS
 10
47.1422886358
 20
75.2873074361
 11
47.1422886358
 21
84.7127227949
  0
LINE
  5
32B
100
AcDbEntity
  8
0
100
AcDbLine
 62
7
  6
CONTINUOUS
 10
47.2670629474
 20
86.4750498906
 11
47.2670629474
 21
86.7097814358
  0
LINE
  5
32C
100
AcDbEntity
  8
0
100
AcDbLine
 62
7
  6
CONTINUOUS
 10
47.4463796333
 20
51.6873074361
 11
47.4463796333
 21
47.6873074361
  0
LINE
  5
32D
100
AcDbEntity
  8
0
100
AcDbLine
 62
7
  6
CONTINUOUS
 10
47.6344277651
 20
18.0373074361
 11
47.6344277651
 21
24.0373074362
  0
LINE
  5
32E
100
AcDbEntity
  8
0
100
AcDbLine
 62
7
  6
CONTINUOUS
 10
47.6857775214
 20
75.2873074361
 11
47.6857775214
 21
84.9111181617
  0
LINE
  5
32F
100
AcDbEntity
  8
0
100
AcDbLine
 62
7
  6
CONTINUOUS
 10
47.8701037587
 20
75.2873074361
 11
47.8701037587
 21
84.009003879
  0
LINE
  5
330
100
AcDbEntity
  8
0
100
AcDbLine
 62
7
  6
CONTINUOUS
 10
48.1670629474
 20
63.2873074361
 11
48.1670629474
 21
65.2873074361
  0
LINE
  5
331
100
AcDbEntity
  8
0
100
AcDbLine
 62
7
  6
CONTINUOUS
 10
48.4463796333
 20
47.6873074361
 11
48.4463796333
 21
51.6873074361
  0
LINE
  5
332
100
AcDbEntity
  8
0
100
AcDbLine
 62
7
  6
CONTINUOUS
 10
48.4670629474
 20
60.0090498145
 11
48.4670629474
 21
63.2873074361
  0
LINE
  5
333
100
AcDbEntity
  8
0
100
AcDbLine
 62
7
  6
CONTINUOUS
 10
48.4670629474
 20
65.2873074361
 11
48.4670629474
 21
67.2873074361
  0
LINE
  5
334
100
AcDbEntity
  8
0
100
AcDbLine
 62
7
  6
CONTINUOUS
 10
48.6053090572
 20
47.6873074361
 11
48.6053090572
 21
51.6873074361
  0
LINE
  5
335
100
AcDbEntity
  8
0
100
AcDbLine
 62
7
  6
CONTINUOUS
 10
48.6267390781
 20
84.009003879
 11
48.6267390781
 21
75.2873074361
  0
LINE
  5
336
100
AcDbEntity
  8
0
100
AcDbLine
 62
7
  6
CONTINUOUS
 10
48.6488364503
 20
75.2873074361
 11
48.6488364503
 21
84.6534295372
  0
LINE
  5
337
100
AcDbEntity
  8
0
100
AcDbLine
 62
7
  6
CONTINUOUS
 10
49.0084506171
 20
86.4462703768
 11
49.0084506171
 21
86.3528149588
  0
LINE
  5
338
100
AcDbEntity
  8
0
100
AcDbLine
 62
7
  6
CONTINUOUS
 10
49.1170629474
 20
55.7873074361
 11
49.1170629474
 21
55.2873074361
  0
LINE
  5
339
100
AcDbEntity
  8
0
100
AcDbLine
 62
7
  6
CONTINUOUS
 10
49.1170629474
 20
53.7873074361
 11
49.1170629474
 21
54.7873074361
  0
LINE
  5
33A
100
AcDbEntity
  8
0
100
AcDbLine
 62
7
  6
CONTINUOUS
 10
49.126628591
 20
86.3435340989
 11
49.126628591
 21
86.4276203878
  0
LINE
  5
33B
100
AcDbEntity
  8
0
100
AcDbLine
 62
7
  6
CONTINUOUS
 10
49.1280319756
 20
75.2873074361
 11
49.1280319756
 21
84.9111181617
  0
LINE
  5
33C
100
AcDbEntity
  8
0
100
AcDbLine
 62
7
  6
CONTINUOUS
 10
49.2828424054
 20
51.6873074361
 11
49.2828424054
 21
47.6873074361
  0
LINE
  5
33D
100
AcDbEntity
  8
0
100
AcDbLine
 62
7
  6
CONTINUOUS
 10
49.3114373105
 20
75.2873074361
 11
49.3114373105
 21
84.009003879
  0
LINE
  5
33E
100
AcDbEntity
  8
0
100
AcDbLine
 62
7
  6
CONTINUOUS
 10
25.2649682411
 20
14.0373074695
 11
20.0302396115
 21
8.0373067943
  0
LINE
  5
33F
100
AcDbEntity
  8
0
100
AcDbLine
 62
7
  6
CONTINUOUS
 10
13.9683627543
 20
57.4153224447
 11
18.0644633327
 21
58.0312774189
  0
LINE
  5
340
100
AcDbEntity
  8
0
100
AcDbLine
 62
7
  6
CONTINUOUS
 10
48.4670629474
 20
60.0090498145
 11
19.7670629474
 21
60.0090498145
  0
LINE
  5
341
100
AcDbEntity
  8
0
100
AcDbLine
 62
7
  6
CONTINUOUS
 10
54.2657631404
 20
57.4153224447
 11
50.169662562
 21
58.0312774189
  0
LINE
  5
342
100
AcDbEntity
  8
0
100
AcDbLine
 62
7
  6
CONTINUOUS
 10
49.8004804956
 20
47.6873074361
 11
49.8004804956
 21
51.6873074361
  0
LINE
  5
343
100
AcDbEntity
  8
0
100
AcDbLine
 62
7
  6
CONTINUOUS
 10
49.9848377754
 20
84.009003879
 11
49.9848377754
 21
75.2873074361
  0
LINE
  5
344
100
AcDbEntity
  8
0
100
AcDbLine
 62
7
  6
CONTINUOUS
 10
49.998360699
 20
75.2873074361
 11
49.998360699
 21
84.5925396802
  0
LINE
  5
345
100
AcDbEntity
  8
0
100
AcDbLine
 62
7
  6
CONTINUOUS
 10
50.0569569142
 20
86.3147047304
 11
50.0569569142
 21
86.270472711
  0
LINE
  5
346
100
AcDbEntity
  8
0
100
AcDbLine
 62
7
  6
CONTINUOUS
 10
50.08578237
 20
51.6873074361
 11
50.08578237
 21
47.6873074361
  0
LINE
  5
347
100
AcDbEntity
  8
0
100
AcDbLine
 62
7
  6
CONTINUOUS
 10
50.1170629474
 20
53.1873074361
 11
50.1170629474
 21
47.6873074361
  0
LINE
  5
348
100
AcDbEntity
  8
0
100
AcDbLine
 62
7
  6
CONTINUOUS
 10
50.4058231121
 20
75.2873074361
 11
50.4058231121
 21
84.9111181615
  0
LINE
  5
349
100
AcDbEntity
  8
0
100
AcDbLine
 62
7
  6
CONTINUOUS
 10
50.5862981172
 20
75.2873074361
 11
50.5862981172
 21
84.009003879
  0
LINE
  5
34A
100
AcDbEntity
  8
0
100
AcDbLine
 62
7
  6
CONTINUOUS
 10
50.6164783574
 20
68.9645485799
 11
50.6164783574
 21
69.1142204332
  0
LINE
  5
34B
100
AcDbEntity
  8
0
100
AcDbLine
 62
7
  6
CONTINUOUS
 10
51.0670629474
 20
14.0373074521
 11
51.0670629474
 21
17.9373074361
  0
LINE
  5
34C
100
AcDbEntity
  8
0
100
AcDbLine
 62
7
  6
CONTINUOUS
 10
51.169085811
 20
84.009003879
 11
51.169085811
 21
75.2873074361
  0
LINE
  5
34D
100
AcDbEntity
  8
0
100
AcDbLine
 62
7
  6
CONTINUOUS
 10
51.1760757116
 20
75.2873074361
 11
51.1760757116
 21
84.530394006
  0
LINE
  5
34E
100
AcDbEntity
  8
0
100
AcDbLine
 62
7
  6
CONTINUOUS
 10
51.1775352139
 20
21.9961858936
 11
51.1775352139
 21
17.9373074361
  0
LINE
  5
34F
100
AcDbEntity
  8
0
100
AcDbLine
 62
7
  6
CONTINUOUS
 10
51.2170601532
 20
7.8373074361
 11
51.2170601532
 21
8.0373074124
  0
LINE
  5
350
100
AcDbEntity
  8
0
100
AcDbLine
 62
7
  6
CONTINUOUS
 10
51.2170629474
 20
17.9373074361
 11
51.2170629474
 21
16.7373074361
  0
LINE
  5
351
100
AcDbEntity
  8
0
100
AcDbLine
 62
7
  6
CONTINUOUS
 10
51.5051511835
 20
75.2873074361
 11
51.5051511835
 21
84.9111181617
  0
LINE
  5
352
100
AcDbEntity
  8
0
100
AcDbLine
 62
7
  6
CONTINUOUS
 10
51.6807185371
 20
75.2873074361
 11
51.6807185371
 21
84.009003879
  0
LINE
  5
353
100
AcDbEntity
  8
0
100
AcDbLine
 62
7
  6
CONTINUOUS
 10
51.8170629474
 20
8.0373074124
 11
51.8170629474
 21
12.4907692183
  0
LINE
  5
354
100
AcDbEntity
  8
0
100
AcDbLine
 62
7
  6
CONTINUOUS
 10
51.8170629474
 20
40.0373138668
 11
51.8170629474
 21
42.5373074361
  0
LINE
  5
355
100
AcDbEntity
  8
0
100
AcDbLine
 62
7
  6
CONTINUOUS
 10
52.1665083158
 20
75.2873074361
 11
52.1690781962
 21
84.4671260525
  0
LINE
  5
356
100
AcDbEntity
  8
0
100
AcDbLine
 62
7
  6
CONTINUOUS
 10
52.4139717214
 20
75.2873074361
 11
52.4139717214
 21
84.9111181616
  0
LINE
  5
357
100
AcDbEntity
  8
0
100
AcDbLine
 62
7
  6
CONTINUOUS
 10
52.4170629474
 20
16.7373074361
 11
52.4170629474
 21
30.0373074361
  0
LINE
  5
358
100
AcDbEntity
  8
0
100
AcDbLine
 62
7
  6
CONTINUOUS
 10
19.7670629474
 20
63.2873074361
 11
48.4670629474
 21
63.2873074361
  0
LINE
  5
359
100
AcDbEntity
  8
0
100
AcDbLine
 62
7
  6
CONTINUOUS
 10
48.4670629474
 20
65.2873074361
 11
19.7670629474
 21
65.2873074361
  0
LINE
  5
35A
100
AcDbEntity
  8
0
100
AcDbLine
 62
7
  6
CONTINUOUS
 10
52.4670629474
 20
31.6373074361
 11
52.4670629474
 21
30.0373074361
  0
LINE
  5
35B
100
AcDbEntity
  8
0
100
AcDbLine
 62
7
  6
CONTINUOUS
 10
52.5827078708
 20
75.2873074361
 11
52.5827078708
 21
84.009003879
  0
LINE
  5
35C
100
AcDbEntity
  8
0
100
AcDbLine
 62
7
  6
CONTINUOUS
 10
52.6170621945
 20
14.0373074361
 11
52.6170621945
 21
14.2373074361
  0
LINE
  5
35D
100
AcDbEntity
  8
0
100
AcDbLine
 62
7
  6
CONTINUOUS
 10
52.9661773201
 20
75.2873074361
 11
52.9664886097
 21
84.4028515275
  0
LINE
  5
35E
100
AcDbEntity
  8
0
100
AcDbLine
 62
7
  6
CONTINUOUS
 10
53.122327498
 20
75.2873074361
 11
53.122327498
 21
84.9111181615
  0
LINE
  5
35F
100
AcDbEntity
  8
0
100
AcDbLine
 62
7
  6
CONTINUOUS
 10
53.2170601532
 20
7.8373074362
 11
53.2170601532
 21
8.037307427
  0
LINE
  5
360
100
AcDbEntity
  8
0
100
AcDbLine
 62
7
  6
CONTINUOUS
 10
53.2823837346
 20
75.2873074361
 11
53.2823837346
 21
84.009003879
  0
LINE
  5
361
100
AcDbEntity
  8
0
100
AcDbLine
 62
7
  6
CONTINUOUS
 10
53.5593314829
 20
84.009003879
 11
53.5593314829
 21
75.2873074361
  0
LINE
  5
362
100
AcDbEntity
  8
0
100
AcDbLine
 62
7
  6
CONTINUOUS
 10
53.5595703568
 20
84.0394950142
 11
53.5595703568
 21
84.3376888484
  0
LINE
  5
363
100
AcDbEntity
  8
0
100
AcDbLine
 62
7
  6
CONTINUOUS
 10
53.6170629474
 20
31.6373074361
 11
53.6170629474
 21
36.1954040693
  0
LINE
  5
364
100
AcDbEntity
  8
0
100
AcDbLine
 62
7
  6
CONTINUOUS
 10
53.622457619
 20
75.2873074361
 11
53.622457619
 21
84.9111181616
  0
LINE
  5
365
100
AcDbEntity
  8
0
100
AcDbLine
 62
7
  6
CONTINUOUS
 10
53.7720803332
 20
75.2873074361
 11
53.7720803332
 21
84.009003879
  0
LINE
  5
366
100
AcDbEntity
  8
0
100
AcDbLine
 62
7
  6
CONTINUOUS
 10
53.8170629474
 20
8.037307427
 11
53.8170629474
 21
12.4907748764
  0
LINE
  5
367
100
AcDbEntity
  8
0
100
AcDbLine
 62
7
  6
CONTINUOUS
 10
53.9088825543
 20
84.612006418
 11
53.9088825543
 21
84.9111181615
  0
LINE
  5
368
100
AcDbEntity
  8
0
100
AcDbLine
 62
7
  6
CONTINUOUS
 10
53.939472083
 20
84.009003879
 11
53.939472083
 21
75.2873074361
  0
LINE
  5
369
100
AcDbEntity
  8
0
100
AcDbLine
 62
7
  6
CONTINUOUS
 10
53.9418255096
 20
84.1054884909
 11
53.9418255096
 21
84.2715440442
  0
LINE
  5
36A
100
AcDbEntity
  8
0
100
AcDbLine
 62
7
  6
CONTINUOUS
 10
54.0464324483
 20
75.2873074361
 11
54.0464324483
 21
84.009003879
  0
LINE
  5
36B
100
AcDbEntity
  8
0
100
AcDbLine
 62
7
  6
CONTINUOUS
 10
54.1024342206
 20
84.009003879
 11
54.1024342206
 21
75.2873074361
  0
LINE
  5
36C
100
AcDbEntity
  8
0
100
AcDbLine
 62
7
  6
CONTINUOUS
 10
54.1089821393
 20
75.064154863
 11
54.1089821393
 21
75.2873074361
  0
LINE
  5
36D
100
AcDbEntity
  8
0
100
AcDbLine
 62
7
  6
CONTINUOUS
 10
54.1090660008
 20
84.1709137745
 11
54.1090660008
 21
84.2063298274
  0
LINE
  5
36E
100
AcDbEntity
  8
0
100
AcDbLine
 62
7
  6
CONTINUOUS
 10
54.1170629474
 20
14.0373074499
 11
54.1170629474
 21
30.0373074361
  0
LINE
  5
36F
100
AcDbEntity
  8
0
100
AcDbLine
 62
7
  6
CONTINUOUS
 10
55.1170629474
 20
13.8373074361
 11
55.1170629474
 21
15.0373074361
  0
LINE
  5
370
100
AcDbEntity
  8
0
100
AcDbLine
 62
7
  6
CONTINUOUS
 10
55.1170629474
 20
55.7873074361
 11
55.1170629474
 21
56.4264362474
  0
LINE
  5
371
100
AcDbEntity
  8
0
100
AcDbLine
 62
7
  6
CONTINUOUS
 10
50.1670629474
 20
67.2873074361
 11
18.0670629474
 21
67.2873074361
  0
LINE
  5
372
100
AcDbEntity
  8
0
100
AcDbLine
 62
7
  6
CONTINUOUS
 10
54.1170629477
 20
74.9086609484
 11
54.1089821393
 21
75.0641548629
  0
LINE
  5
373
100
AcDbEntity
  8
0
100
AcDbLine
 62
7
  6
CONTINUOUS
 10
50.8069522982
 20
14.0373074361
 11
49.8876972337
 21
8.0373074361
  0
LINE
  5
374
100
AcDbEntity
  8
0
100
AcDbLine
 62
7
  6
CONTINUOUS
 10
52.1319554231
 20
8.0373074306
 11
53.0518777374
 21
14.0373074361
  0
LINE
  5
375
100
AcDbEntity
  8
0
100
AcDbLine
 62
7
  6
CONTINUOUS
 10
51.1319427692
 20
8.0373068113
 11
52.054975665
 21
14.0373081322
  0
LINE
  5
376
100
AcDbEntity
  8
0
100
AcDbLine
 62
7
  6
CONTINUOUS
 10
52.4986978537
 20
14.037307452
 11
52.5339632471
 21
14.2373074361
  0
LINE
  5
377
100
AcDbEntity
  8
0
100
AcDbLine
 62
7
  6
CONTINUOUS
 10
50.6164783574
 20
68.9645485799
 11
17.6176475374
 21
68.9645485799
  0
LINE
  5
378
100
AcDbEntity
  8
0
100
AcDbLine
 62
7
  6
CONTINUOUS
 10
17.6176475374
 20
69.1142204332
 11
50.6164783574
 21
69.1142204332
  0
LINE
  5
379
100
AcDbEntity
  8
0
100
AcDbLine
 62
7
  6
CONTINUOUS
 10
53.1319428777
 20
8.0373073491
 11
54.0549804217
 21
14.037307148
  0
LINE
  5
37A
100
AcDbEntity
  8
0
100
AcDbLine
 62
7
  6
CONTINUOUS
 10
51.8451341326
 20
72.0153800723
 11
16.3889917621
 21
72.0153800723
  0
LINE
  5
37B
100
AcDbEntity
  8
0
100
AcDbLine
 62
7
  6
CONTINUOUS
 10
14.556425054
 20
73.8479469304
 11
53.6777008407
 21
73.8479469304
  0
LINE
  5
37C
100
AcDbEntity
  8
0
100
AcDbLine
 62
7
  6
CONTINUOUS
 10
54.1089821393
 20
75.064154863
 11
14.1251437555
 21
75.064154863
  0
LINE
  5
37D
100
AcDbEntity
  8
0
100
AcDbLine
 62
7
  6
CONTINUOUS
 10
14.1251437555
 20
75.2873074361
 11
14.1316916741
 21
75.2873074361
  0
LINE
  5
37E
100
AcDbEntity
  8
0
100
AcDbLine
 62
7
  6
CONTINUOUS
 10
14.1876934465
 20
75.2873074361
 11
14.2946538117
 21
75.2873074361
  0
LINE
  5
37F
100
AcDbEntity
  8
0
100
AcDbLine
 62
7
  6
CONTINUOUS
 10
14.4622741088
 20
75.2873074361
 11
14.6747944118
 21
75.2873074361
  0
LINE
  5
380
100
AcDbEntity
  8
0
100
AcDbLine
 62
7
  6
CONTINUOUS
 10
14.9517421601
 20
75.2873074361
 11
15.2670889067
 21
75.2873074361
  0
LINE
  5
381
100
AcDbEntity
  8
0
100
AcDbLine
 62
7
  6
CONTINUOUS
 10
15.6514180239
 20
75.2873074361
 11
16.0676175789
 21
75.2873074361
  0
LINE
  5
382
100
AcDbEntity
  8
0
100
AcDbLine
 62
7
  6
CONTINUOUS
 10
16.5534073577
 20
75.2873074361
 11
17.0650400838
 21
75.2873074361
  0
LINE
  5
383
100
AcDbEntity
  8
0
100
AcDbLine
 62
7
  6
CONTINUOUS
 10
17.6478277775
 20
75.2873074361
 11
18.2492881193
 21
75.2873074361
  0
LINE
  5
384
100
AcDbEntity
  8
0
100
AcDbLine
 62
7
  6
CONTINUOUS
 10
18.9214874079
 20
75.2873074361
 11
19.6076496453
 21
75.2873074361
  0
LINE
  5
385
100
AcDbEntity
  8
0
100
AcDbLine
 62
7
  6
CONTINUOUS
 10
20.3640221361
 20
75.2873074361
 11
21.1244565618
 21
75.2873074361
  0
LINE
  5
386
100
AcDbEntity
  8
0
100
AcDbLine
 62
7
  6
CONTINUOUS
 10
21.9560368812
 20
75.2873074361
 11
22.7838760216
 21
75.2873074361
  0
LINE
  5
387
100
AcDbEntity
  8
0
100
AcDbLine
 62
7
  6
CONTINUOUS
 10
23.6812903725
 20
75.2873074361
 11
24.5674642488
 21
75.2873074361
  0
LINE
  5
388
100
AcDbEntity
  8
0
100
AcDbLine
 62
7
  6
CONTINUOUS
 10
25.5208803721
 20
75.2873074361
 11
26.4556798778
 21
75.2873074361
  0
LINE
  5
389
100
AcDbEntity
  8
0
100
AcDbLine
 62
7
  6
CONTINUOUS
 10
27.4546519469
 20
75.2873074361
 11
28.4278352231
 21
75.2873074361
  0
LINE
  5
38A
100
AcDbEntity
  8
0
100
AcDbLine
 62
7
  6
CONTINUOUS
 10
29.461418291
 20
75.2873074361
 11
30.4623229377
 21
75.2873074361
  0
LINE
  5
38B
100
AcDbEntity
  8
0
100
AcDbLine
 62
7
  6
CONTINUOUS
 10
31.5191928519
 20
75.2873074361
 11
32.5368527487
 21
75.2873074361
  0
LINE
  5
38C
100
AcDbEntity
  8
0
100
AcDbLine
 62
7
  6
CONTINUOUS
 10
33.6054302213
 20
75.2873074361
 11
34.6286956734
 21
75.2873074361
  0
LINE
  5
38D
100
AcDbEntity
  8
0
100
AcDbLine
 62
7
  6
CONTINUOUS
 10
35.6972304234
 20
75.2873074361
 11
36.7149330428
 21
75.2873074361
  0
LINE
  5
38E
100
AcDbEntity
  8
0
100
AcDbLine
 62
7
  6
CONTINUOUS
 10
37.771802957
 20
75.2873074361
 11
38.7727076037
 21
75.2873074361
  0
LINE
  5
38F
100
AcDbEntity
  8
0
100
AcDbLine
 62
7
  6
CONTINUOUS
 10
39.8062906716
 20
75.2873074361
 11
40.7794739478
 21
75.2873074361
  0
LINE
  5
390
100
AcDbEntity
  8
0
100
AcDbLine
 62
7
  6
CONTINUOUS
 10
41.7784460169
 20
75.2873074361
 11
42.7132455226
 21
75.2873074361
  0
LINE
  5
391
100
AcDbEntity
  8
0
100
AcDbLine
 62
7
  6
CONTINUOUS
 10
43.6666616459
 20
75.2873074361
 11
44.5528355222
 21
75.2873074361
  0
LINE
  5
392
100
AcDbEntity
  8
0
100
AcDbLine
 62
7
  6
CONTINUOUS
 10
45.4502498731
 20
75.2873074361
 11
46.2776321936
 21
75.2873074361
  0
LINE
  5
393
100
AcDbEntity
  8
0
100
AcDbLine
 62
7
  6
CONTINUOUS
 10
47.1096693327
 20
75.2873074361
 11
47.8701037587
 21
75.2873074361
  0
LINE
  5
394
100
AcDbEntity
  8
0
100
AcDbLine
 62
7
  6
CONTINUOUS
 10
48.6267390781
 20
75.2873074361
 11
49.3114373104
 21
75.2873074361
  0
LINE
  5
395
100
AcDbEntity
  8
0
100
AcDbLine
 62
7
  6
CONTINUOUS
 10
49.9848377754
 20
75.2873074361
 11
50.5862981172
 21
75.2873074361
  0
LINE
  5
396
100
AcDbEntity
  8
0
100
AcDbLine
 62
7
  6
CONTINUOUS
 10
51.1694654956
 20
75.2873074361
 11
51.680718537
 21
75.2873074361
  0
LINE
  5
397
100
AcDbEntity
  8
0
100
AcDbLine
 62
7
  6
CONTINUOUS
 10
52.1665083158
 20
75.2873074361
 11
52.5827078708
 21
75.2873074361
  0
LINE
  5
398
100
AcDbEntity
  8
0
100
AcDbLine
 62
7
  6
CONTINUOUS
 10
52.967036988
 20
75.2873074361
 11
53.2823837346
 21
75.2873074361
  0
LINE
  5
399
100
AcDbEntity
  8
0
100
AcDbLine
 62
7
  6
CONTINUOUS
 10
53.5593314829
 20
75.2873074361
 11
53.7720803332
 21
75.2873074361
  0
LINE
  5
39A
100
AcDbEntity
  8
0
100
AcDbLine
 62
7
  6
CONTINUOUS
 10
53.939472083
 20
75.2873074361
 11
54.0464324483
 21
75.2873074361
  0
LINE
  5
39B
100
AcDbEntity
  8
0
100
AcDbLine
 62
7
  6
CONTINUOUS
 10
54.1024079345
 20
75.2873074361
 11
54.1082545575
 21
75.2873074361
  0
LINE
  5
39C
100
AcDbEntity
  8
0
100
AcDbLine
 62
7
  6
CONTINUOUS
 10
53.8255215589
 20
12.5457660476
 11
55.1170629474
 21
13.8373074361
  0
LINE
  5
39D
100
AcDbEntity
  8
0
100
AcDbLine
 62
7
  6
CONTINUOUS
 10
14.1316916741
 20
84.009003879
 11
14.1876934464
 21
84.009003879
  0
LINE
  5
39E
100
AcDbEntity
  8
0
100
AcDbLine
 62
7
  6
CONTINUOUS
 10
14.2946538117
 20
84.009003879
 11
14.4620455615
 21
84.009003879
  0
LINE
  5
39F
100
AcDbEntity
  8
0
100
AcDbLine
 62
7
  6
CONTINUOUS
 10
14.6747944118
 20
84.009003879
 11
14.9517421601
 21
84.009003879
  0
LINE
  5
3A0
100
AcDbEntity
  8
0
100
AcDbLine
 62
7
  6
CONTINUOUS
 10
15.2679485746
 20
84.009003879
 11
15.6514180239
 21
84.009003879
  0
LINE
  5
3A1
100
AcDbEntity
  8
0
100
AcDbLine
 62
7
  6
CONTINUOUS
 10
16.0676175789
 20
84.009003879
 11
16.5534073576
 21
84.009003879
  0
LINE
  5
3A2
100
AcDbEntity
  8
0
100
AcDbLine
 62
7
  6
CONTINUOUS
 10
17.0650400837
 20
84.009003879
 11
17.6478277774
 21
84.009003879
  0
LINE
  5
3A3
100
AcDbEntity
  8
0
100
AcDbLine
 62
7
  6
CONTINUOUS
 10
18.2492881194
 20
84.009003879
 11
18.9226885842
 21
84.009003879
  0
LINE
  5
3A4
100
AcDbEntity
  8
0
100
AcDbLine
 62
7
  6
CONTINUOUS
 10
19.6073868166
 20
84.009003879
 11
20.364022136
 21
84.009003879
  0
LINE
  5
3A5
100
AcDbEntity
  8
0
100
AcDbLine
 62
7
  6
CONTINUOUS
 10
21.1244565619
 20
84.009003879
 11
21.9560368811
 21
84.009003879
  0
LINE
  5
3A6
100
AcDbEntity
  8
0
100
AcDbLine
 62
7
  6
CONTINUOUS
 10
22.7838760216
 20
84.009003879
 11
23.6812903726
 21
84.009003879
  0
LINE
  5
3A7
100
AcDbEntity
  8
0
100
AcDbLine
 62
7
  6
CONTINUOUS
 10
24.5674642489
 20
84.009003879
 11
25.5208803722
 21
84.009003879
  0
LINE
  5
3A8
100
AcDbEntity
  8
0
100
AcDbLine
 62
7
  6
CONTINUOUS
 10
26.4556798779
 20
84.009003879
 11
27.454651947
 21
84.009003879
  0
LINE
  5
3A9
100
AcDbEntity
  8
0
100
AcDbLine
 62
7
  6
CONTINUOUS
 10
28.4278352231
 20
84.009003879
 11
29.4614182909
 21
84.009003879
  0
LINE
  5
3AA
100
AcDbEntity
  8
0
100
AcDbLine
 62
7
  6
CONTINUOUS
 10
30.4623229378
 20
84.009003879
 11
31.5191928519
 21
84.009003879
  0
LINE
  5
3AB
100
AcDbEntity
  8
0
100
AcDbLine
 62
7
  6
CONTINUOUS
 10
32.5368527488
 20
84.009003879
 11
33.6054302213
 21
84.009003879
  0
LINE
  5
3AC
100
AcDbEntity
  8
0
100
AcDbLine
 62
7
  6
CONTINUOUS
 10
34.6286956734
 20
84.009003879
 11
35.6972731459
 21
84.009003879
  0
LINE
  5
3AD
100
AcDbEntity
  8
0
100
AcDbLine
 62
7
  6
CONTINUOUS
 10
36.7149330428
 20
84.009003879
 11
37.7718029569
 21
84.009003879
  0
LINE
  5
3AE
100
AcDbEntity
  8
0
100
AcDbLine
 62
7
  6
CONTINUOUS
 10
38.7727076038
 20
84.009003879
 11
39.8062906716
 21
84.009003879
  0
LINE
  5
3AF
100
AcDbEntity
  8
0
100
AcDbLine
 62
7
  6
CONTINUOUS
 10
40.7794739477
 20
84.009003879
 11
41.7784460168
 21
84.009003879
  0
LINE
  5
3B0
100
AcDbEntity
  8
0
100
AcDbLine
 62
7
  6
CONTINUOUS
 10
42.7132455225
 20
84.009003879
 11
43.6666616458
 21
84.009003879
  0
LINE
  5
3B1
100
AcDbEntity
  8
0
100
AcDbLine
 62
7
  6
CONTINUOUS
 10
44.5528355221
 20
84.009003879
 11
45.4502498731
 21
84.009003879
  0
LINE
  5
3B2
100
AcDbEntity
  8
0
100
AcDbLine
 62
7
  6
CONTINUOUS
 10
46.2780890136
 20
84.009003879
 11
47.1096693328
 21
84.009003879
  0
LINE
  5
3B3
100
AcDbEntity
  8
0
100
AcDbLine
 62
7
  6
CONTINUOUS
 10
47.8701037587
 20
84.009003879
 11
48.6267390781
 21
84.009003879
  0
LINE
  5
3B4
100
AcDbEntity
  8
0
100
AcDbLine
 62
7
  6
CONTINUOUS
 10
49.3114373105
 20
84.009003879
 11
49.9848377753
 21
84.009003879
  0
LINE
  5
3B5
100
AcDbEntity
  8
0
100
AcDbLine
 62
7
  6
CONTINUOUS
 10
50.5862981172
 20
84.009003879
 11
51.169085811
 21
84.009003879
  0
LINE
  5
3B6
100
AcDbEntity
  8
0
100
AcDbLine
 62
7
  6
CONTINUOUS
 10
51.6807185371
 20
84.009003879
 11
52.1665083158
 21
84.009003879
  0
LINE
  5
3B7
100
AcDbEntity
  8
0
100
AcDbLine
 62
7
  6
CONTINUOUS
 10
52.5827078708
 20
84.009003879
 11
52.9661773201
 21
84.009003879
  0
LINE
  5
3B8
100
AcDbEntity
  8
0
100
AcDbLine
 62
7
  6
CONTINUOUS
 10
53.2823837346
 20
84.009003879
 11
53.5593314829
 21
84.009003879
  0
LINE
  5
3B9
100
AcDbEntity
  8
0
100
AcDbLine
 62
7
  6
CONTINUOUS
 10
53.7720803332
 20
84.009003879
 11
53.939472083
 21
84.009003879
  0
LINE
  5
3BA
100
AcDbEntity
  8
0
100
AcDbLine
 62
7
  6
CONTINUOUS
 10
54.0464324483
 20
84.009003879
 11
54.1024342206
 21
84.009003879
  0
LINE
  5
3BB
100
AcDbEntity
  8
0
100
AcDbLine
 62
7
  6
CONTINUOUS
 10
15.8738044307
 20
86.1740245137
 11
52.3603185453
 21
86.1740248713
  0
LINE
  5
3BC
100
AcDbEntity
  8
0
100
AcDbLine
 62
7
  6
CONTINUOUS
 10
49.9670629474
 20
86.447558232
 11
49.0202940738
 21
86.447558232
  0
LINE
  5
3BD
100
AcDbEntity
  8
0
100
AcDbLine
 62
7
  6
CONTINUOUS
 10
38.3658968672
 20
86.447558232
 11
21.9924235779
 21
86.447558232
  0
LINE
  5
3BE
100
AcDbEntity
  8
0
100
AcDbLine
 62
7
  6
CONTINUOUS
 10
47.6958466011
 20
86.447558232
 11
49.0084506171
 21
86.447558232
  0
LINE
  5
3BF
100
AcDbEntity
  8
0
100
AcDbLine
 62
7
  6
CONTINUOUS
 10
25.2170629474
 20
87.0231313691
 11
15.8738349078
 21
86.1740282475
  0
LINE
  5
3C0
100
AcDbEntity
  8
0
100
AcDbLine
 62
7
  6
CONTINUOUS
 10
44.0638731577
 20
86.7097814358
 11
47.2670629474
 21
86.7097814358
  0
LINE
  5
3C1
100
AcDbEntity
  8
0
100
AcDbLine
 62
7
  6
CONTINUOUS
 10
37.6630367994
 20
86.7097827208
 11
21.6946579107
 21
86.7097814358
  0
LINE
  5
3C2
100
AcDbEntity
  8
0
100
AcDbLine
 62
7
  6
CONTINUOUS
 10
43.0170629474
 20
87.0230296881
 11
25.2170629474
 21
87.0230296881
  0
LINE
  5
3C3
100
AcDbEntity
  8
0
100
AcDbLine
 62
7
  6
CONTINUOUS
 10
43.0170689688
 20
87.0231310113
 11
47.2670629474
 21
86.7099319325
  0
ARC
  5
3C4
100
AcDbEntity
  8
0
100
AcDbCircle
 62
7
  6
CONTINUOUS
 10
-301.4806882621
 20
-198.2457115139
 40
421.1750058029
100
AcDbArc
 50
32.4030636723
 51
32.8208896783
  0
ARC
  5
3C5
100
AcDbEntity
  8
0
100
AcDbCircle
 62
7
  6
CONTINUOUS
 10
12.4170492224
 20
40.0373138666
 40
4.000013725
100
AcDbArc
 50
309.7922234832
 51
360.0
  0
ARC
  5
3C6
100
AcDbEntity
  8
0
100
AcDbCircle
 62
7
  6
CONTINUOUS
 10
15.6171244693
 20
36.1954040693
 40
1.0000615224
100
AcDbArc
 50
129.792223482
 51
180.0
  0
ARC
  5
3C7
100
AcDbEntity
  8
0
100
AcDbCircle
 62
7
  6
CONTINUOUS
 10
14.3170769101
 20
19.3372934734
 40
0.2000139632
100
AcDbArc
 50
90.0039997414
 51
179.9960002586
  0
ARC
  5
3C8
100
AcDbEntity
  8
0
100
AcDbCircle
 62
7
  6
CONTINUOUS
 10
14.3170769101
 20
14.4373213988
 40
0.2000139632
100
AcDbArc
 50
180.0039997414
 51
269.9960002586
  0
ARC
  5
3C9
100
AcDbEntity
  8
0
100
AcDbCircle
 62
7
  6
CONTINUOUS
 10
13.9741111072
 20
91.98824846
 40
26.0506954281
100
AcDbArc
 50
342.1638006355
 51
342.5783324031
  0
ARC
  5
3CA
100
AcDbEntity
  8
0
100
AcDbCircle
 62
7
  6
CONTINUOUS
 10
16.2133075831
 20
78.5921301022
 40
18.2161590731
100
AcDbArc
 50
17.2994918991
 51
17.8922785581
  0
ARC
  5
3CB
100
AcDbEntity
  8
0
100
AcDbCircle
 62
7
  6
CONTINUOUS
 10
21.9739656425
 20
79.1489140225
 40
7.2654731099
100
AcDbArc
 50
93.0393061585
 51
93.6035645025
  0
ARC
  5
3CC
100
AcDbEntity
  8
0
100
AcDbCircle
 62
7
  6
CONTINUOUS
 10
13.6184501866
 20
69.1304103277
 40
3.9998688789
100
AcDbArc
 50
359.7680549114
 51
46.1591094659
  0
ARC
  5
3CD
100
AcDbEntity
  8
0
100
AcDbCircle
 62
7
  6
CONTINUOUS
 10
22.0531060905
 20
84.8530135164
 40
3.2422008007
100
AcDbArc
 50
191.8242869736
 51
195.0890492806
  0
ARC
  5
3CE
100
AcDbEntity
  8
0
100
AcDbCircle
 62
7
  6
CONTINUOUS
 10
20.4227728731
 20
84.7020709388
 40
2.8601856991
100
AcDbArc
 50
190.3409751739
 51
194.023237908
  0
ARC
  5
3CF
100
AcDbEntity
  8
0
100
AcDbCircle
 62
7
  6
CONTINUOUS
 10
19.0666127158
 20
84.5798778765
 40
2.5772268611
100
AcDbArc
 50
188.73133936
 51
192.7975665048
  0
ARC
  5
3D0
100
AcDbEntity
  8
0
100
AcDbCircle
 62
7
  6
CONTINUOUS
 10
22.0813990766
 20
83.6438915083
 40
2.5008086104
100
AcDbArc
 50
167.418922449
 51
171.6049404339
  0
ARC
  5
3D1
100
AcDbEntity
  8
0
100
AcDbCircle
 62
7
  6
CONTINUOUS
 10
17.9699906128
 20
84.4774293815
 40
2.3654177858
100
AcDbArc
 50
187.0123594591
 51
191.421827317
  0
ARC
  5
3D2
100
AcDbEntity
  8
0
100
AcDbCircle
 62
7
  6
CONTINUOUS
 10
20.5432090455
 20
83.7410464555
 40
2.3095182173
100
AcDbArc
 50
168.8256708046
 51
173.3373615908
  0
ARC
  5
3D3
100
AcDbEntity
  8
0
100
AcDbCircle
 62
7
  6
CONTINUOUS
 10
17.1264010902
 20
84.3888688215
 40
2.2075866544
100
AcDbArc
 50
185.2036100167
 51
189.9083401801
  0
ARC
  5
3D4
100
AcDbEntity
  8
0
100
AcDbCircle
 62
7
  6
CONTINUOUS
 10
16.364334221
 20
84.0999826105
 40
2.1945005217
100
AcDbArc
 50
158.3076961354
 51
165.0318975712
  0
ARC
  5
3D5
100
AcDbEntity
  8
0
100
AcDbCircle
 62
7
  6
CONTINUOUS
 10
19.2248402887
 20
83.825944246
 40
2.167544176
100
AcDbArc
 50
170.3679129115
 51
175.1553222532
  0
ARC
  5
3D6
100
AcDbEntity
  8
0
100
AcDbCircle
 62
7
  6
CONTINUOUS
 10
16.5330764028
 20
84.3101063753
 40
2.0928046873
100
AcDbArc
 50
183.327014273
 51
188.2721445005
  0
ARC
  5
3D7
100
AcDbEntity
  8
0
100
AcDbCircle
 62
7
  6
CONTINUOUS
 10
16.2055445472
 20
84.1608388897
 40
2.0892491512
100
AcDbArc
 50
157.1756538395
 51
158.9541871345
  0
ARC
  5
3D8
100
AcDbEntity
  8
0
100
AcDbCircle
 62
7
  6
CONTINUOUS
 10
16.2532727798
 20
84.1311317167
 40
2.079162667
100
AcDbArc
 50
165.0706738087
 51
172.0296138673
  0
ARC
  5
3D9
100
AcDbEntity
  8
0
100
AcDbCircle
 62
7
  6
CONTINUOUS
 10
18.1304790931
 20
83.902214311
 40
2.0656237892
100
AcDbArc
 50
172.0300172202
 51
177.0365753835
  0
ARC
  5
3DA
100
AcDbEntity
  8
0
100
AcDbCircle
 62
7
  6
CONTINUOUS
 10
16.2328921221
 20
84.136000255
 40
2.0583358094
100
AcDbArc
 50
175.9506902392
 51
178.5342546718
  0
ARC
  5
3DB
100
AcDbEntity
  8
0
100
AcDbCircle
 62
7
  6
CONTINUOUS
 10
16.2203517247
 20
84.1368546089
 40
2.0457663874
100
AcDbArc
 50
172.0604981291
 51
175.9497570841
  0
ARC
  5
3DC
100
AcDbEntity
  8
0
100
AcDbCircle
 62
7
  6
CONTINUOUS
 10
16.1884486719
 20
84.2380690829
 40
2.0138253003
100
AcDbArc
 50
181.4061449507
 51
186.5313196187
  0
ARC
  5
3DD
100
AcDbEntity
  8
0
100
AcDbCircle
 62
7
  6
CONTINUOUS
 10
17.76705395
 20
60.0090498145
 40
2.0000089974
100
AcDbArc
 50
278.551830234
 51
360.0
  0
ARC
  5
3DE
100
AcDbEntity
  8
0
100
AcDbCircle
 62
7
  6
CONTINUOUS
 10
16.1170651204
 20
84.1886309471
 40
2.0000041519
100
AcDbArc
 50
96.9844788978
 51
143.1300475177
  0
ARC
  5
3DF
100
AcDbEntity
  8
0
100
AcDbCircle
 62
7
  6
CONTINUOUS
 10
16.2886608187
 20
84.1059197787
 40
1.9963608481
100
AcDbArc
 50
179.963079417
 51
182.782590861
  0
ARC
  5
3E0
100
AcDbEntity
  8
0
100
AcDbCircle
 62
7
  6
CONTINUOUS
 10
17.2634934932
 20
83.9727636777
 40
1.9958739625
100
AcDbArc
 50
173.7896985522
 51
178.9595912686
  0
ARC
  5
3E1
100
AcDbEntity
  8
0
100
AcDbCircle
 62
7
  6
CONTINUOUS
 10
16.1050930502
 20
84.1709248469
 40
1.9800331793
100
AcDbArc
 50
179.9912751494
 51
184.6907091137
  0
ARC
  5
3E2
100
AcDbEntity
  8
0
100
AcDbCircle
 62
7
  6
CONTINUOUS
 10
16.6353925281
 20
84.0396108513
 40
1.9608370051
100
AcDbArc
 50
179.9929387236
 51
180.8943739578
  0
ARC
  5
3E3
100
AcDbEntity
  8
0
100
AcDbCircle
 62
7
  6
CONTINUOUS
 10
16.0839378857
 20
84.2078314187
 40
1.9588787604
100
AcDbArc
 50
158.9596606794
 51
180.0507561237
  0
ARC
  5
3E4
100
AcDbEntity
  8
0
100
AcDbCircle
 62
7
  6
CONTINUOUS
 10
16.6307490024
 20
84.3376212782
 40
1.9561934762
100
AcDbArc
 50
179.9937224955
 51
184.3680738051
  0
ARC
  5
3E5
100
AcDbEntity
  8
0
100
AcDbCircle
 62
7
  6
CONTINUOUS
 10
16.6264919085
 20
84.0399689774
 40
1.951923724
100
AcDbArc
 50
175.6320249365
 51
179.9930870686
  0
ARC
  5
3E6
100
AcDbEntity
  8
0
100
AcDbCircle
 62
7
  6
CONTINUOUS
 10
21.3196833457
 20
84.4891326247
 40
1.9495178494
100
AcDbArc
 50
110.7814276889
 51
113.2886990663
  0
ARC
  5
3E7
100
AcDbEntity
  8
0
100
AcDbCircle
 62
7
  6
CONTINUOUS
 10
16.2063117014
 20
84.2716700434
 40
1.9140114273
100
AcDbArc
 50
179.9804799054
 51
182.4865934591
  0
ARC
  5
3E8
100
AcDbEntity
  8
0
100
AcDbCircle
 62
7
  6
CONTINUOUS
 10
16.0813823436
 20
84.2130497164
 40
1.8897946365
100
AcDbArc
 50
157.2578363438
 51
158.3220889111
  0
ARC
  5
3E9
100
AcDbEntity
  8
0
100
AcDbCircle
 62
7
  6
CONTINUOUS
 10
16.1696980716
 20
84.1063898334
 40
1.8773976893
100
AcDbArc
 50
177.48934796
 51
179.9968711627
  0
ARC
  5
3EA
100
AcDbEntity
  8
0
100
AcDbCircle
 62
7
  6
CONTINUOUS
 10
16.2110269421
 20
84.2622064558
 40
1.7259879954
100
AcDbArc
 50
155.4939841018
 51
157.9160087693
  0
ARC
  5
3EB
100
AcDbEntity
  8
0
100
AcDbCircle
 62
7
  6
CONTINUOUS
 10
16.5659991335
 20
84.3163428747
 40
1.5711325336
100
AcDbArc
 50
153.6494263405
 51
157.7551955353
  0
ARC
  5
3EC
100
AcDbEntity
  8
0
100
AcDbCircle
 62
7
  6
CONTINUOUS
 10
15.6171391589
 20
74.9086609484
 40
1.5000762118
100
AcDbArc
 50
180.0
 51
224.9999976554
  0
ARC
  5
3ED
100
AcDbEntity
  8
0
100
AcDbCircle
 62
7
  6
CONTINUOUS
 10
14.1170674456
 20
56.4264362474
 40
1.0000044982
100
AcDbArc
 50
98.551830234
 51
180.0
  0
ARC
  5
3EE
100
AcDbEntity
  8
0
100
AcDbCircle
 62
7
  6
CONTINUOUS
 10
33.8646740195
 20
75.016926015
 40
12.3560456857
100
AcDbArc
 50
67.9392780752
 51
68.9282333099
  0
ARC
  5
3EF
100
AcDbEntity
  8
0
100
AcDbCircle
 62
7
  6
CONTINUOUS
 10
33.9894861927
 20
75.34047794
 40
12.0092548159
100
AcDbArc
 50
68.928887811
 51
70.9453138696
  0
ARC
  5
3F0
100
AcDbEntity
  8
0
100
AcDbCircle
 62
7
  6
CONTINUOUS
 10
29.5665361077
 20
87.6157638831
 40
11.7787390128
100
AcDbArc
 50
342.1690639706
 51
343.0845900621
  0
ARC
  5
3F1
100
AcDbEntity
  8
0
100
AcDbCircle
 62
7
  6
CONTINUOUS
 10
26.2436887539
 20
81.16186296
 40
9.8730172324
100
AcDbArc
 50
16.7607526576
 51
17.8527485569
  0
ARC
  5
3F2
100
AcDbEntity
  8
0
100
AcDbCircle
 62
7
  6
CONTINUOUS
 10
32.9276643862
 20
86.3628054342
 40
7.7717971662
100
AcDbArc
 50
196.2452395477
 51
197.6297338594
  0
ARC
  5
3F3
100
AcDbEntity
  8
0
100
AcDbCircle
 62
7
  6
CONTINUOUS
 10
31.3338906042
 20
82.1587127672
 40
6.6985291415
100
AcDbArc
 50
16.0349395771
 51
17.6404279443
  0
ARC
  5
3F4
100
AcDbEntity
  8
0
100
AcDbCircle
 62
7
  6
CONTINUOUS
 10
29.1428887809
 20
85.7060422252
 40
5.7191779411
100
AcDbArc
 50
195.3857489404
 51
197.2611649987
  0
ARC
  5
3F5
100
AcDbEntity
  8
0
100
AcDbCircle
 62
7
  6
CONTINUOUS
 10
33.4702884432
 20
82.6423141896
 40
5.2243827563
100
AcDbArc
 50
162.7836812198
 51
164.8350787584
  0
ARC
  5
3F6
100
AcDbEntity
  8
0
100
AcDbCircle
 62
7
  6
CONTINUOUS
 10
26.3000503233
 20
85.3133309902
 40
4.5356060234
100
AcDbArc
 50
194.3572337167
 51
196.7128331303
  0
ARC
  5
3F7
100
AcDbEntity
  8
0
100
AcDbCircle
 62
7
  6
CONTINUOUS
 10
30.5566616775
 20
82.9782706306
 40
4.2285296203
100
AcDbArc
 50
163.3673024699
 51
165.8916180403
  0
ARC
  5
3F8
100
AcDbEntity
  8
0
100
AcDbCircle
 62
7
  6
CONTINUOUS
 10
23.9892886185
 20
85.047673313
 40
3.7711259938
100
AcDbArc
 50
193.1669555657
 51
195.9874545162
  0
ARC
  5
3F9
100
AcDbEntity
  8
0
100
AcDbCircle
 62
7
  6
CONTINUOUS
 10
28.0431027818
 20
83.2134798636
 40
3.5655184294
100
AcDbArc
 50
164.127836721
 51
167.1078863261
  0
ARC
  5
3FA
100
AcDbEntity
  8
0
100
AcDbCircle
 62
7
  6
CONTINUOUS
 10
25.8192435269
 20
83.3900219291
 40
3.0978370756
100
AcDbArc
 50
165.0608782865
 51
168.4740924606
  0
ARC
  5
3FB
100
AcDbEntity
  8
0
100
AcDbCircle
 62
7
  6
CONTINUOUS
 10
23.838273108
 20
83.5294122309
 40
2.755867993
100
AcDbArc
 50
166.160541217
 51
169.9780395382
  0
ARC
  5
3FC
100
AcDbEntity
  8
0
100
AcDbCircle
 62
7
  6
CONTINUOUS
 10
23.9921744393
 20
84.9756704416
 40
2.3901816262
100
AcDbArc
 50
358.4524092664
 51
359.4146838254
  0
ARC
  5
3FD
100
AcDbEntity
  8
0
100
AcDbCircle
 62
7
  6
CONTINUOUS
 10
24.3901113229
 20
84.9710890119
 40
1.992218772
100
AcDbArc
 50
359.4295255934
 51
359.9945290608
  0
ARC
  5
3FE
100
AcDbEntity
  8
0
100
AcDbCircle
 62
7
  6
CONTINUOUS
 10
25.7472384985
 20
84.8267893286
 40
1.2387993417
100
AcDbArc
 50
176.0966835766
 51
180.0598986442
  0
ARC
  5
3FF
100
AcDbEntity
  8
0
100
AcDbCircle
 62
7
  6
CONTINUOUS
 10
27.5865337327
 20
84.8792000279
 40
1.2054721698
100
AcDbArc
 50
178.482762035
 51
180.009992679
  0
ARC
  5
400
100
AcDbEntity
  8
0
100
AcDbCircle
 62
7
  6
CONTINUOUS
 10
369.7148111294
 20
-198.2457095717
 40
421.175002206
100
AcDbArc
 50
147.1791103205
 51
147.5969363301
  0
ARC
  5
401
100
AcDbEntity
  8
0
100
AcDbCircle
 62
7
  6
CONTINUOUS
 10
34.1170629474
 20
-62.7386224929
 40
150.0259741506
100
AcDbArc
 50
83.0155211022
 51
83.9354766513
  0
ARC
  5
402
100
AcDbEntity
  8
0
100
AcDbCircle
 62
7
  6
CONTINUOUS
 10
34.4788166588
 20
-38.1468186534
 40
125.4326482892
100
AcDbArc
 50
82.8657146037
 51
83.2937944521
  0
ARC
  5
403
100
AcDbEntity
  8
0
100
AcDbCircle
 62
7
  6
CONTINUOUS
 10
39.4097461552
 20
-37.8812530853
 40
124.6074400473
100
AcDbArc
 50
85.0983263194
 51
87.5646264962
  0
ARC
  5
404
100
AcDbEntity
  8
0
100
AcDbCircle
 62
7
  6
CONTINUOUS
 10
34.7775751213
 20
-12.1335879598
 40
99.422102749
100
AcDbArc
 50
97.5454470828
 51
98.0258013607
  0
ARC
  5
405
100
AcDbEntity
  8
0
100
AcDbCircle
 62
7
  6
CONTINUOUS
 10
38.6906182701
 20
87.6230683242
 40
11.8028979928
100
AcDbArc
 50
196.9166872181
 51
197.8304604438
  0
ARC
  5
406
100
AcDbEntity
  8
0
100
AcDbCircle
 62
7
  6
CONTINUOUS
 10
42.0080150378
 20
81.1564738167
 40
9.8914024719
100
AcDbArc
 50
162.1488986206
 51
163.2387193307
  0
ARC
  5
407
100
AcDbEntity
  8
0
100
AcDbCircle
 62
7
  6
CONTINUOUS
 10
35.4977452597
 20
86.3044908339
 40
7.5718362636
100
AcDbArc
 50
342.3524286589
 51
343.773299322
  0
ARC
  5
408
100
AcDbEntity
  8
0
100
AcDbCircle
 62
7
  6
CONTINUOUS
 10
37.0610389078
 20
82.1101083665
 40
6.8665025028
100
AcDbArc
 50
162.3799028929
 51
163.945905094
  0
ARC
  5
409
100
AcDbEntity
  8
0
100
AcDbCircle
 62
7
  6
CONTINUOUS
 10
39.1791541082
 20
85.6802511935
 40
5.6275678161
100
AcDbArc
 50
342.7239912603
 51
344.6296882972
  0
ARC
  5
40A
100
AcDbEntity
  8
0
100
AcDbCircle
 62
7
  6
CONTINUOUS
 10
34.8463181525
 20
82.6662183801
 40
5.138521216
100
AcDbArc
 50
15.148252078
 51
17.2342094095
  0
ARC
  5
40B
100
AcDbEntity
  8
0
100
AcDbCircle
 62
7
  6
CONTINUOUS
 10
41.9772979695
 20
85.3012837177
 40
4.4907450147
100
AcDbArc
 50
343.2757949676
 51
345.6546164429
  0
ARC
  5
40C
100
AcDbEntity
  8
0
100
AcDbCircle
 62
7
  6
CONTINUOUS
 10
37.7228908501
 20
82.990723465
 40
4.1814378761
100
AcDbArc
 50
14.0946225918
 51
16.6477209806
  0
ARC
  5
40D
100
AcDbEntity
  8
0
100
AcDbCircle
 62
7
  6
CONTINUOUS
 10
44.2654467714
 20
85.0422890753
 40
3.7498307019
100
AcDbArc
 50
344.0048992468
 51
346.8410469544
  0
ARC
  5
40E
100
AcDbEntity
  8
0
100
AcDbCircle
 62
7
  6
CONTINUOUS
 10
40.2165433208
 20
83.2199959356
 40
3.5391877587
100
AcDbArc
 50
12.8814637801
 51
15.8841356685
  0
ARC
  5
40F
100
AcDbEntity
  8
0
100
AcDbCircle
 62
7
  6
CONTINUOUS
 10
42.4289715178
 20
83.3933119543
 40
3.0833746847
100
AcDbArc
 50
11.5183164879
 51
14.948008285
  0
ARC
  5
410
100
AcDbEntity
  8
0
100
AcDbCircle
 62
7
  6
CONTINUOUS
 10
44.4032074647
 20
83.530947216
 40
2.7483584221
100
AcDbArc
 50
10.0171309717
 51
13.8455887135
  0
ARC
  5
411
100
AcDbEntity
  8
0
100
AcDbCircle
 62
7
  6
CONTINUOUS
 10
44.0945085701
 20
84.9727359666
 40
2.2427135153
100
AcDbArc
 50
180.0469840624
 51
181.5743802351
  0
ARC
  5
412
100
AcDbEntity
  8
0
100
AcDbCircle
 62
7
  6
CONTINUOUS
 10
42.4890022572
 20
84.8268624975
 40
1.2366844083
100
AcDbArc
 50
359.9433497142
 51
3.9066046677
  0
ARC
  5
413
100
AcDbEntity
  8
0
100
AcDbCircle
 62
7
  6
CONTINUOUS
 10
40.6493049663
 20
84.8792228469
 40
1.2037593623
100
AcDbArc
 50
359.990914652
 51
1.5183113218
  0
ARC
  5
414
100
AcDbEntity
  8
0
100
AcDbCircle
 62
7
  6
CONTINUOUS
 10
53.9166845975
 20
19.3369290862
 40
0.2003787071
100
AcDbArc
 50
0.0005090744
 51
89.9994909256
  0
ARC
  5
415
100
AcDbEntity
  8
0
100
AcDbCircle
 62
7
  6
CONTINUOUS
 10
53.9170629474
 20
14.4373074361
 40
0.2
100
AcDbArc
 50
270.0
 51
360.0
  0
ARC
  5
416
100
AcDbEntity
  8
0
100
AcDbCircle
 62
7
  6
CONTINUOUS
 10
50.4670719448
 20
60.0090498145
 40
2.0000089974
100
AcDbArc
 50
180.0
 51
261.448169766
  0
ARC
  5
417
100
AcDbEntity
  8
0
100
AcDbCircle
 62
7
  6
CONTINUOUS
 10
46.1892027747
 20
84.8510364575
 40
3.233785299
100
AcDbArc
 50
344.9070298273
 51
348.1798621938
  0
ARC
  5
418
100
AcDbEntity
  8
0
100
AcDbCircle
 62
7
  6
CONTINUOUS
 10
47.8124857027
 20
84.7018117118
 40
2.85902396
100
AcDbArc
 50
345.9763018713
 51
349.6595803539
  0
ARC
  5
419
100
AcDbEntity
  8
0
100
AcDbCircle
 62
7
  6
CONTINUOUS
 10
49.1647095388
 20
84.5803997205
 40
2.5800764499
100
AcDbArc
 50
347.2049239088
 51
351.2661287786
  0
ARC
  5
41A
100
AcDbEntity
  8
0
100
AcDbCircle
 62
7
  6
CONTINUOUS
 10
46.1561983582
 20
83.644518442
 40
2.4972827398
100
AcDbArc
 50
8.3924582811
 51
12.5849625184
  0
ARC
  5
41B
100
AcDbEntity
  8
0
100
AcDbCircle
 62
7
  6
CONTINUOUS
 10
50.2593249849
 20
84.4782017372
 40
2.3702857771
100
AcDbArc
 50
348.5828990631
 51
352.9827337145
  0
ARC
  5
41C
100
AcDbEntity
  8
0
100
AcDbCircle
 62
7
  6
CONTINUOUS
 10
47.6923252441
 20
83.7412545269
 40
2.3080951933
100
AcDbArc
 50
6.6615645347
 51
11.1766532122
  0
ARC
  5
41D
100
AcDbEntity
  8
0
100
AcDbCircle
 62
7
  6
CONTINUOUS
 10
49.0098437722
 20
83.8260046341
 40
2.1669829038
100
AcDbArc
 50
4.8443331618
 51
9.6336290509
  0
ARC
  5
41E
100
AcDbEntity
  8
0
100
AcDbCircle
 62
7
  6
CONTINUOUS
 10
50.1041769353
 20
83.9022567355
 40
2.0650921712
100
AcDbArc
 50
2.9630095344
 51
7.9715310227
  0
ARC
  5
41F
100
AcDbEntity
  8
0
100
AcDbCircle
 62
7
  6
CONTINUOUS
 10
50.9709841813
 20
83.9727796558
 40
1.9955219506
100
AcDbArc
 50
1.0401334412
 51
6.2114809502
  0
ARC
  5
420
100
AcDbEntity
  8
0
100
AcDbCircle
 62
7
  6
CONTINUOUS
 10
55.8170766724
 20
40.0373138666
 40
4.000013725
100
AcDbArc
 50
179.9999999971
 51
230.2077765165
  0
ARC
  5
421
100
AcDbEntity
  8
0
100
AcDbCircle
 62
7
  6
CONTINUOUS
 10
52.6170014255
 20
36.1954040693
 40
1.0000615224
100
AcDbArc
 50
0.0
 51
50.2077765194
  0
ARC
  5
422
100
AcDbEntity
  8
0
100
AcDbCircle
 62
7
  6
CONTINUOUS
 10
54.1170584492
 20
56.4264362474
 40
1.0000044982
100
AcDbArc
 50
0.0
 51
81.448169766
  0
ARC
  5
423
100
AcDbEntity
  8
0
100
AcDbCircle
 62
7
  6
CONTINUOUS
 10
54.3767476676
 20
92.0255705863
 40
26.1732493153
100
AcDbArc
 50
197.4230576778
 51
197.8357032511
  0
ARC
  5
424
100
AcDbEntity
  8
0
100
AcDbCircle
 62
7
  6
CONTINUOUS
 10
52.0802039509
 20
78.5734596089
 40
18.2784102884
100
AcDbArc
 50
162.1092968123
 51
162.6999858421
  0
ARC
  5
425
100
AcDbEntity
  8
0
100
AcDbCircle
 62
7
  6
CONTINUOUS
 10
54.6156757082
 20
69.1304103277
 40
3.9998688789
100
AcDbArc
 50
133.8408905341
 51
180.2319450293
  0
ARC
  5
426
100
AcDbEntity
  8
0
100
AcDbCircle
 62
7
  6
CONTINUOUS
 10
51.1021558107
 20
84.3896018732
 40
2.2131987333
100
AcDbArc
 50
350.0977733995
 51
354.7899566122
  0
ARC
  5
427
100
AcDbEntity
  8
0
100
AcDbCircle
 62
7
  6
CONTINUOUS
 10
51.8914917576
 20
84.1072556547
 40
2.1716492759
100
AcDbArc
 50
14.9589181027
 51
21.7256218999
  0
ARC
  5
428
100
AcDbEntity
  8
0
100
AcDbCircle
 62
7
  6
CONTINUOUS
 10
51.6955430036
 20
84.3106622804
 40
2.0983338801
100
AcDbArc
 50
351.7344668164
 51
356.6659165016
  0
ARC
  5
429
100
AcDbEntity
  8
0
100
AcDbCircle
 62
7
  6
CONTINUOUS
 10
52.0218165938
 20
84.1582224036
 40
2.0965022742
100
AcDbArc
 50
21.0461583204
 51
22.819546133
  0
ARC
  5
42A
100
AcDbEntity
  8
0
100
AcDbCircle
 62
7
  6
CONTINUOUS
 10
51.9809233838
 20
84.1310601142
 40
2.0791038267
100
AcDbArc
 50
8.0044126419
 51
14.9613131477
  0
ARC
  5
42B
100
AcDbEntity
  8
0
100
AcDbCircle
 62
7
  6
CONTINUOUS
 10
52.026114653
 20
84.1372687857
 40
2.033488292
100
AcDbArc
 50
4.0420165386
 51
8.0084889641
  0
ARC
  5
42C
100
AcDbEntity
  8
0
100
AcDbCircle
 62
7
  6
CONTINUOUS
 10
52.0456702111
 20
84.2380682341
 40
2.0138321699
100
AcDbArc
 50
353.4687270665
 51
358.59321697
  0
ARC
  5
42D
100
AcDbEntity
  8
0
100
AcDbCircle
 62
7
  6
CONTINUOUS
 10
52.1170607744
 20
84.1886309471
 40
2.0000041519
100
AcDbArc
 50
36.8699524823
 51
83.0155211022
  0
ARC
  5
42E
100
AcDbEntity
  8
0
100
AcDbCircle
 62
7
  6
CONTINUOUS
 10
52.1206476391
 20
84.1708328836
 40
1.988418364
100
AcDbArc
 50
358.4968485347
 51
0.0027905357
  0
ARC
  5
42F
100
AcDbEntity
  8
0
100
AcDbCircle
 62
7
  6
CONTINUOUS
 10
52.0710575648
 20
84.1406958075
 40
1.9884156218
100
AcDbArc
 50
1.3812780433
 51
4.0347966544
  0
ARC
  5
430
100
AcDbEntity
  8
0
100
AcDbCircle
 62
7
  6
CONTINUOUS
 10
52.1358355135
 20
84.1706516492
 40
1.9732309739
100
AcDbArc
 50
355.301043976
 51
358.4905407771
  0
ARC
  5
431
100
AcDbEntity
  8
0
100
AcDbCircle
 62
7
  6
CONTINUOUS
 10
51.9803704257
 20
84.1050607636
 40
1.9614551305
100
AcDbArc
 50
357.192973597
 51
0.0124855639
  0
ARC
  5
432
100
AcDbEntity
  8
0
100
AcDbCircle
 62
7
  6
CONTINUOUS
 10
52.1506769902
 20
84.2079225439
 40
1.9583896701
100
AcDbArc
 50
359.952977387
 51
21.0429875195
  0
ARC
  5
433
100
AcDbEntity
  8
0
100
AcDbCircle
 62
7
  6
CONTINUOUS
 10
51.6046522038
 20
84.039683953
 40
1.9549181621
100
AcDbArc
 50
359.9944624814
 51
4.3703986959
  0
ARC
  5
434
100
AcDbEntity
  8
0
100
AcDbCircle
 62
7
  6
CONTINUOUS
 10
51.6082028271
 20
84.3374931952
 40
1.9513675395
100
AcDbArc
 50
355.6256248266
 51
0.0057447406
  0
ARC
  5
435
100
AcDbEntity
  8
0
100
AcDbCircle
 62
7
  6
CONTINUOUS
 10
51.6217200205
 20
84.0394300228
 40
1.9378503372
100
AcDbArc
 50
359.1003633103
 51
0.0017985503
  0
ARC
  5
436
100
AcDbEntity
  8
0
100
AcDbCircle
 62
7
  6
CONTINUOUS
 10
52.1153684798
 20
84.1981447571
 40
1.930032075
100
AcDbArc
 50
21.6792432271
 51
22.7549184635
  0
ARC
  5
437
100
AcDbEntity
  8
0
100
AcDbCircle
 62
7
  6
CONTINUOUS
 10
52.0412426242
 20
84.1058793235
 40
1.9005829256
100
AcDbArc
 50
359.9882177954
 51
2.4962269426
  0
ARC
  5
438
100
AcDbEntity
  8
0
100
AcDbCircle
 62
7
  6
CONTINUOUS
 10
52.0489139552
 20
84.2712660133
 40
1.8929115748
100
AcDbArc
 50
357.4987328842
 51
0.0084156033
  0
ARC
  5
439
100
AcDbEntity
  8
0
100
AcDbCircle
 62
7
  6
CONTINUOUS
 10
52.0034313721
 20
84.2542734307
 40
1.7471951776
100
AcDbArc
 50
22.082570269
 51
24.4725021028
  0
ARC
  5
43A
100
AcDbEntity
  8
0
100
AcDbCircle
 62
7
  6
CONTINUOUS
 10
51.6920811441
 20
84.3251441968
 40
1.5456293605
100
AcDbArc
 50
22.2789822426
 51
26.4417623414
  0
ARC
  5
43B
100
AcDbEntity
  8
0
100
AcDbCircle
 62
7
  6
CONTINUOUS
 10
52.6169867359
 20
74.9086609484
 40
1.5000762118
100
AcDbArc
 50
315.0000023446
 51
360.0
  0
SPLINE
  5
43C
100
AcDbEntity
  8
0
100
AcDbSpline
 62
7
  6
CONTINUOUS
 70
0
 71
3
 72
13
 73
9
 74
0
 42
0.0000001
 43
0.0000001
 44
0.0000000001
 40
0.0
 40
0.0
 40
0.0
 40
0.0
 40
0.3945325471
 40
0.7108880769
 40
0.8288760775
 40
0.9163303686
 40
0.9722762816
 40
1.0
 40
1.0
 40
1.0
 40
1.0
 10
38.3658968672
 20
86.4475599638
 30
0.0
 10
38.385476339
 20
86.4475640626
 30
0.0
 10
38.4207297293
 20
86.4481466439
 30
0.0
 10
38.4619018923
 20
86.4506321639
 30
0.0
 10
38.4875047869
 20
86.4536681252
 30
0.0
 10
38.5004521124
 20
86.4563509258
 30
0.0
 10
38.508183589
 20
86.458526291
 30
0.0
 10
38.5121988612
 20
86.4615725683
 30
0.0
 10
38.5121988612
 20
86.4629484136
 30
0.0
  0
SPLINE
  5
43D
100
AcDbEntity
  8
0
100
AcDbSpline
 62
7
  6
CONTINUOUS
 70
0
 71
3
 72
19
 73
15
 74
0
 42
0.0000001
 43
0.0000001
 44
0.0000000001
 40
0.0
 40
0.0
 40
0.0
 40
0.0
 40
0.0080134289
 40
0.0157181883
 40
0.0261545987
 40
0.0553228245
 40
0.0952771606
 40
0.1452655222
 40
0.2044406297
 40
0.34565624
 40
0.5082561973
 40
0.6798756628
 40
0.8480268321
 40
1.0
 40
1.0
 40
1.0
 40
1.0
 10
20.0239823108
 20
86.2663013053
 30
0.0
 10
20.0239823108
 20
86.2639567449
 30
0.0
 10
20.0294327052
 20
86.2612032827
 30
0.0
 10
20.0362556028
 20
86.2593294229
 30
0.0
 10
20.0501706249
 20
86.2567485537
 30
0.0
 10
20.0731878751
 20
86.2548021438
 30
0.0
 10
20.1081096107
 20
86.2534693309
 30
0.0
 10
20.1517107471
 20
86.2533110766
 30
0.0
 10
20.2249721669
 20
86.2546921004
 30
0.0
 10
20.3310741026
 20
86.2595148113
 30
0.0
 10
20.4698659794
 20
86.2689612768
 30
0.0
 10
20.6163052254
 20
86.2816871091
 30
0.0
 10
20.7593931568
 20
86.2967773703
 30
0.0
 10
20.8523295239
 20
86.3084974588
 30
0.0
 10
20.8963582651
 20
86.3147047306
 30
0.0
  0
SPLINE
  5
43E
100
AcDbEntity
  8
0
100
AcDbSpline
 62
7
  6
CONTINUOUS
 70
0
 71
3
 72
10
 73
6
 74
0
 42
0.0000001
 43
0.0000001
 44
0.0000000001
 40
0.0
 40
0.0
 40
0.0
 40
0.0
 40
0.5241400429
 40
0.7865942957
 40
1.0
 40
1.0
 40
1.0
 40
1.0
 10
21.7222036565
 20
86.4276203891
 30
0.0
 10
21.7691542498
 20
86.4338372727
 30
0.0
 10
21.8399647534
 20
86.44057437
 30
0.0
 10
21.9301468516
 20
86.4461557206
 30
0.0
 10
21.9731406009
 20
86.4475590893
 30
0.0
 10
21.9924235778
 20
86.4475599443
 30
0.0
  0
SPLINE
  5
43F
100
AcDbEntity
  8
0
100
AcDbSpline
 62
7
  6
CONTINUOUS
 70
0
 71
3
 72
9
 73
5
 74
0
 42
0.0000001
 43
0.0000001
 44
0.0000000001
 40
0.0
 40
0.0
 40
0.0
 40
0.0
 40
0.2550518734
 40
1.0
 40
1.0
 40
1.0
 40
1.0
 10
24.5113127691
 20
84.9111181641
 30
0.0
 10
24.5121547921
 20
84.9232681272
 30
0.0
 10
24.5152114664
 20
84.9709188842
 30
0.0
 10
24.5170629474
 20
85.0186712737
 30
0.0
 10
24.5170629474
 20
85.0542436516
 30
0.0
  0
SPLINE
  5
440
100
AcDbEntity
  8
0
100
AcDbSpline
 62
7
  6
CONTINUOUS
 70
0
 71
3
 72
22
 73
18
 74
0
 42
0.0000001
 43
0.0000001
 44
0.0000000001
 40
0.0
 40
0.0
 40
0.0
 40
0.0
 40
0.0019526511
 40
0.0076669045
 40
0.0169270745
 40
0.029517476
 40
0.0452224244
 40
0.0638261477
 40
0.1088431251
 40
0.1627644912
 40
0.2237882096
 40
0.2902614913
 40
0.3610928567
 40
0.5120439446
 40
0.6706212743
 40
0.8339376896
 40
1.0
 40
1.0
 40
1.0
 40
1.0
 10
53.7170629474
 20
85.3886349696
 30
0.0
 10
53.7170629474
 20
85.3889481086
 30
0.0
 10
53.7182143989
 20
85.3865849951
 30
0.0
 10
53.7193797081
 20
85.3856616867
 30
0.0
 10
53.7221752239
 20
85.3813544646
 30
0.0
 10
53.7255765915
 20
85.3767533923
 30
0.0
 10
53.7299791361
 20
85.3705177771
 30
0.0
 10
53.7373488412
 20
85.3602105892
 30
0.0
 10
53.7482701263
 20
85.3448088888
 30
0.0
 10
53.7629060602
 20
85.3237557659
 30
0.0
 10
53.7791643
 20
85.2996225393
 30
0.0
 10
53.7964334714
 20
85.2729132198
 30
0.0
 10
53.8208536509
 20
85.2336608635
 30
0.0
 10
53.851747398
 20
85.1810517918
 30
0.0
 10
53.8878632845
 20
85.1143578653
 30
0.0
 10
53.9224785865
 20
85.0441563499
 30
0.0
 10
53.9438980608
 20
84.9958548629
 30
0.0
 10
53.9542275201
 20
84.9713089903
 30
0.0
  0
SPLINE
  5
441
100
AcDbEntity
  8
0
100
AcDbSpline
 62
7
  6
CONTINUOUS
 70
0
 71
3
 72
20
 73
16
 74
0
 42
0.0000001
 43
0.0000001
 44
0.0000000001
 40
0.0
 40
0.0
 40
0.0
 40
0.0
 40
0.0030450522
 40
0.0080717777
 40
0.0255127624
 40
0.0531734555
 40
0.0908220998
 40
0.1378824254
 40
0.1937063037
 40
0.2574418838
 40
0.3281038527
 40
0.4859096618
 40
0.6574628516
 40
0.8325344935
 40
1.0
 40
1.0
 40
1.0
 40
1.0
 10
43.9298996809
 20
86.6974978846
 30
0.0
 10
43.9298996809
 20
86.6967040297
 30
0.0
 10
43.9312365902
 20
86.6947766567
 30
0.0
 10
43.9369078878
 20
86.6914006996
 30
0.0
 10
43.9494231012
 20
86.6871154514
 30
0.0
 10
43.9703247094
 20
86.6820094957
 30
0.0
 10
43.9991276418
 20
86.6764646413
 30
0.0
 10
44.0352853458
 20
86.6706049316
 30
0.0
 10
44.0783033876
 20
86.6645332213
 30
0.0
 10
44.1275077724
 20
86.658348436
 30
0.0
 10
44.2032047169
 20
86.6497796742
 30
0.0
 10
44.3070100743
 20
86.6397047836
 30
0.0
 10
44.4380922858
 20
86.629089634
 30
0.0
 10
44.5718239636
 20
86.6201693461
 30
0.0
 10
44.6610069657
 20
86.6154947394
 30
0.0
 10
44.7046263396
 20
86.6136398172
 30
0.0
  0
SPLINE
  5
442
100
AcDbEntity
  8
0
100
AcDbSpline
 62
7
  6
CONTINUOUS
 70
0
 71
3
 72
17
 73
13
 74
0
 42
0.0000001
 43
0.0000001
 44
0.0000000001
 40
0.0
 40
0.0
 40
0.0
 40
0.0
 40
0.2126183875
 40
0.4076850667
 40
0.580223169
 40
0.7261554453
 40
0.8428226876
 40
0.9278130021
 40
0.9579671259
 40
0.9798161888
 40
0.9934686235
 40
1.0
 40
1.0
 40
1.0
 40
1.0
 10
50.0569569141
 20
86.2704727113
 30
0.0
 10
50.0800351442
 20
86.2684939592
 30
0.0
 10
50.1243002897
 20
86.2648610931
 30
0.0
 10
50.1873425474
 20
86.2602285223
 30
0.0
 10
50.2431752625
 20
86.2567141742
 30
0.0
 10
50.2905363103
 20
86.2544155643
 30
0.0
 10
50.3283632028
 20
86.2533155704
 30
0.0
 10
50.3536837406
 20
86.2534411644
 30
0.0
 10
50.3685142446
 20
86.2542388294
 30
0.0
 10
50.3757441533
 20
86.2552525566
 30
0.0
 10
50.3799786629
 20
86.2560414608
 30
0.0
 10
50.3822298939
 20
86.2575712077
 30
0.0
 10
50.3822298939
 20
86.2582827437
 30
0.0
  0
SPLINE
  5
443
100
AcDbEntity
  8
0
100
AcDbSpline
 62
7
  6
CONTINUOUS
 70
0
 71
3
 72
9
 73
5
 74
0
 42
0.0000001
 43
0.0000001
 44
0.0000000001
 40
0.0
 40
0.0
 40
0.0
 40
0.0
 40
0.2508547161
 40
1.0
 40
1.0
 40
1.0
 40
1.0
 10
22.7389025861
 20
84.7699247766
 30
0.0
 10
22.7389025861
 20
84.7817509385
 30
0.0
 10
22.7394710235
 20
84.8288906586
 30
0.0
 10
22.7424812297
 20
84.876017146
 30
0.0
 10
22.7463839122
 20
84.9111181624
 30
0.0
  0
SPLINE
  5
444
100
AcDbEntity
  8
0
100
AcDbSpline
 62
7
  6
CONTINUOUS
 70
0
 71
3
 72
9
 73
5
 74
0
 42
0.0000001
 43
0.0000001
 44
0.0000000001
 40
0.0
 40
0.0
 40
0.0
 40
0.0
 40
0.5126808412
 40
1.0
 40
1.0
 40
1.0
 40
1.0
 10
22.7463839312
 20
84.9111181619
 30
0.0
 10
22.7504278805
 20
84.9474897422
 30
0.0
 10
22.7576337415
 20
85.0185066019
 30
0.0
 10
22.7613579016
 20
85.0898758432
 30
0.0
 10
22.7613579016
 20
85.1246612011
 30
0.0
  0
SPLINE
  5
445
100
AcDbEntity
  8
0
100
AcDbSpline
 62
7
  6
CONTINUOUS
 70
0
 71
3
 72
9
 73
5
 74
0
 42
0.0000001
 43
0.0000001
 44
0.0000000001
 40
0.0
 40
0.0
 40
0.0
 40
0.0
 40
0.2508208665
 40
1.0
 40
1.0
 40
1.0
 40
1.0
 10
21.0918372588
 20
84.7124736788
 30
0.0
 10
21.0918372588
 20
84.7291325137
 30
0.0
 10
21.0928947291
 20
84.7955390969
 30
0.0
 10
21.0985641278
 20
84.8619237238
 30
0.0
 10
21.1060346137
 20
84.9111181624
 30
0.0
  0
SPLINE
  5
446
100
AcDbEntity
  8
0
100
AcDbSpline
 62
7
  6
CONTINUOUS
 70
0
 71
3
 72
9
 73
5
 74
0
 42
0.0000001
 43
0.0000001
 44
0.0000000001
 40
0.0
 40
0.0
 40
0.0
 40
0.0
 40
0.5197800266
 40
1.0
 40
1.0
 40
1.0
 40
1.0
 10
21.1060346319
 20
84.9111181618
 30
0.0
 10
21.1131832195
 20
84.9581928443
 30
0.0
 10
21.1264018692
 20
85.048796416
 30
0.0
 10
21.1344508202
 20
85.140303869
 30
0.0
 10
21.1344508202
 20
85.1842943445
 30
0.0
  0
SPLINE
  5
447
100
AcDbEntity
  8
0
100
AcDbSpline
 62
7
  6
CONTINUOUS
 70
0
 71
3
 72
9
 73
5
 74
0
 42
0.0000001
 43
0.0000001
 44
0.0000000001
 40
0.0
 40
0.0
 40
0.0
 40
0.0
 40
0.2506375023
 40
1.0
 40
1.0
 40
1.0
 40
1.0
 10
19.5852894444
 20
84.6532934319
 30
0.0
 10
19.5852894444
 20
84.6749357517
 30
0.0
 10
19.5869779616
 20
84.7612620504
 30
0.0
 10
19.5961064808
 20
84.8475585866
 30
0.0
 10
19.6082368644
 20
84.9111181624
 30
0.0
  0
SPLINE
  5
448
100
AcDbEntity
  8
0
100
AcDbSpline
 62
7
  6
CONTINUOUS
 70
0
 71
3
 72
10
 73
6
 74
0
 42
0.0000001
 43
0.0000001
 44
0.0000000001
 40
0.0
 40
0.0
 40
0.0
 40
0.0
 40
0.5280374807
 40
0.7736749551
 40
1.0
 40
1.0
 40
1.0
 40
1.0
 10
19.6082368818
 20
84.9111181617
 30
0.0
 10
19.6190368972
 20
84.9677070065
 30
0.0
 10
19.6351153289
 20
85.0506076656
 30
0.0
 10
19.6504522383
 20
85.1586408917
 30
0.0
 10
19.6541664379
 20
85.210115209
 30
0.0
 10
19.6541664379
 20
85.2348078427
 30
0.0
  0
SPLINE
  5
449
100
AcDbEntity
  8
0
100
AcDbSpline
 62
7
  6
CONTINUOUS
 70
0
 71
3
 72
9
 73
5
 74
0
 42
0.0000001
 43
0.0000001
 44
0.0000000001
 40
0.0
 40
0.0
 40
0.0
 40
0.0
 40
0.7494275441
 40
1.0
 40
1.0
 40
1.0
 40
1.0
 10
18.2357651957
 20
84.5924905182
 30
0.0
 10
18.2357651957
 20
84.672628987
 30
0.0
 10
18.2431543054
 20
84.7799458803
 30
0.0
 10
18.2634501152
 20
84.8849928704
 30
0.0
 10
18.2694008497
 20
84.9111181624
 30
0.0
  0
SPLINE
  5
44A
100
AcDbEntity
  8
0
100
AcDbSpline
 62
7
  6
CONTINUOUS
 70
0
 71
3
 72
10
 73
6
 74
0
 42
0.0000001
 43
0.0000001
 44
0.0000000001
 40
0.0
 40
0.0
 40
0.0
 40
0.0
 40
0.537795878
 40
0.7829071389
 40
1.0
 40
1.0
 40
1.0
 40
1.0
 10
18.2694008661
 20
84.9111181616
 30
0.0
 10
18.284242568
 20
84.976277143
 30
0.0
 10
18.3070908892
 20
85.0708938754
 30
0.0
 10
18.330478625
 20
85.1929052109
 30
0.0
 10
18.3367230599
 20
85.2502524753
 30
0.0
 10
18.3367230599
 20
85.2772289952
 30
0.0
  0
SPLINE
  5
44B
100
AcDbEntity
  8
0
100
AcDbSpline
 62
7
  6
CONTINUOUS
 70
0
 71
3
 72
9
 73
5
 74
0
 42
0.0000001
 43
0.0000001
 44
0.0000000001
 40
0.0
 40
0.0
 40
0.0
 40
0.0
 40
0.748718231
 40
1.0
 40
1.0
 40
1.0
 40
1.0
 10
17.0580501831
 20
84.5303873643
 30
0.0
 10
17.0580501831
 20
84.6262595776
 30
0.0
 10
17.0682596028
 20
84.7549035024
 30
0.0
 10
17.0960351054
 20
84.8799938239
 30
0.0
 10
17.1041951375
 20
84.9111181626
 30
0.0
  0
SPLINE
  5
44C
100
AcDbEntity
  8
0
100
AcDbSpline
 62
7
  6
CONTINUOUS
 70
0
 71
3
 72
12
 73
8
 74
0
 42
0.0000001
 43
0.0000001
 44
0.0000000001
 40
0.0
 40
0.0
 40
0.0
 40
0.0
 40
0.2811243558
 40
0.5489387289
 40
0.7939358731
 40
0.9033699258
 40
1.0
 40
1.0
 40
1.0
 40
1.0
 10
17.1041951525
 20
84.9111181615
 30
0.0
 10
17.1139931989
 20
84.9484902838
 30
0.0
 10
17.1338175224
 20
85.0212871383
 30
0.0
 10
17.1629284255
 20
85.126422985
 30
0.0
 10
17.1836482517
 20
85.2094668468
 30
0.0
 10
17.1942008767
 20
85.2705773558
 30
0.0
 10
17.1965548717
 20
85.2988875963
 30
0.0
 10
17.1965548717
 20
85.3121675571
 30
0.0
  0
SPLINE
  5
44D
100
AcDbEntity
  8
0
100
AcDbSpline
 62
7
  6
CONTINUOUS
 70
0
 71
3
 72
9
 73
5
 74
0
 42
0.0000001
 43
0.0000001
 44
0.0000000001
 40
0.0
 40
0.0
 40
0.0
 40
0.0
 40
0.2494281239
 40
1.0
 40
1.0
 40
1.0
 40
1.0
 10
16.0650476985
 20
84.4670852139
 30
0.0
 10
16.0650476985
 20
84.5044097122
 30
0.0
 10
16.0695392143
 20
84.6539623361
 30
0.0
 10
16.0937312547
 20
84.8033553777
 30
0.0
 10
16.125385965
 20
84.9111181625
 30
0.0
  0
SPLINE
  5
44E
100
AcDbEntity
  8
0
100
AcDbSpline
 62
7
  6
CONTINUOUS
 70
0
 71
3
 72
12
 73
8
 74
0
 42
0.0000001
 43
0.0000001
 44
0.0000000001
 40
0.0
 40
0.0
 40
0.0
 40
0.0
 40
0.2880076792
 40
0.5611302766
 40
0.80672946
 40
0.9125196047
 40
1.0
 40
1.0
 40
1.0
 40
1.0
 10
16.1253859787
 20
84.9111181614
 30
0.0
 10
16.1374883896
 20
84.952318649
 30
0.0
 10
16.1622621211
 20
85.0322495727
 30
0.0
 10
16.1999307358
 20
85.1464438019
 30
0.0
 10
16.227882838
 20
85.2353645557
 30
0.0
 10
16.2425592089
 20
85.2991347197
 30
0.0
 10
16.2461537946
 20
85.3278953316
 30
0.0
 10
16.2461537946
 20
85.3409384389
 30
0.0
  0
SPLINE
  5
44F
100
AcDbEntity
  8
0
100
AcDbSpline
 62
7
  6
CONTINUOUS
 70
0
 71
3
 72
9
 73
5
 74
0
 42
0.0000001
 43
0.0000001
 44
0.0000000001
 40
0.0
 40
0.0
 40
0.0
 40
0.0
 40
0.2489169882
 40
1.0
 40
1.0
 40
1.0
 40
1.0
 10
15.267637285
 20
84.4028466089
 30
0.0
 10
15.267637285
 20
84.4455807566
 30
0.0
 10
15.2733756855
 20
84.6171512843
 30
0.0
 10
15.3041698666
 20
84.7883798585
 30
0.0
 10
15.3436973706
 20
84.9111181626
 30
0.0
  0
SPLINE
  5
450
100
AcDbEntity
  8
0
100
AcDbSpline
 62
7
  6
CONTINUOUS
 70
0
 71
3
 72
13
 73
9
 74
0
 42
0.0000001
 43
0.0000001
 44
0.0000000001
 40
0.0
 40
0.0
 40
0.0
 40
0.0
 40
0.2962953965
 40
0.5768783272
 40
0.7064016949
 40
0.8239490076
 40
0.9242183844
 40
1.0
 40
1.0
 40
1.0
 40
1.0
 10
15.3436973827
 20
84.9111181616
 30
0.0
 10
15.3581101615
 20
84.9558718102
 30
0.0
 10
15.3880422561
 20
85.0424095643
 30
0.0
 10
15.4281143564
 20
85.1471104963
 30
0.0
 10
15.4580114743
 20
85.2253023344
 30
0.0
 10
15.4767827567
 20
85.2771782967
 30
0.0
 10
15.4904193051
 20
85.3216333794
 30
0.0
 10
15.4959326215
 20
85.3493544667
 30
0.0
 10
15.4959326215
 20
85.3613797615
 30
0.0
  0
SPLINE
  5
451
100
AcDbEntity
  8
0
100
AcDbSpline
 62
7
  6
CONTINUOUS
 70
0
 71
3
 72
9
 73
5
 74
0
 42
0.0000001
 43
0.0000001
 44
0.0000000001
 40
0.0
 40
0.0
 40
0.0
 40
0.0
 40
0.4964986258
 40
1.0
 40
1.0
 40
1.0
 40
1.0
 10
14.6745555379
 20
84.337769234
 30
0.0
 10
14.6745555379
 20
84.4342382987
 30
0.0
 10
14.6889302591
 20
84.6288685622
 30
0.0
 10
14.7356342956
 20
84.8186906615
 30
0.0
 10
14.767693698
 20
84.9111181627
 30
0.0
  0
SPLINE
  5
452
100
AcDbEntity
  8
0
100
AcDbSpline
 62
7
  6
CONTINUOUS
 70
0
 71
3
 72
15
 73
11
 74
0
 42
0.0000001
 43
0.0000001
 44
0.0000000001
 40
0.0
 40
0.0
 40
0.0
 40
0.0
 40
0.3046269295
 40
0.4518640357
 40
0.5930165786
 40
0.7251502782
 40
0.8426439121
 40
0.9375894684
 40
0.9734775161
 40
1.0
 40
1.0
 40
1.0
 40
1.0
 10
14.7676937085
 20
84.9111181615
 30
0.0
 10
14.7843956937
 20
84.9592701123
 30
0.0
 10
14.8111656978
 20
85.0300225736
 30
0.0
 10
14.8497408268
 20
85.1214378092
 30
0.0
 10
14.8782560781
 20
85.1857571021
 30
0.0
 10
14.9053511964
 20
85.245268765
 30
0.0
 10
14.9288069889
 20
85.2979008925
 30
0.0
 10
14.9446108787
 20
85.3364147207
 30
0.0
 10
14.9522527489
 20
85.3615886241
 30
0.0
 10
14.9541109327
 20
85.3719729001
 30
0.0
 10
14.9541109327
 20
85.376410307
 30
0.0
  0
SPLINE
  5
453
100
AcDbEntity
  8
0
100
AcDbSpline
 62
7
  6
CONTINUOUS
 70
0
 71
3
 72
9
 73
5
 74
0
 42
0.0000001
 43
0.0000001
 44
0.0000000001
 40
0.0
 40
0.0
 40
0.0
 40
0.0
 40
0.49559655
 40
1.0
 40
1.0
 40
1.0
 40
1.0
 10
14.2923003851
 20
84.2719527209
 30
0.0
 10
14.2923003851
 20
84.3795520567
 30
0.0
 10
14.3100103547
 20
84.5970822291
 30
0.0
 10
14.3658801021
 20
84.8083393686
 30
0.0
 10
14.403685764
 20
84.9111181627
 30
0.0
  0
SPLINE
  5
454
100
AcDbEntity
  8
0
100
AcDbSpline
 62
7
  6
CONTINUOUS
 70
0
 71
3
 72
18
 73
14
 74
0
 42
0.0000001
 43
0.0000001
 44
0.0000000001
 40
0.0
 40
0.0
 40
0.0
 40
0.0
 40
0.1579884836
 40
0.3137133258
 40
0.4656001842
 40
0.6111558631
 40
0.7461659102
 40
0.8077069553
 40
0.863738827
 40
0.912647823
 40
0.9528115918
 40
0.9824737326
 40
1.0
 40
1.0
 40
1.0
 40
1.0
 10
14.4036857727
 20
84.9111181615
 30
0.0
 10
14.4132282536
 20
84.9370604315
 30
0.0
 10
14.4330899992
 20
84.9882422708
 30
0.0
 10
14.4651745823
 20
85.0631357237
 30
0.0
 10
14.4988370354
 20
85.13493602
 30
0.0
 10
14.5329002521
 20
85.2025049624
 30
0.0
 10
14.5610353715
 20
85.2553408963
 30
0.0
 10
14.5822038382
 20
85.2941292821
 30
0.0
 10
14.5962146437
 20
85.3196750734
 30
0.0
 10
14.6082034494
 20
85.3420265703
 30
0.0
 10
14.6177043306
 20
85.3605786799
 30
0.0
 10
14.623747123
 20
85.3744687202
 30
0.0
 10
14.62662504
 20
85.3824587297
 30
0.0
 10
14.62662504
 20
85.3855251228
 30
0.0
  0
SPLINE
  5
455
100
AcDbEntity
  8
0
100
AcDbSpline
 62
7
  6
CONTINUOUS
 70
0
 71
3
 72
22
 73
18
 74
0
 42
0.0000001
 43
0.0000001
 44
0.0000000001
 40
0.0
 40
0.0
 40
0.0
 40
0.0
 40
0.1660518403
 40
0.3293553282
 40
0.4879292243
 40
0.6388954026
 40
0.7097282919
 40
0.7761988623
 40
0.8372078425
 40
0.8911076397
 40
0.936114524
 40
0.9547229624
 40
0.9704389448
 40
0.9830435392
 40
0.9923178462
 40
0.9980429663
 40
1.0
 40
1.0
 40
1.0
 40
1.0
 10
14.279886937
 20
84.9712738246
 30
0.0
 10
14.2902183985
 20
84.9958192024
 30
0.0
 10
14.3116438401
 20
85.0441182757
 30
0.0
 10
14.3462628067
 20
85.1143196212
 30
0.0
 10
14.3823735333
 20
85.1810222514
 30
0.0
 10
14.4132534584
 20
85.2336474264
 30
0.0
 10
14.4376683466
 20
85.2729093528
 30
0.0
 10
14.4549394798
 20
85.2996186455
 30
0.0
 10
14.4712059498
 20
85.3237370299
 30
0.0
 10
14.4858494518
 20
85.3447918339
 30
0.0
 10
14.4967750117
 20
85.3601527913
 30
0.0
 10
14.5041445859
 20
85.3705178005
 30
0.0
 10
14.5085476686
 20
85.3766360843
 30
0.0
 10
14.5119497807
 20
85.3815774549
 30
0.0
 10
14.5147456329
 20
85.3851105115
 30
0.0
 10
14.5159113856
 20
85.3874571884
 30
0.0
 10
14.5170629474
 20
85.3883210569
 30
0.0
 10
14.5170629474
 20
85.3886349223
 30
0.0
  0
SPLINE
  5
456
100
AcDbEntity
  8
0
100
AcDbSpline
 62
7
  6
CONTINUOUS
 70
0
 71
3
 72
9
 73
5
 74
0
 42
0.0000001
 43
0.0000001
 44
0.0000000001
 40
0.0
 40
0.0
 40
0.0
 40
0.0
 40
0.2445688926
 40
1.0
 40
1.0
 40
1.0
 40
1.0
 10
43.7170629474
 20
85.0541315733
 30
0.0
 10
43.7170629474
 20
85.0424618005
 30
0.0
 10
43.7176941018
 20
84.9947455222
 30
0.0
 10
43.7203210055
 20
84.947077835
 30
0.0
 10
43.7228131256
 20
84.9111181729
 30
0.0
  0
SPLINE
  5
457
100
AcDbEntity
  8
0
100
AcDbSpline
 62
7
  6
CONTINUOUS
 70
0
 71
3
 72
8
 73
4
 74
0
 42
0.0000001
 43
0.0000001
 44
0.0000000001
 40
0.0
 40
0.0
 40
0.0
 40
0.0
 40
1.0
 40
1.0
 40
1.0
 40
1.0
 10
45.4877419825
 20
84.9111181729
 30
0.0
 10
45.4929414257
 20
84.8643608742
 30
0.0
 10
45.4952233086
 20
84.8172255939
 30
0.0
 10
45.4952233086
 20
84.7701800926
 30
0.0
  0
SPLINE
  5
458
100
AcDbEntity
  8
0
100
AcDbSpline
 62
7
  6
CONTINUOUS
 70
0
 71
3
 72
9
 73
5
 74
0
 42
0.0000001
 43
0.0000001
 44
0.0000000001
 40
0.0
 40
0.0
 40
0.0
 40
0.0
 40
0.4872155156
 40
1.0
 40
1.0
 40
1.0
 40
1.0
 10
45.4727679932
 20
85.1244884729
 30
0.0
 10
45.4727679932
 20
85.0897385482
 30
0.0
 10
45.4765043353
 20
85.0184274941
 30
0.0
 10
45.4836998698
 20
84.9474677151
 30
0.0
 10
45.4877419635
 20
84.9111181729
 30
0.0
  0
SPLINE
  5
459
100
AcDbEntity
  8
0
100
AcDbSpline
 62
7
  6
CONTINUOUS
 70
0
 71
3
 72
9
 73
5
 74
0
 42
0.0000001
 43
0.0000001
 44
0.0000000001
 40
0.0
 40
0.0
 40
0.0
 40
0.0
 40
0.7492038828
 40
1.0
 40
1.0
 40
1.0
 40
1.0
 10
47.128091281
 20
84.9111181729
 30
0.0
 10
47.1355518145
 20
84.8619845216
 30
0.0
 10
47.1412279059
 20
84.7956858697
 30
0.0
 10
47.1422886358
 20
84.7293635542
 30
0.0
 10
47.1422886358
 20
84.7127275314
 30
0.0
  0
SPLINE
  5
45A
100
AcDbEntity
  8
0
100
AcDbSpline
 62
7
  6
CONTINUOUS
 70
0
 71
3
 72
9
 73
5
 74
0
 42
0.0000001
 43
0.0000001
 44
0.0000000001
 40
0.0
 40
0.0
 40
0.0
 40
0.0
 40
0.4801417282
 40
1.0
 40
1.0
 40
1.0
 40
1.0
 10
47.0996750746
 20
85.1842303737
 30
0.0
 10
47.0996750746
 20
85.140257367
 30
0.0
 10
47.1077443479
 20
85.0487730781
 30
0.0
 10
47.1209439491
 20
84.9581890175
 30
0.0
 10
47.1280912628
 20
84.9111181729
 30
0.0
  0
SPLINE
  5
45B
100
AcDbEntity
  8
0
100
AcDbSpline
 62
7
  6
CONTINUOUS
 70
0
 71
3
 72
9
 73
5
 74
0
 42
0.0000001
 43
0.0000001
 44
0.0000000001
 40
0.0
 40
0.0
 40
0.0
 40
0.0
 40
0.7493634575
 40
1.0
 40
1.0
 40
1.0
 40
1.0
 10
48.6258890303
 20
84.9111181729
 30
0.0
 10
48.6380128729
 20
84.8475907068
 30
0.0
 10
48.6471482473
 20
84.7613394371
 30
0.0
 10
48.6488364503
 20
84.6750567989
 30
0.0
 10
48.6488364503
 20
84.653425549
 30
0.0
  0
SPLINE
  5
45C
100
AcDbEntity
  8
0
100
AcDbSpline
 62
7
  6
CONTINUOUS
 70
0
 71
3
 72
10
 73
6
 74
0
 42
0.0000001
 43
0.0000001
 44
0.0000000001
 40
0.0
 40
0.0
 40
0.0
 40
0.0
 40
0.2264801236
 40
0.4720847799
 40
1.0
 40
1.0
 40
1.0
 40
1.0
 10
48.5799594569
 20
85.2348071173
 30
0.0
 10
48.5799594569
 20
85.2100974557
 30
0.0
 10
48.5836495003
 20
85.158608064
 30
0.0
 10
48.5990021552
 20
85.0505752451
 30
0.0
 10
48.6150918055
 20
84.9676942312
 30
0.0
 10
48.6258890129
 20
84.9111181729
 30
0.0
  0
SPLINE
  5
45D
100
AcDbEntity
  8
0
100
AcDbSpline
 62
7
  6
CONTINUOUS
 70
0
 71
3
 72
9
 73
5
 74
0
 42
0.0000001
 43
0.0000001
 44
0.0000000001
 40
0.0
 40
0.0
 40
0.0
 40
0.0
 40
0.2505841049
 40
1.0
 40
1.0
 40
1.0
 40
1.0
 10
49.964725045
 20
84.9111181729
 30
0.0
 10
49.9706730555
 20
84.8850035886
 30
0.0
 10
49.990965169
 20
84.780006134
 30
0.0
 10
49.998360699
 20
84.6727386758
 30
0.0
 10
49.998360699
 20
84.5926382111
 30
0.0
  0
SPLINE
  5
45E
100
AcDbEntity
  8
0
100
AcDbSpline
 62
7
  6
CONTINUOUS
 70
0
 71
3
 72
10
 73
6
 74
0
 42
0.0000001
 43
0.0000001
 44
0.0000000001
 40
0.0
 40
0.0
 40
0.0
 40
0.0
 40
0.2171715439
 40
0.4622856781
 40
1.0
 40
1.0
 40
1.0
 40
1.0
 10
49.8974028349
 20
85.2772097004
 30
0.0
 10
49.8974028349
 20
85.2502246226
 30
0.0
 10
49.9036343376
 20
85.1928689478
 30
0.0
 10
49.9270099724
 20
85.0708599308
 30
0.0
 10
49.949886924
 20
84.976264483
 30
0.0
 10
49.9647250287
 20
84.9111181729
 30
0.0
  0
SPLINE
  5
45F
100
AcDbEntity
  8
0
100
AcDbSpline
 62
7
  6
CONTINUOUS
 70
0
 71
3
 72
9
 73
5
 74
0
 42
0.0000001
 43
0.0000001
 44
0.0000000001
 40
0.0
 40
0.0
 40
0.0
 40
0.0
 40
0.2512649442
 40
1.0
 40
1.0
 40
1.0
 40
1.0
 10
51.1299307573
 20
84.911118173
 30
0.0
 10
51.1380889775
 20
84.8799959895
 30
0.0
 10
51.1658979864
 20
84.7549146136
 30
0.0
 10
51.1760757116
 20
84.6262667817
 30
0.0
 10
51.1760757116
 20
84.5303935757
 30
0.0
  0
SPLINE
  5
460
100
AcDbEntity
  8
0
100
AcDbSpline
 62
7
  6
CONTINUOUS
 70
0
 71
3
 72
12
 73
8
 74
0
 42
0.0000001
 43
0.0000001
 44
0.0000000001
 40
0.0
 40
0.0
 40
0.0
 40
0.0
 40
0.096672636
 40
0.2061533832
 40
0.451113912
 40
0.7188746294
 40
1.0
 40
1.0
 40
1.0
 40
1.0
 10
51.0375710231
 20
85.3121449181
 30
0.0
 10
51.0375710231
 20
85.2988597401
 30
0.0
 10
51.03992111
 20
85.2705385686
 30
0.0
 10
51.0504554439
 20
85.2094202546
 30
0.0
 10
51.0711873635
 20
85.1263888319
 30
0.0
 10
51.1003212333
 20
85.021277774
 30
0.0
 10
51.1201345275
 20
84.948489019
 30
0.0
 10
51.1299307422
 20
84.911118173
 30
0.0
  0
SPLINE
  5
461
100
AcDbEntity
  8
0
100
AcDbSpline
 62
7
  6
CONTINUOUS
 70
0
 71
3
 72
9
 73
5
 74
0
 42
0.0000001
 43
0.0000001
 44
0.0000000001
 40
0.0
 40
0.0
 40
0.0
 40
0.0
 40
0.2520289346
 40
1.0
 40
1.0
 40
1.0
 40
1.0
 10
52.1087399297
 20
84.9111181729
 30
0.0
 10
52.1193669488
 20
84.8749345963
 30
0.0
 10
52.1555798725
 20
84.7296225519
 30
0.0
 10
52.1690781962
 20
84.5791334692
 30
0.0
 10
52.1690781962
 20
84.4672122577
 30
0.0
  0
SPLINE
  5
462
100
AcDbEntity
  8
0
100
AcDbSpline
 62
7
  6
CONTINUOUS
 70
0
 71
3
 72
12
 73
8
 74
0
 42
0.0000001
 43
0.0000001
 44
0.0000000001
 40
0.0
 40
0.0
 40
0.0
 40
0.0
 40
0.0872419384
 40
0.192688021
 40
0.4382469609
 40
0.7117843596
 40
1.0
 40
1.0
 40
1.0
 40
1.0
 10
51.9879721002
 20
85.3401290036
 30
0.0
 10
51.9879721002
 20
85.3271445331
 30
0.0
 10
51.9915882248
 20
85.2985226822
 30
0.0
 10
52.0063556409
 20
85.2349900325
 30
0.0
 10
52.0342805664
 20
85.1462331642
 30
0.0
 10
52.0718754857
 20
85.0321470403
 30
0.0
 10
52.0966520417
 20
84.9522757658
 30
0.0
 10
52.108739916
 20
84.9111181729
 30
0.0
  0
SPLINE
  5
463
100
AcDbEntity
  8
0
100
AcDbSpline
 62
7
  6
CONTINUOUS
 70
0
 71
3
 72
9
 73
5
 74
0
 42
0.0000001
 43
0.0000001
 44
0.0000000001
 40
0.0
 40
0.0
 40
0.0
 40
0.0
 40
0.2528430763
 40
1.0
 40
1.0
 40
1.0
 40
1.0
 10
52.8904285241
 20
84.911118173
 30
0.0
 10
52.9037372421
 20
84.8697902923
 30
0.0
 10
52.9490035278
 20
84.7039844759
 30
0.0
 10
52.9664886097
 20
84.5311522157
 30
0.0
 10
52.9664886097
 20
84.4028512977
 30
0.0
  0
SPLINE
  5
464
100
AcDbEntity
  8
0
100
AcDbSpline
 62
7
  6
CONTINUOUS
 70
0
 71
3
 72
13
 73
9
 74
0
 42
0.0000001
 43
0.0000001
 44
0.0000000001
 40
0.0
 40
0.0
 40
0.0
 40
0.0
 40
0.0759104585
 40
0.1763336568
 40
0.2938628231
 40
0.4233107513
 40
0.7037850425
 40
1.0
 40
1.0
 40
1.0
 40
1.0
 10
52.7381932733
 20
85.3615406868
 30
0.0
 10
52.7381932733
 20
85.3494908881
 30
0.0
 10
52.7436960552
 20
85.3217144532
 30
0.0
 10
52.7572955192
 20
85.2771864158
 30
0.0
 10
52.7760659604
 20
85.2252798687
 30
0.0
 10
52.8059735492
 20
85.147096202
 30
0.0
 10
52.8460785483
 20
85.0424123122
 30
0.0
 10
52.8760155786
 20
84.9558750001
 30
0.0
 10
52.890428512
 20
84.911118173
 30
0.0
  0
SPLINE
  5
465
100
AcDbEntity
  8
0
100
AcDbSpline
 62
7
  6
CONTINUOUS
 70
0
 71
3
 72
9
 73
5
 74
0
 42
0.0000001
 43
0.0000001
 44
0.0000000001
 40
0.0
 40
0.0
 40
0.0
 40
0.0
 40
0.5034343937
 40
1.0
 40
1.0
 40
1.0
 40
1.0
 10
53.4664321968
 20
84.9111181729
 30
0.0
 10
53.4984853343
 20
84.81870177
 30
0.0
 10
53.5451062537
 20
84.6288625386
 30
0.0
 10
53.5595703568
 20
84.4342413468
 30
0.0
 10
53.5595703568
 20
84.3377587985
 30
0.0
  0
SPLINE
  5
466
100
AcDbEntity
  8
0
100
AcDbSpline
 62
7
  6
CONTINUOUS
 70
0
 71
3
 72
15
 73
11
 74
0
 42
0.0000001
 43
0.0000001
 44
0.0000000001
 40
0.0
 40
0.0
 40
0.0
 40
0.0
 40
0.0265959112
 40
0.062653819
 40
0.1578310776
 40
0.275216948
 40
0.4071928256
 40
0.5482876586
 40
0.6954929148
 40
1.0
 40
1.0
 40
1.0
 40
1.0
 10
53.2800149621
 20
85.3766522763
 30
0.0
 10
53.2800149621
 20
85.3722004878
 30
0.0
 10
53.2818709906
 20
85.3617707188
 30
0.0
 10
53.2894710459
 20
85.3364882902
 30
0.0
 10
53.3052289959
 20
85.2978786405
 30
0.0
 10
53.3287361424
 20
85.245245609
 30
0.0
 10
53.3558569464
 20
85.1857713436
 30
0.0
 10
53.3843671271
 20
85.1214586421
 30
0.0
 10
53.4229451086
 20
85.0300321032
 30
0.0
 10
53.4497300284
 20
84.9592742496
 30
0.0
 10
53.4664321863
 20
84.9111181729
 30
0.0
  0
SPLINE
  5
467
100
AcDbEntity
  8
0
100
AcDbSpline
 62
7
  6
CONTINUOUS
 70
0
 71
3
 72
9
 73
5
 74
0
 42
0.0000001
 43
0.0000001
 44
0.0000000001
 40
0.0
 40
0.0
 40
0.0
 40
0.0
 40
0.5043449061
 40
1.0
 40
1.0
 40
1.0
 40
1.0
 10
53.8304401307
 20
84.9111181729
 30
0.0
 10
53.8682602948
 20
84.8082953847
 30
0.0
 10
53.9241730576
 20
84.5969239332
 30
0.0
 10
53.9418255096
 20
84.3792713207
 30
0.0
 10
53.9418255096
 20
84.2716012847
 30
0.0
  0
SPLINE
  5
468
100
AcDbEntity
  8
0
100
AcDbSpline
 62
7
  6
CONTINUOUS
 70
0
 71
3
 72
18
 73
14
 74
0
 42
0.0000001
 43
0.0000001
 44
0.0000000001
 40
0.0
 40
0.0
 40
0.0
 40
0.0
 40
0.0175911824
 40
0.0473671939
 40
0.0875900238
 40
0.1364746923
 40
0.1924468743
 40
0.2539432505
 40
0.3889598187
 40
0.5345082158
 40
0.686345939
 40
0.8420355896
 40
1.0
 40
1.0
 40
1.0
 40
1.0
 10
53.6075008548
 20
85.3856480639
 30
0.0
 10
53.6075008548
 20
85.3825696372
 30
0.0
 10
53.6103730123
 20
85.3745444942
 30
0.0
 10
53.6163965591
 20
85.3605954272
 30
0.0
 10
53.6258955507
 20
85.3420079617
 30
0.0
 10
53.6378983904
 20
85.3196623426
 30
0.0
 10
53.6519206534
 20
85.2941413346
 30
0.0
 10
53.6730904046
 20
85.2553619807
 30
0.0
 10
53.7011872005
 20
85.2024996864
 30
0.0
 10
53.7352509957
 20
85.1349228954
 30
0.0
 10
53.7689476949
 20
85.0631371029
 30
0.0
 10
53.8010378791
 20
84.9882468205
 30
0.0
 10
53.8208973728
 20
84.9370623248
 30
0.0
 10
53.8304401221
 20
84.9111181729
 30
0.0
  0
SPLINE
  5
469
100
AcDbEntity
  8
0
100
AcDbSpline
 62
7
  6
CONTINUOUS
 70
0
 71
3
 72
9
 73
5
 74
0
 42
0.0000001
 43
0.0000001
 44
0.0000000001
 40
0.0
 40
0.0
 40
0.0
 40
0.0
 40
0.2526380143
 40
1.0
 40
1.0
 40
1.0
 40
1.0
 10
18.2774744859
 20
84.1886191332
 30
0.0
 10
18.2709346719
 20
84.2222102805
 30
0.0
 10
18.2475446419
 20
84.3556183375
 30
0.0
 10
18.2357651957
 20
84.4912770662
 30
0.0
 10
18.2357651957
 20
84.5925132261
 30
0.0
  0
SPLINE
  5
46A
100
AcDbEntity
  8
0
100
AcDbSpline
 62
7
  6
CONTINUOUS
 70
0
 71
3
 72
19
 73
15
 74
0
 42
0.0000001
 43
0.0000001
 44
0.0000000001
 40
0.0
 40
0.0
 40
0.0
 40
0.0
 40
0.0481786088
 40
0.0900552332
 40
0.1270431284
 40
0.1644731021
 40
0.2092203424
 40
0.2640668836
 40
0.3276303444
 40
0.3971329762
 40
0.5448470786
 40
0.6965154777
 40
0.8484913201
 40
1.0
 40
1.0
 40
1.0
 40
1.0
 10
18.3367230599
 20
85.2776076481
 30
0.0
 10
18.3367230599
 20
85.2908073464
 30
0.0
 10
18.3352972706
 20
85.3155461039
 30
0.0
 10
18.3263124624
 20
85.3495590938
 30
0.0
 10
18.3071056995
 20
85.3764559147
 30
0.0
 10
18.2757856796
 20
85.3900194885
 30
0.0
 10
18.2374673888
 20
85.3882468853
 30
0.0
 10
18.1946967493
 20
85.3742687623
 30
0.0
 10
18.1492096041
 20
85.349715191
 30
0.0
 10
18.0867127175
 20
85.3046034477
 30
0.0
 10
18.0144067441
 20
85.2331516307
 30
0.0
 10
17.9399373014
 20
85.1340286857
 30
0.0
 10
17.8775277957
 20
85.0257687768
 30
0.0
 10
17.8435487812
 20
84.9497264131
 30
0.0
 10
17.8283027826
 20
84.9111181729
 30
0.0
  0
SPLINE
  5
46B
100
AcDbEntity
  8
0
100
AcDbSpline
 62
7
  6
CONTINUOUS
 70
0
 71
3
 72
9
 73
5
 74
0
 42
0.0000001
 43
0.0000001
 44
0.0000000001
 40
0.0
 40
0.0
 40
0.0
 40
0.0
 40
0.5045144056
 40
1.0
 40
1.0
 40
1.0
 40
1.0
 10
17.828302788
 20
84.9111181729
 30
0.0
 10
17.7816089514
 20
84.7928729267
 30
0.0
 10
17.6939618036
 20
84.5564081912
 30
0.0
 10
17.6312253067
 20
84.3115208787
 30
0.0
 10
17.6090454116
 20
84.1886510271
 30
0.0
  0
SPLINE
  5
46C
100
AcDbEntity
  8
0
100
AcDbSpline
 62
7
  6
CONTINUOUS
 70
0
 71
3
 72
9
 73
5
 74
0
 42
0.0000001
 43
0.0000001
 44
0.0000000001
 40
0.0
 40
0.0
 40
0.0
 40
0.0
 40
0.2518940734
 40
1.0
 40
1.0
 40
1.0
 40
1.0
 10
17.0878530934
 20
84.1886196955
 30
0.0
 10
17.0830838023
 20
84.217045992
 30
0.0
 10
17.0661491613
 20
84.3302113285
 30
0.0
 10
17.0580501831
 20
84.4447871706
 30
0.0
 10
17.0580501831
 20
84.5303910633
 30
0.0
  0
SPLINE
  5
46D
100
AcDbEntity
  8
0
100
AcDbSpline
 62
7
  6
CONTINUOUS
 70
0
 71
3
 72
10
 73
6
 74
0
 42
0.0000001
 43
0.0000001
 44
0.0000000001
 40
0.0
 40
0.0
 40
0.0
 40
0.0
 40
0.2463519004
 40
0.4972396883
 40
1.0
 40
1.0
 40
1.0
 40
1.0
 10
25.6959223707
 20
84.9111181729
 30
0.0
 10
25.6787836546
 20
84.8512674384
 30
0.0
 10
25.6408215533
 20
84.73144098
 30
0.0
 10
25.5605937823
 20
84.4918310967
 30
0.0
 10
25.5012262788
 20
84.3107732808
 30
0.0
 10
25.4661709819
 20
84.1886510308
 30
0.0
  0
SPLINE
  5
46E
100
AcDbEntity
  8
0
100
AcDbSpline
 62
7
  6
CONTINUOUS
 70
0
 71
3
 72
20
 73
16
 74
0
 42
0.0000001
 43
0.0000001
 44
0.0000000001
 40
0.0
 40
0.0
 40
0.0
 40
0.0
 40
0.0425940298
 40
0.0778126785
 40
0.1096403636
 40
0.145574098
 40
0.1920022611
 40
0.2490835625
 40
0.31427976
 40
0.3850464151
 40
0.459056085
 40
0.5351195157
 40
0.6895670379
 40
0.8448684999
 40
1.0
 40
1.0
 40
1.0
 40
1.0
 10
17.1965548717
 20
85.3121653597
 30
0.0
 10
17.1965548717
 20
85.3229430082
 30
0.0
 10
17.1952330155
 20
85.3426740848
 30
0.0
 10
17.1857224347
 20
85.3695710898
 30
0.0
 10
17.1645996479
 20
85.3872815384
 30
0.0
 10
17.1345603688
 20
85.3902225453
 30
0.0
 10
17.1003483654
 20
85.3802464153
 30
0.0
 10
17.0620700372
 20
85.3610458173
 30
0.0
 10
17.0215686234
 20
85.333538797
 30
0.0
 10
16.9807735798
 20
85.2993844793
 30
0.0
 10
16.941272735
 20
85.2597668657
 30
0.0
 10
16.8909792768
 20
85.2013279937
 30
0.0
 10
16.8340863588
 20
85.1217167414
 30
0.0
 10
16.7759700147
 20
85.0192420634
 30
0.0
 10
16.7436875769
 20
84.9475097486
 30
0.0
 10
16.7289747113
 20
84.9111181729
 30
0.0
  0
SPLINE
  5
46F
100
AcDbEntity
  8
0
100
AcDbSpline
 62
7
  6
CONTINUOUS
 70
0
 71
3
 72
10
 73
6
 74
0
 42
0.0000001
 43
0.0000001
 44
0.0000000001
 40
0.0
 40
0.0
 40
0.0
 40
0.0
 40
0.5085924243
 40
0.7568291875
 40
1.0
 40
1.0
 40
1.0
 40
1.0
 10
26.5050563501
 20
84.1886247197
 30
0.0
 10
26.4714332968
 20
84.3030466393
 30
0.0
 10
26.4259970316
 20
84.4750015772
 30
0.0
 10
26.3888181966
 20
84.7067119486
 30
0.0
 10
26.3810615813
 20
84.8219783033
 30
0.0
 10
26.3810615813
 20
84.8789993802
 30
0.0
  0
SPLINE
  5
470
100
AcDbEntity
  8
0
100
AcDbSpline
 62
7
  6
CONTINUOUS
 70
0
 71
3
 72
9
 73
5
 74
0
 42
0.0000001
 43
0.0000001
 44
0.0000000001
 40
0.0
 40
0.0
 40
0.0
 40
0.0
 40
0.5054536693
 40
1.0
 40
1.0
 40
1.0
 40
1.0
 10
16.7289747146
 20
84.9111181729
 30
0.0
 10
16.6813836306
 20
84.793403883
 30
0.0
 10
16.5951219515
 20
84.55708066
 30
0.0
 10
16.5379459495
 20
84.3114674519
 30
0.0
 10
16.519253329
 20
84.1886510271
 30
0.0
  0
SPLINE
  5
471
100
AcDbEntity
  8
0
100
AcDbSpline
 62
7
  6
CONTINUOUS
 70
0
 71
3
 72
9
 73
5
 74
0
 42
0.0000001
 43
0.0000001
 44
0.0000000001
 40
0.0
 40
0.0
 40
0.0
 40
0.0
 40
0.2512272826
 40
1.0
 40
1.0
 40
1.0
 40
1.0
 10
16.0848074831
 20
84.1886218925
 30
0.0
 10
16.0815898259
 20
84.2117892725
 30
0.0
 10
16.0702382482
 20
84.3041989686
 30
0.0
 10
16.0650476985
 20
84.397393341
 30
0.0
 10
16.0650476985
 20
84.4671055672
 30
0.0
  0
SPLINE
  5
472
100
AcDbEntity
  8
0
100
AcDbSpline
 62
7
  6
CONTINUOUS
 70
0
 71
3
 72
10
 73
6
 74
0
 42
0.0000001
 43
0.0000001
 44
0.0000000001
 40
0.0
 40
0.0
 40
0.0
 40
0.0
 40
0.2451856454
 40
0.4956839323
 40
1.0
 40
1.0
 40
1.0
 40
1.0
 10
27.6226966065
 20
84.911118173
 30
0.0
 10
27.6074706479
 20
84.8511912417
 30
0.0
 10
27.5723807673
 20
84.7311484876
 30
0.0
 10
27.4949462314
 20
84.4911695042
 30
0.0
 10
27.4349569639
 20
84.3104756708
 30
0.0
 10
27.3984449238
 20
84.1886510308
 30
0.0
  0
SPLINE
  5
473
100
AcDbEntity
  8
0
100
AcDbSpline
 62
7
  6
CONTINUOUS
 70
0
 71
3
 72
20
 73
16
 74
0
 42
0.0000001
 43
0.0000001
 44
0.0000000001
 40
0.0
 40
0.0
 40
0.0
 40
0.0
 40
0.1234461892
 40
0.1824097119
 40
0.2394668775
 40
0.2949527836
 40
0.3500808697
 40
0.4076768435
 40
0.4703490618
 40
0.5375667049
 40
0.6062140451
 40
0.6738936067
 40
0.7401635894
 40
0.8701020945
 40
1.0
 40
1.0
 40
1.0
 40
1.0
 10
28.3364082825
 20
84.9111181615
 30
0.0
 10
28.3355309247
 20
84.9650409564
 30
0.0
 10
28.3316041074
 20
85.0448869944
 30
0.0
 10
28.3135846532
 20
85.1481094968
 30
0.0
 10
28.291789304
 20
85.2200491151
 30
0.0
 10
28.2586023745
 20
85.2859626734
 30
0.0
 10
28.2089100763
 20
85.3416423252
 30
0.0
 10
28.1406268195
 20
85.3796121632
 30
0.0
 10
28.0581678608
 20
85.3932998307
 30
0.0
 10
27.9714167467
 20
85.3780851744
 30
0.0
 10
27.8898394597
 20
85.3407790107
 30
0.0
 10
27.8189027637
 20
85.2867561974
 30
0.0
 10
27.7417438795
 20
85.2004062099
 30
0.0
 10
27.6714471844
 20
85.0746571888
 30
0.0
 10
27.6366709866
 20
84.9661191524
 30
0.0
 10
27.6226965911
 20
84.911118173
 30
0.0
  0
SPLINE
  5
474
100
AcDbEntity
  8
0
100
AcDbSpline
 62
7
  6
CONTINUOUS
 70
0
 71
3
 72
10
 73
6
 74
0
 42
0.0000001
 43
0.0000001
 44
0.0000000001
 40
0.0
 40
0.0
 40
0.0
 40
0.0
 40
0.5093829048
 40
0.7576776912
 40
1.0
 40
1.0
 40
1.0
 40
1.0
 10
28.4799888538
 20
84.1886276093
 30
0.0
 10
28.4434143532
 20
84.3085970853
 30
0.0
 10
28.3925513823
 20
84.4884365058
 30
0.0
 10
28.3481209118
 20
84.7307959327
 30
0.0
 10
28.3373789188
 20
84.8514612173
 30
0.0
 10
28.3364082628
 20
84.9111181627
 30
0.0
  0
SPLINE
  5
475
100
AcDbEntity
  8
0
100
AcDbSpline
 62
7
  6
CONTINUOUS
 70
0
 71
3
 72
20
 73
16
 74
0
 42
0.0000001
 43
0.0000001
 44
0.0000000001
 40
0.0
 40
0.0
 40
0.0
 40
0.0
 40
0.0356571549
 40
0.0634141879
 40
0.0909025236
 40
0.1272483939
 40
0.1757083167
 40
0.234603363
 40
0.3010930809
 40
0.3728693143
 40
0.4478691591
 40
0.5249896526
 40
0.6822044416
 40
0.8409870878
 40
1.0
 40
1.0
 40
1.0
 40
1.0
 10
16.2461537946
 20
85.3401273635
 30
0.0
 10
16.2461537946
 20
85.3484730745
 30
0.0
 10
16.2451316158
 20
85.3633738247
 30
0.0
 10
16.2344850192
 20
85.3835197732
 30
0.0
 10
16.212377408
 20
85.3903865478
 30
0.0
 10
16.1862248746
 20
85.3845863322
 30
0.0
 10
16.1558320352
 20
85.3698985723
 30
0.0
 10
16.1219813261
 20
85.3471308397
 30
0.0
 10
16.0863888862
 20
85.3176776566
 30
0.0
 10
16.0505344665
 20
85.2828821714
 30
0.0
 10
16.015531611
 20
85.2438329748
 30
0.0
 10
15.9704596442
 20
85.1871326337
 30
0.0
 10
15.918753928
 20
85.1108358803
 30
0.0
 10
15.8648609696
 20
85.0134469854
 30
0.0
 10
15.8342549611
 20
84.9455611967
 30
0.0
 10
15.8201541734
 20
84.9111181729
 30
0.0
  0
SPLINE
  5
476
100
AcDbEntity
  8
0
100
AcDbSpline
 62
7
  6
CONTINUOUS
 70
0
 71
3
 72
10
 73
6
 74
0
 42
0.0000001
 43
0.0000001
 44
0.0000000001
 40
0.0
 40
0.0
 40
0.0
 40
0.0
 40
0.2441513055
 40
0.4942409794
 40
1.0
 40
1.0
 40
1.0
 40
1.0
 10
29.620624479
 20
84.9111181729
 30
0.0
 10
29.6074880583
 20
84.8511473965
 30
0.0
 10
29.5756717625
 20
84.7309070094
 30
0.0
 10
29.501871114
 20
84.4905274449
 30
0.0
 10
29.4418844072
 20
84.3101543509
 30
0.0
 10
29.4043294506
 20
84.1886510307
 30
0.0
  0
SPLINE
  5
477
100
AcDbEntity
  8
0
100
AcDbSpline
 62
7
  6
CONTINUOUS
 70
0
 71
3
 72
20
 73
16
 74
0
 42
0.0000001
 43
0.0000001
 44
0.0000000001
 40
0.0
 40
0.0
 40
0.0
 40
0.0
 40
0.1230757606
 40
0.1823394562
 40
0.2402364157
 40
0.2972918372
 40
0.3548072172
 40
0.4151422337
 40
0.4798827603
 40
0.5476363106
 40
0.6154004298
 40
0.6814177193
 40
0.7458351846
 40
0.8724781401
 40
1.0
 40
1.0
 40
1.0
 40
1.0
 10
30.354666411
 20
84.9111181615
 30
0.0
 10
30.3514743428
 20
84.9651961137
 30
0.0
 10
30.3435664274
 20
85.0453788464
 30
0.0
 10
30.3191751502
 20
85.1484627854
 30
0.0
 10
30.2921721345
 20
85.220512907
 30
0.0
 10
30.2534195993
 20
85.2864292991
 30
0.0
 10
30.1983361888
 20
85.3417134671
 30
0.0
 10
30.1258379975
 20
85.3793611532
 30
0.0
 10
30.0405293147
 20
85.3933015789
 30
0.0
 10
29.9522716111
 20
85.3784006473
 30
0.0
 10
29.8708502644
 20
85.3410742519
 30
0.0
 10
29.8015826934
 20
85.2868642977
 30
0.0
 10
29.7278799149
 20
85.2002573443
 30
0.0
 10
29.6630214975
 20
85.0740459629
 30
0.0
 10
29.632634605
 20
84.9659472314
 30
0.0
 10
29.6206244624
 20
84.9111181729
 30
0.0
  0
SPLINE
  5
478
100
AcDbEntity
  8
0
100
AcDbSpline
 62
7
  6
CONTINUOUS
 70
0
 71
3
 72
9
 73
5
 74
0
 42
0.0000001
 43
0.0000001
 44
0.0000000001
 40
0.0
 40
0.0
 40
0.0
 40
0.0
 40
0.5061079465
 40
1.0
 40
1.0
 40
1.0
 40
1.0
 10
15.8201541746
 20
84.9111181729
 30
0.0
 10
15.7721664238
 20
84.7939017966
 30
0.0
 10
15.6881657204
 20
84.5575333689
 30
0.0
 10
15.6372609921
 20
84.3113399911
 30
0.0
 10
15.6222665312
 20
84.1886510271
 30
0.0
  0
SPLINE
  5
479
100
AcDbEntity
  8
0
100
AcDbSpline
 62
7
  6
CONTINUOUS
 70
0
 71
3
 72
21
 73
17
 74
0
 42
0.0000001
 43
0.0000001
 44
0.0000000001
 40
0.0
 40
0.0
 40
0.0
 40
0.0
 40
0.1327700345
 40
0.2660993587
 40
0.3340268832
 40
0.4029191193
 40
0.4722850628
 40
0.5400576812
 40
0.5722128458
 40
0.6027462231
 40
0.6594319529
 40
0.7124203489
 40
0.7655837633
 40
0.8207740792
 40
0.878226749
 40
1.0
 40
1.0
 40
1.0
 40
1.0
 10
25.6959223566
 20
84.9111181729
 30
0.0
 10
25.7110061304
 20
84.9637927684
 30
0.0
 10
25.7475013999
 20
85.0678345946
 30
0.0
 10
25.8174053637
 20
85.1880595604
 30
0.0
 10
25.8906181902
 20
85.2726067417
 30
0.0
 10
25.9565767246
 20
85.3271360109
 30
0.0
 10
26.03189639
 20
85.3678097619
 30
0.0
 10
26.1000243686
 20
85.3867110536
 30
0.0
 10
26.1540309044
 20
85.3895857649
 30
0.0
 10
26.2031135154
 20
85.383298664
 30
0.0
 10
26.2579393589
 20
85.361009505
 30
0.0
 10
26.3084267283
 20
85.3147431021
 30
0.0
 10
26.3417412318
 20
85.2562186665
 30
0.0
 10
26.3627815469
 20
85.1908085363
 30
0.0
 10
26.3797576659
 20
85.0953734515
 30
0.0
 10
26.3823300858
 20
85.0211520535
 30
0.0
 10
26.3823300858
 20
84.9708984957
 30
0.0
  0
SPLINE
  5
47A
100
AcDbEntity
  8
0
100
AcDbSpline
 62
7
  6
CONTINUOUS
 70
0
 71
3
 72
10
 73
6
 74
0
 42
0.0000001
 43
0.0000001
 44
0.0000000001
 40
0.0
 40
0.0
 40
0.0
 40
0.0
 40
0.5092832677
 40
0.7578488757
 40
1.0
 40
1.0
 40
1.0
 40
1.0
 10
30.516681462
 20
84.1886276092
 30
0.0
 10
30.4791058402
 20
84.3088547713
 30
0.0
 10
30.4252581434
 20
84.4886309308
 30
0.0
 10
30.3736254463
 20
84.7306495437
 30
0.0
 10
30.3581954941
 20
84.8513303935
 30
0.0
 10
30.3546663916
 20
84.9111181628
 30
0.0
  0
LINE
  5
47B
100
AcDbEntity
  8
0
100
AcDbLine
 62
7
  6
CONTINUOUS
 10
31.461847672
 20
84.1886510308
 11
31.5191928519
 21
84.009003879
  0
SPLINE
  5
47C
100
AcDbEntity
  8
0
100
AcDbSpline
 62
7
  6
CONTINUOUS
 70
0
 71
3
 72
10
 73
6
 74
0
 42
0.0000001
 43
0.0000001
 44
0.0000000001
 40
0.0
 40
0.0
 40
0.0
 40
0.0
 40
0.2432945733
 40
0.4929703488
 40
1.0
 40
1.0
 40
1.0
 40
1.0
 10
31.6678162722
 20
84.9111181729
 30
0.0
 10
31.6569255528
 20
84.8511381283
 30
0.0
 10
31.6287491713
 20
84.7307278479
 30
0.0
 10
31.5593899939
 20
84.4899301496
 30
0.0
 10
31.5000255989
 20
84.3098220204
 30
0.0
 10
31.461847672
 20
84.1886510308
 30
0.0
  0
SPLINE
  5
47D
100
AcDbEntity
  8
0
100
AcDbSpline
 62
7
  6
CONTINUOUS
 70
0
 71
3
 72
20
 73
16
 74
0
 42
0.0000001
 43
0.0000001
 44
0.0000000001
 40
0.0
 40
0.0
 40
0.0
 40
0.0
 40
0.1233338241
 40
0.1832206988
 40
0.2422422382
 40
0.3010384632
 40
0.3608867272
 40
0.4236239895
 40
0.4899094593
 40
0.5576667763
 40
0.6241422126
 40
0.6882756742
 40
0.7507953117
 40
0.8743994463
 40
1.0
 40
1.0
 40
1.0
 40
1.0
 10
32.4141461434
 20
84.9111181615
 30
0.0
 10
32.40865875
 20
84.9653745611
 30
0.0
 10
32.3968104566
 20
85.0458917484
 30
0.0
 10
32.3663388966
 20
85.1487901241
 30
0.0
 10
32.3344331108
 20
85.2208933858
 30
0.0
 10
32.2906108465
 20
85.2867395889
 30
0.0
 10
32.2308534464
 20
85.3416700599
 30
0.0
 10
32.1548928922
 20
85.3791044047
 30
0.0
 10
32.0675498757
 20
85.3933023266
 30
0.0
 10
31.9786863852
 20
85.3786931995
 30
0.0
 10
31.898281191
 20
85.3413218072
 30
0.0
 10
31.8314570584
 20
85.2868947621
 30
0.0
 10
31.7620133553
 20
85.1999471
 30
0.0
 10
31.703411858
 20
85.0732857634
 30
0.0
 10
31.6777377347
 20
84.965760185
 30
0.0
 10
31.6678162546
 20
84.9111181729
 30
0.0
  0
SPLINE
  5
47E
100
AcDbEntity
  8
0
100
AcDbSpline
 62
7
  6
CONTINUOUS
 70
0
 71
3
 72
10
 73
6
 74
0
 42
0.0000001
 43
0.0000001
 44
0.0000000001
 40
0.0
 40
0.0
 40
0.0
 40
0.0
 40
0.5088375014
 40
0.7577333767
 40
1.0
 40
1.0
 40
1.0
 40
1.0
 10
32.5928206033
 20
84.1886276092
 30
0.0
 10
32.5546403753
 20
84.309150718
 30
0.0
 10
32.4983656419
 20
84.4889548666
 30
0.0
 10
32.4401344371
 20
84.7305893168
 30
0.0
 10
32.4202031067
 20
84.8512299724
 30
0.0
 10
32.4141461243
 20
84.9111181627
 30
0.0
  0
SPLINE
  5
47F
100
AcDbEntity
  8
0
100
AcDbSpline
 62
7
  6
CONTINUOUS
 70
0
 71
3
 72
10
 73
6
 74
0
 42
0.0000001
 43
0.0000001
 44
0.0000000001
 40
0.0
 40
0.0
 40
0.0
 40
0.0
 40
0.2723117014
 40
0.534161168
 40
1.0
 40
1.0
 40
1.0
 40
1.0
 10
27.7921876678
 20
36.1954100549
 30
0.0
 10
27.7921876678
 20
36.2618223746
 30
0.0
 10
27.796330552
 20
36.3925253876
 30
0.0
 10
27.8291944212
 20
36.6329811403
 30
0.0
 10
27.89672003
 20
36.8083945771
 30
0.0
 10
27.9732006829
 20
36.8924066564
 30
0.0
  0
SPLINE
  5
480
100
AcDbEntity
  8
0
100
AcDbSpline
 62
7
  6
CONTINUOUS
 70
0
 71
3
 72
10
 73
6
 74
0
 42
0.0000001
 43
0.0000001
 44
0.0000000001
 40
0.0
 40
0.0
 40
0.0
 40
0.0
 40
0.2426541502
 40
0.4919283467
 40
1.0
 40
1.0
 40
1.0
 40
1.0
 10
33.7418425246
 20
84.9111181729
 30
0.0
 10
33.7333205311
 20
84.8511667318
 30
0.0
 10
33.7091168788
 20
84.7306220074
 30
0.0
 10
33.644972529
 20
84.4894009975
 30
0.0
 10
33.5868372943
 20
84.3094912043
 30
0.0
 10
33.5484569875
 20
84.1886510308
 30
0.0
  0
SPLINE
  5
481
100
AcDbEntity
  8
0
100
AcDbSpline
 62
7
  6
CONTINUOUS
 70
0
 71
3
 72
19
 73
15
 74
0
 42
0.0000001
 43
0.0000001
 44
0.0000000001
 40
0.0
 40
0.0
 40
0.0
 40
0.0
 40
0.124495632
 40
0.1854425347
 40
0.2459687341
 40
0.3067615474
 40
0.3689875804
 40
0.5000601599
 40
0.6310549437
 40
0.6932699453
 40
0.7540409021
 40
0.8145592352
 40
0.8755053038
 40
1.0
 40
1.0
 40
1.0
 40
1.0
 10
34.4922833886
 20
84.9111181615
 30
0.0
 10
34.4845441808
 20
84.9655662019
 30
0.0
 10
34.4688502067
 20
85.0463943425
 30
0.0
 10
34.4326562249
 20
85.1490774763
 30
0.0
 10
34.396238678
 20
85.2211776616
 30
0.0
 10
34.3478253814
 20
85.2869391417
 30
0.0
 10
34.2620921128
 20
85.3606319792
 30
0.0
 10
34.1170289671
 20
85.4072963161
 30
0.0
 10
33.9719183037
 20
85.3606423295
 30
0.0
 10
33.8863480273
 20
85.2868482236
 30
0.0
 10
33.8378621173
 20
85.2211726269
 30
0.0
 10
33.8014565329
 20
85.1490737499
 30
0.0
 10
33.7652716579
 20
85.0463945656
 30
0.0
 10
33.7495821329
 20
84.9655657362
 30
0.0
 10
33.7418425061
 20
84.9111181729
 30
0.0
  0
SPLINE
  5
482
100
AcDbEntity
  8
0
100
AcDbSpline
 62
7
  6
CONTINUOUS
 70
0
 71
3
 72
10
 73
6
 74
0
 42
0.0000001
 43
0.0000001
 44
0.0000000001
 40
0.0
 40
0.0
 40
0.0
 40
0.0
 40
0.508073888
 40
0.7573437571
 40
1.0
 40
1.0
 40
1.0
 40
1.0
 10
34.6856596626
 20
84.1886276093
 30
0.0
 10
34.6472832115
 20
84.309473205
 30
0.0
 10
34.5891587082
 20
84.4893907106
 30
0.0
 10
34.5249978944
 20
84.7306147003
 30
0.0
 10
34.5008051431
 20
84.8511645019
 30
0.0
 10
34.4922833702
 20
84.9111181628
 30
0.0
  0
SPLINE
  5
483
100
AcDbEntity
  8
0
100
AcDbSpline
 62
7
  6
CONTINUOUS
 70
0
 71
3
 72
9
 73
5
 74
0
 42
0.0000001
 43
0.0000001
 44
0.0000000001
 40
0.0
 40
0.0
 40
0.0
 40
0.0
 40
0.277120749
 40
1.0
 40
1.0
 40
1.0
 40
1.0
 10
27.9732006829
 20
36.8924066564
 30
0.0
 10
27.9781564016
 20
36.8978503892
 30
0.0
 10
27.9948760727
 20
36.9182230886
 30
0.0
 10
28.0068203913
 20
36.9446185441
 30
0.0
 10
28.006537719
 20
36.9638194958
 30
0.0
  0
SPLINE
  5
484
100
AcDbEntity
  8
0
100
AcDbSpline
 62
7
  6
CONTINUOUS
 70
0
 71
3
 72
10
 73
6
 74
0
 42
0.0000001
 43
0.0000001
 44
0.0000000001
 40
0.0
 40
0.0
 40
0.0
 40
0.0
 40
0.2422646312
 40
0.4911637961
 40
1.0
 40
1.0
 40
1.0
 40
1.0
 10
35.8199797704
 20
84.9111181729
 30
0.0
 10
35.8139233625
 20
84.8512320823
 30
0.0
 10
35.7939794785
 20
84.7305967346
 30
0.0
 10
35.7357729769
 20
84.4889634157
 30
0.0
 10
35.6794622253
 20
84.3091746188
 30
0.0
 10
35.6412960688
 20
84.1886510308
 30
0.0
  0
SPLINE
  5
485
100
AcDbEntity
  8
0
100
AcDbSpline
 62
7
  6
CONTINUOUS
 70
0
 71
3
 72
20
 73
16
 74
0
 42
0.0000001
 43
0.0000001
 44
0.0000000001
 40
0.0
 40
0.0
 40
0.0
 40
0.0
 40
0.1256016235
 40
0.2492146943
 40
0.3117545331
 40
0.3759005186
 40
0.4423623711
 40
0.510190318
 40
0.5764004559
 40
0.6391558975
 40
0.6989954467
 40
0.7577678555
 40
0.81678084
 40
0.876667046
 40
1.0
 40
1.0
 40
1.0
 40
1.0
 10
36.5663096401
 20
84.9111181615
 30
0.0
 10
36.5563871386
 20
84.9657605847
 30
0.0
 10
36.5307150493
 20
85.0732985923
 30
0.0
 10
36.4720667207
 20
85.1999352796
 30
0.0
 10
36.4027106955
 20
85.2869792574
 30
0.0
 10
36.335805079
 20
85.3413498173
 30
0.0
 10
36.2553089971
 20
85.3785626745
 30
0.0
 10
36.1664978585
 20
85.3933006767
 30
0.0
 10
36.079104237
 20
85.3792324453
 30
0.0
 10
36.0032331147
 20
85.3416437526
 30
0.0
 10
35.9435616584
 20
85.2866591963
 30
0.0
 10
35.8996684603
 20
85.2208851753
 30
0.0
 10
35.867775777
 20
85.148786168
 30
0.0
 10
35.8373124439
 20
85.0458919153
 30
0.0
 10
35.8254667925
 20
84.9653743339
 30
0.0
 10
35.8199797513
 20
84.9111181729
 30
0.0
  0
LINE
  5
486
100
AcDbEntity
  8
0
100
AcDbLine
 62
7
  6
CONTINUOUS
 10
36.7149330428
 20
84.009003879
 11
36.7722690573
 21
84.1886276093
  0
SPLINE
  5
487
100
AcDbEntity
  8
0
100
AcDbSpline
 62
7
  6
CONTINUOUS
 70
0
 71
3
 72
10
 73
6
 74
0
 42
0.0000001
 43
0.0000001
 44
0.0000000001
 40
0.0
 40
0.0
 40
0.0
 40
0.0
 40
0.5070325848
 40
0.7567041614
 40
1.0
 40
1.0
 40
1.0
 40
1.0
 10
36.7722690573
 20
84.1886276093
 30
0.0
 10
36.7341130038
 20
84.3098098313
 30
0.0
 10
36.6747325276
 20
84.4899176569
 30
0.0
 10
36.6053672769
 20
84.7307211222
 30
0.0
 10
36.5772016967
 20
84.8511363802
 30
0.0
 10
36.5663096225
 20
84.9111181627
 30
0.0
  0
SPLINE
  5
488
100
AcDbEntity
  8
0
100
AcDbSpline
 62
7
  6
CONTINUOUS
 70
0
 71
3
 72
12
 73
8
 74
0
 42
0.0000001
 43
0.0000001
 44
0.0000000001
 40
0.0
 40
0.0
 40
0.0
 40
0.0
 40
0.2828149305
 40
0.5521116253
 40
0.7950637522
 40
0.9030153217
 40
1.0
 40
1.0
 40
1.0
 40
1.0
 10
28.0838216957
 20
40.0373074361
 30
0.0
 10
28.0838216957
 20
39.7474499001
 30
0.0
 10
28.077744167
 20
39.1815713072
 30
0.0
 10
28.0528779038
 20
38.3670508493
 30
0.0
 10
28.0247725617
 20
37.7320182326
 30
0.0
 10
28.0078034824
 20
37.2732965967
 30
0.0
 10
28.0050745358
 20
37.063208499
 30
0.0
 10
28.006537719
 20
36.9638194958
 30
0.0
  0
SPLINE
  5
489
100
AcDbEntity
  8
0
100
AcDbSpline
 62
7
  6
CONTINUOUS
 70
0
 71
3
 72
9
 73
5
 74
0
 42
0.0000001
 43
0.0000001
 44
0.0000000001
 40
0.0
 40
0.0
 40
0.0
 40
0.0
 40
0.2282763963
 40
1.0
 40
1.0
 40
1.0
 40
1.0
 10
40.2275881757
 20
36.9638194958
 30
0.0
 10
40.2274985824
 20
36.9577337292
 30
0.0
 10
40.2310209137
 20
36.9309618379
 30
0.0
 10
40.2470737159
 20
36.9076221773
 30
0.0
 10
40.2609252118
 20
36.8924066564
 30
0.0
  0
SPLINE
  5
48A
100
AcDbEntity
  8
0
100
AcDbSpline
 62
7
  6
CONTINUOUS
 70
0
 71
3
 72
12
 73
8
 74
0
 42
0.0000001
 43
0.0000001
 44
0.0000000001
 40
0.0
 40
0.0
 40
0.0
 40
0.0
 40
0.2828142731
 40
0.5521105431
 40
0.7950630709
 40
0.9030151595
 40
1.0
 40
1.0
 40
1.0
 40
1.0
 10
40.150304199
 20
40.0373074361
 30
0.0
 10
40.150304199
 20
39.7474506277
 30
0.0
 10
40.1563989086
 20
39.1815734676
 30
0.0
 10
40.1812420171
 20
38.3670534594
 30
0.0
 10
40.2093115533
 20
37.7320188468
 30
0.0
 10
40.2263096231
 20
37.2732974561
 30
0.0
 10
40.2290513612
 20
37.0632086468
 30
0.0
 10
40.2275881757
 20
36.9638194958
 30
0.0
  0
SPLINE
  5
48B
100
AcDbEntity
  8
0
100
AcDbSpline
 62
7
  6
CONTINUOUS
 70
0
 71
3
 72
10
 73
6
 74
0
 42
0.0000001
 43
0.0000001
 44
0.0000000001
 40
0.0
 40
0.0
 40
0.0
 40
0.0
 40
0.2421481711
 40
0.4907176812
 40
1.0
 40
1.0
 40
1.0
 40
1.0
 10
37.8794595031
 20
84.911118173
 30
0.0
 10
37.8759301917
 20
84.8513328134
 30
0.0
 10
37.8604871961
 20
84.7306572991
 30
0.0
 10
37.8088887514
 20
84.488637829
 30
0.0
 10
37.7549790509
 20
84.30888425
 30
0.0
 10
37.7174353331
 20
84.1886510308
 30
0.0
  0
SPLINE
  5
48C
100
AcDbEntity
  8
0
100
AcDbSpline
 62
7
  6
CONTINUOUS
 70
0
 71
3
 72
20
 73
16
 74
0
 42
0.0000001
 43
0.0000001
 44
0.0000000001
 40
0.0
 40
0.0
 40
0.0
 40
0.0
 40
0.1275231298
 40
0.2541746123
 40
0.3186111243
 40
0.3846417664
 40
0.4523936527
 40
0.5202149794
 40
0.5848784098
 40
0.6452350175
 40
0.7027448243
 40
0.7597740742
 40
0.817661683
 40
0.876924987
 40
1.0
 40
1.0
 40
1.0
 40
1.0
 10
38.6135014323
 20
84.9111181615
 30
0.0
 10
38.6014913444
 20
84.9659480057
 30
0.0
 10
38.5711028073
 20
85.0740581369
 30
0.0
 10
38.5062007399
 20
85.200244232
 30
0.0
 10
38.4325831401
 20
85.2869499262
 30
0.0
 10
38.3632366578
 20
85.3411034833
 30
0.0
 10
38.2817238911
 20
85.3782692323
 30
0.0
 10
38.1935205151
 20
85.3932982657
 30
0.0
 10
38.1081608716
 20
85.3794875354
 30
0.0
 10
38.0357516223
 20
85.3416873354
 30
0.0
 10
37.9807546365
 20
85.2863528885
 30
0.0
 10
37.9419297035
 20
85.2205030656
 30
0.0
 10
37.9149417372
 20
85.1484582776
 30
0.0
 10
37.8905571015
 20
85.0453793639
 30
0.0
 10
37.8826518602
 20
84.9651959676
 30
0.0
 10
37.8794594837
 20
84.911118173
 30
0.0
  0
SPLINE
  5
48D
100
AcDbEntity
  8
0
100
AcDbSpline
 62
7
  6
CONTINUOUS
 70
0
 71
3
 72
10
 73
6
 74
0
 42
0.0000001
 43
0.0000001
 44
0.0000000001
 40
0.0
 40
0.0
 40
0.0
 40
0.0
 40
0.5057630571
 40
0.7558473849
 40
1.0
 40
1.0
 40
1.0
 40
1.0
 10
38.8297874583
 20
84.1886276092
 30
0.0
 10
38.7922724101
 20
84.3101478554
 30
0.0
 10
38.732244107
 20
84.4905130185
 30
0.0
 10
38.658445711
 20
84.730900532
 30
0.0
 10
38.6266380191
 20
84.8511454196
 30
0.0
 10
38.6135014157
 20
84.9111181627
 30
0.0
  0
SPLINE
  5
48E
100
AcDbEntity
  8
0
100
AcDbSpline
 62
7
  6
CONTINUOUS
 70
0
 71
3
 72
10
 73
6
 74
0
 42
0.0000001
 43
0.0000001
 44
0.0000000001
 40
0.0
 40
0.0
 40
0.0
 40
0.0
 40
0.272304864
 40
0.5341364664
 40
1.0
 40
1.0
 40
1.0
 40
1.0
 10
40.4419362947
 20
36.1954100549
 30
0.0
 10
40.4419362947
 20
36.2618200831
 30
0.0
 10
40.4378527122
 20
36.3925210842
 30
0.0
 10
40.4048528143
 20
36.6329530867
 30
0.0
 10
40.3374092015
 20
36.8083909116
 30
0.0
 10
40.2609252118
 20
36.8924066564
 30
0.0
  0
SPLINE
  5
48F
100
AcDbEntity
  8
0
100
AcDbSpline
 62
7
  6
CONTINUOUS
 70
0
 71
3
 72
10
 73
6
 74
0
 42
0.0000001
 43
0.0000001
 44
0.0000000001
 40
0.0
 40
0.0
 40
0.0
 40
0.0
 40
0.2423195589
 40
0.4906174097
 40
1.0
 40
1.0
 40
1.0
 40
1.0
 10
39.8977176319
 20
84.9111181729
 30
0.0
 10
39.8967470428
 20
84.8514635758
 30
0.0
 10
39.8859910264
 20
84.7308036417
 30
0.0
 10
39.8416028221
 20
84.4884421342
 30
0.0
 10
39.7906532445
 20
84.3086318072
 30
0.0
 10
39.7541281642
 20
84.1886510308
 30
0.0
  0
SPLINE
  5
490
100
AcDbEntity
  8
0
100
AcDbSpline
 62
7
  6
CONTINUOUS
 70
0
 71
3
 72
20
 73
16
 74
0
 42
0.0000001
 43
0.0000001
 44
0.0000000001
 40
0.0
 40
0.0
 40
0.0
 40
0.0
 40
0.1298993566
 40
0.2598459229
 40
0.3261341851
 40
0.3938271922
 40
0.462463005
 40
0.5297451872
 40
0.5923388877
 40
0.6499606692
 40
0.7050871449
 40
0.7605441396
 40
0.8175913121
 40
0.8765545976
 40
1.0
 40
1.0
 40
1.0
 40
1.0
 10
40.6114293036
 20
84.9111181615
 30
0.0
 10
40.5974534392
 20
84.9661197328
 30
0.0
 10
40.5626762016
 20
85.0746689675
 30
0.0
 10
40.4923370587
 20
85.2003922376
 30
0.0
 10
40.415261301
 20
85.2868421835
 30
0.0
 10
40.3442487295
 20
85.340809776
 30
0.0
 10
40.2625795149
 20
85.3779530097
 30
0.0
 10
40.1758854656
 20
85.3932948714
 30
0.0
 10
40.0933742961
 20
85.3797364434
 30
0.0
 10
40.0251797921
 20
85.3416159442
 30
0.0
 10
39.9755730697
 20
85.2858914167
 30
0.0
 10
39.9423129426
 20
85.2200371908
 30
0.0
 10
39.9205348565
 20
85.1481044408
 30
0.0
 10
39.9025201095
 20
85.0448877749
 30
0.0
 10
39.8985949431
 20
84.965040911
 30
0.0
 10
39.8977176122
 20
84.9111181729
 30
0.0
  0
SPLINE
  5
491
100
AcDbEntity
  8
0
100
AcDbSpline
 62
7
  6
CONTINUOUS
 70
0
 71
3
 72
10
 73
6
 74
0
 42
0.0000001
 43
0.0000001
 44
0.0000000001
 40
0.0
 40
0.0
 40
0.0
 40
0.0
 40
0.5043210201
 40
0.7548135625
 40
1.0
 40
1.0
 40
1.0
 40
1.0
 10
40.8356722633
 20
84.1886276093
 30
0.0
 10
40.7992179436
 20
84.3104743283
 30
0.0
 10
40.7391604094
 20
84.4911527527
 30
0.0
 10
40.6617385828
 20
84.7311426845
 30
0.0
 10
40.6266570459
 20
84.851189805
 30
0.0
 10
40.6114292882
 20
84.9111181628
 30
0.0
  0
SPLINE
  5
492
100
AcDbEntity
  8
0
100
AcDbSpline
 62
7
  6
CONTINUOUS
 70
0
 71
3
 72
9
 73
5
 74
0
 42
0.0000001
 43
0.0000001
 44
0.0000000001
 40
0.0
 40
0.0
 40
0.0
 40
0.0
 40
0.2503499083
 40
1.0
 40
1.0
 40
1.0
 40
1.0
 10
15.2793322567
 20
84.1886735239
 30
0.0
 10
15.2774292677
 20
84.2064768402
 30
0.0
 10
15.2704384954
 20
84.277655525
 30
0.0
 10
15.267637285
 20
84.3492357566
 30
0.0
 10
15.267637285
 20
84.4028498532
 30
0.0
  0
SPLINE
  5
493
100
AcDbEntity
  8
0
100
AcDbSpline
 62
7
  6
CONTINUOUS
 70
0
 71
3
 72
10
 73
6
 74
0
 42
0.0000001
 43
0.0000001
 44
0.0000000001
 40
0.0
 40
0.0
 40
0.0
 40
0.0
 40
0.2431502418
 40
0.4914121739
 40
1.0
 40
1.0
 40
1.0
 40
1.0
 10
41.8530643134
 20
84.8790215788
 30
0.0
 10
41.8530643134
 20
84.8220052495
 30
0.0
 10
41.8452878779
 20
84.7067403556
 30
0.0
 10
41.8081797589
 20
84.4750162376
 30
0.0
 10
41.7626208519
 20
84.3030881919
 30
0.0
 10
41.7290608123
 20
84.1886487322
 30
0.0
  0
SPLINE
  5
494
100
AcDbEntity
  8
0
100
AcDbSpline
 62
7
  6
CONTINUOUS
 70
0
 71
3
 72
20
 73
16
 74
0
 42
0.0000001
 43
0.0000001
 44
0.0000000001
 40
0.0
 40
0.0
 40
0.0
 40
0.0
 40
0.1434456602
 40
0.2877719877
 40
0.4330738143
 40
0.5054494645
 40
0.5761779878
 40
0.643055237
 40
0.7031913324
 40
0.754916441
 40
0.8004004118
 40
0.8448341138
 40
0.8922516114
 40
0.9440274493
 40
1.0
 40
1.0
 40
1.0
 40
1.0
 10
20.5483483733
 20
84.9111181729
 30
0.0
 10
20.5641223098
 20
84.9545571913
 30
0.0
 10
20.6003309324
 20
85.0401718486
 30
0.0
 10
20.6709962585
 20
85.160972889
 30
0.0
 10
20.7458820377
 20
85.2513900787
 30
0.0
 10
20.8159432126
 20
85.3127158163
 30
0.0
 10
20.8722787242
 20
85.350572793
 30
0.0
 10
20.9303802204
 20
85.3775210288
 30
0.0
 10
20.9870095296
 20
85.3906344457
 30
0.0
 10
21.0386699878
 20
85.3873369987
 30
0.0
 10
21.0805944551
 20
85.3659181212
 30
0.0
 10
21.1086918027
 20
85.3303664108
 30
0.0
 10
21.1250318451
 20
85.2865935418
 30
0.0
 10
21.1331250158
 20
85.2370737428
 30
0.0
 10
21.1344508202
 20
85.2023228144
 30
0.0
 10
21.1344508202
 20
85.1842899608
 30
0.0
  0
SPLINE
  5
495
100
AcDbEntity
  8
0
100
AcDbSpline
 62
7
  6
CONTINUOUS
 70
0
 71
3
 72
19
 73
15
 74
0
 42
0.0000001
 43
0.0000001
 44
0.0000000001
 40
0.0
 40
0.0
 40
0.0
 40
0.0
 40
0.0291349798
 40
0.0408239596
 40
0.0515703798
 40
0.0754203109
 40
0.1095772727
 40
0.1821414626
 40
0.2758790718
 40
0.3838350931
 40
0.5005556756
 40
0.6224846248
 40
0.7470255294
 40
1.0
 40
1.0
 40
1.0
 40
1.0
 10
15.4959326215
 20
85.3613909102
 30
0.0
 10
15.4959326215
 20
85.3666314642
 30
0.0
 10
15.4952250089
 20
85.3741903235
 30
0.0
 10
15.4908631061
 20
85.3825148423
 30
0.0
 10
15.4844889376
 20
85.3882616722
 30
0.0
 10
15.471177128
 20
85.3893163331
 30
0.0
 10
15.4490781126
 20
85.3810125194
 30
0.0
 10
15.418424866
 20
85.3615543723
 30
0.0
 10
15.3805623885
 20
85.3298448447
 30
0.0
 10
15.3402639473
 20
85.2890279337
 30
0.0
 10
15.3001034758
 20
85.2412811765
 30
0.0
 10
15.2611156798
 20
85.1888190984
 30
0.0
 10
15.2114292705
 20
85.1139381152
 30
0.0
 10
15.1783432086
 20
85.0544689536
 30
0.0
 10
15.1581151376
 20
85.0137094155
 30
0.0
  0
SPLINE
  5
496
100
AcDbEntity
  8
0
100
AcDbSpline
 62
7
  6
CONTINUOUS
 70
0
 71
3
 72
9
 73
5
 74
0
 42
0.0000001
 43
0.0000001
 44
0.0000000001
 40
0.0
 40
0.0
 40
0.0
 40
0.0
 40
0.5064435479
 40
1.0
 40
1.0
 40
1.0
 40
1.0
 10
15.111798396
 20
84.9111181729
 30
0.0
 10
15.0639341788
 20
84.7943383527
 30
0.0
 10
14.9830159439
 20
84.5577463927
 30
0.0
 10
14.9390461813
 20
84.3111427605
 30
0.0
 10
14.9279125932
 20
84.1886510272
 30
0.0
  0
SPLINE
  5
497
100
AcDbEntity
  8
0
100
AcDbSpline
 62
7
  6
CONTINUOUS
 70
0
 71
3
 72
18
 73
14
 74
0
 42
0.0000001
 43
0.0000001
 44
0.0000000001
 40
0.0
 40
0.0
 40
0.0
 40
0.0
 40
0.2652780516
 40
0.4018458054
 40
0.4715581312
 40
0.5391561323
 40
0.6020917103
 40
0.6586880767
 40
0.7119316323
 40
0.7653094863
 40
0.8204901693
 40
0.878068277
 40
1.0
 40
1.0
 40
1.0
 40
1.0
 10
42.5382035381
 20
84.9111181614
 30
0.0
 10
42.5081189763
 20
85.0161743858
 30
0.0
 10
42.4419911994
 20
85.1735652281
 30
0.0
 10
42.302171087
 20
85.3134130386
 30
0.0
 10
42.2026940356
 20
85.368406971
 30
0.0
 10
42.1221133579
 20
85.390154415
 30
0.0
 10
42.0437042087
 20
85.3880599229
 30
0.0
 10
41.9759915856
 20
85.3613377278
 30
0.0
 10
41.9256287875
 20
85.3147350458
 30
0.0
 10
41.8925290431
 20
85.2560718901
 30
0.0
 10
41.8712182271
 20
85.1907353839
 30
0.0
 10
41.854432522
 20
85.0953129113
 30
0.0
 10
41.8517958089
 20
85.0211255829
 30
0.0
 10
41.8517958089
 20
84.9708968821
 30
0.0
  0
SPLINE
  5
498
100
AcDbEntity
  8
0
100
AcDbSpline
 62
7
  6
CONTINUOUS
 70
0
 71
3
 72
10
 73
6
 74
0
 42
0.0000001
 43
0.0000001
 44
0.0000000001
 40
0.0
 40
0.0
 40
0.0
 40
0.0
 40
0.5027663442
 40
0.7536473574
 40
1.0
 40
1.0
 40
1.0
 40
1.0
 10
42.7679465786
 20
84.1886276093
 30
0.0
 10
42.7329667033
 20
84.3107765211
 30
0.0
 10
42.6735055009
 20
84.4918124381
 30
0.0
 10
42.5932990716
 20
84.7314355597
 30
0.0
 10
42.5553432172
 20
84.8512658217
 30
0.0
 10
42.538203524
 20
84.9111181627
 30
0.0
  0
SPLINE
  5
499
100
AcDbEntity
  8
0
100
AcDbSpline
 62
7
  6
CONTINUOUS
 70
0
 71
3
 72
9
 73
5
 74
0
 42
0.0000001
 43
0.0000001
 44
0.0000000001
 40
0.0
 40
0.0
 40
0.0
 40
0.0
 40
0.4923509138
 40
1.0
 40
1.0
 40
1.0
 40
1.0
 10
43.725686061
 20
84.8256485631
 30
0.0
 10
43.725686061
 20
84.7194570269
 30
0.0
 10
43.7013872445
 20
84.5037802694
 30
0.0
 10
43.6500066481
 20
84.2941133126
 30
0.0
 10
43.6205947258
 20
84.1886465558
 30
0.0
  0
SPLINE
  5
49A
100
AcDbEntity
  8
0
100
AcDbSpline
 62
7
  6
CONTINUOUS
 70
0
 71
3
 72
21
 73
17
 74
0
 42
0.0000001
 43
0.0000001
 44
0.0000000001
 40
0.0
 40
0.0
 40
0.0
 40
0.0
 40
0.0181818082
 40
0.0254415039
 40
0.0338529999
 40
0.0449234428
 40
0.059309895
 40
0.0978850454
 40
0.1480140384
 40
0.2074524441
 40
0.2742013996
 40
0.3462981926
 40
0.5011212444
 40
0.6641070669
 40
0.8310879379
 40
1.0
 40
1.0
 40
1.0
 40
1.0
 10
14.9541109327
 20
85.376422059
 30
0.0
 10
14.9541109327
 20
85.3796685235
 30
0.0
 10
14.953510726
 20
85.3848434432
 30
0.0
 10
14.9482579186
 20
85.3884775276
 30
0.0
 10
14.9433188707
 20
85.3886752542
 30
0.0
 10
14.9374607029
 20
85.3870278873
 30
0.0
 10
14.9271522392
 20
85.3819901751
 30
0.0
 10
14.9120908053
 20
85.3712711097
 30
0.0
 10
14.8920209179
 20
85.3540305678
 30
0.0
 10
14.8695040901
 20
85.3319952598
 30
0.0
 10
14.8454705089
 20
85.3059819211
 30
0.0
 10
14.8116919214
 20
85.2658527702
 30
0.0
 10
14.77025974
 20
85.2098185366
 30
0.0
 10
14.7232392219
 20
85.1370842247
 30
0.0
 10
14.6794054026
 20
85.0594773887
 30
0.0
 10
14.6530360793
 20
85.0055674417
 30
0.0
 10
14.6405198733
 20
84.9781269173
 30
0.0
  0
SPLINE
  5
49B
100
AcDbEntity
  8
0
100
AcDbSpline
 62
7
  6
CONTINUOUS
 70
0
 71
3
 72
19
 73
15
 74
0
 42
0.0000001
 43
0.0000001
 44
0.0000000001
 40
0.0
 40
0.0
 40
0.0
 40
0.0
 40
0.1359627209
 40
0.2728167344
 40
0.4120162168
 40
0.482490663
 40
0.5511453475
 40
0.6154364004
 40
0.6727542693
 40
0.7246123952
 40
0.7750006969
 40
0.8270561205
 40
0.8819142609
 40
1.0
 40
1.0
 40
1.0
 40
1.0
 10
44.3727139938
 20
84.9111181615
 30
0.0
 10
44.3571971167
 20
84.9602981943
 30
0.0
 10
44.3201983495
 20
85.0573449929
 30
0.0
 10
44.2414097296
 20
85.1932404048
 30
0.0
 10
44.1508022002
 20
85.2908482364
 30
0.0
 10
44.0628329137
 20
85.3500493761
 30
0.0
 10
43.9912664593
 20
85.3805180661
 30
0.0
 10
43.9190659966
 20
85.3917224972
 30
0.0
 10
43.8527033288
 20
85.3817949164
 30
0.0
 10
43.7990363227
 20
85.3505785201
 30
0.0
 10
43.7622172058
 20
85.303749046
 30
0.0
 10
43.7387289187
 20
85.2484210891
 30
0.0
 10
43.7199902907
 20
85.1648675457
 30
0.0
 10
43.7170629474
 20
85.0989207879
 30
0.0
 10
43.7170629474
 20
85.0541315733
 30
0.0
  0
SPLINE
  5
49C
100
AcDbEntity
  8
0
100
AcDbSpline
 62
7
  6
CONTINUOUS
 70
0
 71
3
 72
9
 73
5
 74
0
 42
0.0000001
 43
0.0000001
 44
0.0000000001
 40
0.0
 40
0.0
 40
0.0
 40
0.0
 40
0.5064387187
 40
1.0
 40
1.0
 40
1.0
 40
1.0
 10
14.6116682729
 20
84.911118173
 30
0.0
 10
14.564407928
 20
84.7947092354
 30
0.0
 10
14.4874306954
 20
84.5576934859
 30
0.0
 10
14.4509586998
 20
84.3108836025
 30
0.0
 10
14.443799002
 20
84.1886510272
 30
0.0
  0
SPLINE
  5
49D
100
AcDbEntity
  8
0
100
AcDbSpline
 62
7
  6
CONTINUOUS
 70
0
 71
3
 72
10
 73
6
 74
0
 42
0.0000001
 43
0.0000001
 44
0.0000000001
 40
0.0
 40
0.0
 40
0.0
 40
0.0
 40
0.5011608412
 40
0.752396672
 40
1.0
 40
1.0
 40
1.0
 40
1.0
 10
44.6054400026
 20
84.1886276094
 30
0.0
 10
44.5723363924
 20
84.3110420729
 30
0.0
 10
44.5140992661
 20
84.492467478
 30
0.0
 10
44.4319691645
 20
84.7317664409
 30
0.0
 10
44.3915655015
 20
84.8513691312
 30
0.0
 10
44.3727139813
 20
84.9111181628
 30
0.0
  0
SPLINE
  5
49E
100
AcDbEntity
  8
0
100
AcDbSpline
 62
7
  6
CONTINUOUS
 70
0
 71
3
 72
9
 73
5
 74
0
 42
0.0000001
 43
0.0000001
 44
0.0000000001
 40
0.0
 40
0.0
 40
0.0
 40
0.0
 40
0.2454234931
 40
1.0
 40
1.0
 40
1.0
 40
1.0
 10
45.4952233086
 20
84.7701923526
 30
0.0
 10
45.4952233086
 20
84.7220015879
 30
0.0
 10
45.4855510038
 20
84.5256079871
 30
0.0
 10
45.4454822999
 20
84.3319940316
 30
0.0
 10
45.4080056908
 20
84.1886451188
 30
0.0
  0
SPLINE
  5
49F
100
AcDbEntity
  8
0
100
AcDbSpline
 62
7
  6
CONTINUOUS
 70
0
 71
3
 72
18
 73
14
 74
0
 42
0.0000001
 43
0.0000001
 44
0.0000000001
 40
0.0
 40
0.0
 40
0.0
 40
0.0
 40
0.1395394326
 40
0.2799966754
 40
0.4222250606
 40
0.5629242529
 40
0.6287093918
 40
0.6873680823
 40
0.7388241555
 40
0.7864389262
 40
0.8348536881
 40
0.8864560196
 40
1.0
 40
1.0
 40
1.0
 40
1.0
 10
46.0948613908
 20
84.9111181615
 30
0.0
 10
46.0791247254
 20
84.9572420208
 30
0.0
 10
46.0428205668
 20
85.0483756823
 30
0.0
 10
45.9674668673
 20
85.1759441546
 30
0.0
 10
45.8700745873
 20
85.2883909892
 30
0.0
 10
45.7677327548
 20
85.3587968023
 30
0.0
 10
45.6788150176
 20
85.3871371101
 30
0.0
 10
45.6165665182
 20
85.3904972334
 30
0.0
 10
45.56243714
 20
85.374227885
 30
0.0
 10
45.5222432982
 20
85.3399262533
 30
0.0
 10
45.4964423259
 20
85.2944418256
 30
0.0
 10
45.4758915778
 20
85.2223238708
 30
0.0
 10
45.4727679932
 20
85.1641440083
 30
0.0
 10
45.4727679932
 20
85.1244884729
 30
0.0
  0
SPLINE
  5
4A0
100
AcDbEntity
  8
0
100
AcDbSpline
 62
7
  6
CONTINUOUS
 70
0
 71
3
 72
10
 73
6
 74
0
 42
0.0000001
 43
0.0000001
 44
0.0000000001
 40
0.0
 40
0.0
 40
0.0
 40
0.0
 40
0.4995668063
 40
0.7511105998
 40
1.0
 40
1.0
 40
1.0
 40
1.0
 10
46.3280205728
 20
84.1886276093
 30
0.0
 10
46.2971773407
 20
84.31125954
 30
0.0
 10
46.2407903603
 20
84.4930941111
 30
0.0
 10
46.157609403
 20
84.7321217685
 30
0.0
 10
46.1152042249
 20
84.8514936804
 30
0.0
 10
46.0948613798
 20
84.9111181627
 30
0.0
  0
SPLINE
  5
4A1
100
AcDbEntity
  8
0
100
AcDbSpline
 62
7
  6
CONTINUOUS
 70
0
 71
3
 72
9
 73
5
 74
0
 42
0.0000001
 43
0.0000001
 44
0.0000000001
 40
0.0
 40
0.0
 40
0.0
 40
0.0
 40
0.2463431642
 40
1.0
 40
1.0
 40
1.0
 40
1.0
 10
47.1422886358
 20
84.7127227949
 30
0.0
 10
47.1422886358
 20
84.6692364827
 30
0.0
 10
47.1349373097
 20
84.4926883409
 30
0.0
 10
47.1029714597
 20
84.3179622036
 30
0.0
 10
47.0717100733
 20
84.188646117
 30
0.0
  0
SPLINE
  5
4A2
100
AcDbEntity
  8
0
100
AcDbSpline
 62
7
  6
CONTINUOUS
 70
0
 71
3
 72
9
 73
5
 74
0
 42
0.0000001
 43
0.0000001
 44
0.0000000001
 40
0.0
 40
0.0
 40
0.0
 40
0.0
 40
0.2502141381
 40
1.0
 40
1.0
 40
1.0
 40
1.0
 10
17.0565906809
 20
21.9961858935
 30
0.0
 10
17.3383743987
 20
22.2641466556
 30
0.0
 10
18.4761253884
 20
23.322614013
 30
0.0
 10
19.667928066
 20
24.3246970691
 30
0.0
 10
20.599414952
 20
25.0247496066
 30
0.0
  0
SPLINE
  5
4A3
100
AcDbEntity
  8
0
100
AcDbSpline
 62
7
  6
CONTINUOUS
 70
0
 71
3
 72
19
 73
15
 74
0
 42
0.0000001
 43
0.0000001
 44
0.0000000001
 40
0.0
 40
0.0
 40
0.0
 40
0.0
 40
0.1210377014
 40
0.2333196231
 40
0.2860457187
 40
0.336774153
 40
0.3864726555
 40
0.4370075527
 40
0.4908888938
 40
0.5502138125
 40
0.6156731095
 40
0.6865819406
 40
0.839389239
 40
1.0
 40
1.0
 40
1.0
 40
1.0
 10
15.8170629474
 20
22.2917423543
 30
0.0
 10
15.8170629474
 20
22.2157678999
 30
0.0
 10
15.8248642999
 20
22.0691687053
 30
0.0
 10
15.8634506776
 20
21.8922249066
 30
0.0
 10
15.9185431475
 20
21.7679590028
 30
0.0
 10
15.9725946219
 20
21.6876989683
 30
0.0
 10
16.0424417572
 20
21.6222134377
 30
0.0
 10
16.1293123021
 20
21.5767760473
 30
0.0
 10
16.2313543326
 20
21.5563622238
 30
0.0
 10
16.3442880633
 20
21.562563923
 30
0.0
 10
16.4637778324
 20
21.5935800115
 30
0.0
 10
16.6310413521
 20
21.6653634972
 30
0.0
 10
16.8344685053
 20
21.7978076101
 30
0.0
 10
16.9835349428
 20
21.9267139191
 30
0.0
 10
17.0565906809
 20
21.9961858935
 30
0.0
  0
SPLINE
  5
4A4
100
AcDbEntity
  8
0
100
AcDbSpline
 62
7
  6
CONTINUOUS
 70
0
 71
3
 72
9
 73
5
 74
0
 42
0.0000001
 43
0.0000001
 44
0.0000000001
 40
0.0
 40
0.0
 40
0.0
 40
0.0
 40
0.5000516102
 40
1.0
 40
1.0
 40
1.0
 40
1.0
 10
25.7418061304
 20
27.9885934014
 30
0.0
 10
26.3500604684
 20
28.3955312685
 30
0.0
 10
27.6012495829
 20
29.1592665978
 30
0.0
 10
28.9331505059
 20
29.7772796345
 30
0.0
 10
29.6170629474
 20
30.0373074361
 30
0.0
  0
SPLINE
  5
4A5
100
AcDbEntity
  8
0
100
AcDbSpline
 62
7
  6
CONTINUOUS
 70
0
 71
3
 72
10
 73
6
 74
0
 42
0.0000001
 43
0.0000001
 44
0.0000000001
 40
0.0
 40
0.0
 40
0.0
 40
0.0
 40
0.4994548
 40
0.7496435094
 40
1.0
 40
1.0
 40
1.0
 40
1.0
 10
25.7418061304
 20
27.9885933777
 30
0.0
 10
24.9528786685
 20
27.6830248015
 30
0.0
 10
23.8043460926
 20
27.1285232352
 30
0.0
 10
22.3520724692
 20
26.2561001671
 30
0.0
 10
21.6484814502
 20
25.7820941963
 30
0.0
 10
21.30217694
 20
25.5373074361
 30
0.0
  0
SPLINE
  5
4A6
100
AcDbEntity
  8
0
100
AcDbSpline
 62
7
  6
CONTINUOUS
 70
0
 71
3
 72
20
 73
16
 74
0
 42
0.0000001
 43
0.0000001
 44
0.0000000001
 40
0.0
 40
0.0
 40
0.0
 40
0.0
 40
0.143443163
 40
0.2877674387
 40
0.433067478
 40
0.5054428431
 40
0.576169784
 40
0.6430435901
 40
0.70317473
 40
0.7548945194
 40
0.8003747889
 40
0.8448079852
 40
0.8922237165
 40
0.9440082545
 40
1.0
 40
1.0
 40
1.0
 40
1.0
 10
47.6857775214
 20
84.9111181617
 30
0.0
 10
47.6700041102
 20
84.954559546
 30
0.0
 10
47.6337916878
 20
85.040177354
 30
0.0
 10
47.5631227797
 20
85.160983799
 30
0.0
 10
47.4882311613
 20
85.2514040872
 30
0.0
 10
47.4181642878
 20
85.31273028
 30
0.0
 10
47.3618246837
 20
85.3505857388
 30
0.0
 10
47.3037204278
 20
85.3775298386
 30
0.0
 10
47.2470904213
 20
85.3906374789
 30
0.0
 10
47.195431536
 20
85.3873311147
 30
0.0
 10
47.1535119179
 20
85.3659026684
 30
0.0
 10
47.1254229354
 20
85.3303438429
 30
0.0
 10
47.1090851289
 20
85.2865651983
 30
0.0
 10
47.1009980196
 20
85.237032465
 30
0.0
 10
47.0996750746
 20
85.2022705235
 30
0.0
 10
47.0996750746
 20
85.1842303737
 30
0.0
  0
SPLINE
  5
4A7
100
AcDbEntity
  8
0
100
AcDbSpline
 62
7
  6
CONTINUOUS
 70
0
 71
3
 72
12
 73
8
 74
0
 42
0.0000001
 43
0.0000001
 44
0.0000000001
 40
0.0
 40
0.0
 40
0.0
 40
0.0
 40
0.2493954805
 40
0.3743190758
 40
0.499330779
 40
0.7495378868
 40
1.0
 40
1.0
 40
1.0
 40
1.0
 10
42.4923197641
 20
27.9885933707
 30
0.0
 10
43.3151023408
 20
27.6699119887
 30
0.0
 10
44.5113620922
 20
27.0874800341
 30
0.0
 10
46.0203234925
 20
26.1682372657
 30
0.0
 10
47.4812880718
 20
25.1684922414
 30
0.0
 10
49.2212977674
 20
23.796109441
 30
0.0
 10
50.5354042287
 20
22.6068170168
 30
0.0
 10
51.1775352139
 20
21.9961858936
 30
0.0
  0
SPLINE
  5
4A8
100
AcDbEntity
  8
0
100
AcDbSpline
 62
7
  6
CONTINUOUS
 70
0
 71
3
 72
9
 73
5
 74
0
 42
0.0000001
 43
0.0000001
 44
0.0000000001
 40
0.0
 40
0.0
 40
0.0
 40
0.0
 40
0.4999483898
 40
1.0
 40
1.0
 40
1.0
 40
1.0
 10
38.6170629474
 20
30.0373074361
 30
0.0
 10
39.3009753912
 20
29.7772796336
 30
0.0
 10
40.6328763253
 20
29.1592666042
 30
0.0
 10
41.8840654213
 20
28.3955312352
 30
0.0
 10
42.4923197641
 20
27.9885933707
 30
0.0
  0
SPLINE
  5
4A9
100
AcDbEntity
  8
0
100
AcDbSpline
 62
7
  6
CONTINUOUS
 70
0
 71
3
 72
10
 73
6
 74
0
 42
0.0000001
 43
0.0000001
 44
0.0000000001
 40
0.0
 40
0.0
 40
0.0
 40
0.0
 40
0.498045342
 40
0.7498387423
 40
1.0
 40
1.0
 40
1.0
 40
1.0
 10
47.9168153359
 20
84.1886276093
 30
0.0
 10
47.8885920689
 20
84.3114185632
 30
0.0
 10
47.8346741903
 20
84.4936691875
 30
0.0
 10
47.7513203599
 20
84.7324881017
 30
0.0
 10
47.7073761488
 20
84.8516335869
 30
0.0
 10
47.6857775122
 20
84.9111181627
 30
0.0
  0
SPLINE
  5
4AA
100
AcDbEntity
  8
0
100
AcDbSpline
 62
7
  6
CONTINUOUS
 70
0
 71
3
 72
9
 73
5
 74
0
 42
0.0000001
 43
0.0000001
 44
0.0000000001
 40
0.0
 40
0.0
 40
0.0
 40
0.0
 40
0.2471583421
 40
1.0
 40
1.0
 40
1.0
 40
1.0
 10
48.6488364503
 20
84.6534295372
 30
0.0
 10
48.6488364503
 20
84.6148212541
 30
0.0
 10
48.6433642714
 20
84.4586055468
 30
0.0
 10
48.6186971794
 20
84.3035093598
 30
0.0
 10
48.5934813349
 20
84.1886441387
 30
0.0
  0
SPLINE
  5
4AB
100
AcDbEntity
  8
0
100
AcDbSpline
 62
7
  6
CONTINUOUS
 70
0
 71
3
 72
19
 73
15
 74
0
 42
0.0000001
 43
0.0000001
 44
0.0000000001
 40
0.0
 40
0.0
 40
0.0
 40
0.0
 40
0.1210377086
 40
0.2333196593
 40
0.2860457644
 40
0.3367742152
 40
0.3864727366
 40
0.4370076376
 40
0.4908889744
 40
0.5502138853
 40
0.6156731577
 40
0.6865819782
 40
0.8393892583
 40
1.0
 40
1.0
 40
1.0
 40
1.0
 10
52.4170629474
 20
22.2917423544
 30
0.0
 10
52.4170629474
 20
22.2157678957
 30
0.0
 10
52.4092615933
 20
22.0691686794
 30
0.0
 10
52.3706752044
 20
21.8922248516
 30
0.0
 10
52.3155827019
 20
21.767958926
 30
0.0
 10
52.261531208
 20
21.6876988687
 30
0.0
 10
52.1916840171
 20
21.6222133581
 30
0.0
 10
52.1048134409
 20
21.5767760059
 30
0.0
 10
52.0027714085
 20
21.5563622267
 30
0.0
 10
51.8898377042
 20
21.5625639501
 30
0.0
 10
51.7703479666
 20
21.5935800486
 30
0.0
 10
51.6030844849
 20
21.6653635347
 30
0.0
 10
51.3996573604
 20
21.7978076329
 30
0.0
 10
51.2505909429
 20
21.9267139278
 30
0.0
 10
51.1775352139
 20
21.9961858936
 30
0.0
  0
SPLINE
  5
4AC
100
AcDbEntity
  8
0
100
AcDbSpline
 62
7
  6
CONTINUOUS
 70
0
 71
3
 72
24
 73
20
 74
0
 42
0.0000001
 43
0.0000001
 44
0.0000000001
 40
0.0
 40
0.0
 40
0.0
 40
0.0
 40
0.004462348
 40
0.0082428766
 40
0.0146322947
 40
0.0245017635
 40
0.037983294
 40
0.0549347907
 40
0.0750745611
 40
0.0981028267
 40
0.1515992861
 40
0.2132125704
 40
0.3533782118
 40
0.4290018062
 40
0.5071230512
 40
0.586987589
 40
0.6681503804
 40
0.8330959995
 40
1.0
 40
1.0
 40
1.0
 40
1.0
 10
14.62662504
 20
85.3855283722
 30
0.0
 10
14.62662504
 20
85.3863277298
 30
0.0
 10
14.6264181769
 20
85.3881299012
 30
0.0
 10
14.6234004813
 20
85.3886300792
 30
0.0
 10
14.6202078759
 20
85.3869039771
 30
0.0
 10
14.6157559174
 20
85.3839905078
 30
0.0
 10
14.6102189708
 20
85.3793283616
 30
0.0
 10
14.603568873
 20
85.3731807592
 30
0.0
 10
14.5959653817
 20
85.3655478721
 30
0.0
 10
14.5841060392
 20
85.3529293491
 30
0.0
 10
14.5678630265
 20
85.3342482785
 30
0.0
 10
14.539181594
 20
85.2986244787
 30
0.0
 10
14.5099156638
 20
85.2584200737
 30
0.0
 10
14.4806673293
 20
85.2146382809
 30
0.0
 10
14.4583530268
 20
85.1792301837
 30
0.0
 10
14.4364749524
 20
85.1423926772
 30
0.0
 10
14.4079658548
 20
85.0914259997
 30
0.0
 10
14.3743605264
 20
85.025475797
 30
0.0
 10
14.3500707627
 20
84.9711890773
 30
0.0
 10
14.3385119577
 20
84.943615652
 30
0.0
  0
SPLINE
  5
4AD
100
AcDbEntity
  8
0
100
AcDbSpline
 62
7
  6
CONTINUOUS
 70
0
 71
3
 72
19
 73
15
 74
0
 42
0.0000001
 43
0.0000001
 44
0.0000000001
 40
0.0
 40
0.0
 40
0.0
 40
0.0
 40
0.1475939602
 40
0.2959174308
 40
0.4445931655
 40
0.51828693
 40
0.5902389152
 40
0.6585506486
 40
0.7205001806
 40
0.8165834042
 40
0.857161871
 40
0.8997073852
 40
0.947213383
 40
1.0
 40
1.0
 40
1.0
 40
1.0
 10
49.1280319756
 20
84.9111181617
 30
0.0
 10
49.1124396115
 20
84.9520374571
 30
0.0
 10
49.0771977444
 20
85.0326576413
 30
0.0
 10
49.0106434922
 20
85.1469072503
 30
0.0
 10
48.9422464491
 20
85.2336912556
 30
0.0
 10
48.8793813861
 20
85.2945024504
 30
0.0
 10
48.8293643327
 20
85.3337195831
 30
0.0
 10
48.7773675666
 20
85.3645041066
 30
0.0
 10
48.7154969667
 20
85.3890898027
 30
0.0
 10
48.650198618
 20
85.3924906526
 30
0.0
 10
48.6074874421
 20
85.3573921495
 30
0.0
 10
48.5899319044
 20
85.3220283072
 30
0.0
 10
48.581330856
 20
85.2802787772
 30
0.0
 10
48.5799594569
 20
85.2504682845
 30
0.0
 10
48.5799594569
 20
85.2348071173
 30
0.0
  0
SPLINE
  5
4AE
100
AcDbEntity
  8
0
100
AcDbSpline
 62
7
  6
CONTINUOUS
 70
0
 71
3
 72
9
 73
5
 74
0
 42
0.0000001
 43
0.0000001
 44
0.0000000001
 40
0.0
 40
0.0
 40
0.0
 40
0.0
 40
0.4966773894
 40
1.0
 40
1.0
 40
1.0
 40
1.0
 10
49.3544171241
 20
84.1886276093
 30
0.0
 10
49.3291448177
 20
84.3115110635
 30
0.0
 10
49.2613942588
 20
84.5555227839
 30
0.0
 10
49.1733013078
 20
84.7923170971
 30
0.0
 10
49.1280319684
 20
84.9111181627
 30
0.0
  0
SPLINE
  5
4AF
100
AcDbEntity
  8
0
100
AcDbSpline
 62
7
  6
CONTINUOUS
 70
0
 71
3
 72
9
 73
5
 74
0
 42
0.0000001
 43
0.0000001
 44
0.0000000001
 40
0.0
 40
0.0
 40
0.0
 40
0.0
 40
0.2478701649
 40
1.0
 40
1.0
 40
1.0
 40
1.0
 10
49.998360699
 20
84.5925396802
 30
0.0
 10
49.998360699
 20
84.5589599865
 30
0.0
 10
49.9944137006
 20
84.4234884168
 30
0.0
 10
49.9761279007
 20
84.2886566186
 30
0.0
 10
49.9566456123
 20
84.188643275
 30
0.0
  0
LINE
  5
4B0
100
AcDbEntity
  8
0
100
AcDbLine
 62
7
  6
CONTINUOUS
 10
14.1250598939
 20
84.1710869649
 11
14.1250976599
 21
84.1886309471
  0
LINE
  5
4B1
100
AcDbEntity
  8
0
100
AcDbLine
 62
7
  6
CONTINUOUS
 10
14.1250976599
 20
84.1886309471
 11
14.1250598939
 21
84.2061938566
  0
SPLINE
  5
4B2
100
AcDbEntity
  8
0
100
AcDbSpline
 62
7
  6
CONTINUOUS
 70
0
 71
3
 72
19
 73
15
 74
0
 42
0.0000001
 43
0.0000001
 44
0.0000000001
 40
0.0
 40
0.0
 40
0.0
 40
0.0
 40
0.1509784379
 40
0.3025385943
 40
0.4538350375
 40
0.6014502669
 40
0.6712081294
 40
0.7348670087
 40
0.7899651093
 40
0.8349723556
 40
0.8724719556
 40
0.9096070532
 40
0.9516210806
 40
1.0
 40
1.0
 40
1.0
 40
1.0
 10
50.4058231121
 20
84.9111181615
 30
0.0
 10
50.3906260022
 20
84.9496074262
 30
0.0
 10
50.3567430632
 20
85.0254425649
 30
0.0
 10
50.2946130444
 20
85.13349949
 30
0.0
 10
50.2203749147
 20
85.2325579242
 30
0.0
 10
50.1480992035
 20
85.3040202242
 30
0.0
 10
50.0856011959
 20
85.349273285
 30
0.0
 10
50.0400073434
 20
85.3740798459
 30
0.0
 10
49.9970670797
 20
85.387983791
 30
0.0
 10
49.95854039
 20
85.3901504335
 30
0.0
 10
49.9271758755
 20
85.3763356345
 30
0.0
 10
49.9076988604
 20
85.3495296078
 30
0.0
 10
49.8987749643
 20
85.315298027
 30
0.0
 10
49.8974028349
 20
85.2904696159
 30
0.0
 10
49.8974028349
 20
85.2772097004
 30
0.0
  0
SPLINE
  5
4B3
100
AcDbEntity
  8
0
100
AcDbSpline
 62
7
  6
CONTINUOUS
 70
0
 71
3
 72
9
 73
5
 74
0
 42
0.0000001
 43
0.0000001
 44
0.0000000001
 40
0.0
 40
0.0
 40
0.0
 40
0.0
 40
0.4954956259
 40
1.0
 40
1.0
 40
1.0
 40
1.0
 10
50.6250752712
 20
84.1886276092
 30
0.0
 10
50.6030484683
 20
84.3115308498
 30
0.0
 10
50.5400601192
 20
84.5563776897
 30
0.0
 10
50.4525121564
 20
84.7928702056
 30
0.0
 10
50.4058231067
 20
84.9111181627
 30
0.0
  0
SPLINE
  5
4B4
100
AcDbEntity
  8
0
100
AcDbSpline
 62
7
  6
CONTINUOUS
 70
0
 71
3
 72
9
 73
5
 74
0
 42
0.0000001
 43
0.0000001
 44
0.0000000001
 40
0.0
 40
0.0
 40
0.0
 40
0.0
 40
0.2485037104
 40
1.0
 40
1.0
 40
1.0
 40
1.0
 10
51.1760757116
 20
84.530394006
 30
0.0
 10
51.1760757116
 20
84.5019586361
 30
0.0
 10
51.1733618829
 20
84.387536909
 30
0.0
 10
51.1605012844
 20
84.2734484794
 30
0.0
 10
51.1462678493
 20
84.1886436673
 30
0.0
  0
SPLINE
  5
4B5
100
AcDbEntity
  8
0
100
AcDbSpline
 62
7
  6
CONTINUOUS
 70
0
 71
3
 72
21
 73
17
 74
0
 42
0.0000001
 43
0.0000001
 44
0.0000000001
 40
0.0
 40
0.0
 40
0.0
 40
0.0
 40
0.1554551542
 40
0.3110395414
 40
0.4656515592
 40
0.541668163
 40
0.6157197589
 40
0.6863391555
 40
0.7513813544
 40
0.8081221427
 40
0.8542096143
 40
0.8900633644
 40
0.9059684597
 40
0.9218890464
 40
0.9572044833
 40
1.0
 40
1.0
 40
1.0
 40
1.0
 10
51.5051511835
 20
84.9111181617
 30
0.0
 10
51.4903960721
 20
84.9476148829
 30
0.0
 10
51.4579013964
 20
85.0194910671
 30
0.0
 10
51.3996575877
 20
85.1222147542
 30
0.0
 10
51.3426663579
 20
85.2019942878
 30
0.0
 10
51.2920628042
 20
85.2603046
 30
0.0
 10
51.2524903935
 20
85.2998449385
 30
0.0
 10
51.2118878402
 20
85.3341865171
 30
0.0
 10
51.1716047069
 20
85.3617871043
 30
0.0
 10
51.1333972477
 20
85.3808504157
 30
0.0
 10
51.0992050128
 20
85.390164696
 30
0.0
 10
51.07348551
 20
85.3877211373
 30
0.0
 10
51.0585939173
 20
85.3787134358
 30
0.0
 10
51.0470788146
 20
85.3659028827
 30
0.0
 10
51.0388355384
 20
85.3428046772
 30
0.0
 10
51.0375710231
 20
85.3229821988
 30
0.0
 10
51.0375710231
 20
85.3121449181
 30
0.0
  0
SPLINE
  5
4B6
100
AcDbEntity
  8
0
100
AcDbSpline
 62
7
  6
CONTINUOUS
 70
0
 71
3
 72
9
 73
5
 74
0
 42
0.0000001
 43
0.0000001
 44
0.0000000001
 40
0.0
 40
0.0
 40
0.0
 40
0.0
 40
0.4945567338
 40
1.0
 40
1.0
 40
1.0
 40
1.0
 10
51.7148681809
 20
84.1886276092
 30
0.0
 10
51.6963423563
 20
84.3114751948
 30
0.0
 10
51.6388871891
 20
84.557049731
 30
0.0
 10
51.552741783
 20
84.793402957
 30
0.0
 10
51.5051511801
 20
84.9111181627
 30
0.0
  0
SPLINE
  5
4B7
100
AcDbEntity
  8
0
100
AcDbSpline
 62
7
  6
CONTINUOUS
 70
0
 71
3
 72
9
 73
5
 74
0
 42
0.0000001
 43
0.0000001
 44
0.0000000001
 40
0.0
 40
0.0
 40
0.0
 40
0.0
 40
0.2490460897
 40
1.0
 40
1.0
 40
1.0
 40
1.0
 10
52.1690781962
 20
84.4671260525
 30
0.0
 10
52.1690781962
 20
84.4439392011
 30
0.0
 10
52.1673367216
 20
84.3508411002
 30
0.0
 10
52.1589357766
 20
84.2578964785
 30
0.0
 10
52.1493143242
 20
84.1886458696
 30
0.0
  0
SPLINE
  5
4B8
100
AcDbEntity
  8
0
100
AcDbSpline
 62
7
  6
CONTINUOUS
 70
0
 71
3
 72
20
 73
16
 74
0
 42
0.0000001
 43
0.0000001
 44
0.0000000001
 40
0.0
 40
0.0
 40
0.0
 40
0.0
 40
0.1590914817
 40
0.3180034688
 40
0.4752964008
 40
0.5524534206
 40
0.6274785012
 40
0.6992468807
 40
0.7658128419
 40
0.8249475366
 40
0.8734769683
 40
0.9097554796
 40
0.9375396227
 40
0.9648994852
 40
1.0
 40
1.0
 40
1.0
 40
1.0
 10
52.4139717214
 20
84.9111181616
 30
0.0
 10
52.3998781335
 20
84.945547914
 30
0.0
 10
52.3690579394
 20
85.0133179119
 30
0.0
 10
52.3153748966
 20
85.1107603959
 30
0.0
 10
52.2639678835
 20
85.187247719
 30
0.0
 10
52.2187247506
 20
85.2437769909
 30
0.0
 10
52.1835966841
 20
85.2826659269
 30
0.0
 10
52.1476931553
 20
85.317371233
 30
0.0
 10
52.1121139475
 20
85.3468884672
 30
0.0
 10
52.0784040535
 20
85.3699091931
 30
0.0
 10
52.0481195693
 20
85.384985564
 30
0.0
 10
52.0216612138
 20
85.3900825238
 30
0.0
 10
51.9999649726
 20
85.3826734928
 30
0.0
 10
51.9889559122
 20
85.3630975287
 30
0.0
 10
51.9879721002
 20
85.3483370617
 30
0.0
 10
51.9879721002
 20
85.3401290036
 30
0.0
  0
SPLINE
  5
4B9
100
AcDbEntity
  8
0
100
AcDbSpline
 62
7
  6
CONTINUOUS
 70
0
 71
3
 72
9
 73
5
 74
0
 42
0.0000001
 43
0.0000001
 44
0.0000000001
 40
0.0
 40
0.0
 40
0.0
 40
0.0
 40
0.4939026166
 40
1.0
 40
1.0
 40
1.0
 40
1.0
 10
52.6118558538
 20
84.1886276092
 30
0.0
 10
52.597035264
 20
84.3113435993
 30
0.0
 10
52.545840883
 20
84.5575055744
 30
0.0
 10
52.4619545662
 20
84.7938990749
 30
0.0
 10
52.4139717201
 20
84.9111181628
 30
0.0
  0
SPLINE
  5
4BA
100
AcDbEntity
  8
0
100
AcDbSpline
 62
7
  6
CONTINUOUS
 70
0
 71
3
 72
9
 73
5
 74
0
 42
0.0000001
 43
0.0000001
 44
0.0000000001
 40
0.0
 40
0.0
 40
0.0
 40
0.0
 40
0.4995461657
 40
1.0
 40
1.0
 40
1.0
 40
1.0
 10
52.9664886097
 20
84.4028515275
 30
0.0
 10
52.9664886097
 20
84.3671240465
 30
0.0
 10
52.9646584806
 20
84.2955811411
 30
0.0
 10
52.9585433052
 20
84.2242874308
 30
0.0
 10
52.9547910273
 20
84.188692261
 30
0.0
  0
SPLINE
  5
4BB
100
AcDbEntity
  8
0
100
AcDbSpline
 62
7
  6
CONTINUOUS
 70
0
 71
3
 72
9
 73
5
 74
0
 42
0.0000001
 43
0.0000001
 44
0.0000000001
 40
0.0
 40
0.0
 40
0.0
 40
0.0
 40
0.2532355963
 40
1.0
 40
1.0
 40
1.0
 40
1.0
 10
24.5403098139
 20
84.5009435259
 30
0.0
 10
24.5354464196
 20
84.5280567223
 30
0.0
 10
24.5179949988
 20
84.6354010921
 30
0.0
 10
24.5084398337
 20
84.744264295
 30
0.0
 10
24.5084398337
 20
84.8254942527
 30
0.0
  0
SPLINE
  5
4BC
100
AcDbEntity
  8
0
100
AcDbSpline
 62
7
  6
CONTINUOUS
 70
0
 71
3
 72
9
 73
5
 74
0
 42
0.0000001
 43
0.0000001
 44
0.0000000001
 40
0.0
 40
0.0
 40
0.0
 40
0.0
 40
0.2523493652
 40
1.0
 40
1.0
 40
1.0
 40
1.0
 10
24.6135222488
 20
84.1886203861
 30
0.0
 10
24.6062081628
 20
84.2145996672
 30
0.0
 10
24.5780921362
 20
84.3177837571
 30
0.0
 10
24.554359987
 20
84.4222249416
 30
0.0
 10
24.5403098139
 20
84.5009435259
 30
0.0
  0
SPLINE
  5
4BD
100
AcDbEntity
  8
0
100
AcDbSpline
 62
7
  6
CONTINUOUS
 70
0
 71
3
 72
19
 73
15
 74
0
 42
0.0000001
 43
0.0000001
 44
0.0000000001
 40
0.0
 40
0.0
 40
0.0
 40
0.0
 40
0.1693790293
 40
0.3369041164
 40
0.500019104
 40
0.6540736669
 40
0.7902971046
 40
0.8463775217
 40
0.8917660434
 40
0.9258556925
 40
0.9498661338
 40
0.9603265919
 40
0.971523956
 40
1.0
 40
1.0
 40
1.0
 40
1.0
 10
53.0760182481
 20
85.0133943056
 30
0.0
 10
53.062466008
 20
85.0406340616
 30
0.0
 10
53.0338921808
 20
85.0940289259
 30
0.0
 10
52.9865815482
 20
85.1704522665
 30
0.0
 10
52.9351198887
 20
85.240819265
 30
0.0
 10
52.8815375391
 20
85.3022352543
 30
0.0
 10
52.8366128175
 20
85.3455445467
 30
0.0
 10
52.8022825495
 20
85.3710601212
 30
0.0
 10
52.780727371
 20
85.3826751021
 30
0.0
 10
52.7629503304
 20
85.3883618772
 30
0.0
 10
52.7498536292
 20
85.3873439449
 30
0.0
 10
52.7433102765
 20
85.3820131934
 30
0.0
 10
52.7388400249
 20
85.3740238819
 30
0.0
 10
52.7381932733
 20
85.3666557091
 30
0.0
 10
52.7381932733
 20
85.3615406868
 30
0.0
  0
SPLINE
  5
4BE
100
AcDbEntity
  8
0
100
AcDbSpline
 62
7
  6
CONTINUOUS
 70
0
 71
3
 72
9
 73
5
 74
0
 42
0.0000001
 43
0.0000001
 44
0.0000000001
 40
0.0
 40
0.0
 40
0.0
 40
0.0
 40
0.4935669515
 40
1.0
 40
1.0
 40
1.0
 40
1.0
 10
53.3062107053
 20
84.1886276093
 30
0.0
 10
53.2952600729
 20
84.3111416686
 30
0.0
 10
53.2509806199
 20
84.5577197373
 30
0.0
 10
53.1701916695
 20
84.7943376084
 30
0.0
 10
53.1223274987
 20
84.9111181627
 30
0.0
  0
SPLINE
  5
4BF
100
AcDbEntity
  8
0
100
AcDbSpline
 62
7
  6
CONTINUOUS
 70
0
 71
3
 72
18
 73
14
 74
0
 42
0.0000001
 43
0.0000001
 44
0.0000000001
 40
0.0
 40
0.0
 40
0.0
 40
0.0
 40
0.0835635149
 40
0.2128592019
 40
0.3730088333
 40
0.545881976
 40
0.7120457956
 40
0.786732971
 40
0.852918968
 40
0.9087576614
 40
0.952670709
 40
0.9833536542
 40
1.0
 40
1.0
 40
1.0
 40
1.0
 10
21.6946579107
 20
86.7097843835
 30
0.0
 10
21.6648078828
 20
86.7097845041
 30
0.0
 10
21.5888085506
 20
86.7063476357
 30
0.0
 10
21.455826656
 20
86.6982641507
 30
0.0
 10
21.291135007
 20
86.68584789
 30
0.0
 10
21.1134608235
 20
86.6707399399
 30
0.0
 10
20.9663283645
 20
86.6567788291
 30
0.0
 10
20.8572434994
 20
86.6454078987
 30
0.0
 10
20.7874009078
 20
86.6376229751
 30
0.0
 10
20.7285810676
 20
86.6304195811
 30
0.0
 10
20.6823502048
 20
86.624267242
 30
0.0
 10
20.6502945927
 20
86.6188345657
 30
0.0
 10
20.6335477292
 20
86.6157455722
 30
0.0
 10
20.627986767
 20
86.613639817
 30
0.0
  0
SPLINE
  5
4C0
100
AcDbEntity
  8
0
100
AcDbSpline
 62
7
  6
CONTINUOUS
 70
0
 71
3
 72
22
 73
18
 74
0
 42
0.0000001
 43
0.0000001
 44
0.0000000001
 40
0.0
 40
0.0
 40
0.0
 40
0.0
 40
0.1691462605
 40
0.3364587918
 40
0.4995061503
 40
0.5783404771
 40
0.6543930147
 40
0.7268278079
 40
0.7940201002
 40
0.8535959928
 40
0.9033337586
 40
0.9415155131
 40
0.9558954278
 40
0.9670712369
 40
0.9754828107
 40
0.9824504474
 40
1.0
 40
1.0
 40
1.0
 40
1.0
 10
53.5936588657
 20
84.9780603518
 30
0.0
 10
53.5811589732
 20
85.0055100374
 30
0.0
 10
53.5548329147
 20
85.0594622338
 30
0.0
 10
53.5112397562
 20
85.1371928049
 30
0.0
 10
53.4715386912
 20
85.1984873989
 30
0.0
 10
53.4382187593
 20
85.2443683008
 30
0.0
 10
53.4132874732
 20
85.2763400054
 30
0.0
 10
53.3885958104
 20
85.3058383989
 30
0.0
 10
53.3647302115
 20
85.3321602215
 30
0.0
 10
53.3423823468
 20
85.354362935
 30
0.0
 10
53.3222344923
 20
85.3713101576
 30
0.0
 10
53.3070077775
 20
85.3814991303
 30
0.0
 10
53.2966580971
 20
85.3862842654
 30
0.0
 10
53.2908151889
 20
85.3879470879
 30
0.0
 10
53.2859461711
 20
85.388043506
 30
0.0
 10
53.2805572275
 20
85.3849008613
 30
0.0
 10
53.2800149621
 20
85.3797816723
 30
0.0
 10
53.2800149621
 20
85.3766522763
 30
0.0
  0
SPLINE
  5
4C1
100
AcDbEntity
  8
0
100
AcDbSpline
 62
7
  6
CONTINUOUS
 70
0
 71
3
 72
9
 73
5
 74
0
 42
0.0000001
 43
0.0000001
 44
0.0000000001
 40
0.0
 40
0.0
 40
0.0
 40
0.0
 40
0.4935714321
 40
1.0
 40
1.0
 40
1.0
 40
1.0
 10
53.7903252373
 20
84.1886275893
 30
0.0
 10
53.7833537233
 20
84.3108767783
 30
0.0
 10
53.7465660162
 20
84.5576714988
 30
0.0
 10
53.6697115256
 20
84.7947057749
 30
0.0
 10
53.6224576218
 20
84.9111181628
 30
0.0
  0
SPLINE
  5
4C2
100
AcDbEntity
  8
0
100
AcDbSpline
 62
7
  6
CONTINUOUS
 70
0
 71
3
 72
10
 73
6
 74
0
 42
0.0000001
 43
0.0000001
 44
0.0000000001
 40
0.0
 40
0.0
 40
0.0
 40
0.0
 40
0.1325939213
 40
0.3448756274
 40
1.0
 40
1.0
 40
1.0
 40
1.0
 10
20.627986767
 20
86.3118162235
 30
0.0
 10
20.6305676078
 20
86.3127946087
 30
0.0
 10
20.637568901
 20
86.3145055606
 30
0.0
 10
20.657974612
 20
86.3185272857
 30
0.0
 10
20.6758612931
 20
86.3211368549
 30
0.0
 10
20.6893624894
 20
86.3230568651
 30
0.0
  0
SPLINE
  5
4C3
100
AcDbEntity
  8
0
100
AcDbSpline
 62
7
  6
CONTINUOUS
 70
0
 71
3
 72
9
 73
5
 74
0
 42
0.0000001
 43
0.0000001
 44
0.0000000001
 40
0.0
 40
0.0
 40
0.0
 40
0.0
 40
0.4190625405
 40
1.0
 40
1.0
 40
1.0
 40
1.0
 10
20.6893624894
 20
86.3230568651
 30
0.0
 10
20.7336337232
 20
86.3293526936
 30
0.0
 10
20.8396258145
 20
86.3418487495
 30
0.0
 10
20.9457782518
 20
86.3526913935
 30
0.0
 10
21.0074826332
 20
86.3586326468
 30
0.0
  0
SPLINE
  5
4C4
100
AcDbEntity
  8
0
100
AcDbSpline
 62
7
  6
CONTINUOUS
 70
0
 71
3
 72
9
 73
5
 74
0
 42
0.0000001
 43
0.0000001
 44
0.0000000001
 40
0.0
 40
0.0
 40
0.0
 40
0.0
 40
0.5228255314
 40
1.0
 40
1.0
 40
1.0
 40
1.0
 10
21.0074826332
 20
86.3586326468
 30
0.0
 10
21.0962177914
 20
86.367176579
 30
0.0
 10
21.2660690806
 20
86.3821765218
 30
0.0
 10
21.4361098545
 20
86.394924294
 30
0.0
 10
21.5173117023
 20
86.4000219854
 30
0.0
  0
SPLINE
  5
4C5
100
AcDbEntity
  8
0
100
AcDbSpline
 62
7
  6
CONTINUOUS
 70
0
 71
3
 72
10
 73
6
 74
0
 42
0.0000001
 43
0.0000001
 44
0.0000000001
 40
0.0
 40
0.0
 40
0.0
 40
0.0
 40
0.2476028751
 40
0.4988461203
 40
1.0
 40
1.0
 40
1.0
 40
1.0
 10
23.8614119134
 20
84.911118173
 30
0.0
 10
23.8425622218
 20
84.8513703896
 30
0.0
 10
23.8021539817
 20
84.7317710145
 30
0.0
 10
23.7199915988
 20
84.492488258
 30
0.0
 10
23.6618741437
 20
84.3110352015
 30
0.0
 10
23.6286780238
 20
84.1886510272
 30
0.0
  0
SPLINE
  5
4C6
100
AcDbEntity
  8
0
100
AcDbSpline
 62
7
  6
CONTINUOUS
 70
0
 71
3
 72
19
 73
15
 74
0
 42
0.0000001
 43
0.0000001
 44
0.0000000001
 40
0.0
 40
0.0
 40
0.0
 40
0.0
 40
0.1180442756
 40
0.1730611094
 40
0.2250577933
 40
0.2753429233
 40
0.3273638123
 40
0.3846894507
 40
0.4489125377
 40
0.5176864827
 40
0.5879969329
 40
0.7272023541
 40
0.8640183705
 40
1.0
 40
1.0
 40
1.0
 40
1.0
 10
24.5170629474
 20
85.0542391632
 30
0.0
 10
24.5170629474
 20
85.0990041761
 30
0.0
 10
24.514009937
 20
85.1649674549
 30
0.0
 10
24.4954720822
 20
85.2485573974
 30
0.0
 10
24.4719271344
 20
85.303904952
 30
0.0
 10
24.4346104752
 20
85.3503114219
 30
0.0
 10
24.3811760881
 20
85.3816376244
 30
0.0
 10
24.3147981911
 20
85.3925466959
 30
0.0
 10
24.2427559132
 20
85.3797869709
 30
0.0
 10
24.1712643207
 20
85.3497192068
 30
0.0
 10
24.0828080851
 20
85.2911517689
 30
0.0
 10
23.9928828591
 20
85.1929879811
 30
0.0
 10
23.9137458682
 20
85.057417741
 30
0.0
 10
23.8769269245
 20
84.960296074
 30
0.0
 10
23.8614119009
 20
84.911118173
 30
0.0
  0
SPLINE
  5
4C7
100
AcDbEntity
  8
0
100
AcDbSpline
 62
7
  6
CONTINUOUS
 70
0
 71
3
 72
9
 73
5
 74
0
 42
0.0000001
 43
0.0000001
 44
0.0000000001
 40
0.0
 40
0.0
 40
0.0
 40
0.0
 40
0.2357576286
 40
1.0
 40
1.0
 40
1.0
 40
1.0
 10
20.6279867669
 20
86.6136398179
 30
0.0
 10
20.5770127044
 20
86.5943374963
 30
0.0
 10
20.3642938621
 20
86.5032271012
 30
0.0
 10
20.1673199948
 20
86.3776911422
 30
0.0
 10
20.0268794199
 20
86.270472711
 30
0.0
  0
SPLINE
  5
4C8
100
AcDbEntity
  8
0
100
AcDbSpline
 62
7
  6
CONTINUOUS
 70
0
 71
3
 72
24
 73
20
 74
0
 42
0.0000001
 43
0.0000001
 44
0.0000000001
 40
0.0
 40
0.0
 40
0.0
 40
0.0
 40
0.1668404555
 40
0.3316748913
 40
0.4926046139
 40
0.5707020233
 40
0.6465558051
 40
0.718994833
 40
0.7866866307
 40
0.8482670677
 40
0.9017888115
 40
0.924793569
 40
0.9449003145
 40
0.9618194613
 40
0.9753235138
 40
0.9853124275
 40
0.9918304772
 40
0.9956131678
 40
1.0
 40
1.0
 40
1.0
 40
1.0
 10
53.8951818577
 20
84.9446621047
 30
0.0
 10
53.8836486076
 20
84.9721562765
 30
0.0
 10
53.8594451816
 20
85.0262918105
 30
0.0
 10
53.8194500547
 20
85.1047555037
 30
0.0
 10
53.7833018477
 20
85.1672638023
 30
0.0
 10
53.7532902841
 20
85.2148686968
 30
0.0
 10
53.730844724
 20
85.2485341677
 30
0.0
 10
53.7085725466
 20
85.2800632942
 30
0.0
 10
53.6868990523
 20
85.3088754022
 30
0.0
 10
53.666304538
 20
85.3342414636
 30
0.0
 10
53.649990098
 20
85.3527727816
 30
0.0
 10
53.6381115192
 20
85.3653087455
 30
0.0
 10
53.6305218328
 20
85.3728945235
 30
0.0
 10
53.6238989966
 20
85.3790322291
 30
0.0
 10
53.6183994897
 20
85.383727822
 30
0.0
 10
53.6139442
 20
85.3867316697
 30
0.0
 10
53.6108029307
 20
85.3885415849
 30
0.0
 10
53.6077296894
 20
85.3882414515
 30
0.0
 10
53.6075008548
 20
85.3864320117
 30
0.0
 10
53.6075008548
 20
85.3856480639
 30
0.0
  0
SPLINE
  5
4C9
100
AcDbEntity
  8
0
100
AcDbSpline
 62
7
  6
CONTINUOUS
 70
0
 71
3
 72
9
 73
5
 74
0
 42
0.0000001
 43
0.0000001
 44
0.0000000001
 40
0.0
 40
0.0
 40
0.0
 40
0.0
 40
0.3239753819
 40
1.0
 40
1.0
 40
1.0
 40
1.0
 10
20.0268794199
 20
86.2704727109
 30
0.0
 10
20.026436736
 20
86.2701347458
 30
0.0
 10
20.0251439497
 20
86.2690586297
 30
0.0
 10
20.0239823108
 20
86.2674634603
 30
0.0
 10
20.0239823108
 20
86.2663013053
 30
0.0
  0
LINE
  5
4CA
100
AcDbEntity
  8
0
100
AcDbLine
 62
7
  6
CONTINUOUS
 10
54.1090660008
 20
84.2063298274
 11
54.1090279156
 21
84.1886540516
  0
LINE
  5
4CB
100
AcDbEntity
  8
0
100
AcDbLine
 62
7
  6
CONTINUOUS
 10
54.1090279156
 20
84.1886540516
 11
54.1090660008
 21
84.1709137745
  0
SPLINE
  5
4CC
100
AcDbEntity
  8
0
100
AcDbSpline
 62
7
  6
CONTINUOUS
 70
0
 71
3
 72
13
 73
9
 74
0
 42
0.0000001
 43
0.0000001
 44
0.0000000001
 40
0.0
 40
0.0
 40
0.0
 40
0.0
 40
0.4202115544
 40
0.730834967
 40
0.8419617089
 40
0.9228747285
 40
0.9740558345
 40
1.0
 40
1.0
 40
1.0
 40
1.0
 10
44.0638731577
 20
86.7097843847
 30
0.0
 10
44.0448028416
 20
86.7097843829
 30
0.0
 10
44.0116554346
 20
86.7094422823
 30
0.0
 10
43.9734082989
 20
86.7076004725
 30
0.0
 10
43.9507900734
 20
86.7052533135
 30
0.0
 10
43.9397924364
 20
86.7030993183
 30
0.0
 10
43.9331465667
 20
86.7013604414
 30
0.0
 10
43.9298996809
 20
86.6986752997
 30
0.0
 10
43.9298996809
 20
86.6974978846
 30
0.0
  0
SPLINE
  5
4CD
100
AcDbEntity
  8
0
100
AcDbSpline
 62
7
  6
CONTINUOUS
 70
0
 71
3
 72
17
 73
13
 74
0
 42
0.0000001
 43
0.0000001
 44
0.0000000001
 40
0.0
 40
0.0
 40
0.0
 40
0.0
 40
0.0071872046
 40
0.0217560134
 40
0.0444742732
 40
0.0753905028
 40
0.1614626396
 40
0.2785332507
 40
0.4241830876
 40
0.5957635375
 40
0.7893075671
 40
1.0
 40
1.0
 40
1.0
 40
1.0
 10
50.3822298939
 20
86.2582588811
 30
0.0
 10
50.3822298939
 20
86.2590525791
 30
0.0
 10
50.3800255558
 20
86.2608686001
 30
0.0
 10
50.3757715514
 20
86.2627171667
 30
0.0
 10
50.3685059592
 20
86.2652055536
 30
0.0
 10
50.3536797064
 20
86.2691934837
 30
0.0
 10
50.3283417214
 20
86.2746399993
 30
0.0
 10
50.2904695711
 20
86.2815235344
 30
0.0
 10
50.2431121605
 20
86.2891869302
 30
0.0
 10
50.1873159871
 20
86.2974413915
 30
0.0
 10
50.1243184995
 20
86.3061071568
 30
0.0
 10
50.0800440176
 20
86.3118153624
 30
0.0
 10
50.0569569141
 20
86.3147047306
 30
0.0
  0
SPLINE
  5
4CE
100
AcDbEntity
  8
0
100
AcDbSpline
 62
7
  6
CONTINUOUS
 70
0
 71
3
 72
12
 73
8
 74
0
 42
0.0000001
 43
0.0000001
 44
0.0000000001
 40
0.0
 40
0.0
 40
0.0
 40
0.0
 40
0.0579502983
 40
0.1432967988
 40
0.3829991279
 40
0.6838231759
 40
1.0
 40
1.0
 40
1.0
 40
1.0
 10
37.9101531259
 20
86.6917145273
 30
0.0
 10
37.9056167192
 20
86.6932675445
 30
0.0
 10
37.8939901574
 20
86.6958145868
 30
0.0
 10
37.8626870149
 20
86.7006588418
 30
0.0
 10
37.8110440341
 20
86.70522683
 30
0.0
 10
37.7402564902
 20
86.7088283084
 30
0.0
 10
37.6891976489
 20
86.7097790886
 30
0.0
 10
37.6630367994
 20
86.7097843868
 30
0.0
  0
SPLINE
  5
4CF
100
AcDbEntity
  8
0
100
AcDbSpline
 62
7
  6
CONTINUOUS
 70
0
 71
3
 72
10
 73
6
 74
0
 42
0.0000001
 43
0.0000001
 44
0.0000000001
 40
0.0
 40
0.0
 40
0.0
 40
0.0
 40
0.625228176
 40
0.8495733817
 40
1.0
 40
1.0
 40
1.0
 40
1.0
 10
49.126628591
 20
86.4276203888
 30
0.0
 10
49.1035550497
 20
86.4303350898
 30
0.0
 10
49.0722140363
 20
86.4341911198
 30
0.0
 10
49.0354737566
 20
86.4397239641
 30
0.0
 10
49.0217511507
 20
86.4421576944
 30
0.0
 10
49.0163049665
 20
86.4434160323
 30
0.0
  0
SPLINE
  5
4D0
100
AcDbEntity
  8
0
100
AcDbSpline
 62
7
  6
CONTINUOUS
 70
0
 71
3
 72
10
 73
6
 74
0
 42
0.0000001
 43
0.0000001
 44
0.0000000001
 40
0.0
 40
0.0
 40
0.0
 40
0.0
 40
0.7187439785
 40
0.9109997771
 40
1.0
 40
1.0
 40
1.0
 40
1.0
 10
49.0163049665
 20
86.4434160323
 30
0.0
 10
49.014327138
 20
86.4438730085
 30
0.0
 10
49.0117077326
 20
86.4445220428
 30
0.0
 10
49.0092568582
 20
86.4454794568
 30
0.0
 10
49.0084506171
 20
86.4460190152
 30
0.0
 10
49.0084506171
 20
86.4462703768
 30
0.0
  0
SPLINE
  5
4D1
100
AcDbEntity
  8
0
100
AcDbSpline
 62
7
  6
CONTINUOUS
 70
0
 71
3
 72
9
 73
5
 74
0
 42
0.0000001
 43
0.0000001
 44
0.0000000001
 40
0.0
 40
0.0
 40
0.0
 40
0.0
 40
0.5064525606
 40
1.0
 40
1.0
 40
1.0
 40
1.0
 10
22.8261124675
 20
84.1886213331
 30
0.0
 10
22.8008797303
 20
84.2848120738
 30
0.0
 10
22.757946018
 20
84.4766688804
 30
0.0
 10
22.7389025861
 20
84.6730952184
 30
0.0
 10
22.7389025861
 20
84.7700064243
 30
0.0
  0
SPLINE
  5
4D2
100
AcDbEntity
  8
0
100
AcDbSpline
 62
7
  6
CONTINUOUS
 70
0
 71
3
 72
18
 73
14
 74
0
 42
0.0000001
 43
0.0000001
 44
0.0000000001
 40
0.0
 40
0.0
 40
0.0
 40
0.0
 40
0.1134534487
 40
0.1651363586
 40
0.2135612904
 40
0.261277913
 40
0.3127734229
 40
0.3715237756
 40
0.4372044892
 40
0.5778799362
 40
0.7200388284
 40
0.8604881997
 40
1.0
 40
1.0
 40
1.0
 40
1.0
 10
22.7613579016
 20
85.1246520902
 30
0.0
 10
22.7613579016
 20
85.1642625251
 30
0.0
 10
22.758156146
 20
85.2224087562
 30
0.0
 10
22.7376646924
 20
85.2945139633
 30
0.0
 10
22.7117584125
 20
85.3400243278
 30
0.0
 10
22.6713347837
 20
85.3741179377
 30
0.0
 10
22.6171994133
 20
85.3903488948
 30
0.0
 10
22.5548975989
 20
85.3873435675
 30
0.0
 10
22.4662841397
 20
85.3581186471
 30
0.0
 10
22.3638447545
 20
85.2883689216
 30
0.0
 10
22.2663869195
 20
85.1759155773
 30
0.0
 10
22.1915801589
 20
85.0481766368
 30
0.0
 10
22.154991365
 20
84.9572176633
 30
0.0
 10
22.139264504
 20
84.9111181729
 30
0.0
  0
SPLINE
  5
4D3
100
AcDbEntity
  8
0
100
AcDbSpline
 62
7
  6
CONTINUOUS
 70
0
 71
3
 72
10
 73
6
 74
0
 42
0.0000001
 43
0.0000001
 44
0.0000000001
 40
0.0
 40
0.0
 40
0.0
 40
0.0
 40
0.248889028
 40
0.5004410567
 40
1.0
 40
1.0
 40
1.0
 40
1.0
 10
22.1392645149
 20
84.9111181729
 30
0.0
 10
22.1189239527
 20
84.8514947332
 30
0.0
 10
22.0765156001
 20
84.7321257804
 30
0.0
 10
21.9932929873
 20
84.4931165562
 30
0.0
 10
21.9370505211
 20
84.3112499935
 30
0.0
 10
21.9060980045
 20
84.1886510272
 30
0.0
  0
SPLINE
  5
4D4
100
AcDbEntity
  8
0
100
AcDbSpline
 62
7
  6
CONTINUOUS
 70
0
 71
3
 72
9
 73
5
 74
0
 42
0.0000001
 43
0.0000001
 44
0.0000000001
 40
0.0
 40
0.0
 40
0.0
 40
0.0
 40
0.2542468561
 40
1.0
 40
1.0
 40
1.0
 40
1.0
 10
21.1624085827
 20
84.1886219377
 30
0.0
 10
21.1518779299
 20
84.2322245349
 30
0.0
 10
21.1135968188
 20
84.4043597895
 30
0.0
 10
21.0918372588
 20
84.5809848731
 30
0.0
 10
21.0918372588
 20
84.7125565003
 30
0.0
  0
SPLINE
  5
4D5
100
AcDbEntity
  8
0
100
AcDbSpline
 62
7
  6
CONTINUOUS
 70
0
 71
3
 72
10
 73
6
 74
0
 42
0.0000001
 43
0.0000001
 44
0.0000000001
 40
0.0
 40
0.0
 40
0.0
 40
0.0
 40
0.2501607444
 40
0.5019634223
 40
1.0
 40
1.0
 40
1.0
 40
1.0
 10
20.5483483825
 20
84.9111181729
 30
0.0
 10
20.5267486742
 20
84.8516358663
 30
0.0
 10
20.4828054055
 20
84.7324920113
 30
0.0
 10
20.3994041308
 20
84.4936923004
 30
0.0
 10
20.3456516206
 20
84.311407682
 30
0.0
 10
20.3173038726
 20
84.1886510271
 30
0.0
  0
SPLINE
  5
4D6
100
AcDbEntity
  8
0
100
AcDbSpline
 62
7
  6
CONTINUOUS
 70
0
 71
3
 72
9
 73
5
 74
0
 42
0.0000001
 43
0.0000001
 44
0.0000000001
 40
0.0
 40
0.0
 40
0.0
 40
0.0
 40
0.2534282028
 40
1.0
 40
1.0
 40
1.0
 40
1.0
 10
19.6406380007
 20
84.188619951
 30
0.0
 10
19.6321585735
 20
84.2272755538
 30
0.0
 10
19.6015906881
 20
84.3803696329
 30
0.0
 10
19.5852894444
 20
84.5367551795
 30
0.0
 10
19.5852894444
 20
84.6533379009
 30
0.0
  0
SPLINE
  5
4D7
100
AcDbEntity
  8
0
100
AcDbSpline
 62
7
  6
CONTINUOUS
 70
0
 71
3
 72
19
 73
15
 74
0
 42
0.0000001
 43
0.0000001
 44
0.0000000001
 40
0.0
 40
0.0
 40
0.0
 40
0.0
 40
0.0527865853
 40
0.1002930195
 40
0.1428385322
 40
0.1834172091
 40
0.2795008532
 40
0.3414502264
 40
0.4097616522
 40
0.4817134112
 40
0.5554070801
 40
0.7040826268
 40
0.8524060564
 40
1.0
 40
1.0
 40
1.0
 40
1.0
 10
19.6541664379
 20
85.2348077822
 30
0.0
 10
19.6541664379
 20
85.250468927
 30
0.0
 10
19.6527950189
 20
85.280279516
 30
0.0
 10
19.6441937664
 20
85.3220291105
 30
0.0
 10
19.6266377834
 20
85.3573929313
 30
0.0
 10
19.5839260253
 20
85.3924909769
 30
0.0
 10
19.5186277029
 20
85.3890894007
 30
0.0
 10
19.4567572572
 20
85.3645035357
 30
0.0
 10
19.4047607941
 20
85.3337190087
 30
0.0
 10
19.3547439666
 20
85.2945019806
 30
0.0
 10
19.291879131
 20
85.2336908732
 30
0.0
 10
19.2234822223
 20
85.1469070023
 30
0.0
 10
19.1569281456
 20
85.0326575127
 30
0.0
 10
19.12168618
 20
84.9520374636
 30
0.0
 10
19.1060939191
 20
84.9111181729
 30
0.0
  0
SPLINE
  5
4D8
100
AcDbEntity
  8
0
100
AcDbSpline
 62
7
  6
CONTINUOUS
 70
0
 71
3
 72
9
 73
5
 74
0
 42
0.0000001
 43
0.0000001
 44
0.0000000001
 40
0.0
 40
0.0
 40
0.0
 40
0.0
 40
0.5033320275
 40
1.0
 40
1.0
 40
1.0
 40
1.0
 10
19.1060939263
 20
84.9111181729
 30
0.0
 10
19.0608251656
 20
84.7923178536
 30
0.0
 10
18.9726339253
 20
84.5555545919
 30
0.0
 10
18.9051146965
 20
84.3114999523
 30
0.0
 10
18.8797027889
 20
84.1886510273
 30
0.0
  0
ELLIPSE
  5
4D9
100
AcDbEntity
  8
0
100
AcDbEllipse
 62
7
  6
CONTINUOUS
 10
39.1170629474
 20
-14.8108001791
 30
0.0
 11
-0.0
 21
27.3015635005
 31
0.0
 40
0.1538373434
 41
-0.5792396649
 42
0.5792396649
  0
ELLIPSE
  5
4DA
100
AcDbEntity
  8
0
100
AcDbEllipse
 62
7
  6
CONTINUOUS
 10
29.1170629474
 20
-14.8108001791
 30
0.0
 11
-0.0
 21
27.3015635005
 31
0.0
 40
0.1538373434
 41
-0.5792396649
 42
0.5792397079
  0
ENDSEC
  0
SECTION
  2
OBJECTS
  0
DICTIONARY
  5
C
100
AcDbDictionary
280
0
281
1
  3
ACAD_GROUP
350
D
  3
ACAD_MLINESTYLE
350
17
  3
ACAD_LAYOUT
350
1A
  3
ACAD_PLOTSETTINGS
350
19
  3
ACAD_PLOTSTYLENAME
350
E
  0
DICTIONARY
  5
D
102
{ACAD_REACTORS
330
C
102
}
100
AcDbDictionary
280
0
281
1
  0
ACDBDICTIONARYWDFLT
  5
E
102
{ACAD_REACTORS
330
C
102
}
100
AcDbDictionary
281
1
  3
Normal
350
F
100
AcDbDictionaryWithDefault
340
F
  0
DICTIONARY
  5
17
102
{ACAD_REACTORS
330
C
102
}
100
AcDbDictionary
280
0
281
1
  3
Standard
350
18
  0
DICTIONARY
  5
19
102
{ACAD_REACTORS
330
C
102
}
100
AcDbDictionary
281
1
  0
DICTIONARY
  5
1A
102
{ACAD_REACTORS
330
C
102
}
100
AcDbDictionary
281
1
  3
Model
350
4DB
  3
Layout1
350
4DC
  0
ACDBPLACEHOLDER
  5
F
102
{ACAD_REACTORS
330
E
102
}
  0
MLINESTYLE
  5
18
102
{ACAD_REACTORS
330
17
102
}
100
AcDbMlineStyle
  2
STANDARD
 70
0
  3

 62
256
 51
90.0
 52
90.0
 71
2
 49
0.5
 62
256
  6
BYLAYER
 49
-0.5
 62
256
  6
BYLAYER
  0
LAYOUT
  5
4DB
102
{ACAD_REACTORS
330
1A
102
}
100
AcDbPlotSettings
  1

  2
none_device
  4

  6

 40
0.0
 41
0.0
 42
0.0
 43
0.0
 44
210.0
 45
297.0
 46
0.0
 47
0.0
 48
0.0
 49
0.0
140
0.0
141
0.0
142
1.0
143
1.0
 70
1024
 72
1
 73
0
 74
0
  7

 75
0
147
1.0
148
0.0
149
0.0
100
AcDbLayout
  1
Model
 70
0
 71
0
 10
0.0
 20
0.0
 11
210.0
 21
297.0
 12
0.0
 22
0.0
 32
0.0
 14
0.0
 24
0.0
 34
0.0
 15
0.0
 25
0.0
 35
0.0
146
0.0
 13
0.0
 23
0.0
 33
0.0
 16
1.0
 26
0.0
 36
0.0
 17
0.0
 27
1.0
 37
0.0
 76
0
330
210
345
0
346
0
  0
LAYOUT
  5
4DC
102
{ACAD_REACTORS
330
1A
102
}
100
AcDbPlotSettings
  1

  2
none_device
  4

  6

 40
0.0
 41
0.0
 42
0.0
 43
0.0
 44
210.0
 45
297.0
 46
0.0
 47
0.0
 48
0.0
 49
0.0
140
0.0
141
0.0
142
1.0
143
1.0
 70
0
 72
1
 73
0
 74
0
  7

 75
0
147
1.0
148
0.0
149
0.0
100
AcDbLayout
  1
Layout1
 70
0
 71
1
 10
0.0
 20
0.0
 11
210.0
 21
297.0
 12
0.0
 22
0.0
 32
0.0
 14
0.0
 24
0.0
 34
0.0
 15
0.0
 25
0.0
 35
0.0
146
0.0
 13
0.0
 23
0.0
 33
0.0
 16
1.0
 26
0.0
 36
0.0
 17
0.0
 27
1.0
 37
0.0
 76
0
330
211
345
0
346
0
  0
ENDSEC
  0
EOF
