999
DXF file: C:\Users\sesa63760\Dev\_Creo\CAD\MCADPP0002520_3D-CAD\drw0001_6.dxf
999
Pro/ENGINEER 2019471 by Parametric Technology Corporation
  0
SECTION
  2
HEADER
  9
$ACADVER
  1
AC1024
  9
$DWGCODEPAGE
  3
ANSI_1252
  9
$EXTMAX
 10
184.0147838799
 20
260.2494800587
 30
0.0
  9
$EXTMIN
 10
0.0
 20
0.0
 30
0.0
  9
$LIMMIN
 10
0.0
 20
0.0
  9
$LIMMAX
 10
184.0147838799
 20
260.2494800587
  9
$VIEWCTR
 10
92.0073919399
 20
130.1247400293
  9
$VIEWSIZE
 40
260.2494800587
  9
$CLAYER
  8
0
  9
$LTSCALE
 40
16.964410552
  9
$CELTYPE
  6
BYLAYER
  9
$DIMSCALE
 40
1.0
  9
$DIMASZ
 40
2.190652189
  9
$DIMEXO
 40
1.0
  9
$DIMDLI
 40
11.7208654723
  9
$DIMEXE
 40
1.0
  9
$DIMCEN
 40
2.775994454
  9
$DIMLFAC
 40
1.0
  9
$DIMBLK
  1
_FILLED
  9
$DIMALT
 70
0
  9
$DIMALTF
 40
0.0393700787
  9
$DIMTXT
 40
3.0669130647
  9
$DIMTOL
 70
1
  9
$DIMLIM
 70
0
  9
$DIMTFAC
 40
1.0
  9
$DIMTP
 40
0.01
  9
$DIMTM
 40
0.01
  9
$DIMGAP
 40
0.625
  9
$DIMDSEP
 70
46
  9
$AUNITS
 70
0
  9
$PDMODE
 70
3
  9
$PDSIZE
 40
0.3125
  9
$HANDSEED
  5
283
  9
$TILEMODE
 70
1
  9
$MEASUREMENT
 70
1
  9
$INSUNITS
 70
4
  0
ENDSEC
  0
SECTION
  2
CLASSES
  0
CLASS
  1
ACDBDICTIONARYWDFLT
  2
AcDbDictionaryWithDefault
  3
AutoCAD 2000
 90
0
 91
1
280
0
281
0
  0
CLASS
  1
ACDBPLACEHOLDER
  2
AcDbPlaceHolder
  3
AutoCAD 2000
 90
0
 91
1
280
0
281
0
  0
CLASS
  1
LAYOUT
  2
AcDbLayout
  3
AutoCAD 2000
 90
0
 91
0
280
0
281
0
  0
ENDSEC
  0
SECTION
  2
TABLES
  0
TABLE
  2
VPORT
  5
8
100
AcDbSymbolTable
 70
2
  0
VPORT
  5
1F4
100
AcDbSymbolTableRecord
100
AcDbViewportTableRecord
  2
*ACTIVE
 70
0
 10
0.0
 20
0.0
 11
1.0
 21
1.0
 12
92.0073919399
 22
130.1247400293
 13
0.0
 23
0.0
 14
1.0
 24
1.0
 15
0.0
 25
0.0
 16
0.0
 26
0.0
 36
1.0
 17
0.0
 27
0.0
 37
0.0
 40
260.2494800587
 41
0.7070707071
 42
50.0
 43
0.0
 44
0.0
 50
0.0
 51
0.0
 71
0
 72
100
 73
1
 74
1
 75
0
 76
0
 77
0
 78
0
  0
ENDTAB
  0
TABLE
  2
LTYPE
  5
5
100
AcDbSymbolTable
 70
6
  0
LTYPE
  5
14
100
AcDbSymbolTableRecord
100
AcDbLinetypeTableRecord
  2
BYBLOCK
 70
0
  3

 72
65
 73
0
 40
0.0
  0
LTYPE
  5
15
100
AcDbSymbolTableRecord
100
AcDbLinetypeTableRecord
  2
BYLAYER
 70
0
  3

 72
65
 73
0
 40
0.0
  0
LTYPE
  5
16
100
AcDbSymbolTableRecord
100
AcDbLinetypeTableRecord
  2
CONTINUOUS
 70
64
  3
Solid line
 72
65
 73
0
 40
0.0
  0
LTYPE
  5
1F5
100
AcDbSymbolTableRecord
100
AcDbLinetypeTableRecord
  2
CENTER
 70
64
  3
____ _ ____ _ ____ _ ____ _ ____ _ ____ _ ____
 72
65
 73
4
 40
0.6
 49
0.375
 74
0
 49
-0.075
 74
0
 49
0.075
 74
0
 49
-0.075
 74
0
  0
LTYPE
  5
1F6
100
AcDbSymbolTableRecord
100
AcDbLinetypeTableRecord
  2
HIDDEN
 70
64
  3
- - - - - - - - - - - - - - - - - - - -
 72
65
 73
2
 40
0.2
 49
0.1
 74
0
 49
-0.1
 74
0
  0
LTYPE
  5
1F7
100
AcDbSymbolTableRecord
100
AcDbLinetypeTableRecord
  2
PHANTOM
 70
64
  3
_____ _ _ _____ _ _ _____ _ _ _____
 72
65
 73
6
 40
0.8
 49
0.45
 74
0
 49
-0.05
 74
0
 49
0.1
 74
0
 49
-0.05
 74
0
 49
0.1
 74
0
 49
-0.05
 74
0
  0
LTYPE
  5
1F8
100
AcDbSymbolTableRecord
100
AcDbLinetypeTableRecord
  2
DOT
 70
64
  3
. . . . . . . . . . . . . . . . . . . .
 72
65
 73
2
 40
0.2
 49
0.1
 74
0
 49
-0.1
 74
0
  0
LTYPE
  5
1F9
100
AcDbSymbolTableRecord
100
AcDbLinetypeTableRecord
  2
DASHED
 70
64
  3
- - - - - - - - - - - - - - - - - - - -
 72
65
 73
2
 40
0.2
 49
0.1
 74
0
 49
-0.1
 74
0
  0
ENDTAB
  0
TABLE
  2
LAYER
  5
2
100
AcDbSymbolTable
 70
36
  0
LAYER
  5
10
100
AcDbSymbolTableRecord
100
AcDbLayerTableRecord
  2
0
 70
0
 62
7
  6
CONTINUOUS
370
-3
390
F
  0
LAYER
  5
1FA
100
AcDbSymbolTableRecord
100
AcDbLayerTableRecord
  2
DEFAULT_1
 70
0
 62
7
  6
CENTER
370
-3
390
F
  0
LAYER
  5
1FB
100
AcDbSymbolTableRecord
100
AcDbLayerTableRecord
  2
DEFAULT_2
 70
0
 62
8
  6
HIDDEN
370
-3
390
F
  0
LAYER
  5
1FC
100
AcDbSymbolTableRecord
100
AcDbLayerTableRecord
  2
DEFAULT_3
 70
0
 62
7
  6
PHANTOM
370
-3
390
F
  0
LAYER
  5
1FD
100
AcDbSymbolTableRecord
100
AcDbLayerTableRecord
  2
00_COMPONENTS
 70
0
 62
7
  6
CONTINUOUS
370
-3
390
F
  0
LAYER
  5
1FE
100
AcDbSymbolTableRecord
100
AcDbLayerTableRecord
  2
01_1_DEFAULT_DATUMS
 70
0
 62
7
  6
CONTINUOUS
370
-3
390
F
  0
LAYER
  5
1FF
100
AcDbSymbolTableRecord
100
AcDbLayerTableRecord
  2
01_PLANES
 70
0
 62
7
  6
CONTINUOUS
370
-3
390
F
  0
LAYER
  5
200
100
AcDbSymbolTableRecord
100
AcDbLayerTableRecord
  2
02_COORD_SYS
 70
0
 62
7
  6
CONTINUOUS
370
-3
390
F
  0
LAYER
  5
201
100
AcDbSymbolTableRecord
100
AcDbLayerTableRecord
  2
03_AXES
 70
0
 62
7
  6
CONTINUOUS
370
-3
390
F
  0
LAYER
  5
202
100
AcDbSymbolTableRecord
100
AcDbLayerTableRecord
  2
04_POINTS
 70
0
 62
7
  6
CONTINUOUS
370
-3
390
F
  0
LAYER
  5
203
100
AcDbSymbolTableRecord
100
AcDbLayerTableRecord
  2
05_CURVES
 70
0
 62
7
  6
CONTINUOUS
370
-3
390
F
  0
LAYER
  5
204
100
AcDbSymbolTableRecord
100
AcDbLayerTableRecord
  2
06_SURFS
 70
0
 62
7
  6
CONTINUOUS
370
-3
390
F
  0
LAYER
  5
205
100
AcDbSymbolTableRecord
100
AcDbLayerTableRecord
  2
07_COSMETICS
 70
0
 62
7
  6
CONTINUOUS
370
-3
390
F
  0
LAYER
  5
206
100
AcDbSymbolTableRecord
100
AcDbLayerTableRecord
  2
10_NOTES
 70
0
 62
7
  6
CONTINUOUS
370
-3
390
F
  0
LAYER
  5
207
100
AcDbSymbolTableRecord
100
AcDbLayerTableRecord
  2
11_NOTES_PUB
 70
0
 62
7
  6
CONTINUOUS
370
-3
390
F
  0
LAYER
  5
208
100
AcDbSymbolTableRecord
100
AcDbLayerTableRecord
  2
13_REF_GTOL
 70
0
 62
7
  6
CONTINUOUS
370
-3
390
F
  0
LAYER
  5
209
100
AcDbSymbolTableRecord
100
AcDbLayerTableRecord
  2
16_MISC
 70
0
 62
7
  6
CONTINUOUS
370
-3
390
F
  0
LAYER
  5
20A
100
AcDbSymbolTableRecord
100
AcDbLayerTableRecord
  2
17_NO_PRINT
 70
0
 62
7
  6
CONTINUOUS
370
-3
390
F
  0
LAYER
  5
20B
100
AcDbSymbolTableRecord
100
AcDbLayerTableRecord
  2
18_DATUM_CAMS_JOINTS
 70
0
 62
7
  6
CONTINUOUS
370
-3
390
F
  0
LAYER
  5
20C
100
AcDbSymbolTableRecord
100
AcDbLayerTableRecord
  2
19_DATUM_FUNCTIONAL
 70
0
 62
7
  6
CONTINUOUS
370
-3
390
F
  0
LAYER
  5
20D
100
AcDbSymbolTableRecord
100
AcDbLayerTableRecord
  2
20_DATUM_KINEMATIC_SCHEME
 70
0
 62
7
  6
CONTINUOUS
370
-3
390
F
  0
ENDTAB
  0
TABLE
  2
STYLE
  5
3
100
AcDbSymbolTable
 70
1
  0
STYLE
  5
11
100
AcDbSymbolTableRecord
100
AcDbTextStyleTableRecord
  2
STANDARD
 70
0
 40
0.0
 41
0.8
 50
0.0
 71
0
 42
0.2
  3
txt
  4

  0
STYLE
  5
20E
100
AcDbSymbolTableRecord
100
AcDbTextStyleTableRecord
  2
TEXTSTYLE_1
 70
0
 40
0.0
 41
0.8
 50
0.0
 71
0
 42
0.2
  3
gdt
  4

  0
ENDTAB
  0
TABLE
  2
VIEW
  5
6
100
AcDbSymbolTable
 70
0
  0
ENDTAB
  0
TABLE
  2
UCS
  5
7
100
AcDbSymbolTable
 70
0
  0
ENDTAB
  0
TABLE
  2
APPID
  5
9
100
AcDbSymbolTable
 70
1
  0
APPID
  5
20F
100
AcDbSymbolTableRecord
100
AcDbRegAppTableRecord
  2
ACAD
 70
0
  0
ENDTAB
  0
TABLE
  2
BLOCK_RECORD
  5
1
100
AcDbSymbolTable
 70
0
  0
BLOCK_RECORD
  5
210
100
AcDbSymbolTableRecord
100
AcDbBlockTableRecord
  2
*Model_Space
  0
BLOCK_RECORD
  5
211
100
AcDbSymbolTableRecord
100
AcDbBlockTableRecord
  2
*Paper_Space
  0
BLOCK_RECORD
  5
212
100
AcDbSymbolTableRecord
100
AcDbBlockTableRecord
  2
_FILLED
  0
ENDTAB
  0
TABLE
  2
DIMSTYLE
  5
A
100
AcDbSymbolTable
 70
1
100
AcDbDimStyleTable
 71
0
  0
DIMSTYLE
105
213
100
AcDbSymbolTableRecord
100
AcDbDimStyleTableRecord
  2
STANDARD
 70
0
  3

  4

 40
1.0
 41
2.190652189
 42
1.0
 43
0.38
 44
1.0
 45
0.0
 46
0.0
 47
0.01
 48
0.01
140
3.0669130647
141
0.09
142
0.0
143
25.4
144
1.0
145
0.0
146
1.0
147
0.625
 71
1
 72
0
 73
0
 74
0
 75
0
 76
0
 77
1
 78
8
 79
2
170
0
171
1
172
0
173
0
174
0
175
0
176
0
177
0
178
0
270
2
179
2
271
2
272
2
273
2
274
2
275
0
280
0
281
0
282
0
283
1
284
8
285
0
286
0
287
3
288
0
340
11
278
46
341
212
342
212
343
212
344
212
  0
ENDTAB
  0
ENDSEC
  0
SECTION
  2
BLOCKS
  0
BLOCK
  5
20
100
AcDbEntity
  8
0
100
AcDbBlockBegin
  2
*Model_Space
 70
0
 10
0.0
 20
0.0
 30
0.0
  3
*Model_Space
  1

  0
ENDBLK
  5
21
100
AcDbEntity
  8
0
100
AcDbBlockEnd
  0
BLOCK
  5
1C
100
AcDbEntity
  8
0
100
AcDbBlockBegin
  2
*Paper_Space
 70
0
 10
0.0
 20
0.0
 30
0.0
  3
*Paper_Space
  1

  0
ENDBLK
  5
1D
100
AcDbEntity
  8
0
100
AcDbBlockEnd
  0
BLOCK
  5
214
100
AcDbEntity
  8
0
100
AcDbBlockBegin
  2
_FILLED
 70
64
 10
0.0
 20
0.0
  3
_FILLED
  1

  0
SOLID
  5
215
100
AcDbEntity
  8
0
  6
BYBLOCK
 62
0
100
AcDbTrace
 10
0.0
 20
0.0
 11
-1.0
 21
0.25
 12
-1.0
 22
-0.25
 13
-1.0
 23
-0.25
  0
ENDBLK
  5
216
100
AcDbEntity
  8
0
  6
BYBLOCK
 62
0
100
AcDbBlockEnd
  0
ENDSEC
  0
SECTION
  2
ENTITIES
  0
LINE
  5
217
100
AcDbEntity
  8
0
100
AcDbLine
 62
7
  6
CONTINUOUS
 10
101.3318660162
 20
21.5016400293
 11
93.2038660162
 21
21.5016400293
  0
LINE
  5
218
100
AcDbEntity
  8
0
100
AcDbLine
 62
7
  6
CONTINUOUS
 10
145.9850660162
 20
22.1366400293
 11
144.7709460162
 21
22.1366400293
  0
LINE
  5
219
100
AcDbEntity
  8
0
100
AcDbLine
 62
7
  6
CONTINUOUS
 10
101.3318660162
 20
22.136648651
 11
143.5568260162
 21
22.136648651
  0
LINE
  5
21A
100
AcDbEntity
  8
0
100
AcDbLine
 62
7
  6
CONTINUOUS
 10
145.9850660162
 20
23.8662643558
 11
144.7709460162
 21
23.8662643558
  0
LINE
  5
21B
100
AcDbEntity
  8
0
100
AcDbLine
 62
7
  6
CONTINUOUS
 10
101.3318660162
 20
29.1927600293
 11
143.5568260162
 21
29.1927600293
  0
LINE
  5
21C
100
AcDbEntity
  8
0
100
AcDbLine
 62
7
  6
CONTINUOUS
 10
91.6798660162
 20
29.3756400293
 11
101.3318660162
 21
29.3756400293
  0
LINE
  5
21D
100
AcDbEntity
  8
0
100
AcDbLine
 62
7
  6
CONTINUOUS
 10
91.0967220096
 20
39.9708074936
 11
91.7548175862
 21
39.9708074936
  0
LINE
  5
21E
100
AcDbEntity
  8
0
100
AcDbLine
 62
7
  6
CONTINUOUS
 10
52.5205650798
 20
43.8815430914
 11
91.1150859175
 21
33.5401724007
  0
LINE
  5
21F
100
AcDbEntity
  8
0
100
AcDbLine
 62
7
  6
CONTINUOUS
 10
91.0967060472
 20
39.9708074936
 11
53.6106270497
 21
50.0151720883
  0
LINE
  5
220
100
AcDbEntity
  8
0
100
AcDbLine
 62
7
  6
CONTINUOUS
 10
47.8140660162
 20
50.0151720883
 11
53.6106270497
 21
50.0151720883
  0
LINE
  5
221
100
AcDbEntity
  8
0
100
AcDbLine
 62
7
  6
CONTINUOUS
 10
45.2283460162
 20
184.700157314
 11
47.5143460162
 21
186.0199800293
  0
LINE
  5
222
100
AcDbEntity
  8
0
100
AcDbLine
 62
7
  6
CONTINUOUS
 10
36.1351460162
 20
150.13201566
 11
36.1351460162
 21
154.2474243987
  0
LINE
  5
223
100
AcDbEntity
  8
0
100
AcDbLine
 62
7
  6
CONTINUOUS
 10
36.3891460162
 20
154.2474243987
 11
36.3891460162
 21
150.13201566
  0
LINE
  5
224
100
AcDbEntity
  8
0
100
AcDbLine
 62
7
  6
CONTINUOUS
 10
36.3891460162
 20
150.1320156599
 11
36.3621483952
 21
149.8794545219
  0
LINE
  5
225
100
AcDbEntity
  8
0
100
AcDbLine
 62
7
  6
CONTINUOUS
 10
36.3621483952
 20
154.4999855368
 11
36.3891460162
 21
154.2474243987
  0
LINE
  5
226
100
AcDbEntity
  8
0
100
AcDbLine
 62
7
  6
CONTINUOUS
 10
45.2283460162
 20
184.700157314
 11
45.2283460162
 21
119.0798427447
  0
LINE
  5
227
100
AcDbEntity
  8
0
100
AcDbLine
 62
7
  6
CONTINUOUS
 10
47.5143460162
 20
185.2579800293
 11
47.5143460162
 21
118.5220200293
  0
LINE
  5
228
100
AcDbEntity
  8
0
100
AcDbLine
 62
7
  6
CONTINUOUS
 10
47.8140660162
 20
50.0151720883
 11
47.8140660162
 21
227.5673768578
  0
LINE
  5
229
100
AcDbEntity
  8
0
100
AcDbLine
 62
7
  6
CONTINUOUS
 10
53.6106270497
 20
227.5673768578
 11
53.6106270497
 21
50.0151720883
  0
LINE
  5
22A
100
AcDbEntity
  8
0
100
AcDbLine
 62
7
  6
CONTINUOUS
 10
45.2283460162
 20
119.0798427447
 11
47.5143460162
 21
117.7600200293
  0
LINE
  5
22B
100
AcDbEntity
  8
0
100
AcDbLine
 62
7
  6
CONTINUOUS
 10
80.621266133
 20
132.910932913
 11
80.621266133
 21
128.1869071457
  0
LINE
  5
22C
100
AcDbEntity
  8
0
100
AcDbLine
 62
7
  6
CONTINUOUS
 10
47.8140660162
 20
117.7600200293
 11
47.5143460162
 21
117.7600200293
  0
LINE
  5
22D
100
AcDbEntity
  8
0
100
AcDbLine
 62
7
  6
CONTINUOUS
 10
47.5143460162
 20
118.5220200293
 11
47.8140660162
 21
118.5220200293
  0
LINE
  5
22E
100
AcDbEntity
  8
0
100
AcDbLine
 62
7
  6
CONTINUOUS
 10
91.0967379721
 20
230.8469866186
 11
91.0967060472
 21
39.9708074936
  0
LINE
  5
22F
100
AcDbEntity
  8
0
100
AcDbLine
 62
7
  6
CONTINUOUS
 10
91.6798660162
 20
23.0256400293
 11
91.6798660162
 21
36.8421676532
  0
LINE
  5
230
100
AcDbEntity
  8
0
100
AcDbLine
 62
7
  6
CONTINUOUS
 10
91.7546848398
 20
237.695485996
 11
91.7548175862
 21
39.9708074936
  0
LINE
  5
231
100
AcDbEntity
  8
0
100
AcDbLine
 62
7
  6
CONTINUOUS
 10
93.2038660162
 20
238.7478400293
 11
93.2038660162
 21
21.5016400293
  0
LWPOLYLINE
  5
232
100
AcDbEntity
  8
0
100
AcDbPolyline
 62
7
  6
CONTINUOUS
 90
4
 70
0
 10
91.7546848398
 20
237.695485996
 10
91.7534024797
 20
236.7761425144
 10
91.753417555
 20
234.2819412426
 10
91.7547124245
 20
230.8738400293
  0
LINE
  5
233
100
AcDbEntity
  8
0
100
AcDbLine
 62
7
  6
CONTINUOUS
 10
151.0650660162
 20
196.8510528906
 11
145.9850660162
 21
191.2630528906
  0
LINE
  5
234
100
AcDbEntity
  8
0
100
AcDbLine
 62
7
  6
CONTINUOUS
 10
80.621266133
 20
128.5489240293
 11
99.5386375515
 21
128.5489240293
  0
LINE
  5
235
100
AcDbEntity
  8
0
100
AcDbLine
 62
7
  6
CONTINUOUS
 10
151.0650660162
 20
62.6618271681
 11
145.9850660162
 21
68.2498271681
  0
LINE
  5
236
100
AcDbEntity
  8
0
100
AcDbLine
 62
7
  6
CONTINUOUS
 10
99.5386375515
 20
132.5489160293
 11
99.5386375515
 21
128.5489240293
  0
LINE
  5
237
100
AcDbEntity
  8
0
100
AcDbLine
 62
7
  6
CONTINUOUS
 10
101.3318660162
 20
21.5016400293
 11
101.3318660162
 21
238.7478400293
  0
LINE
  5
238
100
AcDbEntity
  8
0
100
AcDbLine
 62
7
  6
CONTINUOUS
 10
80.621266133
 20
132.5489160293
 11
99.5386375515
 21
132.5489160293
  0
LINE
  5
239
100
AcDbEntity
  8
0
100
AcDbLine
 62
7
  6
CONTINUOUS
 10
110.6790660162
 20
209.3856686293
 11
110.6790660162
 21
208.3696686293
  0
LINE
  5
23A
100
AcDbEntity
  8
0
100
AcDbLine
 62
7
  6
CONTINUOUS
 10
45.2283460162
 20
148.9316988843
 11
36.3621483952
 21
149.8794545219
  0
LINE
  5
23B
100
AcDbEntity
  8
0
100
AcDbLine
 62
7
  6
CONTINUOUS
 10
45.2283460162
 20
149.1871459436
 11
36.3891460162
 21
150.13201566
  0
LINE
  5
23C
100
AcDbEntity
  8
0
100
AcDbLine
 62
7
  6
CONTINUOUS
 10
114.7939676162
 20
208.3696686293
 11
114.7939676162
 21
209.3856686293
  0
LINE
  5
23D
100
AcDbEntity
  8
0
100
AcDbLine
 62
7
  6
CONTINUOUS
 10
36.1351460162
 20
150.13201566
 11
36.3891460162
 21
150.13201566
  0
LINE
  5
23E
100
AcDbEntity
  8
0
100
AcDbLine
 62
7
  6
CONTINUOUS
 10
36.3891460162
 20
154.2474243987
 11
36.1351460162
 21
154.2474243987
  0
LINE
  5
23F
100
AcDbEntity
  8
0
100
AcDbLine
 62
7
  6
CONTINUOUS
 10
36.3891460162
 20
154.2474243987
 11
45.2283460162
 21
155.1922941151
  0
LINE
  5
240
100
AcDbEntity
  8
0
100
AcDbLine
 62
7
  6
CONTINUOUS
 10
36.3621483952
 20
154.4999855368
 11
45.2283460162
 21
155.4477411744
  0
LINE
  5
241
100
AcDbEntity
  8
0
100
AcDbLine
 62
7
  6
CONTINUOUS
 10
140.1430660162
 20
208.3696686293
 11
140.1430660162
 21
209.3856686293
  0
LINE
  5
242
100
AcDbEntity
  8
0
100
AcDbLine
 62
7
  6
CONTINUOUS
 10
143.5568260162
 20
22.1359067934
 11
143.5568260162
 21
237.8341732652
  0
LINE
  5
243
100
AcDbEntity
  8
0
100
AcDbLine
 62
7
  6
CONTINUOUS
 10
144.7709460162
 20
237.8334400293
 11
144.7709460162
 21
236.1038157028
  0
LINE
  5
244
100
AcDbEntity
  8
0
100
AcDbLine
 62
7
  6
CONTINUOUS
 10
144.7709460162
 20
23.8662643558
 11
144.7709460162
 21
22.1366400293
  0
LINE
  5
245
100
AcDbEntity
  8
0
100
AcDbLine
 62
7
  6
CONTINUOUS
 10
145.9850660162
 20
22.1366400293
 11
145.9850660162
 21
237.8334400293
  0
LINE
  5
246
100
AcDbEntity
  8
0
100
AcDbLine
 62
7
  6
CONTINUOUS
 10
151.0650660162
 20
50.8010868758
 11
151.0650660162
 21
62.6617931829
  0
LINE
  5
247
100
AcDbEntity
  8
0
100
AcDbLine
 62
7
  6
CONTINUOUS
 10
151.0650660162
 20
196.8510868758
 11
151.0650660162
 21
208.7117931829
  0
LINE
  5
248
100
AcDbEntity
  8
0
100
AcDbLine
 62
7
  6
CONTINUOUS
 10
47.8140660162
 20
185.2579800293
 11
47.5143460162
 21
185.2579800293
  0
LINE
  5
249
100
AcDbEntity
  8
0
100
AcDbLine
 62
7
  6
CONTINUOUS
 10
47.5143460162
 20
186.0199800293
 11
47.8140660162
 21
186.0199800293
  0
LINE
  5
24A
100
AcDbEntity
  8
0
100
AcDbLine
 62
7
  6
CONTINUOUS
 10
110.6790660162
 20
208.3696686293
 11
111.1326084162
 21
208.3696686293
  0
LINE
  5
24B
100
AcDbEntity
  8
0
100
AcDbLine
 62
7
  6
CONTINUOUS
 10
114.3101738162
 20
208.3696686293
 11
114.7939676162
 21
208.3696686293
  0
LINE
  5
24C
100
AcDbEntity
  8
0
100
AcDbLine
 62
7
  6
CONTINUOUS
 10
139.6895236162
 20
208.3696686293
 11
140.1430660162
 21
208.3696686293
  0
LINE
  5
24D
100
AcDbEntity
  8
0
100
AcDbLine
 62
7
  6
CONTINUOUS
 10
140.1430660162
 20
209.3856686293
 11
139.6895236162
 21
209.3856686293
  0
LINE
  5
24E
100
AcDbEntity
  8
0
100
AcDbLine
 62
7
  6
CONTINUOUS
 10
114.7939676162
 20
209.3856686293
 11
114.3101738162
 21
209.3856686293
  0
LINE
  5
24F
100
AcDbEntity
  8
0
100
AcDbLine
 62
7
  6
CONTINUOUS
 10
111.1326084162
 20
209.3856686293
 11
110.6790660162
 21
209.3856686293
  0
LINE
  5
250
100
AcDbEntity
  8
0
100
AcDbLine
 62
7
  6
CONTINUOUS
 10
151.0650660162
 20
50.8010528906
 11
145.9850660162
 21
45.2130528906
  0
LINE
  5
251
100
AcDbEntity
  8
0
100
AcDbLine
 62
7
  6
CONTINUOUS
 10
53.6106270497
 20
227.5673768578
 11
47.8140660162
 21
227.5673768578
  0
LINE
  5
252
100
AcDbEntity
  8
0
100
AcDbLine
 62
7
  6
CONTINUOUS
 10
151.0650660162
 20
208.7118271681
 11
145.9850660162
 21
214.2998271681
  0
LINE
  5
253
100
AcDbEntity
  8
0
100
AcDbLine
 62
7
  6
CONTINUOUS
 10
53.6106270497
 20
227.5673768578
 11
91.0967379721
 21
230.8469866186
  0
LINE
  5
254
100
AcDbEntity
  8
0
100
AcDbLine
 62
7
  6
CONTINUOUS
 10
91.0967361485
 20
237.1728227765
 11
53.6106270497
 21
233.8932131907
  0
LINE
  5
255
100
AcDbEntity
  8
0
100
AcDbLine
 62
7
  6
CONTINUOUS
 10
143.5568260162
 20
230.7773200293
 11
101.3318660162
 21
230.7773200293
  0
LINE
  5
256
100
AcDbEntity
  8
0
100
AcDbLine
 62
7
  6
CONTINUOUS
 10
101.3318660162
 20
230.8738400293
 11
91.7548146629
 21
230.8738400293
  0
LINE
  5
257
100
AcDbEntity
  8
0
100
AcDbLine
 62
7
  6
CONTINUOUS
 10
144.7709460162
 20
236.1038157028
 11
145.9850660162
 21
236.1038157028
  0
LINE
  5
258
100
AcDbEntity
  8
0
100
AcDbLine
 62
7
  6
CONTINUOUS
 10
143.5568260162
 20
237.8334314077
 11
101.3318660162
 21
237.8334314077
  0
LINE
  5
259
100
AcDbEntity
  8
0
100
AcDbLine
 62
7
  6
CONTINUOUS
 10
144.7709460162
 20
237.8334400293
 11
145.9850660162
 21
237.8334400293
  0
LINE
  5
25A
100
AcDbEntity
  8
0
100
AcDbLine
 62
7
  6
CONTINUOUS
 10
93.2038660162
 20
238.7478400293
 11
101.3318660162
 21
238.7478400293
  0
ARC
  5
25B
100
AcDbEntity
  8
0
100
AcDbCircle
 62
7
  6
CONTINUOUS
 10
-34.0908703185
 20
32.6814852657
 40
125.2225802051
100
AcDbArc
 50
0.7804476357
 51
1.0206286714
  0
ARC
  5
25C
100
AcDbEntity
  8
0
100
AcDbCircle
 62
7
  6
CONTINUOUS
 10
21.7793235771
 20
33.4650562744
 40
69.3469000223
100
AcDbArc
 50
0.5624546672
 51
0.7618637553
  0
ARC
  5
25D
100
AcDbEntity
  8
0
100
AcDbCircle
 62
7
  6
CONTINUOUS
 10
54.1640660162
 20
50.0151720883
 40
6.3499999882
100
AcDbArc
 50
180.0
 51
255.0
  0
ARC
  5
25E
100
AcDbEntity
  8
0
100
AcDbCircle
 62
7
  6
CONTINUOUS
 10
54.1640660162
 20
227.5673768578
 40
6.35
100
AcDbArc
 50
95.0
 51
180.0
  0
ARC
  5
25F
100
AcDbEntity
  8
0
100
AcDbCircle
 62
7
  6
CONTINUOUS
 10
36.3891460162
 20
154.2474243987
 40
0.254
100
AcDbArc
 50
96.1014852022
 51
180.0
  0
ARC
  5
260
100
AcDbEntity
  8
0
100
AcDbCircle
 62
7
  6
CONTINUOUS
 10
36.3891460162
 20
150.13201566
 40
0.254
100
AcDbArc
 50
180.0
 51
263.8985147994
  0
ARC
  5
261
100
AcDbEntity
  8
0
100
AcDbCircle
 62
7
  6
CONTINUOUS
 10
62.0855045317
 20
43.6438539037
 40
9.6690964814
100
AcDbArc
 50
173.1728997907
 51
173.4407892083
  0
ARC
  5
262
100
AcDbEntity
  8
0
100
AcDbCircle
 62
7
  6
CONTINUOUS
 10
143.5568260162
 20
24.5648800293
 40
2.42824
100
AcDbArc
 50
270.0
 51
296.2154283827
  0
ARC
  5
263
100
AcDbEntity
  8
0
100
AcDbCircle
 62
7
  6
CONTINUOUS
 10
93.2038660162
 20
23.0256400293
 40
1.524
100
AcDbArc
 50
180.0
 51
270.0
  0
ARC
  5
264
100
AcDbEntity
  8
0
100
AcDbCircle
 62
7
  6
CONTINUOUS
 10
143.5568260162
 20
24.5648800293
 40
1.21412
100
AcDbArc
 50
273.1988928993
 51
349.1484634171
  0
ARC
  5
265
100
AcDbEntity
  8
0
100
AcDbCircle
 62
7
  6
CONTINUOUS
 10
90.9178660162
 20
32.8041368645
 40
0.762
100
AcDbArc
 50
0.0
 51
75.0000148106
  0
ARC
  5
266
100
AcDbEntity
  8
0
100
AcDbCircle
 62
7
  6
CONTINUOUS
 10
125.4110660162
 20
208.877431662
 40
14.2875
100
AcDbArc
 50
2.0385636385
 51
177.9614363615
  0
ARC
  5
267
100
AcDbEntity
  8
0
100
AcDbCircle
 62
7
  6
CONTINUOUS
 10
125.4110660162
 20
208.8779055967
 40
14.2875
100
AcDbArc
 50
182.0385636385
 51
357.9614363615
  0
ARC
  5
268
100
AcDbEntity
  8
0
100
AcDbCircle
 62
7
  6
CONTINUOUS
 10
125.4110563149
 20
208.8776686293
 40
11.1125
100
AcDbArc
 50
182.6201487719
 51
177.3798512281
  0
ARC
  5
269
100
AcDbEntity
  8
0
100
AcDbCircle
 62
7
  6
CONTINUOUS
 10
62.7073769147
 20
232.4445729619
 40
9.3151229368
100
AcDbArc
 50
176.2131542226
 51
176.6013913325
  0
ARC
  5
26A
100
AcDbEntity
  8
0
100
AcDbCircle
 62
7
  6
CONTINUOUS
 10
143.5568260162
 20
235.4052000293
 40
2.42824
100
AcDbArc
 50
63.7838590238
 51
90.0
  0
ARC
  5
26B
100
AcDbEntity
  8
0
100
AcDbCircle
 62
7
  6
CONTINUOUS
 10
93.2038660162
 20
237.2238400293
 40
1.524
100
AcDbArc
 50
90.0
 51
161.9567386505
  0
ARC
  5
26C
100
AcDbEntity
  8
0
100
AcDbCircle
 62
7
  6
CONTINUOUS
 10
143.5568260162
 20
235.4052000293
 40
1.21412
100
AcDbArc
 50
10.8457943135
 51
90.0
  0
ARC
  5
26D
100
AcDbEntity
  8
0
100
AcDbCircle
 62
7
  6
CONTINUOUS
 10
91.0302933712
 20
237.931920503
 40
0.762
100
AcDbArc
 50
275.0026399938
 51
341.9560465956
  0
SPLINE
  5
26E
100
AcDbEntity
  8
0
100
AcDbSpline
 62
7
  6
CONTINUOUS
 70
0
 71
3
 72
9
 73
5
 74
0
 42
0.0000001
 43
0.0000001
 44
0.0000000001
 40
0.0
 40
0.0
 40
0.0
 40
0.0
 40
0.2812720654
 40
1.0
 40
1.0
 40
1.0
 40
1.0
 10
91.0622283913
 20
37.1597555144
 30
0.0
 10
91.0675088656
 20
36.9490263603
 30
0.0
 10
91.085779577
 20
36.199814095
 30
0.0
 10
91.1023061854
 20
35.4505544175
 30
0.0
 10
91.111842926
 20
34.9119985383
 30
0.0
  0
SPLINE
  5
26F
100
AcDbEntity
  8
0
100
AcDbSpline
 62
7
  6
CONTINUOUS
 70
0
 71
3
 72
16
 73
12
 74
0
 42
0.0000001
 43
0.0000001
 44
0.0000000001
 40
0.0
 40
0.0
 40
0.0
 40
0.0
 40
0.2326081599
 40
0.4355439843
 40
0.6079907602
 40
0.7492820348
 40
0.859178552
 40
0.9375294408
 40
0.9842343378
 40
0.9957834639
 40
1.0
 40
1.0
 40
1.0
 40
1.0
 10
91.1228822387
 20
34.1458020719
 30
0.0
 10
91.1233335597
 20
34.0987776778
 30
0.0
 10
91.1240604162
 20
34.0107192653
 30
0.0
 10
91.1246396455
 20
33.887829206
 30
0.0
 10
91.1246013269
 20
33.7832952765
 30
0.0
 10
91.1240467554
 20
33.6978631197
 30
0.0
 10
91.1227478459
 20
33.6307019887
 30
0.0
 10
91.1213920811
 20
33.5844584119
 30
0.0
 10
91.1189620793
 20
33.5548103852
 30
0.0
 10
91.1175305999
 20
33.5443191204
 30
0.0
 10
91.1159150041
 20
33.539955603
 30
0.0
 10
91.1150902671
 20
33.5401712352
 30
0.0
  0
SPLINE
  5
270
100
AcDbEntity
  8
0
100
AcDbSpline
 62
7
  6
CONTINUOUS
 70
0
 71
3
 72
9
 73
5
 74
0
 42
0.0000001
 43
0.0000001
 44
0.0000000001
 40
0.0
 40
0.0
 40
0.0
 40
0.0
 40
0.5103134153
 40
1.0
 40
1.0
 40
1.0
 40
1.0
 10
91.0967143931
 20
39.9708077421
 30
0.0
 10
91.1108417862
 20
39.4927985808
 30
0.0
 10
91.0962299112
 20
38.5553741135
 30
0.0
 10
91.0507394357
 20
37.6184996765
 30
0.0
 10
91.062232415
 20
37.1597552721
 30
0.0
  0
SPLINE
  5
271
100
AcDbEntity
  8
0
100
AcDbSpline
 62
7
  6
CONTINUOUS
 70
0
 71
3
 72
12
 73
8
 74
0
 42
0.0000001
 43
0.0000001
 44
0.0000000001
 40
0.0
 40
0.0
 40
0.0
 40
0.0
 40
0.0995256565
 40
0.1831274505
 40
0.2929545112
 40
0.5934472237
 40
1.0
 40
1.0
 40
1.0
 40
1.0
 10
53.6106270497
 20
233.8932131907
 30
0.0
 10
53.5816137135
 20
233.8906748527
 30
0.0
 10
53.542564176
 20
233.8386791644
 30
0.0
 10
53.5125629561
 20
233.7619427185
 30
0.0
 10
53.4735501687
 20
233.6208638103
 30
0.0
 10
53.4384614257
 20
233.3850002198
 30
0.0
 10
53.42045615
 20
233.1784977856
 30
0.0
 10
53.4125920821
 20
233.0597885693
 30
0.0
  0
SPLINE
  5
272
100
AcDbEntity
  8
0
100
AcDbSpline
 62
7
  6
CONTINUOUS
 70
0
 71
3
 72
11
 73
7
 74
0
 42
0.0000001
 43
0.0000001
 44
0.0000000001
 40
0.0
 40
0.0
 40
0.0
 40
0.0
 40
0.1854498729
 40
0.4247206813
 40
0.7022992359
 40
1.0
 40
1.0
 40
1.0
 40
1.0
 10
53.4086367847
 20
232.9967933184
 30
0.0
 10
53.3886947756
 20
232.6613158313
 30
0.0
 10
53.3772192907
 20
231.8911550981
 30
0.0
 10
53.4075995194
 20
230.6187447419
 30
0.0
 10
53.4851251597
 20
229.144461311
 30
0.0
 10
53.563961953
 20
228.1048440213
 30
0.0
 10
53.6106270491
 20
227.5673768655
 30
0.0
  0
SPLINE
  5
273
100
AcDbEntity
  8
0
100
AcDbSpline
 62
7
  6
CONTINUOUS
 70
0
 71
3
 72
17
 73
13
 74
0
 42
0.0000001
 43
0.0000001
 44
0.0000000001
 40
0.0
 40
0.0
 40
0.0
 40
0.0
 40
0.0044065114
 40
0.0164661805
 40
0.0364326862
 40
0.0643060343
 40
0.1436430533
 40
0.2541658716
 40
0.3955271651
 40
0.5673714071
 40
0.7692036036
 40
1.0
 40
1.0
 40
1.0
 40
1.0
 10
91.096722981
 20
237.1728217995
 30
0.0
 10
91.097962322
 20
237.1729286011
 30
0.0
 10
91.0991103611
 20
237.1662480919
 30
0.0
 10
91.1007867547
 20
237.1580816464
 30
0.0
 10
91.1023118433
 20
237.140124099
 30
0.0
 10
91.1048069195
 20
237.1049822429
 30
0.0
 10
91.1074206761
 20
237.0430655896
 30
0.0
 10
91.1102602836
 20
236.9498474457
 30
0.0
 10
91.1128207293
 20
236.8301637579
 30
0.0
 10
91.1151222879
 20
236.6848228458
 30
0.0
 10
91.1170984387
 20
236.5141827518
 30
0.0
 10
91.1181293889
 20
236.392061268
 30
0.0
 10
91.1186025422
 20
236.326910409
 30
0.0
  0
LINE
  5
274
100
AcDbEntity
  8
0
100
AcDbLine
 62
7
  6
CONTINUOUS
 10
91.1186025422
 20
236.326910409
 11
91.1189786278
 21
236.2727167355
  0
SPLINE
  5
275
100
AcDbEntity
  8
0
100
AcDbSpline
 62
7
  6
CONTINUOUS
 70
0
 71
3
 72
9
 73
5
 74
0
 42
0.0000001
 43
0.0000001
 44
0.0000000001
 40
0.0
 40
0.0
 40
0.0
 40
0.0
 40
0.4253351439
 40
1.0
 40
1.0
 40
1.0
 40
1.0
 10
91.1189786278
 20
236.2727167355
 30
0.0
 10
91.1240754787
 20
235.5034717355
 30
0.0
 10
91.1191117584
 20
233.6948292541
 30
0.0
 10
91.1059774801
 20
231.8862854061
 30
0.0
 10
91.0967229825
 20
230.8469867452
 30
0.0
  0
SPLINE
  5
276
100
AcDbEntity
  8
0
100
AcDbSpline
 62
7
  6
CONTINUOUS
 70
0
 71
3
 72
9
 73
5
 74
0
 42
0.0000001
 43
0.0000001
 44
0.0000000001
 40
0.0
 40
0.0
 40
0.0
 40
0.0
 40
0.6193268761
 40
1.0
 40
1.0
 40
1.0
 40
1.0
 10
91.0967220096
 20
230.846986176
 30
0.0
 10
91.2326586041
 20
230.8504762768
 30
0.0
 10
91.4520003317
 20
230.8580390361
 30
0.0
 10
91.6716469547
 20
230.865560201
 30
0.0
 10
91.7548175862
 20
230.8738405898
 30
0.0
  0
SPLINE
  5
277
100
AcDbEntity
  8
0
100
AcDbSpline
 62
7
  6
CONTINUOUS
 70
0
 71
3
 72
9
 73
5
 74
0
 42
0.0000001
 43
0.0000001
 44
0.0000000001
 40
0.0
 40
0.0
 40
0.0
 40
0.0
 40
0.5057638254
 40
1.0
 40
1.0
 40
1.0
 40
1.0
 10
91.7548161246
 20
39.9708074936
 30
0.0
 10
91.7548179845
 20
39.4432025707
 30
0.0
 10
91.7272416726
 20
38.4002372583
 30
0.0
 10
91.6798675758
 20
37.3577471109
 30
0.0
 10
91.6798660162
 20
36.8421676532
 30
0.0
  0
SPLINE
  5
278
100
AcDbEntity
  8
0
100
AcDbSpline
 62
7
  6
CONTINUOUS
 70
0
 71
3
 72
11
 73
7
 74
0
 42
0.0000001
 43
0.0000001
 44
0.0000000001
 40
0.0
 40
0.0
 40
0.0
 40
0.0
 40
0.3308835332
 40
0.4879392138
 40
0.6299911702
 40
1.0
 40
1.0
 40
1.0
 40
1.0
 10
91.0622251399
 20
37.1597208435
 30
0.0
 10
91.1423795038
 20
37.153157096
 30
0.0
 10
91.2597194547
 20
37.1347506566
 30
0.0
 10
91.4080337221
 20
37.0911533009
 30
0.0
 10
91.5542795062
 20
37.0322029784
 30
0.0
 10
91.6798660163
 20
36.9320996558
 30
0.0
 10
91.6798660162
 20
36.8421674208
 30
0.0
  0
SPLINE
  5
279
100
AcDbEntity
  8
0
100
AcDbSpline
 62
7
  6
CONTINUOUS
 70
0
 71
3
 72
10
 73
6
 74
0
 42
0.0000001
 43
0.0000001
 44
0.0000000001
 40
0.0
 40
0.0
 40
0.0
 40
0.0
 40
0.5756585742
 40
0.8146237515
 40
1.0
 40
1.0
 40
1.0
 40
1.0
 10
53.6106270497
 20
50.0151720883
 30
0.0
 10
53.3470686355
 20
49.0240298568
 30
0.0
 10
52.9995440379
 20
47.6140753453
 30
0.0
 10
52.6461449885
 20
45.8678175684
 30
0.0
 10
52.5242181115
 20
45.1211775733
 30
0.0
 10
52.4849678097
 20
44.7932543629
 30
0.0
  0
SPLINE
  5
27A
100
AcDbEntity
  8
0
100
AcDbSpline
 62
7
  6
CONTINUOUS
 70
0
 71
3
 72
13
 73
9
 74
0
 42
0.0000001
 43
0.0000001
 44
0.0000000001
 40
0.0
 40
0.0
 40
0.0
 40
0.0
 40
0.4079348312
 40
0.5721577738
 40
0.7092577075
 40
0.8191132116
 40
0.9024258225
 40
1.0
 40
1.0
 40
1.0
 40
1.0
 10
52.4796986847
 20
44.7483541509
 30
0.0
 10
52.4659031011
 20
44.6283441862
 30
0.0
 10
52.449391374
 20
44.4596871756
 30
0.0
 10
52.4406823317
 20
44.249562848
 30
0.0
 10
52.4413450092
 20
44.1282185109
 30
0.0
 10
52.449646908
 20
44.0292993333
 30
0.0
 10
52.4646204056
 20
43.9482529544
 30
0.0
 10
52.4926553353
 20
43.8890214849
 30
0.0
 10
52.5205650798
 20
43.8815430914
 30
0.0
  0
SPLINE
  5
27B
100
AcDbEntity
  8
0
100
AcDbSpline
 62
7
  6
CONTINUOUS
 70
0
 71
3
 72
12
 73
8
 74
0
 42
0.0000001
 43
0.0000001
 44
0.0000000001
 40
0.0
 40
0.0
 40
0.0
 40
0.0
 40
0.1154033934
 40
0.2361458461
 40
0.4858300853
 40
0.7417094796
 40
1.0
 40
1.0
 40
1.0
 40
1.0
 10
144.7709460162
 20
236.1038157029
 30
0.0
 10
144.7709460162
 20
235.8931632749
 30
0.0
 10
144.7367257216
 20
235.462172802
 30
0.0
 10
144.5907792678
 20
234.5871375647
 30
0.0
 10
144.3263688162
 20
233.4739042057
 30
0.0
 10
143.9537295607
 20
232.1303621881
 30
0.0
 10
143.6895250169
 20
231.2297327655
 30
0.0
 10
143.5568260162
 20
230.7773200293
 30
0.0
  0
SPLINE
  5
27C
100
AcDbEntity
  8
0
100
AcDbSpline
 62
7
  6
CONTINUOUS
 70
0
 71
3
 72
12
 73
8
 74
0
 42
0.0000001
 43
0.0000001
 44
0.0000000001
 40
0.0
 40
0.0
 40
0.0
 40
0.0
 40
0.2582901592
 40
0.5141683539
 40
0.7638538196
 40
0.8845963072
 40
1.0
 40
1.0
 40
1.0
 40
1.0
 10
143.5568260162
 20
29.1927600293
 30
0.0
 10
143.6895248455
 20
28.7403478774
 30
0.0
 10
143.9537292468
 20
27.839721192
 30
0.0
 10
144.3263672763
 20
26.4961796693
 30
0.0
 10
144.590790593
 20
25.3829485288
 30
0.0
 10
144.7367240975
 20
24.507908171
 30
0.0
 10
144.7709460162
 20
24.0769173528
 30
0.0
 10
144.7709460162
 20
23.8662643558
 30
0.0
  0
SPLINE
  5
27D
100
AcDbEntity
  8
0
100
AcDbSpline
 62
7
  6
CONTINUOUS
 70
0
 71
3
 72
13
 73
9
 74
0
 42
0.0000001
 43
0.0000001
 44
0.0000000001
 40
0.0
 40
0.0
 40
0.0
 40
0.0
 40
0.2772997487
 40
0.5454885611
 40
0.6725710583
 40
0.7923246091
 40
0.9023073062
 40
1.0
 40
1.0
 40
1.0
 40
1.0
 10
143.5568260162
 20
230.7773200293
 30
0.0
 10
143.8327011065
 20
231.2475926154
 30
0.0
 10
144.3753134362
 20
232.172635406
 30
0.0
 10
145.0158080466
 20
233.3302968267
 30
0.0
 10
145.4584506732
 20
234.2413308412
 30
0.0
 10
145.729486464
 20
234.8892461665
 30
0.0
 10
145.9231581421
 20
235.5039704189
 30
0.0
 10
145.9850660162
 20
235.9117351893
 30
0.0
 10
145.9850660162
 20
236.1038157029
 30
0.0
  0
SPLINE
  5
27E
100
AcDbEntity
  8
0
100
AcDbSpline
 62
7
  6
CONTINUOUS
 70
0
 71
3
 72
13
 73
9
 74
0
 42
0.0000001
 43
0.0000001
 44
0.0000000001
 40
0.0
 40
0.0
 40
0.0
 40
0.0
 40
0.0976939995
 40
0.2076754799
 40
0.3274293976
 40
0.4545137307
 40
0.7227013373
 40
1.0
 40
1.0
 40
1.0
 40
1.0
 10
145.9850660162
 20
23.8662643558
 30
0.0
 10
145.9850660162
 20
24.05834744
 30
0.0
 10
145.923167219
 20
24.4661135043
 30
0.0
 10
145.7294895604
 20
25.0808382727
 30
0.0
 10
145.4584308432
 20
25.7287455905
 30
0.0
 10
145.0158046875
 20
26.6397893555
 30
0.0
 10
144.3753093962
 20
27.797450173
 30
0.0
 10
143.8327000311
 20
28.7224892764
 30
0.0
 10
143.5568260162
 20
29.1927600293
 30
0.0
  0
ELLIPSE
  5
27F
100
AcDbEntity
  8
0
100
AcDbEllipse
 62
7
  6
CONTINUOUS
 10
46.1945233008
 20
118.5220200293
 30
0.0
 11
1.3198227154
 21
-0.0
 31
0.0
 40
0.5773502692
 41
-0.7853981634
 42
0.0
  0
ELLIPSE
  5
280
100
AcDbEntity
  8
0
100
AcDbEllipse
 62
7
  6
CONTINUOUS
 10
46.1945233008
 20
185.2579800293
 30
0.0
 11
1.3198227154
 21
0.0
 31
0.0
 40
0.5773502692
 41
0.0
 42
0.7853981634
  0
ENDSEC
  0
SECTION
  2
OBJECTS
  0
DICTIONARY
  5
C
100
AcDbDictionary
280
0
281
1
  3
ACAD_GROUP
350
D
  3
ACAD_MLINESTYLE
350
17
  3
ACAD_LAYOUT
350
1A
  3
ACAD_PLOTSETTINGS
350
19
  3
ACAD_PLOTSTYLENAME
350
E
  0
DICTIONARY
  5
D
102
{ACAD_REACTORS
330
C
102
}
100
AcDbDictionary
280
0
281
1
  0
ACDBDICTIONARYWDFLT
  5
E
102
{ACAD_REACTORS
330
C
102
}
100
AcDbDictionary
281
1
  3
Normal
350
F
100
AcDbDictionaryWithDefault
340
F
  0
DICTIONARY
  5
17
102
{ACAD_REACTORS
330
C
102
}
100
AcDbDictionary
280
0
281
1
  3
Standard
350
18
  0
DICTIONARY
  5
19
102
{ACAD_REACTORS
330
C
102
}
100
AcDbDictionary
281
1
  0
DICTIONARY
  5
1A
102
{ACAD_REACTORS
330
C
102
}
100
AcDbDictionary
281
1
  3
Model
350
281
  3
Layout1
350
282
  0
ACDBPLACEHOLDER
  5
F
102
{ACAD_REACTORS
330
E
102
}
  0
MLINESTYLE
  5
18
102
{ACAD_REACTORS
330
17
102
}
100
AcDbMlineStyle
  2
STANDARD
 70
0
  3

 62
256
 51
90.0
 52
90.0
 71
2
 49
0.5
 62
256
  6
BYLAYER
 49
-0.5
 62
256
  6
BYLAYER
  0
LAYOUT
  5
281
102
{ACAD_REACTORS
330
1A
102
}
100
AcDbPlotSettings
  1

  2
none_device
  4

  6

 40
0.0
 41
0.0
 42
0.0
 43
0.0
 44
210.0
 45
297.0
 46
0.0
 47
0.0
 48
0.0
 49
0.0
140
0.0
141
0.0
142
1.0
143
1.0
 70
1024
 72
1
 73
0
 74
0
  7

 75
0
147
1.0
148
0.0
149
0.0
100
AcDbLayout
  1
Model
 70
0
 71
0
 10
0.0
 20
0.0
 11
210.0
 21
297.0
 12
0.0
 22
0.0
 32
0.0
 14
0.0
 24
0.0
 34
0.0
 15
0.0
 25
0.0
 35
0.0
146
0.0
 13
0.0
 23
0.0
 33
0.0
 16
1.0
 26
0.0
 36
0.0
 17
0.0
 27
1.0
 37
0.0
 76
0
330
210
345
0
346
0
  0
LAYOUT
  5
282
102
{ACAD_REACTORS
330
1A
102
}
100
AcDbPlotSettings
  1

  2
none_device
  4

  6

 40
0.0
 41
0.0
 42
0.0
 43
0.0
 44
210.0
 45
297.0
 46
0.0
 47
0.0
 48
0.0
 49
0.0
140
0.0
141
0.0
142
1.0
143
1.0
 70
0
 72
1
 73
0
 74
0
  7

 75
0
147
1.0
148
0.0
149
0.0
100
AcDbLayout
  1
Layout1
 70
0
 71
1
 10
0.0
 20
0.0
 11
210.0
 21
297.0
 12
0.0
 22
0.0
 32
0.0
 14
0.0
 24
0.0
 34
0.0
 15
0.0
 25
0.0
 35
0.0
146
0.0
 13
0.0
 23
0.0
 33
0.0
 16
1.0
 26
0.0
 36
0.0
 17
0.0
 27
1.0
 37
0.0
 76
0
330
211
345
0
346
0
  0
ENDSEC
  0
EOF
