999
DXF file: C:\Users\sesa63760\Dev\_Creo\CAD\MCADID0003958_3D-CAD\drw0001_1.dxf
999
Pro/ENGINEER 2019471 by Parametric Technology Corporation
  0
SECTION
  2
HEADER
  9
$ACADVER
  1
AC1024
  9
$DWGCODEPAGE
  3
ANSI_1252
  9
$EXTMAX
 10
71.8971590436
 20
101.6831249331
 30
0.0
  9
$EXTMIN
 10
0.0
 20
0.0
 30
0.0
  9
$LIMMIN
 10
0.0
 20
0.0
  9
$LIMMAX
 10
71.8971590436
 20
101.6831249331
  9
$VIEWCTR
 10
35.9485795218
 20
50.8415624666
  9
$VIEWSIZE
 40
101.6831249331
  9
$CLAYER
  8
0
  9
$LTSCALE
 40
6.628233329
  9
$CELTYPE
  6
BYLAYER
  9
$DIMSCALE
 40
1.0
  9
$DIMASZ
 40
0.85591856
  9
$DIMEXO
 40
1.0
  9
$DIMDLI
 40
4.5795066637
  9
$DIMEXE
 40
1.0
  9
$DIMCEN
 40
1.0846199993
  9
$DIMLFAC
 40
1.0
  9
$DIMBLK
  1
_FILLED
  9
$DIMALT
 70
0
  9
$DIMALTF
 40
0.0393700787
  9
$DIMTXT
 40
1.1982859841
  9
$DIMTOL
 70
1
  9
$DIMLIM
 70
0
  9
$DIMTFAC
 40
1.0
  9
$DIMTP
 40
0.01
  9
$DIMTM
 40
0.01
  9
$DIMGAP
 40
0.625
  9
$DIMDSEP
 70
46
  9
$AUNITS
 70
0
  9
$PDMODE
 70
3
  9
$PDSIZE
 40
0.3125
  9
$HANDSEED
  5
2DC
  9
$TILEMODE
 70
1
  9
$MEASUREMENT
 70
1
  9
$INSUNITS
 70
4
  0
ENDSEC
  0
SECTION
  2
CLASSES
  0
CLASS
  1
ACDBDICTIONARYWDFLT
  2
AcDbDictionaryWithDefault
  3
AutoCAD 2000
 90
0
 91
1
280
0
281
0
  0
CLASS
  1
ACDBPLACEHOLDER
  2
AcDbPlaceHolder
  3
AutoCAD 2000
 90
0
 91
1
280
0
281
0
  0
CLASS
  1
LAYOUT
  2
AcDbLayout
  3
AutoCAD 2000
 90
0
 91
0
280
0
281
0
  0
ENDSEC
  0
SECTION
  2
TABLES
  0
TABLE
  2
VPORT
  5
8
100
AcDbSymbolTable
 70
2
  0
VPORT
  5
1F4
100
AcDbSymbolTableRecord
100
AcDbViewportTableRecord
  2
*ACTIVE
 70
0
 10
0.0
 20
0.0
 11
1.0
 21
1.0
 12
35.9485795218
 22
50.8415624666
 13
0.0
 23
0.0
 14
1.0
 24
1.0
 15
0.0
 25
0.0
 16
0.0
 26
0.0
 36
1.0
 17
0.0
 27
0.0
 37
0.0
 40
101.6831249331
 41
0.7070707071
 42
50.0
 43
0.0
 44
0.0
 50
0.0
 51
0.0
 71
0
 72
100
 73
1
 74
1
 75
0
 76
0
 77
0
 78
0
  0
ENDTAB
  0
TABLE
  2
LTYPE
  5
5
100
AcDbSymbolTable
 70
6
  0
LTYPE
  5
14
100
AcDbSymbolTableRecord
100
AcDbLinetypeTableRecord
  2
BYBLOCK
 70
0
  3

 72
65
 73
0
 40
0.0
  0
LTYPE
  5
15
100
AcDbSymbolTableRecord
100
AcDbLinetypeTableRecord
  2
BYLAYER
 70
0
  3

 72
65
 73
0
 40
0.0
  0
LTYPE
  5
16
100
AcDbSymbolTableRecord
100
AcDbLinetypeTableRecord
  2
CONTINUOUS
 70
64
  3
Solid line
 72
65
 73
0
 40
0.0
  0
LTYPE
  5
1F5
100
AcDbSymbolTableRecord
100
AcDbLinetypeTableRecord
  2
CENTER
 70
64
  3
____ _ ____ _ ____ _ ____ _ ____ _ ____ _ ____
 72
65
 73
4
 40
0.6
 49
0.375
 74
0
 49
-0.075
 74
0
 49
0.075
 74
0
 49
-0.075
 74
0
  0
LTYPE
  5
1F6
100
AcDbSymbolTableRecord
100
AcDbLinetypeTableRecord
  2
HIDDEN
 70
64
  3
- - - - - - - - - - - - - - - - - - - -
 72
65
 73
2
 40
0.2
 49
0.1
 74
0
 49
-0.1
 74
0
  0
LTYPE
  5
1F7
100
AcDbSymbolTableRecord
100
AcDbLinetypeTableRecord
  2
PHANTOM
 70
64
  3
_____ _ _ _____ _ _ _____ _ _ _____
 72
65
 73
6
 40
0.8
 49
0.45
 74
0
 49
-0.05
 74
0
 49
0.1
 74
0
 49
-0.05
 74
0
 49
0.1
 74
0
 49
-0.05
 74
0
  0
LTYPE
  5
1F8
100
AcDbSymbolTableRecord
100
AcDbLinetypeTableRecord
  2
DOT
 70
64
  3
. . . . . . . . . . . . . . . . . . . .
 72
65
 73
2
 40
0.2
 49
0.1
 74
0
 49
-0.1
 74
0
  0
LTYPE
  5
1F9
100
AcDbSymbolTableRecord
100
AcDbLinetypeTableRecord
  2
DASHED
 70
64
  3
- - - - - - - - - - - - - - - - - - - -
 72
65
 73
2
 40
0.2
 49
0.1
 74
0
 49
-0.1
 74
0
  0
ENDTAB
  0
TABLE
  2
LAYER
  5
2
100
AcDbSymbolTable
 70
36
  0
LAYER
  5
10
100
AcDbSymbolTableRecord
100
AcDbLayerTableRecord
  2
0
 70
0
 62
7
  6
CONTINUOUS
370
-3
390
F
  0
LAYER
  5
1FA
100
AcDbSymbolTableRecord
100
AcDbLayerTableRecord
  2
DEFAULT_1
 70
0
 62
7
  6
CENTER
370
-3
390
F
  0
LAYER
  5
1FB
100
AcDbSymbolTableRecord
100
AcDbLayerTableRecord
  2
DEFAULT_2
 70
0
 62
7
  6
HIDDEN
370
-3
390
F
  0
LAYER
  5
1FC
100
AcDbSymbolTableRecord
100
AcDbLayerTableRecord
  2
DEFAULT_3
 70
0
 62
7
  6
PHANTOM
370
-3
390
F
  0
LAYER
  5
1FD
100
AcDbSymbolTableRecord
100
AcDbLayerTableRecord
  2
00_COMPONENTS
 70
0
 62
7
  6
CONTINUOUS
370
-3
390
F
  0
LAYER
  5
1FE
100
AcDbSymbolTableRecord
100
AcDbLayerTableRecord
  2
01_1_DEFAULT_DATUMS
 70
0
 62
7
  6
CONTINUOUS
370
-3
390
F
  0
LAYER
  5
1FF
100
AcDbSymbolTableRecord
100
AcDbLayerTableRecord
  2
01_PLANES
 70
0
 62
7
  6
CONTINUOUS
370
-3
390
F
  0
LAYER
  5
200
100
AcDbSymbolTableRecord
100
AcDbLayerTableRecord
  2
02_COORD_SYS
 70
0
 62
7
  6
CONTINUOUS
370
-3
390
F
  0
LAYER
  5
201
100
AcDbSymbolTableRecord
100
AcDbLayerTableRecord
  2
03_AXES
 70
0
 62
7
  6
CONTINUOUS
370
-3
390
F
  0
LAYER
  5
202
100
AcDbSymbolTableRecord
100
AcDbLayerTableRecord
  2
04_POINTS
 70
0
 62
7
  6
CONTINUOUS
370
-3
390
F
  0
LAYER
  5
203
100
AcDbSymbolTableRecord
100
AcDbLayerTableRecord
  2
05_CURVES
 70
0
 62
7
  6
CONTINUOUS
370
-3
390
F
  0
LAYER
  5
204
100
AcDbSymbolTableRecord
100
AcDbLayerTableRecord
  2
06_SURFS
 70
0
 62
7
  6
CONTINUOUS
370
-3
390
F
  0
LAYER
  5
205
100
AcDbSymbolTableRecord
100
AcDbLayerTableRecord
  2
07_COSMETICS
 70
0
 62
7
  6
CONTINUOUS
370
-3
390
F
  0
LAYER
  5
206
100
AcDbSymbolTableRecord
100
AcDbLayerTableRecord
  2
10_NOTES
 70
0
 62
7
  6
CONTINUOUS
370
-3
390
F
  0
LAYER
  5
207
100
AcDbSymbolTableRecord
100
AcDbLayerTableRecord
  2
11_NOTES_PUB
 70
0
 62
7
  6
CONTINUOUS
370
-3
390
F
  0
LAYER
  5
208
100
AcDbSymbolTableRecord
100
AcDbLayerTableRecord
  2
13_REF_GTOL
 70
0
 62
7
  6
CONTINUOUS
370
-3
390
F
  0
LAYER
  5
209
100
AcDbSymbolTableRecord
100
AcDbLayerTableRecord
  2
16_MISC
 70
0
 62
7
  6
CONTINUOUS
370
-3
390
F
  0
LAYER
  5
20A
100
AcDbSymbolTableRecord
100
AcDbLayerTableRecord
  2
17_NO_PRINT
 70
0
 62
7
  6
CONTINUOUS
370
-3
390
F
  0
LAYER
  5
20B
100
AcDbSymbolTableRecord
100
AcDbLayerTableRecord
  2
18_DATUM_CAMS_JOINTS
 70
0
 62
7
  6
CONTINUOUS
370
-3
390
F
  0
LAYER
  5
20C
100
AcDbSymbolTableRecord
100
AcDbLayerTableRecord
  2
19_DATUM_FUNCTIONAL
 70
0
 62
7
  6
CONTINUOUS
370
-3
390
F
  0
LAYER
  5
20D
100
AcDbSymbolTableRecord
100
AcDbLayerTableRecord
  2
20_DATUM_KINEMATIC_SCHEME
 70
0
 62
7
  6
CONTINUOUS
370
-3
390
F
  0
ENDTAB
  0
TABLE
  2
STYLE
  5
3
100
AcDbSymbolTable
 70
1
  0
STYLE
  5
11
100
AcDbSymbolTableRecord
100
AcDbTextStyleTableRecord
  2
STANDARD
 70
0
 40
0.0
 41
1.0
 50
0.0
 71
0
 42
0.2
  3
ARIAL.TTF
  4

  0
STYLE
  5
20E
100
AcDbSymbolTableRecord
100
AcDbTextStyleTableRecord
  2
TEXTSTYLE_1
 70
0
 40
0.0
 41
0.8
 50
0.0
 71
0
 42
0.2
  3
gdt
  4

  0
ENDTAB
  0
TABLE
  2
VIEW
  5
6
100
AcDbSymbolTable
 70
0
  0
ENDTAB
  0
TABLE
  2
UCS
  5
7
100
AcDbSymbolTable
 70
0
  0
ENDTAB
  0
TABLE
  2
APPID
  5
9
100
AcDbSymbolTable
 70
1
  0
APPID
  5
20F
100
AcDbSymbolTableRecord
100
AcDbRegAppTableRecord
  2
ACAD
 70
0
  0
ENDTAB
  0
TABLE
  2
BLOCK_RECORD
  5
1
100
AcDbSymbolTable
 70
0
  0
BLOCK_RECORD
  5
210
100
AcDbSymbolTableRecord
100
AcDbBlockTableRecord
  2
*Model_Space
  0
BLOCK_RECORD
  5
211
100
AcDbSymbolTableRecord
100
AcDbBlockTableRecord
  2
*Paper_Space
  0
BLOCK_RECORD
  5
212
100
AcDbSymbolTableRecord
100
AcDbBlockTableRecord
  2
_FILLED
  0
ENDTAB
  0
TABLE
  2
DIMSTYLE
  5
A
100
AcDbSymbolTable
 70
1
100
AcDbDimStyleTable
 71
0
  0
DIMSTYLE
105
213
100
AcDbSymbolTableRecord
100
AcDbDimStyleTableRecord
  2
STANDARD
 70
0
  3

  4

 40
1.0
 41
0.85591856
 42
1.0
 43
0.38
 44
1.0
 45
0.0
 46
0.0
 47
0.01
 48
0.01
140
1.1982859841
141
0.09
142
0.0
143
25.4
144
1.0
145
0.0
146
1.0
147
0.625
 71
1
 72
0
 73
0
 74
0
 75
0
 76
0
 77
1
 78
8
 79
2
170
0
171
1
172
0
173
0
174
0
175
0
176
0
177
0
178
0
270
2
179
2
271
2
272
2
273
2
274
2
275
0
280
0
281
0
282
0
283
1
284
8
285
0
286
0
287
3
288
0
340
11
278
46
341
212
342
212
343
212
344
212
  0
ENDTAB
  0
ENDSEC
  0
SECTION
  2
BLOCKS
  0
BLOCK
  5
20
100
AcDbEntity
  8
0
100
AcDbBlockBegin
  2
*Model_Space
 70
0
 10
0.0
 20
0.0
 30
0.0
  3
*Model_Space
  1

  0
ENDBLK
  5
21
100
AcDbEntity
  8
0
100
AcDbBlockEnd
  0
BLOCK
  5
1C
100
AcDbEntity
  8
0
100
AcDbBlockBegin
  2
*Paper_Space
 70
0
 10
0.0
 20
0.0
 30
0.0
  3
*Paper_Space
  1

  0
ENDBLK
  5
1D
100
AcDbEntity
  8
0
100
AcDbBlockEnd
  0
BLOCK
  5
214
100
AcDbEntity
  8
0
100
AcDbBlockBegin
  2
_FILLED
 70
64
 10
0.0
 20
0.0
  3
_FILLED
  1

  0
SOLID
  5
215
100
AcDbEntity
  8
0
  6
BYBLOCK
 62
0
100
AcDbTrace
 10
0.0
 20
0.0
 11
-1.0
 21
0.25
 12
-1.0
 22
-0.25
 13
-1.0
 23
-0.25
  0
ENDBLK
  5
216
100
AcDbEntity
  8
0
  6
BYBLOCK
 62
0
100
AcDbBlockEnd
  0
ENDSEC
  0
SECTION
  2
ENTITIES
  0
LWPOLYLINE
  5
217
100
AcDbEntity
  8
0
100
AcDbPolyline
 62
7
  6
BYLAYER
 90
11
 70
0
 10
14.3827046118
 20
32.3530925783
 10
16.4964968777
 20
30.2609884827
 10
19.5970654096
 20
28.3659472818
 10
22.6025476569
 20
27.6503615469
 10
25.1743921152
 20
28.2047999355
 10
27.0653077554
 20
29.9591601792
 10
28.1010872931
 20
32.7332522063
 10
28.1868609084
 20
36.2599857825
 10
27.3095932079
 20
40.211033027
 10
25.565949142
 20
44.1647935146
 10
23.0974092911
 20
47.7913898947
  0
LINE
  5
218
100
AcDbEntity
  8
0
100
AcDbLine
 62
7
  6
BYLAYER
 10
11.8162967676
 20
41.6241516976
 11
11.8163043572
 21
41.6148913262
  0
LINE
  5
219
100
AcDbEntity
  8
0
100
AcDbLine
 62
7
  6
BYLAYER
 10
11.8162967676
 20
41.6241516976
 11
11.8177430022
 21
41.6140638885
  0
LINE
  5
21A
100
AcDbEntity
  8
0
100
AcDbLine
 62
7
  6
BYLAYER
 10
23.5325096927
 20
66.4478351545
 11
20.9229579585
 21
64.9412187515
  0
LINE
  5
21B
100
AcDbEntity
  8
0
100
AcDbLine
 62
7
  6
BYLAYER
 10
27.2868924875
 20
68.615416133
 11
29.8964442335
 21
70.1220325427
  0
LWPOLYLINE
  5
21C
100
AcDbEntity
  8
0
100
AcDbPolyline
 62
7
  6
BYLAYER
 90
3
 70
0
 10
28.7110373796
 20
30.0102458644
 10
30.4799739457
 20
30.2334379787
 10
31.1729689108
 20
30.5656101007
  0
LINE
  5
21D
100
AcDbEntity
  8
0
100
AcDbLine
 62
7
  6
BYLAYER
 10
13.4014537988
 20
54.0801499493
 11
13.3806785324
 21
54.0624509148
  0
LWPOLYLINE
  5
21E
100
AcDbEntity
  8
0
100
AcDbPolyline
 62
7
  6
BYLAYER
 90
3
 70
0
 10
32.7592338042
 20
68.8783251344
 10
30.1232184459
 20
68.0645969636
 10
29.1484084564
 20
67.1604622794
  0
LINE
  5
21F
100
AcDbEntity
  8
0
100
AcDbLine
 62
7
  6
BYLAYER
 10
35.4031598142
 20
67.5082575447
 11
32.7936079836
 21
66.0016410862
  0
LINE
  5
220
100
AcDbEntity
  8
0
100
AcDbLine
 62
7
  6
BYLAYER
 10
39.1575425536
 20
69.6758384913
 11
41.7670943141
 21
71.1824549093
  0
LINE
  5
221
100
AcDbEntity
  8
0
100
AcDbLine
 62
7
  6
BYLAYER
 10
47.4131168795
 20
73.7167482794
 11
42.4452758486
 21
70.8485810436
  0
LINE
  5
222
100
AcDbEntity
  8
0
100
AcDbLine
 62
7
  6
BYLAYER
 10
16.0177065072
 20
55.5907078475
 11
13.3782199798
 21
54.0666908784
  0
LINE
  5
223
100
AcDbEntity
  8
0
100
AcDbLine
 62
7
  6
BYLAYER
 10
13.3307119258
 20
54.0393800628
 11
11.3508211816
 21
52.896296432
  0
LINE
  5
224
100
AcDbEntity
  8
0
100
AcDbLine
 62
7
  6
BYLAYER
 10
36.1199013825
 20
67.155196714
 11
33.5465663799
 21
65.669489926
  0
LINE
  5
225
100
AcDbEntity
  8
0
100
AcDbLine
 62
7
  6
BYLAYER
 10
39.9105009111
 20
69.3436873087
 11
42.4838359212
 21
70.829394101
  0
LINE
  5
226
100
AcDbEntity
  8
0
100
AcDbLine
 62
7
  6
BYLAYER
 10
13.4047808943
 20
54.0817552836
 11
13.4014537988
 21
54.0801499493
  0
LINE
  5
227
100
AcDbEntity
  8
0
100
AcDbLine
 62
7
  6
BYLAYER
 10
12.7178603786
 20
44.3514256797
 11
14.4643165785
 21
45.9394125132
  0
LINE
  5
228
100
AcDbEntity
  8
0
100
AcDbLine
 62
7
  6
BYLAYER
 10
49.2399709064
 20
70.8851670638
 11
53.6947250808
 21
73.4571052332
  0
LINE
  5
229
100
AcDbEntity
  8
0
100
AcDbLine
 62
7
  6
BYLAYER
 10
25.3222801947
 20
49.1567923762
 11
25.3402821556
 21
49.1350708576
  0
LINE
  5
22A
100
AcDbEntity
  8
0
100
AcDbLine
 62
7
  6
BYLAYER
 10
25.3572324786
 20
49.1611122196
 11
25.3433996991
 21
49.1778080927
  0
LINE
  5
22B
100
AcDbEntity
  8
0
100
AcDbLine
 62
7
  6
BYLAYER
 10
25.2865220949
 20
49.1202878042
 11
25.2978065734
 21
49.106643564
  0
LINE
  5
22C
100
AcDbEntity
  8
0
100
AcDbLine
 62
7
  6
BYLAYER
 10
25.2865220949
 20
49.1202878042
 11
25.296879632
 21
49.1052254244
  0
LINE
  5
22D
100
AcDbEntity
  8
0
100
AcDbLine
 62
7
  6
BYLAYER
 10
55.3814448826
 20
72.483299132
 11
50.9266907082
 21
69.9113609626
  0
LINE
  5
22E
100
AcDbEntity
  8
0
100
AcDbLine
 62
7
  6
BYLAYER
 10
25.3572324786
 20
49.1611122196
 11
25.3422713608
 21
49.1760656669
  0
LINE
  5
22F
100
AcDbEntity
  8
0
100
AcDbLine
 62
7
  6
BYLAYER
 10
25.3208299625
 20
49.1545493501
 11
25.3402821556
 21
49.1350708576
  0
LINE
  5
230
100
AcDbEntity
  8
0
100
AcDbLine
 62
7
  6
BYLAYER
 10
15.5482692543
 20
35.8020994145
 11
16.6504186833
 21
36.536445676
  0
LINE
  5
231
100
AcDbEntity
  8
0
100
AcDbLine
 62
7
  6
BYLAYER
 10
8.571322852
 20
31.3073074131
 11
15.6423612241
 21
35.3897489518
  0
LINE
  5
232
100
AcDbEntity
  8
0
100
AcDbLine
 62
7
  6
BYLAYER
 10
48.2355014753
 20
52.0833191944
 11
45.6621664219
 21
50.597612377
  0
LINE
  5
233
100
AcDbEntity
  8
0
100
AcDbLine
 62
7
  6
BYLAYER
 10
52.0261009773
 20
54.2718097737
 11
54.5994359898
 21
55.7575165674
  0
LINE
  5
234
100
AcDbEntity
  8
0
100
AcDbLine
 62
7
  6
BYLAYER
 10
9.5713183751
 20
29.5752540208
 11
16.6423567472
 21
33.6576955596
  0
LINE
  5
235
100
AcDbEntity
  8
0
100
AcDbLine
 62
7
  6
BYLAYER
 10
48.5597973137
 20
51.1413232618
 11
45.9502455688
 21
49.6347068527
  0
LINE
  5
236
100
AcDbEntity
  8
0
100
AcDbLine
 62
7
  6
BYLAYER
 10
52.3141800883
 20
53.3089042287
 11
54.923731864
 21
54.8155206556
  0
LINE
  5
237
100
AcDbEntity
  8
0
100
AcDbLine
 62
7
  6
BYLAYER
 10
16.9524152237
 20
33.3700327369
 11
18.1394554919
 21
33.9573428742
  0
LINE
  5
238
100
AcDbEntity
  8
0
100
AcDbLine
 62
7
  6
BYLAYER
 10
27.6513270247
 20
29.3984981671
 11
27.6582078333
 21
29.4043601217
  0
LINE
  5
239
100
AcDbEntity
  8
0
100
AcDbLine
 62
7
  6
BYLAYER
 10
27.6485861338
 20
29.4155723481
 11
27.6417541168
 21
29.4097701517
  0
LINE
  5
23A
100
AcDbEntity
  8
0
100
AcDbLine
 62
7
  6
BYLAYER
 10
27.598426477
 20
29.372973481
 11
27.5805490783
 21
29.3577908227
  0
LINE
  5
23B
100
AcDbEntity
  8
0
100
AcDbLine
 62
7
  6
BYLAYER
 10
18.8842300473
 20
33.6708963615
 11
21.1326988001
 21
34.389366757
  0
LINE
  5
23C
100
AcDbEntity
  8
0
100
AcDbLine
 62
7
  6
BYLAYER
 10
27.6563596511
 20
29.4022975825
 11
27.6487854737
 21
29.3977456843
  0
LINE
  5
23D
100
AcDbEntity
  8
0
100
AcDbLine
 62
7
  6
BYLAYER
 10
61.663053084
 20
49.0349874393
 11
55.3328378409
 21
45.3802577805
  0
LINE
  5
23E
100
AcDbEntity
  8
0
100
AcDbLine
 62
7
  6
BYLAYER
 10
27.6005956929
 20
29.3692302071
 11
25.6007573861
 21
28.2145355919
  0
LINE
  5
23F
100
AcDbEntity
  8
0
100
AcDbLine
 62
7
  6
BYLAYER
 10
27.6481539098
 20
29.3966259663
 11
30.2676427117
 21
30.9089470074
  0
LINE
  5
240
100
AcDbEntity
  8
0
100
AcDbLine
 62
7
  6
BYLAYER
 10
33.6333305914
 20
31.9860921002
 11
31.1729689108
 21
30.5656101007
  0
LINE
  5
241
100
AcDbEntity
  8
0
100
AcDbLine
 62
7
  6
BYLAYER
 10
27.6479999292
 20
29.3968928327
 11
27.6513270247
 21
29.3984981671
  0
LWPOLYLINE
  5
242
100
AcDbEntity
  8
0
100
AcDbPolyline
 62
7
  6
BYLAYER
 90
3
 70
0
 10
55.7402498236
 20
49.8227112806
 10
55.6561644351
 20
48.3320347635
 10
55.3805737137
 20
47.3658641344
  0
LWPOLYLINE
  5
243
100
AcDbEntity
  8
0
100
AcDbPolyline
 62
7
  6
BYLAYER
 90
4
 70
0
 10
48.7358530632
 20
37.4559055937
 10
50.1459682043
 20
38.7637858406
 10
51.4175110736
 20
41.574373162
 10
51.8511963831
 20
45.1278117236
  0
LINE
  5
244
100
AcDbEntity
  8
0
100
AcDbLine
 62
7
  6
BYLAYER
 10
48.5597973291
 20
35.3137426031
 11
45.9502455534
 21
33.8071261762
  0
LINE
  5
245
100
AcDbEntity
  8
0
100
AcDbLine
 62
7
  6
BYLAYER
 10
52.3141801037
 20
37.4813235699
 11
54.9237318486
 21
38.987939979
  0
LWPOLYLINE
  5
246
100
AcDbEntity
  8
0
100
AcDbPolyline
 62
7
  6
BYLAYER
 90
3
 70
0
 10
54.8910068127
 20
54.8073990636
 10
55.5815596523
 20
52.0248914757
 10
55.7109826859
 20
50.2288581171
  0
LWPOLYLINE
  5
247
100
AcDbEntity
  8
0
100
AcDbPolyline
 62
7
  6
BYLAYER
 90
3
 70
0
 10
54.7351111188
 20
55.791193089
 10
55.5868309169
 20
52.3598049593
 10
55.7402213655
 20
50.2309650705
  0
LINE
  5
248
100
AcDbEntity
  8
0
100
AcDbLine
 62
7
  6
BYLAYER
 10
48.2355014499
 20
34.7043839195
 11
45.6621664473
 21
33.2186771315
  0
LINE
  5
249
100
AcDbEntity
  8
0
100
AcDbLine
 62
7
  6
BYLAYER
 10
52.0261009785
 20
36.8928745142
 11
54.5994359886
 21
38.3785813065
  0
LINE
  5
24A
100
AcDbEntity
  8
0
100
AcDbLine
 62
7
  6
BYLAYER
 10
54.4670646547
 20
73.1171498975
 11
54.455409684
 21
73.1235832868
  0
LINE
  5
24B
100
AcDbEntity
  8
0
100
AcDbLine
 62
7
  6
BYLAYER
 10
59.3689270486
 20
68.7976560208
 11
59.3901047233
 21
68.7720319269
  0
LINE
  5
24C
100
AcDbEntity
  8
0
100
AcDbLine
 62
7
  6
BYLAYER
 10
59.3689270486
 20
68.7976560208
 11
59.3893349552
 21
68.7708585592
  0
ARC
  5
24D
100
AcDbEntity
  8
0
100
AcDbCircle
 62
7
  6
BYLAYER
 10
135.6478364334
 20
56.7528657691
 40
109.3700269761
100
AcDbArc
 50
174.0030656743
 51
174.6814502196
  0
ARC
  5
24E
100
AcDbEntity
  8
0
100
AcDbCircle
 62
7
  6
BYLAYER
 10
105.9843035884
 20
-5.8851520408
 40
108.3679711547
100
AcDbArc
 50
136.5692195247
 51
136.885888344
  0
ARC
  5
24F
100
AcDbEntity
  8
0
100
AcDbCircle
 62
7
  6
BYLAYER
 10
99.0095944068
 20
-8.9843388262
 40
107.5291163146
100
AcDbArc
 50
136.567984325
 51
136.8871235437
  0
ARC
  5
250
100
AcDbEntity
  8
0
100
AcDbCircle
 62
7
  6
BYLAYER
 10
132.0749320495
 20
75.9257731375
 40
90.0482192546
100
AcDbArc
 50
196.3362145758
 51
196.9757261679
  0
ARC
  5
251
100
AcDbEntity
  8
0
100
AcDbCircle
 62
7
  6
BYLAYER
 10
138.1989046716
 20
79.5281794514
 40
89.7977522544
100
AcDbArc
 50
196.3353226925
 51
196.9766180512
  0
ARC
  5
252
100
AcDbEntity
  8
0
100
AcDbCircle
 62
7
  6
BYLAYER
 10
-28.1208604826
 20
26.753026695
 40
87.6579025833
100
AcDbArc
 50
18.6711799076
 51
19.3223649703
  0
ARC
  5
253
100
AcDbEntity
  8
0
100
AcDbCircle
 62
7
  6
BYLAYER
 10
-34.4724136979
 20
23.0830917603
 40
87.644808309
100
AcDbArc
 50
18.671131263
 51
19.3224136149
  0
ARC
  5
254
100
AcDbEntity
  8
0
100
AcDbCircle
 62
7
  6
BYLAYER
 10
-20.6866714148
 20
71.7751929321
 40
78.259253725
100
AcDbArc
 50
331.7257574952
 51
332.2311319983
  0
ARC
  5
255
100
AcDbEntity
  8
0
100
AcDbCircle
 62
7
  6
BYLAYER
 10
-13.7342362157
 20
75.1361949134
 40
77.5926086363
100
AcDbArc
 50
331.7235864918
 51
332.2333030018
  0
ARC
  5
256
100
AcDbEntity
  8
0
100
AcDbCircle
 62
7
  6
BYLAYER
 10
68.9760092287
 20
136.2522407424
 40
72.94901162
100
AcDbArc
 50
245.8731836905
 51
246.5195618575
  0
ARC
  5
257
100
AcDbEntity
  8
0
100
AcDbCircle
 62
7
  6
BYLAYER
 10
62.4536265669
 20
132.2188549503
 40
72.5564339965
100
AcDbArc
 50
245.8714350081
 51
246.5213105399
  0
ARC
  5
258
100
AcDbEntity
  8
0
100
AcDbCircle
 62
7
  6
BYLAYER
 10
105.8844039204
 20
4.1012238413
 40
66.8920322063
100
AcDbArc
 50
153.6350403948
 51
154.1962319495
  0
ARC
  5
259
100
AcDbEntity
  8
0
100
AcDbCircle
 62
7
  6
BYLAYER
 10
12.6946158351
 20
11.2589588732
 40
66.6035613655
100
AcDbArc
 50
63.4318691933
 51
64.1191973975
  0
ARC
  5
25A
100
AcDbEntity
  8
0
100
AcDbCircle
 62
7
  6
BYLAYER
 10
111.8859537505
 20
7.9528290472
 40
66.4885569517
100
AcDbArc
 50
153.6333376301
 51
154.1979347142
  0
ARC
  5
25B
100
AcDbEntity
  8
0
100
AcDbCircle
 62
7
  6
BYLAYER
 10
6.4057617167
 20
7.7371807074
 40
66.4336565509
100
AcDbArc
 50
63.430990258
 51
64.1200763328
  0
ARC
  5
25C
100
AcDbEntity
  8
0
100
AcDbCircle
 62
7
  6
BYLAYER
 10
31.7741980655
 20
48.4920682415
 40
23.9430066393
100
AcDbArc
 50
39.2646996026
 51
39.6146424105
  0
ARC
  5
25D
100
AcDbEntity
  8
0
100
AcDbCircle
 62
7
  6
BYLAYER
 10
32.6828693174
 20
49.0355406528
 40
23.0023713962
100
AcDbArc
 50
39.6146576636
 51
40.0321464948
  0
ARC
  5
25E
100
AcDbEntity
  8
0
100
AcDbCircle
 62
7
  6
BYLAYER
 10
32.9338590491
 20
48.4303392679
 40
22.9521058646
100
AcDbArc
 50
17.1156477281
 51
18.6497763698
  0
ARC
  5
25F
100
AcDbEntity
  8
0
100
AcDbCircle
 62
7
  6
BYLAYER
 10
41.223130429
 20
49.8206833127
 40
14.517115628
100
AcDbArc
 50
0.0080128382
 51
1.560221205
  0
ARC
  5
260
100
AcDbEntity
  8
0
100
AcDbCircle
 62
7
  6
BYLAYER
 10
37.9160132408
 20
55.6934615608
 40
14.4343614099
100
AcDbArc
 50
58.3835616918
 51
59.9968758138
  0
ARC
  5
261
100
AcDbEntity
  8
0
100
AcDbCircle
 62
7
  6
BYLAYER
 10
38.2257354154
 20
56.2317386145
 40
13.8133388028
100
AcDbArc
 50
59.9929555967
 51
61.3798072038
  0
ARC
  5
262
100
AcDbEntity
  8
0
100
AcDbCircle
 62
7
  6
BYLAYER
 10
12.3047178243
 20
37.1461948156
 40
10.8706285631
100
AcDbArc
 50
39.6093173244
 51
41.2124518331
  0
ARC
  5
263
100
AcDbEntity
  8
0
100
AcDbCircle
 62
7
  6
BYLAYER
 10
12.3595294081
 20
37.1734663541
 40
10.5611228799
100
AcDbArc
 50
39.6093172286
 51
41.2124519288
  0
ARC
  5
264
100
AcDbEntity
  8
0
100
AcDbCircle
 62
7
  6
BYLAYER
 10
21.5434376284
 20
42.2153432204
 40
9.7677440775
100
AcDbArc
 50
219.4370067246
 51
219.6147906052
  0
ARC
  5
265
100
AcDbEntity
  8
0
100
AcDbCircle
 62
7
  6
BYLAYER
 10
21.383268963
 20
42.118184225
 40
9.5434120235
100
AcDbArc
 50
219.6148227302
 51
219.7671162996
  0
ARC
  5
266
100
AcDbEntity
  8
0
100
AcDbCircle
 62
7
  6
BYLAYER
 10
21.2125052367
 20
41.9741942851
 40
9.3200486141
100
AcDbArc
 50
219.7582282718
 51
223.5306101397
  0
ARC
  5
267
100
AcDbEntity
  8
0
100
AcDbCircle
 62
7
  6
BYLAYER
 10
20.6447393224
 20
41.4370354237
 40
8.5384509046
100
AcDbArc
 50
223.541350423
 51
228.0905806574
  0
ARC
  5
268
100
AcDbEntity
  8
0
100
AcDbCircle
 62
7
  6
BYLAYER
 10
15.8256651805
 20
49.8552487375
 40
4.8718193306
100
AcDbArc
 50
110.4438385108
 51
110.8886194725
  0
ARC
  5
269
100
AcDbEntity
  8
0
100
AcDbCircle
 62
7
  6
BYLAYER
 10
15.7977854151
 20
49.9256236575
 40
4.796129277
100
AcDbArc
 50
110.8772104706
 51
119.9323460916
  0
ARC
  5
26A
100
AcDbEntity
  8
0
100
AcDbCircle
 62
7
  6
BYLAYER
 10
25.2036370236
 20
33.4749516695
 40
4.7541938947
100
AcDbArc
 50
300.2767832189
 51
300.951612406
  0
ARC
  5
26B
100
AcDbEntity
  8
0
100
AcDbCircle
 62
7
  6
BYLAYER
 10
15.7071202148
 20
49.9229184675
 40
4.7531440057
100
AcDbArc
 50
118.9676937339
 51
119.9975791049
  0
ARC
  5
26C
100
AcDbEntity
  8
0
100
AcDbCircle
 62
7
  6
BYLAYER
 10
20.5780718402
 20
36.6579598028
 40
2.4950797837
100
AcDbArc
 50
282.6559092731
 51
284.7987016114
  0
ARC
  5
26D
100
AcDbEntity
  8
0
100
AcDbCircle
 62
7
  6
BYLAYER
 10
17.3795470549
 20
36.1019271979
 40
1.0115774434
100
AcDbArc
 50
164.3787886658
 51
164.717749203
  0
SPLINE
  5
26E
100
AcDbEntity
  8
0
100
AcDbSpline
 62
7
  6
BYLAYER
 70
0
 71
3
 72
9
 73
5
 74
0
 42
0.0000001
 43
0.0000001
 44
0.0000000001
 40
0.0
 40
0.0
 40
0.0
 40
0.0
 40
0.2421786136
 40
1.0
 40
1.0
 40
1.0
 40
1.0
 10
49.2399709064
 20
70.8851670638
 30
0.0
 10
49.3817659009
 20
70.8170556482
 30
0.0
 10
49.961608549
 20
70.5241004487
 30
0.0
 10
50.518572269
 20
70.186564644
 30
0.0
 10
50.9266907082
 20
69.9113609627
 30
0.0
  0
SPLINE
  5
26F
100
AcDbEntity
  8
0
100
AcDbSpline
 62
7
  6
BYLAYER
 70
0
 71
3
 72
16
 73
12
 74
0
 42
0.0000001
 43
0.0000001
 44
0.0000000001
 40
0.0
 40
0.0
 40
0.0
 40
0.0
 40
0.111951987
 40
0.2253689913
 40
0.3416245925
 40
0.4619316002
 40
0.523953335
 40
0.5873411539
 40
0.7184992371
 40
0.8559637722
 40
1.0
 40
1.0
 40
1.0
 40
1.0
 10
47.4131168795
 20
73.7167482794
 30
0.0
 10
47.6237908257
 20
73.8383802129
 30
0.0
 10
48.0669970951
 20
74.0516772649
 30
0.0
 10
48.7784101625
 20
74.2722297988
 30
0.0
 10
49.5316464338
 20
74.393099096
 30
0.0
 10
50.1820821787
 20
74.4103961311
 30
0.0
 10
50.7151726968
 20
74.3763917712
 30
0.0
 10
51.2688248691
 20
74.3085917923
 30
0.0
 10
51.9764982896
 20
74.1608525248
 30
0.0
 10
52.8326862665
 20
73.8902247069
 30
0.0
 10
53.3976480006
 20
73.653408272
 30
0.0
 10
53.6811859303
 20
73.5208789178
 30
0.0
  0
SPLINE
  5
270
100
AcDbEntity
  8
0
100
AcDbSpline
 62
7
  6
BYLAYER
 70
0
 71
3
 72
11
 73
7
 74
0
 42
0.0000001
 43
0.0000001
 44
0.0000000001
 40
0.0
 40
0.0
 40
0.0
 40
0.0
 40
0.2365364481
 40
0.4829507349
 40
0.7379742448
 40
1.0
 40
1.0
 40
1.0
 40
1.0
 10
55.3822216886
 20
72.5595490649
 30
0.0
 10
55.7438527396
 20
72.3198510541
 30
0.0
 10
56.4612025932
 20
71.7981511313
 30
0.0
 10
57.4918926762
 20
70.9188886494
 30
0.0
 10
58.4900687633
 20
69.935160634
 30
0.0
 10
59.1196591737
 20
69.2248417156
 30
0.0
 10
59.4268361262
 20
68.8552090527
 30
0.0
  0
LINE
  5
271
100
AcDbEntity
  8
0
100
AcDbLine
 62
7
  6
BYLAYER
 10
59.4268361262
 20
68.8552090527
 11
59.4551953691
 21
68.8210152939
  0
SPLINE
  5
272
100
AcDbEntity
  8
0
100
AcDbSpline
 62
7
  6
BYLAYER
 70
0
 71
3
 72
25
 73
21
 74
0
 42
0.0000001
 43
0.0000001
 44
0.0000000001
 40
0.0
 40
0.0
 40
0.0
 40
0.0
 40
0.0734442116
 40
0.1478472194
 40
0.2225451182
 40
0.2968859372
 40
0.3702159961
 40
0.4419162252
 40
0.5114157823
 40
0.5782157423
 40
0.6419123385
 40
0.7022238424
 40
0.7590202376
 40
0.8123551263
 40
0.862496169
 40
0.9099453132
 40
0.9329063339
 40
0.9554874128
 40
0.9778100079
 40
1.0
 40
1.0
 40
1.0
 40
1.0
 10
59.4551953691
 20
68.8210152939
 30
0.0
 10
59.7991254325
 20
68.4054945129
 30
0.0
 10
60.4618357082
 20
67.5440492416
 30
0.0
 10
61.3685645657
 20
66.1827872975
 30
0.0
 10
62.1854158624
 20
64.7580897174
 30
0.0
 10
62.9015500198
 20
63.2889664669
 30
0.0
 10
63.5074754682
 20
61.7947320836
 30
0.0
 10
63.9951564344
 20
60.2950875349
 30
0.0
 10
64.3580760047
 20
58.809651334
 30
0.0
 10
64.5913102082
 20
57.3577225949
 30
0.0
 10
64.6915114821
 20
55.9579716527
 30
0.0
 10
64.6568362885
 20
54.6281870494
 30
0.0
 10
64.4868212485
 20
53.385142508
 30
0.0
 10
64.1820919302
 20
52.2445210831
 30
0.0
 10
63.7446329794
 20
51.2215517892
 30
0.0
 10
63.2662561527
 20
50.4707423138
 30
0.0
 10
62.8230655113
 20
49.949986284
 30
0.0
 10
62.465078522
 20
49.6020423903
 30
0.0
 10
62.0792774344
 20
49.2942924256
 30
0.0
 10
61.8041886947
 20
49.1164716358
 30
0.0
 10
61.663053084
 20
49.0349874393
 30
0.0
  0
SPLINE
  5
273
100
AcDbEntity
  8
0
100
AcDbSpline
 62
7
  6
BYLAYER
 70
0
 71
3
 72
11
 73
7
 74
0
 42
0.0000001
 43
0.0000001
 44
0.0000000001
 40
0.0
 40
0.0
 40
0.0
 40
0.0
 40
0.2365724749
 40
0.4830510295
 40
0.7380646674
 40
1.0
 40
1.0
 40
1.0
 40
1.0
 10
55.3814448826
 20
72.483299132
 30
0.0
 10
55.7375792463
 20
72.2431495124
 30
0.0
 10
56.4441943345
 20
71.7217444962
 30
0.0
 10
57.4600424545
 20
70.8460233895
 30
0.0
 10
58.4443429074
 20
69.8685574437
 30
0.0
 10
59.0656799939
 20
69.1640254267
 30
0.0
 10
59.3689270486
 20
68.7976560208
 30
0.0
  0
SPLINE
  5
274
100
AcDbEntity
  8
0
100
AcDbSpline
 62
7
  6
BYLAYER
 70
0
 71
3
 72
16
 73
12
 74
0
 42
0.0000001
 43
0.0000001
 44
0.0000000001
 40
0.0
 40
0.0
 40
0.0
 40
0.0
 40
0.1104987965
 40
0.2226668271
 40
0.338052805
 40
0.4579882445
 40
0.5200294937
 40
0.583575076
 40
0.7154674897
 40
0.8542321665
 40
1.0
 40
1.0
 40
1.0
 40
1.0
 10
47.4131195139
 20
73.7167437167
 30
0.0
 10
47.6217369421
 20
73.8371976688
 30
0.0
 10
48.0614282528
 20
74.0480506849
 30
0.0
 10
48.7686540581
 20
74.2642373702
 30
0.0
 10
49.5197879555
 20
74.3799741698
 30
0.0
 10
50.1698441156
 20
74.3921405972
 30
0.0
 10
50.7039465859
 20
74.3534025702
 30
0.0
 10
51.2607497784
 20
74.2800689658
 30
0.0
 10
51.9739464038
 20
74.1238147243
 30
0.0
 10
52.8379072861
 20
73.840863208
 30
0.0
 10
53.4082748479
 20
73.5947019865
 30
0.0
 10
53.6947250808
 20
73.4571052332
 30
0.0
  0
SPLINE
  5
275
100
AcDbEntity
  8
0
100
AcDbSpline
 62
7
  6
BYLAYER
 70
0
 71
3
 72
29
 73
25
 74
0
 42
0.0000001
 43
0.0000001
 44
0.0000000001
 40
0.0
 40
0.0
 40
0.0
 40
0.0
 40
0.0068171294
 40
0.0125968942
 40
0.0184984718
 40
0.0246615295
 40
0.0310494303
 40
0.0376165383
 40
0.0511531358
 40
0.0650877924
 40
0.0793118872
 40
0.0937585036
 40
0.1083831463
 40
0.1380491373
 40
0.1681458296
 40
0.1985739028
 40
0.229268407
 40
0.2912863864
 40
0.3539609325
 40
0.4807534147
 40
0.6089889557
 40
0.7383525295
 40
0.8686997365
 40
1.0
 40
1.0
 40
1.0
 40
1.0
 10
55.3814448826
 20
72.483299132
 30
0.0
 10
55.3836711739
 20
72.4845844742
 30
0.0
 10
55.3872992807
 20
72.488394005
 30
0.0
 10
55.3875443149
 20
72.4956999624
 30
0.0
 10
55.3856074652
 20
72.5021688872
 30
0.0
 10
55.3825301912
 20
72.5084377587
 30
0.0
 10
55.3787005798
 20
72.5145530067
 30
0.0
 10
55.3728265919
 20
72.5226406507
 30
0.0
 10
55.3645285937
 20
72.53245217
 30
0.0
 10
55.3536955854
 20
72.5438538682
 30
0.0
 10
55.3421682991
 20
72.5550500454
 30
0.0
 10
55.3301254128
 20
72.5660761808
 30
0.0
 10
55.3134486806
 20
72.5806552771
 30
0.0
 10
55.291825636
 20
72.5985322291
 30
0.0
 10
55.265067482
 20
72.6195290492
 30
0.0
 10
55.2375983005
 20
72.6402365972
 30
0.0
 10
55.20009181
 20
72.6676162419
 30
0.0
 10
55.1521198445
 20
72.7012721225
 30
0.0
 10
55.0735141693
 20
72.7543300293
 30
0.0
 10
54.9728286294
 20
72.8192782547
 30
0.0
 10
54.8495579853
 20
72.8955468589
 30
0.0
 10
54.7240196856
 20
72.9706661722
 30
0.0
 10
54.5965272097
 20
73.044744089
 30
0.0
 10
54.5106060044
 20
73.0932525848
 30
0.0
 10
54.4673306447
 20
73.1173093879
 30
0.0
  0
SPLINE
  5
276
100
AcDbEntity
  8
0
100
AcDbSpline
 62
7
  6
BYLAYER
 70
0
 71
3
 72
24
 73
20
 74
0
 42
0.0000001
 43
0.0000001
 44
0.0000000001
 40
0.0
 40
0.0
 40
0.0
 40
0.0
 40
0.1198419377
 40
0.2403854953
 40
0.3617522873
 40
0.4841367344
 40
0.5458050903
 40
0.6078665235
 40
0.6704068811
 40
0.7335541039
 40
0.797515454
 40
0.8299099038
 40
0.8626764226
 40
0.8959397473
 40
0.9299158969
 40
0.9472907591
 40
0.9650145293
 40
0.9830666189
 40
1.0
 40
1.0
 40
1.0
 40
1.0
 10
54.4557068399
 20
73.1237619685
 30
0.0
 10
54.4264546812
 20
73.1399774039
 30
0.0
 10
54.3676317628
 20
73.1722383676
 30
0.0
 10
54.2786274423
 20
73.2198971707
 30
0.0
 10
54.1884420095
 20
73.2668399853
 30
0.0
 10
54.1122753999
 20
73.3051130375
 30
0.0
 10
54.0504748165
 20
73.3350907776
 30
0.0
 10
54.0034517716
 20
73.3572582532
 30
0.0
 10
53.9557582454
 20
73.3789621423
 30
0.0
 10
53.907215521
 20
73.4000633154
 30
0.0
 10
53.8659952654
 20
73.4168868449
 30
0.0
 10
53.8323018094
 20
73.4296720321
 30
0.0
 10
53.8064134366
 20
73.4388651769
 30
0.0
 10
53.7798495028
 20
73.4474353048
 30
0.0
 10
53.7570674593
 20
73.4537284503
 30
0.0
 10
53.7382306812
 20
73.4578027451
 30
0.0
 10
53.7235259412
 20
73.4600999845
 30
0.0
 10
53.7089390268
 20
73.4609236693
 30
0.0
 10
53.6988177742
 20
73.4594681367
 30
0.0
 10
53.6947250808
 20
73.4571052332
 30
0.0
  0
SPLINE
  5
277
100
AcDbEntity
  8
0
100
AcDbSpline
 62
7
  6
BYLAYER
 70
0
 71
3
 72
25
 73
21
 74
0
 42
0.0000001
 43
0.0000001
 44
0.0000000001
 40
0.0
 40
0.0
 40
0.0
 40
0.0
 40
0.0738803227
 40
0.1487258203
 40
0.2238622635
 40
0.2986277164
 40
0.372357481
 40
0.4444206674
 40
0.5142323652
 40
0.5812765488
 40
0.6451286792
 40
0.7054821189
 40
0.7621785194
 40
0.815242674
 40
0.8649197585
 40
0.9117076395
 40
0.9342706308
 40
0.9564183962
 40
0.9782814726
 40
1.0
 40
1.0
 40
1.0
 40
1.0
 10
59.3901047233
 20
68.7720319269
 30
0.0
 10
59.7343348166
 20
68.354906621
 30
0.0
 10
60.3976608615
 20
67.4903101087
 30
0.0
 10
61.3053155543
 20
66.124511388
 30
0.0
 10
62.1230611639
 20
64.6955039332
 30
0.0
 10
62.8400032246
 20
63.2224391571
 30
0.0
 10
63.446612669
 20
61.7247962838
 30
0.0
 10
63.9348451352
 20
60.2224834489
 30
0.0
 10
64.2982092902
 20
58.7353794127
 30
0.0
 10
64.5318623466
 20
57.2831153073
 30
0.0
 10
64.6326374664
 20
55.8847720817
 30
0.0
 10
64.5990179044
 20
54.5586091185
 30
0.0
 10
64.4310839001
 20
53.3218690785
 30
0.0
 10
64.1302725429
 20
52.1905512561
 30
0.0
 10
63.6996080743
 20
51.1797979418
 30
0.0
 10
63.2297632881
 20
50.4402848653
 30
0.0
 10
62.7955506188
 20
49.9291845084
 30
0.0
 10
62.445761072
 20
49.588726532
 30
0.0
 10
62.0691795329
 20
49.2880382399
 30
0.0
 10
61.8007328361
 20
49.1144886564
 30
0.0
 10
61.6630504496
 20
49.0349920021
 30
0.0
  0
SPLINE
  5
278
100
AcDbEntity
  8
0
100
AcDbSpline
 62
7
  6
BYLAYER
 70
0
 71
3
 72
11
 73
7
 74
0
 42
0.0000001
 43
0.0000001
 44
0.0000000001
 40
0.0
 40
0.0
 40
0.0
 40
0.0
 40
0.2438668952
 40
0.4915241304
 40
0.7434624398
 40
1.0
 40
1.0
 40
1.0
 40
1.0
 10
54.9237318486
 20
54.8155206467
 30
0.0
 10
54.9964257337
 20
54.1967206806
 30
0.0
 10
55.1279383073
 20
52.9476719759
 30
0.0
 10
55.2750638518
 20
51.0536464252
 30
0.0
 10
55.3664504747
 20
49.1236640295
 30
0.0
 10
55.3867155692
 20
47.8244599718
 30
0.0
 10
55.3867155692
 20
47.169032493
 30
0.0
  0
SPLINE
  5
279
100
AcDbEntity
  8
0
100
AcDbSpline
 62
7
  6
BYLAYER
 70
0
 71
3
 72
10
 73
6
 74
0
 42
0.0000001
 43
0.0000001
 44
0.0000000001
 40
0.0
 40
0.0
 40
0.0
 40
0.0
 40
0.2518493708
 40
0.5024476483
 40
1.0
 40
1.0
 40
1.0
 40
1.0
 10
49.0227249666
 20
63.5712161158
 30
0.0
 10
49.5278519868
 20
62.9428352418
 30
0.0
 10
50.5165013235
 20
61.6736913038
 30
0.0
 10
52.4073968409
 20
59.0901183158
 30
0.0
 10
53.7410066997
 20
57.0991927644
 30
0.0
 10
54.5994359898
 20
55.7575165674
 30
0.0
  0
SPLINE
  5
27A
100
AcDbEntity
  8
0
100
AcDbSpline
 62
7
  6
BYLAYER
 70
0
 71
3
 72
9
 73
5
 74
0
 42
0.0000001
 43
0.0000001
 44
0.0000000001
 40
0.0
 40
0.0
 40
0.0
 40
0.0
 40
0.5170818264
 40
1.0
 40
1.0
 40
1.0
 40
1.0
 10
29.8964442277
 20
70.1220325393
 30
0.0
 10
30.9953424047
 20
70.288800336
 30
0.0
 10
33.1237960242
 20
70.5905809568
 30
0.0
 10
35.2608223679
 20
70.8271833442
 30
0.0
 10
36.294749914
 20
70.91954562
 30
0.0
  0
SPLINE
  5
27B
100
AcDbEntity
  8
0
100
AcDbSpline
 62
7
  6
BYLAYER
 70
0
 71
3
 72
9
 73
5
 74
0
 42
0.0000001
 43
0.0000001
 44
0.0000000001
 40
0.0
 40
0.0
 40
0.0
 40
0.0
 40
0.5216732059
 40
1.0
 40
1.0
 40
1.0
 40
1.0
 10
36.294749914
 20
70.91954562
 30
0.0
 10
37.2438749622
 20
71.0043323864
 30
0.0
 10
39.0667505159
 20
71.1311557582
 30
0.0
 10
40.8933805703
 20
71.1777010103
 30
0.0
 10
41.7670943141
 20
71.1824549093
 30
0.0
  0
SPLINE
  5
27C
100
AcDbEntity
  8
0
100
AcDbSpline
 62
7
  6
BYLAYER
 70
0
 71
3
 72
10
 73
6
 74
0
 42
0.0000001
 43
0.0000001
 44
0.0000000001
 40
0.0
 40
0.0
 40
0.0
 40
0.0
 40
0.5016775205
 40
0.7513518
 40
1.0
 40
1.0
 40
1.0
 40
1.0
 10
42.4838359175
 20
70.8293940989
 30
0.0
 10
43.6349839022
 20
69.6692734402
 30
0.0
 10
45.3257182465
 20
67.8977019046
 30
0.0
 10
47.4786221224
 20
65.4522965459
 30
0.0
 10
48.5152226891
 20
64.2025518684
 30
0.0
 10
49.0227249666
 20
63.5712161158
 30
0.0
  0
SPLINE
  5
27D
100
AcDbEntity
  8
0
100
AcDbSpline
 62
7
  6
BYLAYER
 70
0
 71
3
 72
10
 73
6
 74
0
 42
0.0000001
 43
0.0000001
 44
0.0000000001
 40
0.0
 40
0.0
 40
0.0
 40
0.0
 40
0.2442241631
 40
0.4925993318
 40
1.0
 40
1.0
 40
1.0
 40
1.0
 10
55.3867155692
 20
47.169032493
 30
0.0
 10
55.3867155692
 20
46.5017004459
 30
0.0
 10
55.365351652
 20
45.1556048135
 30
0.0
 10
55.2414667607
 20
42.4256702032
 30
0.0
 10
55.0663900911
 20
40.3670316251
 30
0.0
 10
54.9237318486
 20
38.987939979
 30
0.0
  0
SPLINE
  5
27E
100
AcDbEntity
  8
0
100
AcDbSpline
 62
7
  6
BYLAYER
 70
0
 71
3
 72
9
 73
5
 74
0
 42
0.0000001
 43
0.0000001
 44
0.0000000001
 40
0.0
 40
0.0
 40
0.0
 40
0.0
 40
0.2444366294
 40
1.0
 40
1.0
 40
1.0
 40
1.0
 10
48.6502334012
 20
36.4185029998
 30
0.0
 10
48.9258101526
 20
36.4533305923
 30
0.0
 10
50.0526420941
 20
36.600270369
 30
0.0
 10
51.1773350114
 20
36.7633339982
 30
0.0
 10
52.0261009822
 20
36.8928745163
 30
0.0
  0
SPLINE
  5
27F
100
AcDbEntity
  8
0
100
AcDbSpline
 62
7
  6
BYLAYER
 70
0
 71
3
 72
9
 73
5
 74
0
 42
0.0000001
 43
0.0000001
 44
0.0000000001
 40
0.0
 40
0.0
 40
0.0
 40
0.0
 40
0.521673212
 40
1.0
 40
1.0
 40
1.0
 40
1.0
 10
32.7592307647
 20
68.8783248718
 30
0.0
 10
31.8101067632
 20
68.7935382785
 30
0.0
 10
29.9872332558
 20
68.6667150215
 30
0.0
 10
28.1606052454
 20
68.6201700273
 30
0.0
 10
27.2868924934
 20
68.6154161364
 30
0.0
  0
SPLINE
  5
280
100
AcDbEntity
  8
0
100
AcDbSpline
 62
7
  6
BYLAYER
 70
0
 71
3
 72
15
 73
11
 74
0
 42
0.0000001
 43
0.0000001
 44
0.0000000001
 40
0.0
 40
0.0
 40
0.0
 40
0.0
 40
0.1108410466
 40
0.2280578212
 40
0.3507094039
 40
0.4776259749
 40
0.6074737875
 40
0.7388131822
 40
0.8701524818
 40
1.0
 40
1.0
 40
1.0
 40
1.0
 10
51.8511963831
 20
45.1278117236
 30
0.0
 10
51.8511963831
 20
45.789213649
 30
0.0
 10
51.7719746635
 20
47.1508347291
 30
0.0
 10
51.4425805032
 20
49.2203934556
 30
0.0
 10
50.9047954522
 20
51.3448183884
 30
0.0
 10
50.167740535
 20
53.4880909184
 30
0.0
 10
49.2438756958
 20
55.6141987702
 30
0.0
 10
48.1487829942
 20
57.68723807
 30
0.0
 10
46.9011046962
 20
59.6720034537
 30
0.0
 10
45.9726477162
 20
60.9261030314
 30
0.0
 10
45.4872058843
 20
61.5299952509
 30
0.0
  0
SPLINE
  5
281
100
AcDbEntity
  8
0
100
AcDbSpline
 62
7
  6
BYLAYER
 70
0
 71
3
 72
16
 73
12
 74
0
 42
0.0000001
 43
0.0000001
 44
0.0000000001
 40
0.0
 40
0.0
 40
0.0
 40
0.0
 40
0.1491232975
 40
0.2932350943
 40
0.4309609492
 40
0.5611954033
 40
0.6831905407
 40
0.7966605095
 40
0.8503030695
 40
0.9019889181
 40
1.0
 40
1.0
 40
1.0
 40
1.0
 10
45.4872058843
 20
61.5299952509
 30
0.0
 10
45.0127237859
 20
62.1202536186
 30
0.0
 10
44.0340344532
 20
63.2452240208
 30
0.0
 10
42.4632415811
 20
64.7730298149
 30
0.0
 10
40.8354476093
 20
66.0931833176
 30
0.0
 10
39.1776753001
 20
67.1833742498
 30
0.0
 10
37.5173580438
 20
68.0250696181
 30
0.0
 10
36.1280850677
 20
68.5162480618
 30
0.0
 10
35.0436960303
 20
68.7641401298
 30
0.0
 10
34.02100622
 20
68.9118664761
 30
0.0
 10
33.2550090724
 20
68.9226137303
 30
0.0
 10
32.7592338042
 20
68.8783251344
 30
0.0
  0
SPLINE
  5
282
100
AcDbEntity
  8
0
100
AcDbSpline
 62
7
  6
BYLAYER
 70
0
 71
3
 72
10
 73
6
 74
0
 42
0.0000001
 43
0.0000001
 44
0.0000000001
 40
0.0
 40
0.0
 40
0.0
 40
0.0
 40
0.2442241631
 40
0.4925993318
 40
1.0
 40
1.0
 40
1.0
 40
1.0
 10
51.8511963831
 20
45.1278117236
 30
0.0
 10
51.8511963831
 20
45.7951437707
 30
0.0
 10
51.8725603003
 20
47.1412394031
 30
0.0
 10
51.9964451916
 20
49.8711740134
 30
0.0
 10
52.1715218612
 20
51.9298125915
 30
0.0
 10
52.3141801037
 20
53.3089042376
 30
0.0
  0
SPLINE
  5
283
100
AcDbEntity
  8
0
100
AcDbSpline
 62
7
  6
BYLAYER
 70
0
 71
3
 72
10
 73
6
 74
0
 42
0.0000001
 43
0.0000001
 44
0.0000000001
 40
0.0
 40
0.0
 40
0.0
 40
0.0
 40
0.5016775218
 40
0.7513517917
 40
1.0
 40
1.0
 40
1.0
 40
1.0
 10
52.0261009773
 20
54.2718097737
 30
0.0
 10
50.8749518451
 20
55.4319315917
 30
0.0
 10
49.1842154073
 20
57.2035045173
 30
0.0
 10
47.0313110863
 20
59.6489137806
 30
0.0
 10
45.9947085396
 20
60.898658903
 30
0.0
 10
45.4872058173
 20
61.5299953677
 30
0.0
  0
SPLINE
  5
284
100
AcDbEntity
  8
0
100
AcDbSpline
 62
7
  6
BYLAYER
 70
0
 71
3
 72
11
 73
7
 74
0
 42
0.0000001
 43
0.0000001
 44
0.0000000001
 40
0.0
 40
0.0
 40
0.0
 40
0.0
 40
0.2438668952
 40
0.4915241304
 40
0.7434624398
 40
1.0
 40
1.0
 40
1.0
 40
1.0
 10
52.3141801037
 20
37.4813235699
 30
0.0
 10
52.2414862186
 20
38.100123536
 30
0.0
 10
52.109973645
 20
39.3491722407
 30
0.0
 10
51.9628481005
 20
41.2431977914
 30
0.0
 10
51.8714614776
 20
43.1731801871
 30
0.0
 10
51.8511963831
 20
44.4723842448
 30
0.0
 10
51.8511963831
 20
45.1278117236
 30
0.0
  0
SPLINE
  5
285
100
AcDbEntity
  8
0
100
AcDbSpline
 62
7
  6
BYLAYER
 70
0
 71
3
 72
10
 73
6
 74
0
 42
0.0000001
 43
0.0000001
 44
0.0000000001
 40
0.0
 40
0.0
 40
0.0
 40
0.0
 40
0.2518493845
 40
0.5024476491
 40
1.0
 40
1.0
 40
1.0
 40
1.0
 10
45.4872058173
 20
61.5299953677
 30
0.0
 10
44.9820793585
 20
62.1583757012
 30
0.0
 10
43.9934300332
 20
63.427517593
 30
0.0
 10
42.102538241
 20
66.011089311
 30
0.0
 10
40.7689293321
 20
68.0020124741
 30
0.0
 10
39.9105009148
 20
69.3436873109
 30
0.0
  0
SPLINE
  5
286
100
AcDbEntity
  8
0
100
AcDbSpline
 62
7
  6
BYLAYER
 70
0
 71
3
 72
9
 73
5
 74
0
 42
0.0000001
 43
0.0000001
 44
0.0000000001
 40
0.0
 40
0.0
 40
0.0
 40
0.0
 40
0.5170818251
 40
1.0
 40
1.0
 40
1.0
 40
1.0
 10
39.1575425536
 20
69.6758384913
 30
0.0
 10
38.0586433356
 20
69.5090705385
 30
0.0
 10
35.9301876741
 20
69.2072897858
 30
0.0
 10
33.793159303
 20
68.9706871497
 30
0.0
 10
32.7592307647
 20
68.8783248718
 30
0.0
  0
SPLINE
  5
287
100
AcDbEntity
  8
0
100
AcDbSpline
 62
7
  6
BYLAYER
 70
0
 71
3
 72
10
 73
6
 74
0
 42
0.0000001
 43
0.0000001
 44
0.0000000001
 40
0.0
 40
0.0
 40
0.0
 40
0.0
 40
0.2442241631
 40
0.4925993318
 40
1.0
 40
1.0
 40
1.0
 40
1.0
 10
49.0227810343
 20
43.4948351081
 30
0.0
 10
49.0227810343
 20
42.8275030611
 30
0.0
 10
49.0014171171
 20
41.4814074286
 30
0.0
 10
48.8775322258
 20
38.7514728184
 30
0.0
 10
48.7024555562
 20
36.6928342402
 30
0.0
 10
48.5597973137
 20
35.3137425942
 30
0.0
  0
SPLINE
  5
288
100
AcDbEntity
  8
0
100
AcDbSpline
 62
7
  6
BYLAYER
 70
0
 71
3
 72
9
 73
5
 74
0
 42
0.0000001
 43
0.0000001
 44
0.0000000001
 40
0.0
 40
0.0
 40
0.0
 40
0.0
 40
0.4826831014
 40
1.0
 40
1.0
 40
1.0
 40
1.0
 10
39.1232773981
 20
32.3997683745
 30
0.0
 10
40.1794883022
 20
32.4941212559
 30
0.0
 10
42.3635453227
 20
32.7369417378
 30
0.0
 10
44.5386716002
 20
33.0472068916
 30
0.0
 10
45.6621664473
 20
33.2186771315
 30
0.0
  0
SPLINE
  5
289
100
AcDbEntity
  8
0
100
AcDbSpline
 62
7
  6
BYLAYER
 70
0
 71
3
 72
11
 73
7
 74
0
 42
0.0000001
 43
0.0000001
 44
0.0000000001
 40
0.0
 40
0.0
 40
0.0
 40
0.0
 40
0.2438668952
 40
0.4915241304
 40
0.7434624398
 40
1.0
 40
1.0
 40
1.0
 40
1.0
 10
48.5597973137
 20
51.1413232618
 30
0.0
 10
48.6324911988
 20
50.5225232957
 30
0.0
 10
48.7640037724
 20
49.273474591
 30
0.0
 10
48.9111293169
 20
47.3794490403
 30
0.0
 10
49.0025159398
 20
45.4494666446
 30
0.0
 10
49.0227810343
 20
44.150262587
 30
0.0
 10
49.0227810343
 20
43.4948351081
 30
0.0
  0
SPLINE
  5
28A
100
AcDbEntity
  8
0
100
AcDbSpline
 62
7
  6
BYLAYER
 70
0
 71
3
 72
10
 73
6
 74
0
 42
0.0000001
 43
0.0000001
 44
0.0000000001
 40
0.0
 40
0.0
 40
0.0
 40
0.0
 40
0.2518493708
 40
0.5024476483
 40
1.0
 40
1.0
 40
1.0
 40
1.0
 10
42.6587904317
 20
59.897018731
 30
0.0
 10
43.1639174519
 20
59.268637857
 30
0.0
 10
44.1525667886
 20
57.999493919
 30
0.0
 10
46.043462306
 20
55.4159209309
 30
0.0
 10
47.3770721647
 20
53.4249953795
 30
0.0
 10
48.2355014549
 20
52.0833191826
 30
0.0
  0
SPLINE
  5
28B
100
AcDbEntity
  8
0
100
AcDbSpline
 62
7
  6
BYLAYER
 70
0
 71
3
 72
10
 73
6
 74
0
 42
0.0000001
 43
0.0000001
 44
0.0000000001
 40
0.0
 40
0.0
 40
0.0
 40
0.0
 40
0.5016775205
 40
0.7513518
 40
1.0
 40
1.0
 40
1.0
 40
1.0
 10
36.1199013825
 20
67.155196714
 30
0.0
 10
37.2710493672
 20
65.9950760554
 30
0.0
 10
38.9617837116
 20
64.2235045198
 30
0.0
 10
41.1146875875
 20
61.7780991611
 30
0.0
 10
42.1512881542
 20
60.5283544836
 30
0.0
 10
42.6587904317
 20
59.897018731
 30
0.0
  0
SPLINE
  5
28C
100
AcDbEntity
  8
0
100
AcDbSpline
 62
7
  6
BYLAYER
 70
0
 71
3
 72
9
 73
5
 74
0
 42
0.0000001
 43
0.0000001
 44
0.0000000001
 40
0.0
 40
0.0
 40
0.0
 40
0.0
 40
0.5216732059
 40
1.0
 40
1.0
 40
1.0
 40
1.0
 10
29.930815379
 20
67.2453482351
 30
0.0
 10
30.8799404272
 20
67.3301350015
 30
0.0
 10
32.7028159809
 20
67.4569583733
 30
0.0
 10
34.5294460354
 20
67.5035036254
 30
0.0
 10
35.4031597791
 20
67.5082575245
 30
0.0
  0
SPLINE
  5
28D
100
AcDbEntity
  8
0
100
AcDbSpline
 62
7
  6
BYLAYER
 70
0
 71
3
 72
9
 73
5
 74
0
 42
0.0000001
 43
0.0000001
 44
0.0000000001
 40
0.0
 40
0.0
 40
0.0
 40
0.0
 40
0.5170818264
 40
1.0
 40
1.0
 40
1.0
 40
1.0
 10
23.5325096927
 20
66.4478351545
 30
0.0
 10
24.6314078698
 20
66.6146029512
 30
0.0
 10
26.7598614893
 20
66.916383572
 30
0.0
 10
28.8968878329
 20
67.1529859593
 30
0.0
 10
29.930815379
 20
67.2453482351
 30
0.0
  0
SPLINE
  5
28E
100
AcDbEntity
  8
0
100
AcDbSpline
 62
7
  6
BYLAYER
 70
0
 71
3
 72
9
 73
5
 74
0
 42
0.0000001
 43
0.0000001
 44
0.0000000001
 40
0.0
 40
0.0
 40
0.0
 40
0.0
 40
0.2533384167
 40
1.0
 40
1.0
 40
1.0
 40
1.0
 10
20.5124038325
 20
64.5051293082
 30
0.0
 10
20.4620131997
 20
64.0251604142
 30
0.0
 10
20.2749753728
 20
62.1294084382
 30
0.0
 10
20.1419746916
 20
60.2279211753
 30
0.0
 10
20.0852997043
 20
58.806668821
 30
0.0
  0
SPLINE
  5
28F
100
AcDbEntity
  8
0
100
AcDbSpline
 62
7
  6
BYLAYER
 70
0
 71
3
 72
9
 73
5
 74
0
 42
0.0000001
 43
0.0000001
 44
0.0000000001
 40
0.0
 40
0.0
 40
0.0
 40
0.0
 40
0.4792599959
 40
1.0
 40
1.0
 40
1.0
 40
1.0
 10
33.8965583363
 20
32.138651539
 30
0.0
 10
34.7327222903
 20
32.1463122728
 30
0.0
 10
36.4773031096
 20
32.1961480385
 30
0.0
 10
38.2183089296
 20
32.318926182
 30
0.0
 10
39.1232773981
 20
32.3997683745
 30
0.0
  0
SPLINE
  5
290
100
AcDbEntity
  8
0
100
AcDbSpline
 62
7
  6
BYLAYER
 70
0
 71
3
 72
18
 73
14
 74
0
 42
0.0000001
 43
0.0000001
 44
0.0000000001
 40
0.0
 40
0.0
 40
0.0
 40
0.0
 40
0.1214548344
 40
0.1807342077
 40
0.2393759261
 40
0.2976977376
 40
0.3560244103
 40
0.4146739153
 40
0.4739543638
 40
0.5954512601
 40
0.7226784979
 40
0.8571907891
 40
1.0
 40
1.0
 40
1.0
 40
1.0
 10
26.3952992692
 20
65.2041277496
 30
0.0
 10
26.0183457636
 20
65.1704538327
 30
0.0
 10
25.4596482818
 20
65.0757887862
 30
0.0
 10
24.7461992178
 20
64.8557363167
 30
0.0
 10
24.2371644396
 20
64.6475494557
 30
0.0
 10
23.7517063245
 20
64.395591303
 30
0.0
 10
23.2911555281
 20
64.1004981535
 30
0.0
 10
22.8567681492
 20
63.7631787717
 30
0.0
 10
22.3098959878
 20
63.2544701793
 30
0.0
 10
21.6957164493
 20
62.5105325953
 30
0.0
 10
21.0904538986
 20
61.4758819656
 30
0.0
 10
20.6156035052
 20
60.304067268
 30
0.0
 10
20.3954848933
 20
59.4659205961
 30
0.0
 10
20.3062826861
 20
59.029957786
 30
0.0
  0
SPLINE
  5
291
100
AcDbEntity
  8
0
100
AcDbSpline
 62
7
  6
BYLAYER
 70
0
 71
3
 72
16
 73
12
 74
0
 42
0.0000001
 43
0.0000001
 44
0.0000000001
 40
0.0
 40
0.0
 40
0.0
 40
0.0
 40
0.1491232975
 40
0.2932350943
 40
0.4309609492
 40
0.5611954033
 40
0.6831905407
 40
0.7966605095
 40
0.8503030695
 40
0.9019889181
 40
1.0
 40
1.0
 40
1.0
 40
1.0
 10
39.1232713494
 20
57.855797866
 30
0.0
 10
38.648789251
 20
58.4460562337
 30
0.0
 10
37.6700999184
 20
59.571026636
 30
0.0
 10
36.0993070462
 20
61.09883243
 30
0.0
 10
34.4715130744
 20
62.4189859327
 30
0.0
 10
32.8137407652
 20
63.5091768649
 30
0.0
 10
31.1534235089
 20
64.3508722333
 30
0.0
 10
29.7641505327
 20
64.842050677
 30
0.0
 10
28.6797614954
 20
65.0899427449
 30
0.0
 10
27.6570716851
 20
65.2376690913
 30
0.0
 10
26.8910745374
 20
65.2484163454
 30
0.0
 10
26.3952992692
 20
65.2041277496
 30
0.0
  0
SPLINE
  5
292
100
AcDbEntity
  8
0
100
AcDbSpline
 62
7
  6
BYLAYER
 70
0
 71
3
 72
10
 73
6
 74
0
 42
0.0000001
 43
0.0000001
 44
0.0000000001
 40
0.0
 40
0.0
 40
0.0
 40
0.0
 40
0.2442241631
 40
0.4925993318
 40
1.0
 40
1.0
 40
1.0
 40
1.0
 10
45.4872618482
 20
41.4536143388
 30
0.0
 10
45.4872618482
 20
42.1209463858
 30
0.0
 10
45.5086257654
 20
43.4670420183
 30
0.0
 10
45.6325106567
 20
46.1969766285
 30
0.0
 10
45.8075873263
 20
48.2556152067
 30
0.0
 10
45.9502455688
 20
49.6347068527
 30
0.0
  0
SPLINE
  5
293
100
AcDbEntity
  8
0
100
AcDbSpline
 62
7
  6
BYLAYER
 70
0
 71
3
 72
10
 73
6
 74
0
 42
0.0000001
 43
0.0000001
 44
0.0000000001
 40
0.0
 40
0.0
 40
0.0
 40
0.0
 40
0.5016775218
 40
0.7513517917
 40
1.0
 40
1.0
 40
1.0
 40
1.0
 10
45.6621664423
 20
50.5976123888
 30
0.0
 10
44.5110173102
 20
51.7577342069
 30
0.0
 10
42.8202808723
 20
53.5293071324
 30
0.0
 10
40.6673765514
 20
55.9747163958
 30
0.0
 10
39.6307740047
 20
57.2244615182
 30
0.0
 10
39.1232712824
 20
57.8557979828
 30
0.0
  0
SPLINE
  5
294
100
AcDbEntity
  8
0
100
AcDbSpline
 62
7
  6
BYLAYER
 70
0
 71
3
 72
9
 73
5
 74
0
 42
0.0000001
 43
0.0000001
 44
0.0000000001
 40
0.0
 40
0.0
 40
0.0
 40
0.0
 40
0.5170818251
 40
1.0
 40
1.0
 40
1.0
 40
1.0
 10
32.7936080187
 20
66.0016411064
 30
0.0
 10
31.6947088007
 20
65.8348731536
 30
0.0
 10
29.5662531392
 20
65.533092401
 30
0.0
 10
27.4292247681
 20
65.2964897648
 30
0.0
 10
26.3952962298
 20
65.204127487
 30
0.0
  0
SPLINE
  5
295
100
AcDbEntity
  8
0
100
AcDbSpline
 62
7
  6
BYLAYER
 70
0
 71
3
 72
10
 73
6
 74
0
 42
0.0000001
 43
0.0000001
 44
0.0000000001
 40
0.0
 40
0.0
 40
0.0
 40
0.0
 40
0.2518493845
 40
0.5024476491
 40
1.0
 40
1.0
 40
1.0
 40
1.0
 10
39.1232712824
 20
57.8557979828
 30
0.0
 10
38.6181448236
 20
58.4841783163
 30
0.0
 10
37.6294954983
 20
59.7533202081
 30
0.0
 10
35.7386037061
 20
62.3368919261
 30
0.0
 10
34.4049947972
 20
64.3278150893
 30
0.0
 10
33.5465663799
 20
65.669489926
 30
0.0
  0
SPLINE
  5
296
100
AcDbEntity
  8
0
100
AcDbSpline
 62
7
  6
BYLAYER
 70
0
 71
3
 72
9
 73
5
 74
0
 42
0.0000001
 43
0.0000001
 44
0.0000000001
 40
0.0
 40
0.0
 40
0.0
 40
0.0
 40
0.521673212
 40
1.0
 40
1.0
 40
1.0
 40
1.0
 10
26.3952962298
 20
65.204127487
 30
0.0
 10
25.4461722282
 20
65.1193408936
 30
0.0
 10
23.6232987209
 20
64.9925176366
 30
0.0
 10
21.7966707105
 20
64.9459726424
 30
0.0
 10
20.9229579585
 20
64.9412187515
 30
0.0
  0
SPLINE
  5
297
100
AcDbEntity
  8
0
100
AcDbSpline
 62
7
  6
BYLAYER
 70
0
 71
3
 72
11
 73
7
 74
0
 42
0.0000001
 43
0.0000001
 44
0.0000000001
 40
0.0
 40
0.0
 40
0.0
 40
0.0
 40
0.2438668952
 40
0.4915241304
 40
0.7434624398
 40
1.0
 40
1.0
 40
1.0
 40
1.0
 10
45.9502455688
 20
33.8071261851
 30
0.0
 10
45.8775516837
 20
34.4259261512
 30
0.0
 10
45.7460391101
 20
35.6749748559
 30
0.0
 10
45.5989135656
 20
37.5690004066
 30
0.0
 10
45.5075269427
 20
39.4989828023
 30
0.0
 10
45.4872618482
 20
40.7981868599
 30
0.0
 10
45.4872618482
 20
41.4536143388
 30
0.0
  0
SPLINE
  5
298
100
AcDbEntity
  8
0
100
AcDbSpline
 62
7
  6
BYLAYER
 70
0
 71
3
 72
15
 73
11
 74
0
 42
0.0000001
 43
0.0000001
 44
0.0000000001
 40
0.0
 40
0.0
 40
0.0
 40
0.0
 40
0.1108410466
 40
0.2280578212
 40
0.3507094039
 40
0.4776259749
 40
0.6074737875
 40
0.7388131822
 40
0.8701524818
 40
1.0
 40
1.0
 40
1.0
 40
1.0
 10
45.4872618482
 20
41.4536143388
 30
0.0
 10
45.4872618482
 20
42.1150162641
 30
0.0
 10
45.4080401285
 20
43.4766373443
 30
0.0
 10
45.0786459683
 20
45.5461960707
 30
0.0
 10
44.5408609173
 20
47.6706210035
 30
0.0
 10
43.8038060001
 20
49.8138935335
 30
0.0
 10
42.8799411609
 20
51.9400013853
 30
0.0
 10
41.7848484593
 20
54.0130406851
 30
0.0
 10
40.5371701613
 20
55.9978060688
 30
0.0
 10
39.6087131813
 20
57.2519056465
 30
0.0
 10
39.1232713494
 20
57.855797866
 30
0.0
  0
SPLINE
  5
299
100
AcDbEntity
  8
0
100
AcDbSpline
 62
7
  6
BYLAYER
 70
0
 71
3
 72
20
 73
16
 74
0
 42
0.0000001
 43
0.0000001
 44
0.0000000001
 40
0.0
 40
0.0
 40
0.0
 40
0.0
 40
0.0583200362
 40
0.1153282738
 40
0.1714028861
 40
0.2269993389
 40
0.2825983328
 40
0.3386705044
 40
0.3956661405
 40
0.4539996911
 40
0.5759539146
 40
0.6402638361
 40
0.70701297
 40
0.848202604
 40
1.0
 40
1.0
 40
1.0
 40
1.0
 10
39.1232772944
 20
32.3997683563
 30
0.0
 10
39.3603652408
 20
32.4209478384
 30
0.0
 10
39.827529707
 20
32.4860789852
 30
0.0
 10
40.5076655632
 20
32.6553312825
 30
0.0
 10
41.1547994078
 20
32.894472365
 30
0.0
 10
41.7658020688
 20
33.2023155269
 30
0.0
 10
42.3378714739
 20
33.5775802087
 30
0.0
 10
42.8684909324
 20
34.018380435
 30
0.0
 10
43.3552008593
 20
34.5228391431
 30
0.0
 10
43.9515048412
 20
35.2878214691
 30
0.0
 10
44.4419162448
 20
36.1654775906
 30
0.0
 10
44.8253308508
 20
37.1251324363
 30
0.0
 10
45.1528619197
 20
38.1881799455
 30
0.0
 10
45.4221018395
 20
39.6368031352
 30
0.0
 10
45.4872618482
 20
40.8340562882
 30
0.0
 10
45.4872618482
 20
41.4536143388
 30
0.0
  0
SPLINE
  5
29A
100
AcDbEntity
  8
0
100
AcDbSpline
 62
7
  6
BYLAYER
 70
0
 71
3
 72
11
 73
7
 74
0
 42
0.0000001
 43
0.0000001
 44
0.0000000001
 40
0.0
 40
0.0
 40
0.0
 40
0.0
 40
0.2667712482
 40
0.521710753
 40
0.765736541
 40
1.0
 40
1.0
 40
1.0
 40
1.0
 10
35.3904526657
 20
32.9033174411
 30
0.0
 10
35.7103015797
 20
32.7966880976
 30
0.0
 10
36.3449454504
 20
32.6141431189
 30
0.0
 10
37.2974316155
 20
32.434463434
 30
0.0
 10
38.2225162741
 20
32.3566463719
 30
0.0
 10
38.8283815766
 20
32.373424733
 30
0.0
 10
39.1232772944
 20
32.3997683563
 30
0.0
  0
SPLINE
  5
29B
100
AcDbEntity
  8
0
100
AcDbSpline
 62
7
  6
BYLAYER
 70
0
 71
3
 72
11
 73
7
 74
0
 42
0.0000001
 43
0.0000001
 44
0.0000000001
 40
0.0
 40
0.0
 40
0.0
 40
0.0
 40
0.2177660095
 40
0.4508968553
 40
0.7103699668
 40
1.0
 40
1.0
 40
1.0
 40
1.0
 10
8.5713333898
 20
31.3072892959
 30
0.0
 10
8.5383571002
 20
31.2882330698
 30
0.0
 10
8.4766072623
 20
31.2363989555
 30
0.0
 10
8.4109115304
 20
31.1289347459
 30
0.0
 10
8.3719108165
 20
30.9965372399
 30
0.0
 10
8.3642108884
 20
30.9001766278
 30
0.0
 10
8.3642108884
 20
30.8495214715
 30
0.0
  0
SPLINE
  5
29C
100
AcDbEntity
  8
0
100
AcDbSpline
 62
7
  6
BYLAYER
 70
0
 71
3
 72
25
 73
21
 74
0
 42
0.0000001
 43
0.0000001
 44
0.0000000001
 40
0.0
 40
0.0
 40
0.0
 40
0.0
 40
0.0737215135
 40
0.148421514
 40
0.2234157201
 40
0.2980608678
 40
0.3716963876
 40
0.4436990435
 40
0.513489169
 40
0.5805527741
 40
0.6444654737
 40
0.7049170569
 40
0.761741393
 40
0.8149505004
 40
0.8647707697
 40
0.9116748074
 40
0.9342762565
 40
0.9564443867
 40
0.9783067687
 40
1.0
 40
1.0
 40
1.0
 40
1.0
 10
25.2978065734
 20
49.106643564
 30
0.0
 10
25.640451183
 20
48.6920171536
 30
0.0
 10
26.3009546714
 20
47.8325841276
 30
0.0
 10
27.2054289059
 20
46.4750733037
 30
0.0
 10
28.0211217652
 20
45.0545756066
 30
0.0
 10
28.7373051132
 20
43.5900468289
 30
0.0
 10
29.3445367106
 20
42.1005745136
 30
0.0
 10
29.8348405275
 20
40.6057753978
 30
0.0
 10
30.201796675
 20
39.125234526
 30
0.0
 10
30.4405575948
 20
37.6783014626
 30
0.0
 10
30.5479147378
 20
36.2838059289
 30
0.0
 10
30.5222703113
 20
34.9597862043
 30
0.0
 10
30.3636524303
 20
33.7232925199
 30
0.0
 10
30.0733978202
 20
32.5901536947
 30
0.0
 10
29.6544128962
 20
31.5753354023
 30
0.0
 10
29.1950891892
 20
30.8302183568
 30
0.0
 10
28.7694411317
 20
30.3131864895
 30
0.0
 10
28.4261228034
 20
29.967890563
 30
0.0
 10
28.0561590885
 20
29.6616613219
 30
0.0
 10
27.7919473268
 20
29.4839541114
 30
0.0
 10
27.6563596511
 20
29.4022975825
 30
0.0
  0
SPLINE
  5
29D
100
AcDbEntity
  8
0
100
AcDbSpline
 62
7
  6
BYLAYER
 70
0
 71
3
 72
11
 73
7
 74
0
 42
0.0000001
 43
0.0000001
 44
0.0000000001
 40
0.0
 40
0.0
 40
0.0
 40
0.0
 40
0.2390934377
 40
0.4816799579
 40
0.7341959632
 40
1.0
 40
1.0
 40
1.0
 40
1.0
 10
16.9524152237
 20
33.3700327369
 30
0.0
 10
16.9012815181
 20
33.34473339
 30
0.0
 10
16.7903629465
 20
33.3084268905
 30
0.0
 10
16.6136420479
 20
33.2999473969
 30
0.0
 10
16.4337897391
 20
33.3331558458
 30
0.0
 10
16.3180652318
 20
33.3788429634
 30
0.0
 10
16.2610885748
 20
33.4067033614
 30
0.0
  0
SPLINE
  5
29E
100
AcDbEntity
  8
0
100
AcDbSpline
 62
7
  6
BYLAYER
 70
0
 71
3
 72
11
 73
7
 74
0
 42
0.0000001
 43
0.0000001
 44
0.0000000001
 40
0.0
 40
0.0
 40
0.0
 40
0.0
 40
0.2667076248
 40
0.5195053448
 40
0.7617565528
 40
1.0
 40
1.0
 40
1.0
 40
1.0
 10
15.2329076506
 20
35.1594857223
 30
0.0
 10
15.2360712627
 20
35.2253142445
 30
0.0
 10
15.2523735842
 20
35.3534375775
 30
0.0
 10
15.312695279
 20
35.533262201
 30
0.0
 10
15.4097962424
 20
35.6884779509
 30
0.0
 10
15.4992770993
 20
35.7694566485
 30
0.0
 10
15.5482692543
 20
35.8020994145
 30
0.0
  0
SPLINE
  5
29F
100
AcDbEntity
  8
0
100
AcDbSpline
 62
7
  6
BYLAYER
 70
0
 71
3
 72
11
 73
7
 74
0
 42
0.0000001
 43
0.0000001
 44
0.0000000001
 40
0.0
 40
0.0
 40
0.0
 40
0.0
 40
0.2491592176
 40
0.5016738379
 40
0.7533465645
 40
1.0
 40
1.0
 40
1.0
 40
1.0
 10
50.4027495475
 20
63.7023376611
 30
0.0
 10
50.8841799378
 20
63.1206951905
 30
0.0
 10
51.7969675343
 20
61.9016635374
 30
0.0
 10
52.993322402
 20
59.9537846891
 30
0.0
 10
54.0044353193
 20
57.9120785585
 30
0.0
 10
54.5468123239
 20
56.4997943558
 30
0.0
 10
54.7794353872
 20
55.7894699534
 30
0.0
  0
SPLINE
  5
2A0
100
AcDbEntity
  8
0
100
AcDbSpline
 62
7
  6
BYLAYER
 70
0
 71
3
 72
9
 73
5
 74
0
 42
0.0000001
 43
0.0000001
 44
0.0000000001
 40
0.0
 40
0.0
 40
0.0
 40
0.0
 40
0.5077415463
 40
1.0
 40
1.0
 40
1.0
 40
1.0
 10
14.0188689749
 20
35.9872061843
 30
0.0
 10
14.1728306003
 20
35.8011966967
 30
0.0
 10
14.4897203577
 20
35.4459187632
 30
0.0
 10
14.833580395
 20
35.1165278179
 30
0.0
 10
15.0095138281
 20
34.9620949112
 30
0.0
  0
SPLINE
  5
2A1
100
AcDbEntity
  8
0
100
AcDbSpline
 62
7
  6
BYLAYER
 70
0
 71
3
 72
10
 73
6
 74
0
 42
0.0000001
 43
0.0000001
 44
0.0000000001
 40
0.0
 40
0.0
 40
0.0
 40
0.0
 40
0.5154622582
 40
0.7607494868
 40
1.0
 40
1.0
 40
1.0
 40
1.0
 10
17.5357082986
 20
33.6114268227
 30
0.0
 10
17.7656621391
 20
33.568202286
 30
0.0
 10
18.1138027217
 20
33.5382851682
 30
0.0
 10
18.5661976651
 20
33.5858042147
 30
0.0
 10
18.7807812769
 20
33.6378405856
 30
0.0
 10
18.8842300473
 20
33.6708963615
 30
0.0
  0
SPLINE
  5
2A2
100
AcDbEntity
  8
0
100
AcDbSpline
 62
7
  6
BYLAYER
 70
0
 71
3
 72
12
 73
8
 74
0
 42
0.0000001
 43
0.0000001
 44
0.0000000001
 40
0.0
 40
0.0
 40
0.0
 40
0.0
 40
0.1103971609
 40
0.2235679679
 40
0.4613494808
 40
0.7193295764
 40
1.0
 40
1.0
 40
1.0
 40
1.0
 10
12.7178603786
 20
44.3514256797
 30
0.0
 10
12.6377264073
 20
44.2785628782
 30
0.0
 10
12.4857713427
 20
44.1192423083
 30
0.0
 10
12.218934686
 20
43.7523014463
 30
0.0
 10
11.9626138053
 20
43.2061282633
 30
0.0
 10
11.7874911183
 20
42.4605963519
 30
0.0
 10
11.755593273
 20
41.9305676552
 30
0.0
 10
11.7579453001
 20
41.6552208288
 30
0.0
  0
SPLINE
  5
2A3
100
AcDbEntity
  8
0
100
AcDbSpline
 62
7
  6
BYLAYER
 70
0
 71
3
 72
15
 73
11
 74
0
 42
0.0000001
 43
0.0000001
 44
0.0000000001
 40
0.0
 40
0.0
 40
0.0
 40
0.0
 40
0.1118909682
 40
0.229751535
 40
0.3527096105
 40
0.4796494244
 40
0.609273201
 40
0.7401622767
 40
0.8709267536
 40
1.0
 40
1.0
 40
1.0
 40
1.0
 10
11.7579453001
 20
41.6552208288
 30
0.0
 10
11.7599143818
 20
41.4247046135
 30
0.0
 10
11.7913262241
 20
40.9513360137
 30
0.0
 10
11.9113927482
 20
40.2336360646
 30
0.0
 10
12.1033969252
 20
39.4996905775
 30
0.0
 10
12.363926092
 20
38.7615558276
 30
0.0
 10
12.688532715
 20
38.0314072593
 30
0.0
 10
13.0717815525
 20
37.3213043008
 30
0.0
 10
13.5072117312
 20
36.64335667
 30
0.0
 10
13.8306565104
 20
36.215963868
 30
0.0
 10
13.9995798554
 20
36.0105842192
 30
0.0
  0
SPLINE
  5
2A4
100
AcDbEntity
  8
0
100
AcDbSpline
 62
7
  6
BYLAYER
 70
0
 71
3
 72
17
 73
13
 74
0
 42
0.0000001
 43
0.0000001
 44
0.0000000001
 40
0.0
 40
0.0
 40
0.0
 40
0.0
 40
0.128688864
 40
0.2702797703
 40
0.4174318348
 40
0.5617733576
 40
0.6954455149
 40
0.8127096012
 40
0.8646749146
 40
0.9125085807
 40
0.9571389861
 40
1.0
 40
1.0
 40
1.0
 40
1.0
 10
8.3642108884
 20
30.8495214715
 30
0.0
 10
8.3642108884
 20
30.7640465611
 30
0.0
 10
8.3881238892
 20
30.5843225768
 30
0.0
 10
8.477370844
 20
30.3204377666
 30
0.0
 10
8.6149002902
 20
30.0662352292
 30
0.0
 10
8.7896506101
 20
29.8425566884
 30
0.0
 10
8.987345345
 20
29.6674692053
 30
0.0
 10
9.1662865468
 20
29.569624083
 30
0.0
 10
9.3062631737
 20
29.5323913721
 30
0.0
 10
9.4026016065
 20
29.5252975423
 30
0.0
 10
9.4923086216
 20
29.5384448445
 30
0.0
 10
9.5466592656
 20
29.5610283053
 30
0.0
 10
9.5713078373
 20
29.5752721381
 30
0.0
  0
SPLINE
  5
2A5
100
AcDbEntity
  8
0
100
AcDbSpline
 62
7
  6
BYLAYER
 70
0
 71
3
 72
18
 73
14
 74
0
 42
0.0000001
 43
0.0000001
 44
0.0000000001
 40
0.0
 40
0.0
 40
0.0
 40
0.0
 40
0.0492376307
 40
0.0989666001
 40
0.1496483103
 40
0.2017087905
 40
0.3112196321
 40
0.3693400402
 40
0.4298867681
 40
0.5584553962
 40
0.6969999419
 40
0.844660572
 40
1.0
 40
1.0
 40
1.0
 40
1.0
 10
25.6007573861
 20
28.2145355919
 30
0.0
 10
25.4176033997
 20
28.1087922197
 30
0.0
 10
25.0351210201
 20
27.9200927866
 30
0.0
 10
24.4253993567
 20
27.711515024
 30
0.0
 10
23.7825179014
 20
27.5780496935
 30
0.0
 10
22.8725122663
 20
27.4991375699
 30
0.0
 10
21.9241661328
 20
27.5775893505
 30
0.0
 10
20.9672536141
 20
27.7929132017
 30
0.0
 10
19.9539819664
 20
28.1149212245
 30
0.0
 10
18.6689117465
 20
28.7022464106
 30
0.0
 10
17.1581662444
 20
29.6547008482
 30
0.0
 10
15.6786967362
 20
30.8471778169
 30
0.0
 10
14.7532905733
 20
31.7657820632
 30
0.0
 10
14.3020612139
 20
32.257285688
 30
0.0
  0
SPLINE
  5
2A6
100
AcDbEntity
  8
0
100
AcDbSpline
 62
7
  6
BYLAYER
 70
0
 71
3
 72
22
 73
18
 74
0
 42
0.0000001
 43
0.0000001
 44
0.0000000001
 40
0.0
 40
0.0
 40
0.0
 40
0.0
 40
0.1495955971
 40
0.2246891632
 40
0.2991425297
 40
0.3723524823
 40
0.4437562528
 40
0.5128420848
 40
0.5791707087
 40
0.6423955187
 40
0.7022870524
 40
0.7587613034
 40
0.8119052653
 40
0.8620032715
 40
0.9095536523
 40
0.9552618409
 40
1.0
 40
1.0
 40
1.0
 40
1.0
 10
12.9879084717
 20
33.8287204323
 30
0.0
 10
12.3495063768
 20
34.6658231394
 30
0.0
 10
11.4734789208
 20
35.9893282613
 30
0.0
 10
10.4851530002
 20
37.8491418214
 30
0.0
 10
9.8405829654
 20
39.2794706299
 30
0.0
 10
9.3020065156
 20
40.7252299385
 30
0.0
 10
8.8760322846
 20
42.1688668367
 30
0.0
 10
8.5679692824
 20
43.5927949036
 30
0.0
 10
8.3817296407
 20
44.9798512082
 30
0.0
 10
8.3199136261
 20
46.3134763498
 30
0.0
 10
8.3838369452
 20
47.577913885
 30
0.0
 10
8.5735947912
 20
48.7583202755
 30
0.0
 10
8.8883415302
 20
49.8407202195
 30
0.0
 10
9.3262431595
 20
50.8116647321
 30
0.0
 10
9.8842819544
 20
51.6579193771
 30
0.0
 10
10.556702667
 20
52.3658115987
 30
0.0
 10
11.0781627784
 20
52.7388779692
 30
0.0
 10
11.3508211816
 20
52.896296432
 30
0.0
  0
SPLINE
  5
2A7
100
AcDbEntity
  8
0
100
AcDbSpline
 62
7
  6
BYLAYER
 70
0
 71
3
 72
19
 73
15
 74
0
 42
0.0000001
 43
0.0000001
 44
0.0000000001
 40
0.0
 40
0.0
 40
0.0
 40
0.0
 40
0.047451797
 40
0.0955723907
 40
0.1449113486
 40
0.1959510047
 40
0.2490843307
 40
0.3046131436
 40
0.423477525
 40
0.4870837064
 40
0.5534167705
 40
0.6937705635
 40
0.8432802546
 40
1.0
 40
1.0
 40
1.0
 40
1.0
 10
13.4051028754
 20
54.0814151199
 30
0.0
 10
13.596732146
 20
54.1874957873
 30
0.0
 10
13.9980512307
 20
54.3746235689
 30
0.0
 10
14.6389683577
 20
54.5726025729
 30
0.0
 10
15.3165422077
 20
54.6880349158
 30
0.0
 10
16.0260584677
 20
54.7201895565
 30
0.0
 10
16.7629826059
 20
54.669386455
 30
0.0
 10
17.7989344017
 20
54.4875260326
 30
0.0
 10
18.8481796528
 20
54.1399268289
 30
0.0
 10
19.889604539
 20
53.6544104703
 30
0.0
 10
20.9798097366
 20
53.0455420404
 30
0.0
 10
22.329619071
 20
52.0984418469
 30
0.0
 10
23.8714592786
 20
50.7245731644
 30
0.0
 10
24.8252656871
 20
49.6775569795
 30
0.0
 10
25.2865220949
 20
49.1202878042
 30
0.0
  0
SPLINE
  5
2A8
100
AcDbEntity
  8
0
100
AcDbSpline
 62
7
  6
BYLAYER
 70
0
 71
3
 72
11
 73
7
 74
0
 42
0.0000001
 43
0.0000001
 44
0.0000000001
 40
0.0
 40
0.0
 40
0.0
 40
0.0
 40
0.2328440209
 40
0.4782916746
 40
0.7347149437
 40
1.0
 40
1.0
 40
1.0
 40
1.0
 10
45.487418437
 20
67.9894614809
 30
0.0
 10
45.9166856294
 20
67.7416249658
 30
0.0
 10
46.7712918162
 20
67.1844563458
 30
0.0
 10
47.9973507481
 20
66.21024464
 30
0.0
 10
49.1862293428
 20
65.087990721
 30
0.0
 10
49.9321612404
 20
64.263470829
 30
0.0
 10
50.2954096681
 20
63.8310640382
 30
0.0
  0
SPLINE
  5
2A9
100
AcDbEntity
  8
0
100
AcDbSpline
 62
7
  6
BYLAYER
 70
0
 71
3
 72
11
 73
7
 74
0
 42
0.0000001
 43
0.0000001
 44
0.0000000001
 40
0.0
 40
0.0
 40
0.0
 40
0.0
 40
0.2430496155
 40
0.4889771166
 40
0.7404897346
 40
1.0
 40
1.0
 40
1.0
 40
1.0
 10
16.1730452467
 20
56.5463950797
 30
0.0
 10
15.9791428792
 20
56.4344517661
 30
0.0
 10
15.6037590196
 20
56.1826055941
 30
0.0
 10
15.0914641607
 20
55.7293627949
 30
0.0
 10
14.6314945694
 20
55.2029241285
 30
0.0
 10
14.3663976746
 20
54.8123842822
 30
0.0
 10
14.2433010704
 20
54.607453393
 30
0.0
  0
SPLINE
  5
2AA
100
AcDbEntity
  8
0
100
AcDbSpline
 62
7
  6
BYLAYER
 70
0
 71
3
 72
12
 73
8
 74
0
 42
0.0000001
 43
0.0000001
 44
0.0000000001
 40
0.0
 40
0.0
 40
0.0
 40
0.0
 40
0.108628141
 40
0.2187137151
 40
0.450653862
 40
0.7093748218
 40
1.0
 40
1.0
 40
1.0
 40
1.0
 10
16.9524124809
 20
33.3700377325
 30
0.0
 10
16.9773278139
 20
33.3823585886
 30
0.0
 10
17.0253761609
 20
33.4117442772
 30
0.0
 10
17.1119514253
 20
33.4886982049
 30
0.0
 10
17.1983124913
 20
33.619263998
 30
0.0
 10
17.2581924581
 20
33.8119918851
 30
0.0
 10
17.2699505654
 20
33.953107897
 30
0.0
 10
17.2699505654
 20
34.0274717468
 30
0.0
  0
SPLINE
  5
2AB
100
AcDbEntity
  8
0
100
AcDbSpline
 62
7
  6
BYLAYER
 70
0
 71
3
 72
11
 73
7
 74
0
 42
0.0000001
 43
0.0000001
 44
0.0000000001
 40
0.0
 40
0.0
 40
0.0
 40
0.0
 40
0.2491978333
 40
0.5015046663
 40
0.753060519
 40
1.0
 40
1.0
 40
1.0
 40
1.0
 10
50.311599134
 20
63.6456925127
 30
0.0
 10
50.7874345268
 20
63.0636081252
 30
0.0
 10
51.6908983738
 20
61.8469000522
 30
0.0
 10
52.8804796401
 20
59.907967699
 30
0.0
 10
53.893046486
 20
57.8785903581
 30
0.0
 10
54.4425518582
 20
56.4759223845
 30
0.0
 10
54.6807717036
 20
55.7700227502
 30
0.0
  0
SPLINE
  5
2AC
100
AcDbEntity
  8
0
100
AcDbSpline
 62
7
  6
BYLAYER
 70
0
 71
3
 72
19
 73
15
 74
0
 42
0.0000001
 43
0.0000001
 44
0.0000000001
 40
0.0
 40
0.0
 40
0.0
 40
0.0
 40
0.1569978431
 40
0.3066956527
 40
0.4471183213
 40
0.5769105603
 40
0.6376875337
 40
0.6957229388
 40
0.7511454329
 40
0.8041715352
 40
0.8551176285
 40
0.9043933763
 40
0.9524987934
 40
1.0
 40
1.0
 40
1.0
 40
1.0
 10
23.3066313507
 20
47.9772041734
 30
0.0
 10
22.8417008773
 20
48.5389121889
 30
0.0
 10
21.8801669554
 20
49.5936392329
 30
0.0
 10
20.3248799759
 20
50.9758719163
 30
0.0
 10
18.7216953516
 20
52.094871556
 30
0.0
 10
17.3483653902
 20
52.7995897583
 30
0.0
 10
16.2629253393
 20
53.1969394161
 30
0.0
 10
15.4802456001
 20
53.4070661696
 30
0.0
 10
14.7162428283
 20
53.5344371872
 30
0.0
 10
13.9756923999
 20
53.5778590564
 30
0.0
 10
13.2633998702
 20
53.5369267775
 30
0.0
 10
12.5840707053
 20
53.4113573376
 30
0.0
 10
11.9425133233
 20
53.2019755549
 30
0.0
 10
11.5418905742
 20
53.0065840721
 30
0.0
 10
11.3508299052
 20
52.8962813219
 30
0.0
  0
SPLINE
  5
2AD
100
AcDbEntity
  8
0
100
AcDbSpline
 62
7
  6
BYLAYER
 70
0
 71
3
 72
17
 73
13
 74
0
 42
0.0000001
 43
0.0000001
 44
0.0000000001
 40
0.0
 40
0.0
 40
0.0
 40
0.0
 40
0.042857965
 40
0.0874854797
 40
0.1353180708
 40
0.1872814984
 40
0.3045423159
 40
0.4382097446
 40
0.5825520305
 40
0.7297107839
 40
0.8713099826
 40
1.0
 40
1.0
 40
1.0
 40
1.0
 10
15.6423701942
 20
35.3897334792
 30
0.0
 10
15.6670169641
 20
35.4039764187
 30
0.0
 10
15.7213655116
 20
35.4265534839
 30
0.0
 10
15.8110662857
 20
35.4397098032
 30
0.0
 10
15.9074009263
 20
35.4326109879
 30
0.0
 10
16.0473759461
 20
35.3953909034
 30
0.0
 10
16.2263126597
 20
35.2975479079
 30
0.0
 10
16.4240082534
 20
35.1224698334
 30
0.0
 10
16.5987631972
 20
34.8987918556
 30
0.0
 10
16.7363024544
 20
34.6445824956
 30
0.0
 10
16.8255540956
 20
34.3806874881
 30
0.0
 10
16.8494687108
 20
34.2009572323
 30
0.0
 10
16.8494687108
 20
34.1154815012
 30
0.0
  0
SPLINE
  5
2AE
100
AcDbEntity
  8
0
100
AcDbSpline
 62
7
  6
BYLAYER
 70
0
 71
3
 72
20
 73
16
 74
0
 42
0.0000001
 43
0.0000001
 44
0.0000000001
 40
0.0
 40
0.0
 40
0.0
 40
0.0
 40
0.0464610879
 40
0.0927161361
 40
0.1397400112
 40
0.1884296668
 40
0.2395270715
 40
0.293583914
 40
0.350946235
 40
0.4117817177
 40
0.476087281
 40
0.5437314837
 40
0.6878489709
 40
0.8412449452
 40
1.0
 40
1.0
 40
1.0
 40
1.0
 10
18.8842268229
 20
33.6709030161
 30
0.0
 10
19.0025606818
 20
33.7087267397
 30
0.0
 10
19.2327473247
 20
33.8048537361
 30
0.0
 10
19.547686483
 20
34.0094992132
 30
0.0
 10
19.825766167
 20
34.2707511706
 30
0.0
 10
20.0636719246
 20
34.5851472564
 30
0.0
 10
20.2592411947
 20
34.9487180543
 30
0.0
 10
20.4106216535
 20
35.3573641903
 30
0.0
 10
20.5167440186
 20
35.8066167811
 30
0.0
 10
20.5765733535
 20
36.2917916749
 30
0.0
 10
20.5898181556
 20
36.8078482903
 30
0.0
 10
20.5441079471
 20
37.5453787789
 30
0.0
 10
20.3659795932
 20
38.5094040379
 30
0.0
 10
19.9840377222
 20
39.671240506
 30
0.0
 10
19.6271365123
 20
40.4284183405
 30
0.0
 10
19.4238820265
 20
40.801087408
 30
0.0
  0
SPLINE
  5
2AF
100
AcDbEntity
  8
0
100
AcDbSpline
 62
7
  6
BYLAYER
 70
0
 71
3
 72
19
 73
15
 74
0
 42
0.0000001
 43
0.0000001
 44
0.0000000001
 40
0.0
 40
0.0
 40
0.0
 40
0.0
 40
0.1569978431
 40
0.3066956527
 40
0.4471183213
 40
0.5769105603
 40
0.6376875337
 40
0.6957229388
 40
0.7511454329
 40
0.8041715352
 40
0.8551176285
 40
0.9043933763
 40
0.9524987934
 40
1.0
 40
1.0
 40
1.0
 40
1.0
 10
28.7580993998
 20
51.3684191339
 30
0.0
 10
28.2686989015
 20
51.9596907292
 30
0.0
 10
27.2565579312
 20
53.0699297229
 30
0.0
 10
25.6194137422
 20
54.5249114948
 30
0.0
 10
23.9318509798
 20
55.7028058524
 30
0.0
 10
22.4862404941
 20
56.4446144864
 30
0.0
 10
21.3436720194
 20
56.8628772841
 30
0.0
 10
20.5197986097
 20
57.0840633404
 30
0.0
 10
19.7155851657
 20
57.2181380958
 30
0.0
 10
18.936058399
 20
57.2638453265
 30
0.0
 10
18.1862767888
 20
57.2207587172
 30
0.0
 10
17.4711934574
 20
57.0885803594
 30
0.0
 10
16.7958698973
 20
56.8681784828
 30
0.0
 10
16.3741617404
 20
56.6625032378
 30
0.0
 10
16.1730452467
 20
56.5463950797
 30
0.0
  0
SPLINE
  5
2B0
100
AcDbEntity
  8
0
100
AcDbSpline
 62
7
  6
BYLAYER
 70
0
 71
3
 72
21
 73
17
 74
0
 42
0.0000001
 43
0.0000001
 44
0.0000000001
 40
0.0
 40
0.0
 40
0.0
 40
0.0
 40
0.151610795
 40
0.3041541951
 40
0.3789033904
 40
0.4516227101
 40
0.5216584297
 40
0.5884524128
 40
0.6515751718
 40
0.7107606144
 40
0.7659558698
 40
0.8173665583
 40
0.86550069
 40
0.9111976368
 40
0.9555923515
 40
1.0
 40
1.0
 40
1.0
 40
1.0
 10
20.4959196191
 20
43.9067026352
 30
0.0
 10
20.8457351483
 20
43.4840713002
 30
0.0
 10
21.4838170313
 20
42.5818445335
 30
0.0
 10
22.1128585078
 20
41.3580967633
 30
0.0
 10
22.5006459537
 20
40.343131368
 30
0.0
 10
22.7246436675
 20
39.587732437
 30
0.0
 10
22.8803028789
 20
38.8446720087
 30
0.0
 10
22.9652864398
 20
38.1250656038
 30
0.0
 10
22.9782505376
 20
37.4396509721
 30
0.0
 10
22.918742966
 20
36.7985732744
 30
0.0
 10
22.7873349637
 20
36.2112891275
 30
0.0
 10
22.5853496663
 20
35.6865356491
 30
0.0
 10
22.3148048044
 20
35.2325908126
 30
0.0
 10
21.9788640505
 20
34.8573556162
 30
0.0
 10
21.582773355
 20
34.5683454366
 30
0.0
 10
21.2857594155
 20
34.4383026627
 30
0.0
 10
21.1326929766
 20
34.3893787758
 30
0.0
  0
SPLINE
  5
2B1
100
AcDbEntity
  8
0
100
AcDbSpline
 62
7
  6
BYLAYER
 70
0
 71
3
 72
19
 73
15
 74
0
 42
0.0000001
 43
0.0000001
 44
0.0000000001
 40
0.0
 40
0.0
 40
0.0
 40
0.0
 40
0.1600549911
 40
0.3117057492
 40
0.4525966376
 40
0.581318706
 40
0.6410876702
 40
0.6979059358
 40
0.752030946
 40
0.8038532516
 40
0.8538915257
 40
0.9027798317
 40
0.9512331276
 40
1.0
 40
1.0
 40
1.0
 40
1.0
 10
18.2953892016
 20
42.4717433039
 30
0.0
 10
18.0733810024
 20
42.7399635909
 30
0.0
 10
17.6132173679
 20
43.2402007822
 30
0.0
 10
16.8653518788
 20
43.8843261293
 30
0.0
 10
16.0960779536
 20
44.3876631547
 30
0.0
 10
15.4393887512
 20
44.684216092
 30
0.0
 10
14.925548313
 20
44.8312708263
 30
0.0
 10
14.5589903181
 20
44.8954568917
 30
0.0
 10
14.204604855
 20
44.9155935686
 30
0.0
 10
13.8651324073
 20
44.8913122339
 30
0.0
 10
13.5433234517
 20
44.8226006847
 30
0.0
 10
13.2419179903
 20
44.7097582058
 30
0.0
 10
12.9636135118
 20
44.5537676594
 30
0.0
 10
12.7963644584
 20
44.4227767422
 30
0.0
 10
12.7178695644
 20
44.3514121371
 30
0.0
  0
SPLINE
  5
2B2
100
AcDbEntity
  8
0
100
AcDbSpline
 62
7
  6
BYLAYER
 70
0
 71
3
 72
9
 73
5
 74
0
 42
0.0000001
 43
0.0000001
 44
0.0000000001
 40
0.0
 40
0.0
 40
0.0
 40
0.0
 40
0.5033201781
 40
1.0
 40
1.0
 40
1.0
 40
1.0
 10
19.4238820265
 20
40.801087408
 30
0.0
 10
19.2617394681
 20
41.0983773585
 30
0.0
 10
18.9115922425
 20
41.674181377
 30
0.0
 10
18.5084602062
 20
42.2143205321
 30
0.0
 10
18.2953892016
 20
42.4717433039
 30
0.0
  0
SPLINE
  5
2B3
100
AcDbEntity
  8
0
100
AcDbSpline
 62
7
  6
BYLAYER
 70
0
 71
3
 72
14
 73
10
 74
0
 42
0.0000001
 43
0.0000001
 44
0.0000000001
 40
0.0
 40
0.0
 40
0.0
 40
0.0
 40
0.2104617117
 40
0.3263550932
 40
0.4492497295
 40
0.5787788885
 40
0.7143089191
 40
0.8550622112
 40
1.0
 40
1.0
 40
1.0
 40
1.0
 10
16.683194762
 20
54.669575623
 30
0.0
 10
17.4150172805
 20
54.5971769803
 30
0.0
 10
18.535078801
 20
54.3050545493
 30
0.0
 10
19.9680193678
 20
53.6619247012
 30
0.0
 10
21.0847593592
 20
53.0172938259
 30
0.0
 10
22.1933815122
 20
52.2344869219
 30
0.0
 10
23.2814906904
 20
51.3228634456
 30
0.0
 10
24.3354104372
 20
50.2936691603
 30
0.0
 10
24.9988739851
 20
49.5465247209
 30
0.0
 10
25.3222801947
 20
49.1567923762
 30
0.0
  0
SPLINE
  5
2B4
100
AcDbEntity
  8
0
100
AcDbSpline
 62
7
  6
BYLAYER
 70
0
 71
3
 72
22
 73
18
 74
0
 42
0.0000001
 43
0.0000001
 44
0.0000000001
 40
0.0
 40
0.0
 40
0.0
 40
0.0
 40
0.0524940207
 40
0.1022146498
 40
0.1502472616
 40
0.1978946138
 40
0.2465119016
 40
0.2973246717
 40
0.3512908522
 40
0.4090507176
 40
0.4709301704
 40
0.5369760507
 40
0.607014162
 40
0.6806871159
 40
0.7574812967
 40
0.8367848191
 40
1.0
 40
1.0
 40
1.0
 40
1.0
 10
17.6929187746
 20
33.6883297538
 30
0.0
 10
17.8455207053
 20
33.6728289204
 30
0.0
 10
18.1458119268
 20
33.6657953746
 30
0.0
 10
18.5818925802
 20
33.7355904699
 30
0.0
 10
18.9824602646
 20
33.8861121955
 30
0.0
 10
19.3401326342
 20
34.1151857517
 30
0.0
 10
19.6486318461
 20
34.4185568279
 30
0.0
 10
19.9032332119
 20
34.7905010392
 30
0.0
 10
20.1009782908
 20
35.2245871636
 30
0.0
 10
20.2397849949
 20
35.7142430036
 30
0.0
 10
20.3182633097
 20
36.2524768958
 30
0.0
 10
20.3357767699
 20
36.8317703095
 30
0.0
 10
20.2921966132
 20
37.4440675503
 30
0.0
 10
20.1882340987
 20
38.0807400854
 30
0.0
 10
20.0254927706
 20
38.7328842503
 30
0.0
 10
19.730387902
 20
39.6186768673
 30
0.0
 10
19.4328376415
 20
40.2652903685
 30
0.0
 10
19.2044834502
 20
40.6839799891
 30
0.0
  0
SPLINE
  5
2B5
100
AcDbEntity
  8
0
100
AcDbSpline
 62
7
  6
BYLAYER
 70
0
 71
3
 72
15
 73
11
 74
0
 42
0.0000001
 43
0.0000001
 44
0.0000000001
 40
0.0
 40
0.0
 40
0.0
 40
0.0
 40
0.1109006351
 40
0.2283102562
 40
0.3511662406
 40
0.4782854533
 40
0.608255541
 40
0.7395535021
 40
0.8706806747
 40
1.0
 40
1.0
 40
1.0
 40
1.0
 10
11.8163043572
 20
41.6148913262
 30
0.0
 10
11.8166746404
 20
41.3888725863
 30
0.0
 10
11.8450658026
 20
40.9233459695
 30
0.0
 10
11.9607830302
 20
40.2160444011
 30
0.0
 10
12.1489896667
 20
39.4903268419
 30
0.0
 10
12.4062177295
 20
38.7590449874
 30
0.0
 10
12.7280523161
 20
38.0349917777
 30
0.0
 10
13.1087712866
 20
37.3308069702
 30
0.0
 10
13.5416871233
 20
36.6590902992
 30
0.0
 10
13.8634675052
 20
36.2361128808
 30
0.0
 10
14.0315176207
 20
36.0330823154
 30
0.0
  0
SPLINE
  5
2B6
100
AcDbEntity
  8
0
100
AcDbSpline
 62
7
  6
BYLAYER
 70
0
 71
3
 72
24
 73
20
 74
0
 42
0.0000001
 43
0.0000001
 44
0.0000000001
 40
0.0
 40
0.0
 40
0.0
 40
0.0
 40
0.0832550481
 40
0.1639718561
 40
0.2414289572
 40
0.3151515362
 40
0.3847757463
 40
0.4500991306
 40
0.5111568397
 40
0.5682542011
 40
0.6220000464
 40
0.6733300897
 40
0.7234545443
 40
0.773737825
 40
0.8255249871
 40
0.879971099
 40
0.9084910703
 40
0.937970579
 40
1.0
 40
1.0
 40
1.0
 40
1.0
 10
18.1117546545
 20
42.3016897031
 30
0.0
 10
17.9666974391
 20
42.4769412844
 30
0.0
 10
17.6686119384
 20
42.8120916613
 30
0.0
 10
17.1938098216
 20
43.2710377838
 30
0.0
 10
16.7033061827
 20
43.6734191909
 30
0.0
 10
16.2039475616
 20
44.0136149198
 30
0.0
 10
15.7024296078
 20
44.2871031378
 30
0.0
 10
15.2053587403
 20
44.4899268648
 30
0.0
 10
14.7193181427
 20
44.6191041588
 30
0.0
 10
14.2507013649
 20
44.6724619836
 30
0.0
 10
13.8058799141
 20
44.6483489542
 30
0.0
 10
13.3914734386
 20
44.5462580797
 30
0.0
 10
13.0143506034
 20
44.3669867076
 30
0.0
 10
12.681155301
 20
44.1132859917
 30
0.0
 10
12.3972384815
 20
43.789964809
 30
0.0
 10
12.2077928723
 20
43.4719540837
 30
0.0
 10
12.0831196557
 20
43.1908595027
 30
0.0
 10
11.9732740593
 20
42.8815461283
 30
0.0
 10
11.9153102966
 20
42.6372944428
 30
0.0
 10
11.8861270655
 20
42.4703286281
 30
0.0
  0
SPLINE
  5
2B7
100
AcDbEntity
  8
0
100
AcDbSpline
 62
7
  6
BYLAYER
 70
0
 71
3
 72
9
 73
5
 74
0
 42
0.0000001
 43
0.0000001
 44
0.0000000001
 40
0.0
 40
0.0
 40
0.0
 40
0.0
 40
0.2410599838
 40
1.0
 40
1.0
 40
1.0
 40
1.0
 10
11.8861270655
 20
42.4703286281
 30
0.0
 10
11.8743721198
 20
42.4030751398
 30
0.0
 10
11.8323802878
 20
42.1229160202
 30
0.0
 10
11.8162967676
 20
41.8390988444
 30
0.0
 10
11.8162967676
 20
41.6241516976
 30
0.0
  0
SPLINE
  5
2B8
100
AcDbEntity
  8
0
100
AcDbSpline
 62
7
  6
BYLAYER
 70
0
 71
3
 72
9
 73
5
 74
0
 42
0.0000001
 43
0.0000001
 44
0.0000000001
 40
0.0
 40
0.0
 40
0.0
 40
0.0
 40
0.5033201507
 40
1.0
 40
1.0
 40
1.0
 40
1.0
 10
19.2044834502
 20
40.6839799891
 30
0.0
 10
19.0474795015
 20
40.9718482489
 30
0.0
 10
18.7084284484
 20
41.5294035437
 30
0.0
 10
18.3180730515
 20
42.0524251271
 30
0.0
 10
18.1117546545
 20
42.3016897031
 30
0.0
  0
SPLINE
  5
2B9
100
AcDbEntity
  8
0
100
AcDbSpline
 62
7
  6
BYLAYER
 70
0
 71
3
 72
11
 73
7
 74
0
 42
0.0000001
 43
0.0000001
 44
0.0000000001
 40
0.0
 40
0.0
 40
0.0
 40
0.0
 40
0.2660509123
 40
0.5145281404
 40
0.755111439
 40
1.0
 40
1.0
 40
1.0
 40
1.0
 10
18.6734456409
 20
34.2050964561
 30
0.0
 10
18.6518416852
 20
34.1519516305
 30
0.0
 10
18.5995970145
 20
34.0528466103
 30
0.0
 10
18.4898122498
 20
33.9301259076
 30
0.0
 10
18.3543889731
 20
33.8443409698
 30
0.0
 10
18.2524716121
 20
33.8146306814
 30
0.0
 10
18.2003397614
 20
33.8062264405
 30
0.0
  0
SPLINE
  5
2BA
100
AcDbEntity
  8
0
100
AcDbSpline
 62
7
  6
BYLAYER
 70
0
 71
3
 72
9
 73
5
 74
0
 42
0.0000001
 43
0.0000001
 44
0.0000000001
 40
0.0
 40
0.0
 40
0.0
 40
0.0
 40
0.245129066
 40
1.0
 40
1.0
 40
1.0
 40
1.0
 10
18.2003397614
 20
33.8062264405
 30
0.0
 10
18.1901740103
 20
33.8045876071
 30
0.0
 10
18.1485464942
 20
33.7988942784
 30
0.0
 10
18.1064014574
 20
33.7971407655
 30
0.0
 10
18.0746994096
 20
33.7978259632
 30
0.0
  0
SPLINE
  5
2BB
100
AcDbEntity
  8
0
100
AcDbSpline
 62
7
  6
BYLAYER
 70
0
 71
3
 72
9
 73
5
 74
0
 42
0.0000001
 43
0.0000001
 44
0.0000000001
 40
0.0
 40
0.0
 40
0.0
 40
0.0
 40
0.2435840423
 40
1.0
 40
1.0
 40
1.0
 40
1.0
 10
18.0746994096
 20
33.7978259632
 30
0.0
 10
18.0630732783
 20
33.7980772466
 30
0.0
 10
18.0153705434
 20
33.8002134921
 30
0.0
 10
17.9678895404
 20
33.8066466942
 30
0.0
 10
17.9324431825
 20
33.8135469782
 30
0.0
  0
SPLINE
  5
2BC
100
AcDbEntity
  8
0
100
AcDbSpline
 62
7
  6
BYLAYER
 70
0
 71
3
 72
9
 73
5
 74
0
 42
0.0000001
 43
0.0000001
 44
0.0000000001
 40
0.0
 40
0.0
 40
0.0
 40
0.0
 40
0.2698562496
 40
1.0
 40
1.0
 40
1.0
 40
1.0
 10
18.7514356626
 20
34.6503682613
 30
0.0
 10
18.7514356626
 20
34.6095721069
 30
0.0
 10
18.745666622
 20
34.4586215813
 30
0.0
 10
18.7150134977
 20
34.3073516418
 30
0.0
 10
18.6734456409
 20
34.2050964561
 30
0.0
  0
SPLINE
  5
2BD
100
AcDbEntity
  8
0
100
AcDbSpline
 62
7
  6
BYLAYER
 70
0
 71
3
 72
9
 73
5
 74
0
 42
0.0000001
 43
0.0000001
 44
0.0000000001
 40
0.0
 40
0.0
 40
0.0
 40
0.0
 40
0.2618447095
 40
1.0
 40
1.0
 40
1.0
 40
1.0
 10
16.4053343035
 20
36.3743211021
 30
0.0
 10
16.411275132
 20
36.3955680798
 30
0.0
 10
16.4365993329
 20
36.4759172528
 30
0.0
 10
16.4730647935
 20
36.5530158441
 30
0.0
 10
16.5068083009
 20
36.6052598927
 30
0.0
  0
SPLINE
  5
2BE
100
AcDbEntity
  8
0
100
AcDbSpline
 62
7
  6
BYLAYER
 70
0
 71
3
 72
22
 73
18
 74
0
 42
0.0000001
 43
0.0000001
 44
0.0000000001
 40
0.0
 40
0.0
 40
0.0
 40
0.0
 40
0.0458375764
 40
0.0899332629
 40
0.1346562558
 40
0.1821764152
 40
0.2340533681
 40
0.2910922257
 40
0.3534013257
 40
0.4205678908
 40
0.4917863854
 40
0.5659672171
 40
0.7179075874
 40
0.7930917449
 40
0.8659132892
 40
0.9352455072
 40
1.0
 40
1.0
 40
1.0
 40
1.0
 10
16.5068083009
 20
36.6052598927
 30
0.0
 10
16.537119045
 20
36.6521890981
 30
0.0
 10
16.6081620759
 20
36.7376523691
 30
0.0
 10
16.7460436742
 20
36.8307423763
 30
0.0
 10
16.9068053459
 20
36.8808987587
 30
0.0
 10
17.0841275585
 20
36.887143708
 30
0.0
 10
17.2726487112
 20
36.8507967663
 30
0.0
 10
17.4676271812
 20
36.7736808727
 30
0.0
 10
17.6643624724
 20
36.6582965049
 30
0.0
 10
17.8579232762
 20
36.5077686011
 30
0.0
 10
18.0433040263
 20
36.3260251152
 30
0.0
 10
18.2747648392
 20
36.0465737792
 30
0.0
 10
18.4669158245
 20
35.730453562
 30
0.0
 10
18.6108525198
 20
35.3939550392
 30
0.0
 10
18.6903001462
 20
35.1407121954
 30
0.0
 10
18.7393171022
 20
34.8928380773
 30
0.0
 10
18.7514356626
 20
34.7292908846
 30
0.0
 10
18.7514356626
 20
34.6503682613
 30
0.0
  0
SPLINE
  5
2BF
100
AcDbEntity
  8
0
100
AcDbSpline
 62
7
  6
BYLAYER
 70
0
 71
3
 72
10
 73
6
 74
0
 42
0.0000001
 43
0.0000001
 44
0.0000000001
 40
0.0
 40
0.0
 40
0.0
 40
0.0
 40
0.5182443863
 40
0.7612865257
 40
1.0
 40
1.0
 40
1.0
 40
1.0
 10
18.4074162025
 20
34.2618861706
 30
0.0
 10
18.3805113107
 20
34.1957012644
 30
0.0
 10
18.3263689987
 20
34.1026653656
 30
0.0
 10
18.2257032189
 20
34.0074622226
 30
0.0
 10
18.1689514406
 20
33.9719366062
 30
0.0
 10
18.1394561422
 20
33.95734169
 30
0.0
  0
SPLINE
  5
2C0
100
AcDbEntity
  8
0
100
AcDbSpline
 62
7
  6
BYLAYER
 70
0
 71
3
 72
9
 73
5
 74
0
 42
0.0000001
 43
0.0000001
 44
0.0000000001
 40
0.0
 40
0.0
 40
0.0
 40
0.0
 40
0.2698564128
 40
1.0
 40
1.0
 40
1.0
 40
1.0
 10
18.4761881551
 20
34.6545288551
 30
0.0
 10
18.4761881551
 20
34.6185545988
 30
0.0
 10
18.4711012492
 20
34.4854457244
 30
0.0
 10
18.4440709195
 20
34.3520552384
 30
0.0
 10
18.4074162025
 20
34.2618861706
 30
0.0
  0
SPLINE
  5
2C1
100
AcDbEntity
  8
0
100
AcDbSpline
 62
7
  6
BYLAYER
 70
0
 71
3
 72
11
 73
7
 74
0
 42
0.0000001
 43
0.0000001
 44
0.0000000001
 40
0.0
 40
0.0
 40
0.0
 40
0.0
 40
0.2177660095
 40
0.4508968553
 40
0.7103699668
 40
1.0
 40
1.0
 40
1.0
 40
1.0
 10
9.5713078373
 20
29.5752721381
 30
0.0
 10
9.6042841269
 20
29.5943283641
 30
0.0
 10
9.6660339648
 20
29.6461624785
 30
0.0
 10
9.7317296967
 20
29.753626688
 30
0.0
 10
9.7707304106
 20
29.886024194
 30
0.0
 10
9.7784303387
 20
29.9823848061
 30
0.0
 10
9.7784303387
 20
30.0330399625
 30
0.0
  0
SPLINE
  5
2C2
100
AcDbEntity
  8
0
100
AcDbSpline
 62
7
  6
BYLAYER
 70
0
 71
3
 72
9
 73
5
 74
0
 42
0.0000001
 43
0.0000001
 44
0.0000000001
 40
0.0
 40
0.0
 40
0.0
 40
0.0
 40
0.2372406965
 40
1.0
 40
1.0
 40
1.0
 40
1.0
 10
17.2699505654
 20
34.0274717468
 30
0.0
 10
17.2699505654
 20
34.059838726
 30
0.0
 10
17.2649449066
 20
34.1962594473
 30
0.0
 10
17.2414146335
 20
34.331697604
 30
0.0
 10
17.2157422062
 20
34.4325452187
 30
0.0
  0
SPLINE
  5
2C3
100
AcDbEntity
  8
0
100
AcDbSpline
 62
7
  6
BYLAYER
 70
0
 71
3
 72
17
 73
13
 74
0
 42
0.0000001
 43
0.0000001
 44
0.0000000001
 40
0.0
 40
0.0
 40
0.0
 40
0.0
 40
0.143951925
 40
0.2928256468
 40
0.4401288921
 40
0.5795768569
 40
0.7060363329
 40
0.8166428194
 40
0.8662586078
 40
0.9126756035
 40
0.9568364901
 40
1.0
 40
1.0
 40
1.0
 40
1.0
 10
17.2157422062
 20
34.4325452187
 30
0.0
 10
17.187075782
 20
34.5451539902
 30
0.0
 10
17.1087546412
 20
34.7694376158
 30
0.0
 10
16.9423252356
 20
35.0846682786
 30
0.0
 10
16.7337912213
 20
35.3694476307
 30
0.0
 10
16.4961483322
 20
35.6057627544
 30
0.0
 10
16.2441567974
 20
35.7789171428
 30
0.0
 10
16.0256797883
 20
35.8644928155
 30
0.0
 10
15.8595999739
 20
35.8866896273
 30
0.0
 10
15.7458417224
 20
35.8812485856
 30
0.0
 10
15.6405659715
 20
35.8539868285
 30
0.0
 10
15.57726191
 20
35.8214230546
 30
0.0
 10
15.548270324
 20
35.8020976504
 30
0.0
  0
SPLINE
  5
2C4
100
AcDbEntity
  8
0
100
AcDbSpline
 62
7
  6
BYLAYER
 70
0
 71
3
 72
21
 73
17
 74
0
 42
0.0000001
 43
0.0000001
 44
0.0000000001
 40
0.0
 40
0.0
 40
0.0
 40
0.0
 40
0.1519889104
 40
0.3083508107
 40
0.4587067333
 40
0.528773121
 40
0.5941648098
 40
0.6543877695
 40
0.6825463507
 40
0.7094435626
 40
0.7597586073
 40
0.8066350351
 40
0.8519718703
 40
0.8980139783
 40
0.9468393419
 40
1.0
 40
1.0
 40
1.0
 40
1.0
 10
16.9481999718
 20
34.3791279442
 30
0.0
 10
16.9175951496
 20
34.4993512203
 30
0.0
 10
16.8291059491
 20
34.7370177367
 30
0.0
 10
16.6364275959
 20
35.0600813454
 30
0.0
 10
16.4320433912
 20
35.2929304245
 30
0.0
 10
16.2512863874
 20
35.4411546345
 30
0.0
 10
16.1159561823
 20
35.5268091737
 30
0.0
 10
16.0009800366
 20
35.5785494509
 30
0.0
 10
15.9107452471
 20
35.6056685718
 30
0.0
 10
15.8263426779
 20
35.6226791361
 30
0.0
 10
15.7242863729
 20
35.6276363872
 30
0.0
 10
15.6088665739
 20
35.6048280014
 30
0.0
 10
15.5069544462
 20
35.5529855847
 30
0.0
 10
15.4222354124
 20
35.4739595808
 30
0.0
 10
15.3572245737
 20
35.3707924154
 30
0.0
 10
15.3289992849
 20
35.2917951177
 30
0.0
 10
15.318018818
 20
35.2498162258
 30
0.0
  0
SPLINE
  5
2C5
100
AcDbEntity
  8
0
100
AcDbSpline
 62
7
  6
BYLAYER
 70
0
 71
3
 72
9
 73
5
 74
0
 42
0.0000001
 43
0.0000001
 44
0.0000000001
 40
0.0
 40
0.0
 40
0.0
 40
0.0
 40
0.2372407711
 40
1.0
 40
1.0
 40
1.0
 40
1.0
 10
16.9947030457
 20
34.0316325995
 30
0.0
 10
16.9947030457
 20
34.059398866
 30
0.0
 10
16.9904087437
 20
34.1764284072
 30
0.0
 10
16.9702232556
 20
34.2926150638
 30
0.0
 10
16.9481999718
 20
34.3791279442
 30
0.0
  0
SPLINE
  5
2C6
100
AcDbEntity
  8
0
100
AcDbSpline
 62
7
  6
BYLAYER
 70
0
 71
3
 72
10
 73
6
 74
0
 42
0.0000001
 43
0.0000001
 44
0.0000000001
 40
0.0
 40
0.0
 40
0.0
 40
0.0
 40
0.5271333694
 40
0.7678446605
 40
1.0
 40
1.0
 40
1.0
 40
1.0
 10
16.3531999079
 20
33.4483967552
 30
0.0
 10
16.4184552683
 20
33.4299728273
 30
0.0
 10
16.5188031308
 20
33.4156611097
 30
0.0
 10
16.6466064097
 20
33.435749145
 30
0.0
 10
16.7038920677
 20
33.4579020997
 30
0.0
 10
16.7303492911
 20
33.4717510843
 30
0.0
  0
SPLINE
  5
2C7
100
AcDbEntity
  8
0
100
AcDbSpline
 62
7
  6
BYLAYER
 70
0
 71
3
 72
11
 73
7
 74
0
 42
0.0000001
 43
0.0000001
 44
0.0000000001
 40
0.0
 40
0.0
 40
0.0
 40
0.0
 40
0.2179124241
 40
0.4503803904
 40
0.7095727187
 40
1.0
 40
1.0
 40
1.0
 40
1.0
 10
16.7303492911
 20
33.4717510843
 30
0.0
 10
16.7721169699
 20
33.4936142983
 30
0.0
 10
16.8508366675
 20
33.5549373081
 30
0.0
 10
16.9350135501
 20
33.6860823296
 30
0.0
 10
16.9849092194
 20
33.8494615294
 30
0.0
 10
16.9947030457
 20
33.9688007094
 30
0.0
 10
16.9947030457
 20
34.0316325995
 30
0.0
  0
SPLINE
  5
2C8
100
AcDbEntity
  8
0
100
AcDbSpline
 62
7
  6
BYLAYER
 70
0
 71
3
 72
11
 73
7
 74
0
 42
0.0000001
 43
0.0000001
 44
0.0000000001
 40
0.0
 40
0.0
 40
0.0
 40
0.0
 40
0.2896413964
 40
0.5491107671
 40
0.7822355978
 40
1.0
 40
1.0
 40
1.0
 40
1.0
 10
16.8494687108
 20
34.1154815012
 30
0.0
 10
16.8494687108
 20
34.0648242853
 30
0.0
 10
16.8417687953
 20
33.9684622702
 30
0.0
 10
16.8027674206
 20
33.8360639584
 30
0.0
 10
16.7370697502
 20
33.7286039004
 30
0.0
 10
16.6753237847
 20
33.6767672931
 30
0.0
 10
16.6423477772
 20
33.6577110322
 30
0.0
  0
SPLINE
  5
2C9
100
AcDbEntity
  8
0
100
AcDbSpline
 62
7
  6
BYLAYER
 70
0
 71
3
 72
19
 73
15
 74
0
 42
0.0000001
 43
0.0000001
 44
0.0000000001
 40
0.0
 40
0.0
 40
0.0
 40
0.0
 40
0.0475012066
 40
0.0956066237
 40
0.1448823715
 40
0.1958284648
 40
0.2488545671
 40
0.3042770612
 40
0.3623124663
 40
0.4230894397
 40
0.5528816787
 40
0.6933043473
 40
0.8430021569
 40
1.0
 40
1.0
 40
1.0
 40
1.0
 10
16.0177152308
 20
55.5906927375
 30
0.0
 10
16.2087758998
 20
55.7009954877
 30
0.0
 10
16.6093986489
 20
55.8963869704
 30
0.0
 10
17.250956031
 20
56.1057687532
 30
0.0
 10
17.9302851958
 20
56.2313381931
 30
0.0
 10
18.6425777255
 20
56.2722704719
 30
0.0
 10
19.3831281539
 20
56.2288486028
 30
0.0
 10
20.1471309257
 20
56.1014775852
 30
0.0
 10
20.9298106649
 20
55.8913508317
 30
0.0
 10
22.0152507158
 20
55.4940011738
 30
0.0
 10
23.3885806773
 20
54.7892829715
 30
0.0
 10
24.9917653015
 20
53.6702833318
 30
0.0
 10
26.5470522811
 20
52.2880506485
 30
0.0
 10
27.5085862029
 20
51.2333236045
 30
0.0
 10
27.9735166763
 20
50.6716155889
 30
0.0
  0
SPLINE
  5
2CA
100
AcDbEntity
  8
0
100
AcDbSpline
 62
7
  6
BYLAYER
 70
0
 71
3
 72
17
 73
13
 74
0
 42
0.0000001
 43
0.0000001
 44
0.0000000001
 40
0.0
 40
0.0
 40
0.0
 40
0.0
 40
0.128688864
 40
0.2702797703
 40
0.4174318348
 40
0.5617733576
 40
0.6954455149
 40
0.8127096012
 40
0.8646749146
 40
0.9125085807
 40
0.9571389861
 40
1.0
 40
1.0
 40
1.0
 40
1.0
 10
9.7784303387
 20
30.0330399625
 30
0.0
 10
9.7784303387
 20
30.1185148728
 30
0.0
 10
9.7545173379
 20
30.2982388571
 30
0.0
 10
9.6652703831
 20
30.5621236674
 30
0.0
 10
9.5277409369
 20
30.8163262047
 30
0.0
 10
9.352990617
 20
31.0400047456
 30
0.0
 10
9.1552958821
 20
31.2150922286
 30
0.0
 10
8.9763546803
 20
31.3129373509
 30
0.0
 10
8.8363780534
 20
31.3501700618
 30
0.0
 10
8.7400396206
 20
31.3572638916
 30
0.0
 10
8.6503326055
 20
31.3441165895
 30
0.0
 10
8.5959819615
 20
31.3215331286
 30
0.0
 10
8.5713333898
 20
31.3072892959
 30
0.0
  0
SPLINE
  5
2CB
100
AcDbEntity
  8
0
100
AcDbSpline
 62
7
  6
BYLAYER
 70
0
 71
3
 72
21
 73
17
 74
0
 42
0.0000001
 43
0.0000001
 44
0.0000000001
 40
0.0
 40
0.0
 40
0.0
 40
0.0
 40
0.1562558953
 40
0.3054454913
 40
0.3768014271
 40
0.4457225419
 40
0.5120562967
 40
0.5757118772
 40
0.6366520263
 40
0.6949088047
 40
0.7505839332
 40
0.8038694111
 40
0.8550420052
 40
0.904473566
 40
0.9526175448
 40
1.0
 40
1.0
 40
1.0
 40
1.0
 10
23.0974092911
 20
47.7913898947
 30
0.0
 10
22.6480869888
 20
48.3342408224
 30
0.0
 10
21.719311061
 20
49.3549187755
 30
0.0
 10
20.4501633225
 20
50.4903272364
 30
0.0
 10
19.4044518514
 20
51.2729322472
 30
0.0
 10
18.6250524229
 20
51.7847322163
 30
0.0
 10
17.8436531377
 20
52.2267371303
 30
0.0
 10
17.0650831861
 20
52.5963630581
 30
0.0
 10
16.2939633775
 20
52.8911323221
 30
0.0
 10
15.5350272341
 20
53.1093472321
 30
0.0
 10
14.7927925416
 20
53.2493099736
 30
0.0
 10
14.0718137768
 20
53.3101904848
 30
0.0
 10
13.3765156582
 20
53.2911251254
 30
0.0
 10
12.7112518154
 20
53.1921664791
 30
0.0
 10
12.0805560454
 20
53.0134803385
 30
0.0
 10
11.6840204695
 20
52.8411448512
 30
0.0
 10
11.4943449176
 20
52.7427344268
 30
0.0
  0
SPLINE
  5
2CC
100
AcDbEntity
  8
0
100
AcDbSpline
 62
7
  6
BYLAYER
 70
0
 71
3
 72
22
 73
18
 74
0
 42
0.0000001
 43
0.0000001
 44
0.0000000001
 40
0.0
 40
0.0
 40
0.0
 40
0.0
 40
0.0438887813
 40
0.0886349125
 40
0.1352497476
 40
0.1845415155
 40
0.2370695635
 40
0.2931451041
 40
0.3528592939
 40
0.4161171816
 40
0.4826695033
 40
0.5521450833
 40
0.6240756571
 40
0.6979172621
 40
0.7730769994
 40
0.8489187907
 40
1.0
 40
1.0
 40
1.0
 40
1.0
 10
11.4943449176
 20
52.7427344268
 30
0.0
 10
11.2215306723
 20
52.6011886907
 30
0.0
 10
10.6975196369
 20
52.2596804654
 30
0.0
 10
10.0159713727
 20
51.5941534593
 30
0.0
 10
9.4455117131
 20
50.7849623477
 30
0.0
 10
8.9929255263
 20
49.8445595999
 30
0.0
 10
8.6624914263
 20
48.7857622537
 30
0.0
 10
8.4572310635
 20
47.6222124429
 30
0.0
 10
8.3789849518
 20
46.3684796611
 30
0.0
 10
8.4283644959
 20
45.0402267105
 30
0.0
 10
8.6044924158
 20
43.6541187244
 30
0.0
 10
8.9050120996
 20
42.2276474044
 30
0.0
 10
9.3260707482
 20
40.778900254
 30
0.0
 10
9.8622885598
 20
39.3263490987
 30
0.0
 10
10.5068846215
 20
37.888388487
 30
0.0
 10
11.4980128607
 20
36.0183936071
 30
0.0
 10
12.3787404396
 20
34.6882975237
 30
0.0
 10
13.0212609015
 20
33.8477380914
 30
0.0
  0
SPLINE
  5
2CD
100
AcDbEntity
  8
0
100
AcDbSpline
 62
7
  6
BYLAYER
 70
0
 71
3
 72
19
 73
15
 74
0
 42
0.0000001
 43
0.0000001
 44
0.0000000001
 40
0.0
 40
0.0
 40
0.0
 40
0.0
 40
0.1542227377
 40
0.301969345
 40
0.4415313435
 40
0.5716661882
 40
0.6330209623
 40
0.6918591131
 40
0.7482340434
 40
0.802270227
 40
0.8541590344
 40
0.9041708348
 40
0.9526469721
 40
1.0
 40
1.0
 40
1.0
 40
1.0
 10
25.3433996991
 20
49.1778080927
 30
0.0
 10
24.9130390389
 20
49.6967387171
 30
0.0
 10
24.0247539552
 20
50.6761643696
 30
0.0
 10
22.5940262215
 20
51.9764375281
 30
0.0
 10
21.1178219145
 20
53.0554434207
 30
0.0
 10
19.8509953183
 20
53.7645831125
 30
0.0
 10
18.8433107437
 20
54.1935174545
 30
0.0
 10
18.1112215465
 20
54.4406888278
 30
0.0
 10
17.3919805309
 20
54.618054465
 30
0.0
 10
16.6894808598
 20
54.7246965481
 30
0.0
 10
16.0075143686
 20
54.759690178
 30
0.0
 10
15.3498138965
 20
54.7228120342
 30
0.0
 10
14.7202218668
 20
54.6139026376
 30
0.0
 10
14.317951881
 20
54.4925190546
 30
0.0
 10
14.1239918673
 20
54.4202165934
 30
0.0
  0
SPLINE
  5
2CE
100
AcDbEntity
  8
0
100
AcDbSpline
 62
7
  6
BYLAYER
 70
0
 71
3
 72
19
 73
15
 74
0
 42
0.0000001
 43
0.0000001
 44
0.0000000001
 40
0.0
 40
0.0
 40
0.0
 40
0.0
 40
0.0492698168
 40
0.0982097147
 40
0.1475279313
 40
0.1979064506
 40
0.2499545293
 40
0.3041817344
 40
0.3609775365
 40
0.420612787
 40
0.5488139844
 40
0.6890296513
 40
0.8401186923
 40
1.0
 40
1.0
 40
1.0
 40
1.0
 10
14.4643274045
 20
45.939396553
 30
0.0
 10
14.5464973782
 20
46.0141109573
 30
0.0
 10
14.721184332
 20
46.151604302
 30
0.0
 10
15.0110805359
 20
46.316909734
 30
0.0
 10
15.324509124
 20
46.4386771258
 30
0.0
 10
15.6588948373
 20
46.5157959965
 30
0.0
 10
16.0115472816
 20
46.5480271753
 30
0.0
 10
16.3797882497
 20
46.5352035735
 30
0.0
 10
16.7609395619
 20
46.4777239707
 30
0.0
 10
17.2954668605
 20
46.3388686356
 30
0.0
 10
17.980737232
 20
46.0502631643
 30
0.0
 10
18.7876952868
 20
45.5516152149
 30
0.0
 10
19.5774089602
 20
44.9068080198
 30
0.0
 10
20.0669113654
 20
44.4027958315
 30
0.0
 10
20.3043636935
 20
44.1316934746
 30
0.0
  0
SPLINE
  5
2CF
100
AcDbEntity
  8
0
100
AcDbSpline
 62
7
  6
BYLAYER
 70
0
 71
3
 72
25
 73
21
 74
0
 42
0.0000001
 43
0.0000001
 44
0.0000000001
 40
0.0
 40
0.0
 40
0.0
 40
0.0
 40
0.0217137578
 40
0.0435725838
 40
0.0657165398
 40
0.0882767627
 40
0.1350625397
 40
0.1847432461
 40
0.2378164165
 40
0.2945263656
 40
0.3548967858
 40
0.4187677868
 40
0.4858302176
 40
0.5556573906
 40
0.6277310665
 40
0.7014649944
 40
0.7762258215
 40
0.8513438992
 40
0.9261670015
 40
1.0
 40
1.0
 40
1.0
 40
1.0
 10
25.6007486625
 20
28.2145507019
 30
0.0
 10
25.7386133935
 20
28.2941424833
 30
0.0
 10
26.0074190949
 20
28.4679118775
 30
0.0
 10
26.384401514
 20
28.7691176214
 30
0.0
 10
26.7345884884
 20
29.1101125062
 30
0.0
 10
27.1691807362
 20
29.6221424297
 30
0.0
 10
27.6393332056
 20
30.3630266767
 30
0.0
 10
28.0699527021
 20
31.3756981129
 30
0.0
 10
28.3703750731
 20
32.5091521324
 30
0.0
 10
28.5375677791
 20
33.7481926438
 30
0.0
 10
28.5700941671
 20
35.0767543305
 30
0.0
 10
28.4678659116
 20
36.4775176798
 30
0.0
 10
28.2324483628
 20
37.9321421579
 30
0.0
 10
27.8670452374
 20
39.42146553
 30
0.0
 10
27.3765391338
 20
40.9257846812
 30
0.0
 10
26.7674404425
 20
42.4251372447
 30
0.0
 10
26.0478523481
 20
43.899517179
 30
0.0
 10
25.2273847976
 20
45.329454971
 30
0.0
 10
24.3169690768
 20
46.6956234691
 30
0.0
 10
23.6517722041
 20
47.5602205705
 30
0.0
 10
23.3066313507
 20
47.9772041734
 30
0.0
  0
SPLINE
  5
2D0
100
AcDbEntity
  8
0
100
AcDbSpline
 62
7
  6
BYLAYER
 70
0
 71
3
 72
20
 73
16
 74
0
 42
0.0000001
 43
0.0000001
 44
0.0000000001
 40
0.0
 40
0.0
 40
0.0
 40
0.0
 40
0.1391978447
 40
0.2096652046
 40
0.2801493554
 40
0.4194675114
 40
0.4875539804
 40
0.5540756567
 40
0.6186912724
 40
0.6811017685
 40
0.7410568871
 40
0.7983654442
 40
0.8529105627
 40
0.904659527
 40
1.0
 40
1.0
 40
1.0
 40
1.0
 10
25.3402821556
 20
49.1350708576
 30
0.0
 10
25.8997172331
 20
48.4591866443
 30
0.0
 10
26.6844081704
 20
47.3913959721
 30
0.0
 10
27.6117636809
 20
45.888000607
 30
0.0
 10
28.4567574498
 20
44.335856092
 30
0.0
 10
29.1689408581
 20
42.7309227667
 30
0.0
 10
29.7317256173
 20
41.0978240405
 30
0.0
 10
30.0699775294
 20
39.8876725865
 30
0.0
 10
30.3244855154
 20
38.6937139567
 30
0.0
 10
30.4930963061
 20
37.526339375
 30
0.0
 10
30.5742725878
 20
36.3956705757
 30
0.0
 10
30.5672353793
 20
35.3116444244
 30
0.0
 10
30.4718614599
 20
34.2831611394
 30
0.0
 10
30.2348214125
 20
33.0337406694
 30
0.0
 10
29.9199614315
 20
32.1496983894
 30
0.0
 10
29.64280976
 20
31.6164872227
 30
0.0
  0
SPLINE
  5
2D1
100
AcDbEntity
  8
0
100
AcDbSpline
 62
7
  6
BYLAYER
 70
0
 71
3
 72
23
 73
19
 74
0
 42
0.0000001
 43
0.0000001
 44
0.0000000001
 40
0.0
 40
0.0
 40
0.0
 40
0.0
 40
0.0756468345
 40
0.1523534989
 40
0.2292479301
 40
0.3055594405
 40
0.3804930089
 40
0.4533028223
 40
0.5233213288
 40
0.5899800669
 40
0.6528522984
 40
0.7116892177
 40
0.7664709513
 40
0.8174595246
 40
0.8652415435
 40
0.9107490333
 40
0.9552089641
 40
1.0
 40
1.0
 40
1.0
 40
1.0
 10
20.6795541663
 20
44.076756236
 30
0.0
 10
20.8612430335
 20
43.8572479462
 30
0.0
 10
21.210192281
 20
43.4008363361
 30
0.0
 10
21.6833686595
 20
42.6776246515
 30
0.0
 10
22.1042163325
 20
41.919839984
 30
0.0
 10
22.4661168799
 20
41.1395542663
 30
0.0
 10
22.7634942688
 20
40.3488377531
 30
0.0
 10
22.9916875503
 20
39.5600265448
 30
0.0
 10
23.1471047556
 20
38.7853680865
 30
0.0
 10
23.2273068772
 20
38.0368350746
 30
0.0
 10
23.2309869587
 20
37.3259251903
 30
0.0
 10
23.1578004778
 20
36.6634681024
 30
0.0
 10
23.0084318929
 20
36.0595349408
 30
0.0
 10
22.7844431444
 20
35.5234277733
 30
0.0
 10
22.4881710029
 20
35.0639854509
 30
0.0
 10
22.1232394517
 20
34.6897554341
 30
0.0
 10
21.6958494231
 20
34.4086522413
 30
0.0
 10
21.3784945973
 20
34.2887489072
 30
0.0
 10
21.215374721
 20
34.2456438689
 30
0.0
  0
SPLINE
  5
2D2
100
AcDbEntity
  8
0
100
AcDbSpline
 62
7
  6
BYLAYER
 70
0
 71
3
 72
9
 73
5
 74
0
 42
0.0000001
 43
0.0000001
 44
0.0000000001
 40
0.0
 40
0.0
 40
0.0
 40
0.0
 40
0.2466281661
 40
1.0
 40
1.0
 40
1.0
 40
1.0
 10
21.1247324379
 20
34.2235018923
 30
0.0
 10
21.0925050538
 20
34.216263196
 30
0.0
 10
20.9612650571
 20
34.1894803306
 30
0.0
 10
20.8279765658
 20
34.1729143113
 30
0.0
 10
20.7273279103
 20
34.1658347904
 30
0.0
  0
SPLINE
  5
2D3
100
AcDbEntity
  8
0
100
AcDbSpline
 62
7
  6
BYLAYER
 70
0
 71
3
 72
25
 73
21
 74
0
 42
0.0000001
 43
0.0000001
 44
0.0000000001
 40
0.0
 40
0.0
 40
0.0
 40
0.0
 40
0.0738329985
 40
0.1486561008
 40
0.2237741785
 40
0.2985350056
 40
0.3722689335
 40
0.4443426094
 40
0.5141697824
 40
0.5812322132
 40
0.6451032142
 40
0.7054736344
 40
0.7621835835
 40
0.8152567539
 40
0.8649374603
 40
0.9117232373
 40
0.9342834602
 40
0.9564274162
 40
0.9782862422
 40
1.0
 40
1.0
 40
1.0
 40
1.0
 10
27.9735166763
 20
50.6716155889
 30
0.0
 10
28.3186575297
 20
50.2546319861
 30
0.0
 10
28.9838544024
 20
49.3900348847
 30
0.0
 10
29.8942701232
 20
48.0238663865
 30
0.0
 10
30.7147376737
 20
46.5939285945
 30
0.0
 10
31.4343257681
 20
45.1195486602
 30
0.0
 10
32.0434244594
 20
43.6201960967
 30
0.0
 10
32.533930563
 20
42.1158769455
 30
0.0
 10
32.8993336884
 20
40.6265535734
 30
0.0
 10
33.1347512372
 20
39.1719290953
 30
0.0
 10
33.2369794927
 20
37.7711657461
 30
0.0
 10
33.2044531047
 20
36.4426040594
 30
0.0
 10
33.0372603987
 20
35.203563548
 30
0.0
 10
32.7368380277
 20
34.0701095284
 30
0.0
 10
32.3062185312
 20
33.0574380922
 30
0.0
 10
31.8360660618
 20
32.3165538453
 30
0.0
 10
31.401473814
 20
31.8045239218
 30
0.0
 10
31.0512868396
 20
31.463529037
 30
0.0
 10
30.6743044205
 20
31.1623232931
 30
0.0
 10
30.4054987191
 20
30.9885538988
 30
0.0
 10
30.2676339881
 20
30.9089621175
 30
0.0
  0
SPLINE
  5
2D4
100
AcDbEntity
  8
0
100
AcDbSpline
 62
7
  6
BYLAYER
 70
0
 71
3
 72
11
 73
7
 74
0
 42
0.0000001
 43
0.0000001
 44
0.0000000001
 40
0.0
 40
0.0
 40
0.0
 40
0.0
 40
0.234203416
 40
0.4800456076
 40
0.7359940088
 40
1.0
 40
1.0
 40
1.0
 40
1.0
 10
45.4829420891
 20
67.9854254851
 30
0.0
 10
45.9067218916
 20
67.7246430607
 30
0.0
 10
46.7489220144
 20
67.1463063311
 30
0.0
 10
47.9568956142
 20
66.1506574078
 30
0.0
 10
49.1265158823
 20
65.0173639215
 30
0.0
 10
49.8610514994
 20
64.1907250197
 30
0.0
 10
50.2187008593
 20
63.7586292039
 30
0.0
  0
SPLINE
  5
2D5
100
AcDbEntity
  8
0
100
AcDbSpline
 62
7
  6
BYLAYER
 70
0
 71
3
 72
9
 73
5
 74
0
 42
0.0000001
 43
0.0000001
 44
0.0000000001
 40
0.0
 40
0.0
 40
0.0
 40
0.0
 40
0.2555260482
 40
1.0
 40
1.0
 40
1.0
 40
1.0
 10
14.0160784611
 20
45.62030531
 30
0.0
 10
14.0421413154
 20
45.6618193558
 30
0.0
 10
14.1481790603
 20
45.8216938869
 30
0.0
 10
14.2709554765
 20
45.9706102704
 30
0.0
 10
14.3709917687
 20
46.0725310861
 30
0.0
  0
SPLINE
  5
2D6
100
AcDbEntity
  8
0
100
AcDbSpline
 62
7
  6
BYLAYER
 70
0
 71
3
 72
19
 73
15
 74
0
 42
0.0000001
 43
0.0000001
 44
0.0000000001
 40
0.0
 40
0.0
 40
0.0
 40
0.0
 40
0.0498318024
 40
0.0990534252
 40
0.1484103747
 40
0.1986365833
 40
0.2504042064
 40
0.3042831505
 40
0.3607196601
 40
0.4200278718
 40
0.5477876083
 40
0.6879641985
 40
0.839421904
 40
1.0
 40
1.0
 40
1.0
 40
1.0
 10
14.3709917687
 20
46.0725310861
 30
0.0
 10
14.4535925113
 20
46.1566878943
 30
0.0
 10
14.6300384103
 20
46.312514954
 30
0.0
 10
14.9263699716
 20
46.5034061408
 30
0.0
 10
15.2491087859
 20
46.6475987618
 30
0.0
 10
15.595427004
 20
46.7437609112
 30
0.0
 10
15.9623580232
 20
46.7913855227
 30
0.0
 10
16.3469215767
 20
46.7902789674
 30
0.0
 10
16.7461451664
 20
46.7407211849
 30
0.0
 10
17.3077480335
 20
46.6074984933
 30
0.0
 10
18.0300529023
 20
46.3156031214
 30
0.0
 10
18.8816257692
 20
45.7994440557
 30
0.0
 10
19.7156593819
 20
45.1245422477
 30
0.0
 10
20.2320191312
 20
44.5941860005
 30
0.0
 10
20.4823845005
 20
44.3083406595
 30
0.0
  0
SPLINE
  5
2D7
100
AcDbEntity
  8
0
100
AcDbSpline
 62
7
  6
BYLAYER
 70
0
 71
3
 72
25
 73
21
 74
0
 42
0.0000001
 43
0.0000001
 44
0.0000000001
 40
0.0
 40
0.0
 40
0.0
 40
0.0
 40
0.0217110487
 40
0.0435695672
 40
0.0657153681
 40
0.0882792726
 40
0.1350765553
 40
0.1847715692
 40
0.2378590956
 40
0.2945813713
 40
0.3549607829
 40
0.4188368223
 40
0.4859001834
 40
0.5557243702
 40
0.6277913799
 40
0.701515548
 40
0.7762648897
 40
0.8513702589
 40
0.9261802003
 40
1.0
 40
1.0
 40
1.0
 40
1.0
 10
27.6590409057
 20
29.4029192458
 30
0.0
 10
27.7966833914
 20
29.4827271855
 30
0.0
 10
28.0650401145
 20
29.6569094846
 30
0.0
 10
28.4413329683
 20
29.9586489661
 30
0.0
 10
28.7908386271
 20
30.3001120955
 30
0.0
 10
29.2245458607
 20
30.8126975257
 30
0.0
 10
29.6936152554
 20
31.5540895207
 30
0.0
 10
30.123055055
 20
32.5670862882
 30
0.0
 10
30.4224270458
 20
33.7006295267
 30
0.0
 10
30.5887111625
 20
34.9395396143
 30
0.0
 10
30.6204805523
 20
36.2677707231
 30
0.0
 10
30.5176562073
 20
37.668027658
 30
0.0
 10
30.2818073101
 20
39.1219984819
 30
0.0
 10
29.9161385222
 20
40.6105506528
 30
0.0
 10
29.4255321564
 20
42.1140132396
 30
0.0
 10
28.8164903679
 20
43.6124608999
 30
0.0
 10
28.097103501
 20
45.0859232764
 30
0.0
 10
27.2769679973
 20
46.5149667872
 30
0.0
 10
26.3669994368
 20
47.8802909721
 30
0.0
 10
25.7021723243
 20
48.7443714652
 30
0.0
 10
25.3572324786
 20
49.1611122196
 30
0.0
  0
SPLINE
  5
2D8
100
AcDbEntity
  8
0
100
AcDbSpline
 62
7
  6
BYLAYER
 70
0
 71
3
 72
19
 73
15
 74
0
 42
0.0000001
 43
0.0000001
 44
0.0000000001
 40
0.0
 40
0.0
 40
0.0
 40
0.0
 40
0.0428797446
 40
0.087163441
 40
0.1344367214
 40
0.1857704943
 40
0.2417003543
 40
0.3022667142
 40
0.4355184108
 40
0.5801084531
 40
0.7279715129
 40
0.8704070574
 40
0.9372628815
 40
1.0
 40
1.0
 40
1.0
 40
1.0
 10
16.6504177656
 20
36.5364471897
 30
0.0
 10
16.6861267321
 20
36.5602413115
 30
0.0
 10
16.7654691977
 20
36.5991964965
 30
0.0
 10
16.8985685437
 20
36.6262144476
 30
0.0
 10
17.0425944225
 20
36.6218539713
 30
0.0
 10
17.1941138991
 20
36.5870702124
 30
0.0
 10
17.3500456847
 20
36.5229701535
 30
0.0
 10
17.5663883773
 20
36.3965611598
 30
0.0
 10
17.8251524821
 20
36.1736722098
 30
0.0
 10
18.0917866647
 20
35.838785046
 30
0.0
 10
18.3023639889
 20
35.4556366441
 30
0.0
 10
18.4191383084
 20
35.11540642
 30
0.0
 10
18.4674966491
 20
34.8470873285
 30
0.0
 10
18.4761881551
 20
34.7173106223
 30
0.0
 10
18.4761881551
 20
34.6545288551
 30
0.0
  0
SPLINE
  5
2D9
100
AcDbEntity
  8
0
100
AcDbSpline
 62
7
  6
BYLAYER
 70
0
 71
3
 72
25
 73
21
 74
0
 42
0.0000001
 43
0.0000001
 44
0.0000000001
 40
0.0
 40
0.0
 40
0.0
 40
0.0
 40
0.0217137578
 40
0.0435725838
 40
0.0657165398
 40
0.0882767627
 40
0.1350625397
 40
0.1847432461
 40
0.2378164165
 40
0.2945263656
 40
0.3548967858
 40
0.4187677868
 40
0.4858302176
 40
0.5556573906
 40
0.6277310665
 40
0.7014649944
 40
0.7762258215
 40
0.8513438992
 40
0.9261670015
 40
1.0
 40
1.0
 40
1.0
 40
1.0
 10
31.172959728
 20
30.5656260061
 30
0.0
 10
31.3180804975
 20
30.6494068285
 30
0.0
 10
31.6010338674
 20
30.8323219803
 30
0.0
 10
31.9978574664
 20
31.1493806582
 30
0.0
 10
32.3664753342
 20
31.5083226421
 30
0.0
 10
32.8239408583
 20
32.047301509
 30
0.0
 10
33.3188381944
 20
32.8271796637
 30
0.0
 10
33.772121875
 20
33.8931495965
 30
0.0
 10
34.0883559497
 20
35.0862590908
 30
0.0
 10
34.2643482719
 20
36.3905122607
 30
0.0
 10
34.298586575
 20
37.7889982467
 30
0.0
 10
34.190977885
 20
39.2634859827
 30
0.0
 10
33.9431699389
 20
40.7946696439
 30
0.0
 10
33.55853507
 20
42.3623784566
 30
0.0
 10
33.0422128557
 20
43.9458723
 30
0.0
 10
32.4010563386
 20
45.5241381563
 30
0.0
 10
31.6435951865
 20
47.0761170345
 30
0.0
 10
30.7799451334
 20
48.5813147103
 30
0.0
 10
29.8216127958
 20
50.0193868136
 30
0.0
 10
29.1214055613
 20
50.9294890256
 30
0.0
 10
28.7580993998
 20
51.3684191339
 30
0.0
  0
ENDSEC
  0
SECTION
  2
OBJECTS
  0
DICTIONARY
  5
C
100
AcDbDictionary
280
0
281
1
  3
ACAD_GROUP
350
D
  3
ACAD_MLINESTYLE
350
17
  3
ACAD_LAYOUT
350
1A
  3
ACAD_PLOTSETTINGS
350
19
  3
ACAD_PLOTSTYLENAME
350
E
  0
DICTIONARY
  5
D
102
{ACAD_REACTORS
330
C
102
}
100
AcDbDictionary
280
0
281
1
  0
ACDBDICTIONARYWDFLT
  5
E
102
{ACAD_REACTORS
330
C
102
}
100
AcDbDictionary
281
1
  3
Normal
350
F
100
AcDbDictionaryWithDefault
340
F
  0
DICTIONARY
  5
17
102
{ACAD_REACTORS
330
C
102
}
100
AcDbDictionary
280
0
281
1
  3
Standard
350
18
  0
DICTIONARY
  5
19
102
{ACAD_REACTORS
330
C
102
}
100
AcDbDictionary
281
1
  0
DICTIONARY
  5
1A
102
{ACAD_REACTORS
330
C
102
}
100
AcDbDictionary
281
1
  3
Model
350
2DA
  3
Layout1
350
2DB
  0
ACDBPLACEHOLDER
  5
F
102
{ACAD_REACTORS
330
E
102
}
  0
MLINESTYLE
  5
18
102
{ACAD_REACTORS
330
17
102
}
100
AcDbMlineStyle
  2
STANDARD
 70
0
  3

 62
256
 51
90.0
 52
90.0
 71
2
 49
0.5
 62
256
  6
BYLAYER
 49
-0.5
 62
256
  6
BYLAYER
  0
LAYOUT
  5
2DA
102
{ACAD_REACTORS
330
1A
102
}
100
AcDbPlotSettings
  1

  2
none_device
  4

  6

 40
0.0
 41
0.0
 42
0.0
 43
0.0
 44
210.0
 45
297.0
 46
0.0
 47
0.0
 48
0.0
 49
0.0
140
0.0
141
0.0
142
1.0
143
1.0
 70
1024
 72
1
 73
0
 74
0
  7

 75
0
147
1.0
148
0.0
149
0.0
100
AcDbLayout
  1
Model
 70
0
 71
0
 10
0.0
 20
0.0
 11
210.0
 21
297.0
 12
0.0
 22
0.0
 32
0.0
 14
0.0
 24
0.0
 34
0.0
 15
0.0
 25
0.0
 35
0.0
146
0.0
 13
0.0
 23
0.0
 33
0.0
 16
1.0
 26
0.0
 36
0.0
 17
0.0
 27
1.0
 37
0.0
 76
0
330
210
345
0
346
0
  0
LAYOUT
  5
2DB
102
{ACAD_REACTORS
330
1A
102
}
100
AcDbPlotSettings
  1

  2
none_device
  4

  6

 40
0.0
 41
0.0
 42
0.0
 43
0.0
 44
210.0
 45
297.0
 46
0.0
 47
0.0
 48
0.0
 49
0.0
140
0.0
141
0.0
142
1.0
143
1.0
 70
0
 72
1
 73
0
 74
0
  7

 75
0
147
1.0
148
0.0
149
0.0
100
AcDbLayout
  1
Layout1
 70
0
 71
1
 10
0.0
 20
0.0
 11
210.0
 21
297.0
 12
0.0
 22
0.0
 32
0.0
 14
0.0
 24
0.0
 34
0.0
 15
0.0
 25
0.0
 35
0.0
146
0.0
 13
0.0
 23
0.0
 33
0.0
 16
1.0
 26
0.0
 36
0.0
 17
0.0
 27
1.0
 37
0.0
 76
0
330
211
345
0
346
0
  0
ENDSEC
  0
EOF
