999
DXF file: C:\Users\sesa63760\Dev\_Creo\CAD\MCADID0004035_3D-CAD\drw0001_3.dxf
999
Pro/ENGINEER 2019471 by Parametric Technology Corporation
  0
SECTION
  2
HEADER
  9
$ACADVER
  1
AC1024
  9
$DWGCODEPAGE
  3
ANSI_1252
  9
$EXTMAX
 10
92.2765952744
 20
130.5054704595
 30
0.0
  9
$EXTMIN
 10
0.0
 20
0.0
 30
0.0
  9
$LIMMIN
 10
0.0
 20
0.0
  9
$LIMMAX
 10
92.2765952744
 20
130.5054704595
  9
$VIEWCTR
 10
46.1382976372
 20
65.2527352298
  9
$VIEWSIZE
 40
130.5054704595
  9
$CLAYER
  8
0
  9
$LTSCALE
 40
8.5070232596
  9
$CELTYPE
  6
BYLAYER
  9
$DIMSCALE
 40
1.0
  9
$DIMASZ
 40
1.0985308961
  9
$DIMEXO
 40
1.0
  9
$DIMDLI
 40
5.8775797066
  9
$DIMEXE
 40
1.0
  9
$DIMCEN
 40
1.3920583516
  9
$DIMLFAC
 40
1.0
  9
$DIMBLK
  1
_FILLED
  9
$DIMALT
 70
0
  9
$DIMALTF
 40
0.0393700787
  9
$DIMTXT
 40
1.5379432546
  9
$DIMTOL
 70
1
  9
$DIMLIM
 70
0
  9
$DIMTFAC
 40
1.0
  9
$DIMTP
 40
0.01
  9
$DIMTM
 40
0.01
  9
$DIMGAP
 40
0.625
  9
$DIMDSEP
 70
46
  9
$AUNITS
 70
0
  9
$PDMODE
 70
3
  9
$PDSIZE
 40
0.3125
  9
$HANDSEED
  5
256
  9
$TILEMODE
 70
1
  9
$MEASUREMENT
 70
1
  9
$INSUNITS
 70
4
  0
ENDSEC
  0
SECTION
  2
CLASSES
  0
CLASS
  1
ACDBDICTIONARYWDFLT
  2
AcDbDictionaryWithDefault
  3
AutoCAD 2000
 90
0
 91
1
280
0
281
0
  0
CLASS
  1
ACDBPLACEHOLDER
  2
AcDbPlaceHolder
  3
AutoCAD 2000
 90
0
 91
1
280
0
281
0
  0
CLASS
  1
LAYOUT
  2
AcDbLayout
  3
AutoCAD 2000
 90
0
 91
0
280
0
281
0
  0
ENDSEC
  0
SECTION
  2
TABLES
  0
TABLE
  2
VPORT
  5
8
100
AcDbSymbolTable
 70
2
  0
VPORT
  5
1F4
100
AcDbSymbolTableRecord
100
AcDbViewportTableRecord
  2
*ACTIVE
 70
0
 10
0.0
 20
0.0
 11
1.0
 21
1.0
 12
46.1382976372
 22
65.2527352298
 13
0.0
 23
0.0
 14
1.0
 24
1.0
 15
0.0
 25
0.0
 16
0.0
 26
0.0
 36
1.0
 17
0.0
 27
0.0
 37
0.0
 40
130.5054704595
 41
0.7070707071
 42
50.0
 43
0.0
 44
0.0
 50
0.0
 51
0.0
 71
0
 72
100
 73
1
 74
1
 75
0
 76
0
 77
0
 78
0
  0
ENDTAB
  0
TABLE
  2
LTYPE
  5
5
100
AcDbSymbolTable
 70
6
  0
LTYPE
  5
14
100
AcDbSymbolTableRecord
100
AcDbLinetypeTableRecord
  2
BYBLOCK
 70
0
  3

 72
65
 73
0
 40
0.0
  0
LTYPE
  5
15
100
AcDbSymbolTableRecord
100
AcDbLinetypeTableRecord
  2
BYLAYER
 70
0
  3

 72
65
 73
0
 40
0.0
  0
LTYPE
  5
16
100
AcDbSymbolTableRecord
100
AcDbLinetypeTableRecord
  2
CONTINUOUS
 70
64
  3
Solid line
 72
65
 73
0
 40
0.0
  0
LTYPE
  5
1F5
100
AcDbSymbolTableRecord
100
AcDbLinetypeTableRecord
  2
CENTER
 70
64
  3
____ _ ____ _ ____ _ ____ _ ____ _ ____ _ ____
 72
65
 73
4
 40
0.6
 49
0.375
 74
0
 49
-0.075
 74
0
 49
0.075
 74
0
 49
-0.075
 74
0
  0
LTYPE
  5
1F6
100
AcDbSymbolTableRecord
100
AcDbLinetypeTableRecord
  2
HIDDEN
 70
64
  3
- - - - - - - - - - - - - - - - - - - -
 72
65
 73
2
 40
0.2
 49
0.1
 74
0
 49
-0.1
 74
0
  0
LTYPE
  5
1F7
100
AcDbSymbolTableRecord
100
AcDbLinetypeTableRecord
  2
PHANTOM
 70
64
  3
_____ _ _ _____ _ _ _____ _ _ _____
 72
65
 73
6
 40
0.8
 49
0.45
 74
0
 49
-0.05
 74
0
 49
0.1
 74
0
 49
-0.05
 74
0
 49
0.1
 74
0
 49
-0.05
 74
0
  0
LTYPE
  5
1F8
100
AcDbSymbolTableRecord
100
AcDbLinetypeTableRecord
  2
DOT
 70
64
  3
. . . . . . . . . . . . . . . . . . . .
 72
65
 73
2
 40
0.2
 49
0.1
 74
0
 49
-0.1
 74
0
  0
LTYPE
  5
1F9
100
AcDbSymbolTableRecord
100
AcDbLinetypeTableRecord
  2
DASHED
 70
64
  3
- - - - - - - - - - - - - - - - - - - -
 72
65
 73
2
 40
0.2
 49
0.1
 74
0
 49
-0.1
 74
0
  0
ENDTAB
  0
TABLE
  2
LAYER
  5
2
100
AcDbSymbolTable
 70
36
  0
LAYER
  5
10
100
AcDbSymbolTableRecord
100
AcDbLayerTableRecord
  2
0
 70
0
 62
7
  6
CONTINUOUS
370
-3
390
F
  0
LAYER
  5
1FA
100
AcDbSymbolTableRecord
100
AcDbLayerTableRecord
  2
DEFAULT_1
 70
0
 62
7
  6
CENTER
370
-3
390
F
  0
LAYER
  5
1FB
100
AcDbSymbolTableRecord
100
AcDbLayerTableRecord
  2
DEFAULT_2
 70
0
 62
7
  6
HIDDEN
370
-3
390
F
  0
LAYER
  5
1FC
100
AcDbSymbolTableRecord
100
AcDbLayerTableRecord
  2
DEFAULT_3
 70
0
 62
7
  6
PHANTOM
370
-3
390
F
  0
LAYER
  5
1FD
100
AcDbSymbolTableRecord
100
AcDbLayerTableRecord
  2
00_COMPONENTS
 70
0
 62
7
  6
CONTINUOUS
370
-3
390
F
  0
LAYER
  5
1FE
100
AcDbSymbolTableRecord
100
AcDbLayerTableRecord
  2
01_1_DEFAULT_DATUMS
 70
0
 62
7
  6
CONTINUOUS
370
-3
390
F
  0
LAYER
  5
1FF
100
AcDbSymbolTableRecord
100
AcDbLayerTableRecord
  2
01_PLANES
 70
0
 62
7
  6
CONTINUOUS
370
-3
390
F
  0
LAYER
  5
200
100
AcDbSymbolTableRecord
100
AcDbLayerTableRecord
  2
02_COORD_SYS
 70
0
 62
7
  6
CONTINUOUS
370
-3
390
F
  0
LAYER
  5
201
100
AcDbSymbolTableRecord
100
AcDbLayerTableRecord
  2
03_AXES
 70
0
 62
7
  6
CONTINUOUS
370
-3
390
F
  0
LAYER
  5
202
100
AcDbSymbolTableRecord
100
AcDbLayerTableRecord
  2
04_POINTS
 70
0
 62
7
  6
CONTINUOUS
370
-3
390
F
  0
LAYER
  5
203
100
AcDbSymbolTableRecord
100
AcDbLayerTableRecord
  2
05_CURVES
 70
0
 62
7
  6
CONTINUOUS
370
-3
390
F
  0
LAYER
  5
204
100
AcDbSymbolTableRecord
100
AcDbLayerTableRecord
  2
06_SURFS
 70
0
 62
7
  6
CONTINUOUS
370
-3
390
F
  0
LAYER
  5
205
100
AcDbSymbolTableRecord
100
AcDbLayerTableRecord
  2
07_COSMETICS
 70
0
 62
7
  6
CONTINUOUS
370
-3
390
F
  0
LAYER
  5
206
100
AcDbSymbolTableRecord
100
AcDbLayerTableRecord
  2
10_NOTES
 70
0
 62
7
  6
CONTINUOUS
370
-3
390
F
  0
LAYER
  5
207
100
AcDbSymbolTableRecord
100
AcDbLayerTableRecord
  2
11_NOTES_PUB
 70
0
 62
7
  6
CONTINUOUS
370
-3
390
F
  0
LAYER
  5
208
100
AcDbSymbolTableRecord
100
AcDbLayerTableRecord
  2
13_REF_GTOL
 70
0
 62
7
  6
CONTINUOUS
370
-3
390
F
  0
LAYER
  5
209
100
AcDbSymbolTableRecord
100
AcDbLayerTableRecord
  2
16_MISC
 70
0
 62
7
  6
CONTINUOUS
370
-3
390
F
  0
LAYER
  5
20A
100
AcDbSymbolTableRecord
100
AcDbLayerTableRecord
  2
17_NO_PRINT
 70
0
 62
7
  6
CONTINUOUS
370
-3
390
F
  0
LAYER
  5
20B
100
AcDbSymbolTableRecord
100
AcDbLayerTableRecord
  2
18_DATUM_CAMS_JOINTS
 70
0
 62
7
  6
CONTINUOUS
370
-3
390
F
  0
LAYER
  5
20C
100
AcDbSymbolTableRecord
100
AcDbLayerTableRecord
  2
19_DATUM_FUNCTIONAL
 70
0
 62
7
  6
CONTINUOUS
370
-3
390
F
  0
LAYER
  5
20D
100
AcDbSymbolTableRecord
100
AcDbLayerTableRecord
  2
20_DATUM_KINEMATIC_SCHEME
 70
0
 62
7
  6
CONTINUOUS
370
-3
390
F
  0
ENDTAB
  0
TABLE
  2
STYLE
  5
3
100
AcDbSymbolTable
 70
1
  0
STYLE
  5
11
100
AcDbSymbolTableRecord
100
AcDbTextStyleTableRecord
  2
STANDARD
 70
0
 40
0.0
 41
1.0
 50
0.0
 71
0
 42
0.2
  3
ARIAL.TTF
  4

  0
STYLE
  5
20E
100
AcDbSymbolTableRecord
100
AcDbTextStyleTableRecord
  2
TEXTSTYLE_1
 70
0
 40
0.0
 41
0.8
 50
0.0
 71
0
 42
0.2
  3
gdt
  4

  0
ENDTAB
  0
TABLE
  2
VIEW
  5
6
100
AcDbSymbolTable
 70
0
  0
ENDTAB
  0
TABLE
  2
UCS
  5
7
100
AcDbSymbolTable
 70
0
  0
ENDTAB
  0
TABLE
  2
APPID
  5
9
100
AcDbSymbolTable
 70
1
  0
APPID
  5
20F
100
AcDbSymbolTableRecord
100
AcDbRegAppTableRecord
  2
ACAD
 70
0
  0
ENDTAB
  0
TABLE
  2
BLOCK_RECORD
  5
1
100
AcDbSymbolTable
 70
0
  0
BLOCK_RECORD
  5
210
100
AcDbSymbolTableRecord
100
AcDbBlockTableRecord
  2
*Model_Space
  0
BLOCK_RECORD
  5
211
100
AcDbSymbolTableRecord
100
AcDbBlockTableRecord
  2
*Paper_Space
  0
BLOCK_RECORD
  5
212
100
AcDbSymbolTableRecord
100
AcDbBlockTableRecord
  2
_FILLED
  0
ENDTAB
  0
TABLE
  2
DIMSTYLE
  5
A
100
AcDbSymbolTable
 70
1
100
AcDbDimStyleTable
 71
0
  0
DIMSTYLE
105
213
100
AcDbSymbolTableRecord
100
AcDbDimStyleTableRecord
  2
STANDARD
 70
0
  3

  4

 40
1.0
 41
1.0985308961
 42
1.0
 43
0.38
 44
1.0
 45
0.0
 46
0.0
 47
0.01
 48
0.01
140
1.5379432546
141
0.09
142
0.0
143
25.4
144
1.0
145
0.0
146
1.0
147
0.625
 71
1
 72
0
 73
0
 74
0
 75
0
 76
0
 77
1
 78
8
 79
2
170
0
171
1
172
0
173
0
174
0
175
0
176
0
177
0
178
0
270
2
179
2
271
2
272
2
273
2
274
2
275
0
280
0
281
0
282
0
283
1
284
8
285
0
286
0
287
3
288
0
340
11
278
46
341
212
342
212
343
212
344
212
  0
ENDTAB
  0
ENDSEC
  0
SECTION
  2
BLOCKS
  0
BLOCK
  5
20
100
AcDbEntity
  8
0
100
AcDbBlockBegin
  2
*Model_Space
 70
0
 10
0.0
 20
0.0
 30
0.0
  3
*Model_Space
  1

  0
ENDBLK
  5
21
100
AcDbEntity
  8
0
100
AcDbBlockEnd
  0
BLOCK
  5
1C
100
AcDbEntity
  8
0
100
AcDbBlockBegin
  2
*Paper_Space
 70
0
 10
0.0
 20
0.0
 30
0.0
  3
*Paper_Space
  1

  0
ENDBLK
  5
1D
100
AcDbEntity
  8
0
100
AcDbBlockEnd
  0
BLOCK
  5
214
100
AcDbEntity
  8
0
100
AcDbBlockBegin
  2
_FILLED
 70
64
 10
0.0
 20
0.0
  3
_FILLED
  1

  0
SOLID
  5
215
100
AcDbEntity
  8
0
  6
BYBLOCK
 62
0
100
AcDbTrace
 10
0.0
 20
0.0
 11
-1.0
 21
0.25
 12
-1.0
 22
-0.25
 13
-1.0
 23
-0.25
  0
ENDBLK
  5
216
100
AcDbEntity
  8
0
  6
BYBLOCK
 62
0
100
AcDbBlockEnd
  0
ENDSEC
  0
SECTION
  2
ENTITIES
  0
LINE
  5
217
100
AcDbEntity
  8
0
100
AcDbLine
 62
7
  6
BYLAYER
 10
10.9161969807
 20
58.0724047721
 11
10.9161969807
 21
73.0720153592
  0
LINE
  5
218
100
AcDbEntity
  8
0
100
AcDbLine
 62
7
  6
BYLAYER
 10
31.9161969807
 20
57.9224089952
 11
31.9161969807
 21
73.2220111361
  0
LINE
  5
219
100
AcDbEntity
  8
0
100
AcDbLine
 62
7
  6
BYLAYER
 10
31.9161969807
 20
73.2222100656
 11
33.2661969807
 21
74.5722100656
  0
LINE
  5
21A
100
AcDbEntity
  8
0
100
AcDbLine
 62
7
  6
BYLAYER
 10
31.9161969807
 20
57.9222100656
 11
33.2661969807
 21
56.5722100656
  0
LINE
  5
21B
100
AcDbEntity
  8
0
100
AcDbLine
 62
7
  6
BYLAYER
 10
33.2661969807
 20
56.5722100656
 11
33.2661969807
 21
74.5722100656
  0
LINE
  5
21C
100
AcDbEntity
  8
0
100
AcDbLine
 62
7
  6
BYLAYER
 10
52.9161969807
 20
53.2922100656
 11
56.0161969807
 21
53.2922100656
  0
LINE
  5
21D
100
AcDbEntity
  8
0
100
AcDbLine
 62
7
  6
BYLAYER
 10
59.0161969807
 20
53.2922100656
 11
62.1161969807
 21
53.2922100656
  0
LINE
  5
21E
100
AcDbEntity
  8
0
100
AcDbLine
 62
7
  6
BYLAYER
 10
61.2097570581
 20
53.885312284
 11
59.9226369034
 21
53.885312284
  0
LINE
  5
21F
100
AcDbEntity
  8
0
100
AcDbLine
 62
7
  6
BYLAYER
 10
55.1097570581
 20
53.885312284
 11
53.8226369034
 21
53.885312284
  0
LINE
  5
220
100
AcDbEntity
  8
0
100
AcDbLine
 62
7
  6
BYLAYER
 10
33.2661969807
 20
56.5722100656
 11
52.9161969807
 21
56.5722100656
  0
LINE
  5
221
100
AcDbEntity
  8
0
100
AcDbLine
 62
7
  6
BYLAYER
 10
56.0161969807
 20
56.5722100656
 11
59.0161969807
 21
56.5722100656
  0
LINE
  5
222
100
AcDbEntity
  8
0
100
AcDbLine
 62
7
  6
BYLAYER
 10
62.1161969807
 20
56.5722100656
 11
82.5661969807
 21
56.5722100656
  0
LINE
  5
223
100
AcDbEntity
  8
0
100
AcDbLine
 62
7
  6
BYLAYER
 10
10.9161969807
 20
58.0722100656
 11
31.9161969807
 21
58.0722100656
  0
LINE
  5
224
100
AcDbEntity
  8
0
100
AcDbLine
 62
7
  6
BYLAYER
 10
53.8226369034
 20
64.9791078473
 11
55.1097570581
 21
64.9791078473
  0
LINE
  5
225
100
AcDbEntity
  8
0
100
AcDbLine
 62
7
  6
BYLAYER
 10
59.9226369034
 20
64.9791078473
 11
61.2097570581
 21
64.9791078473
  0
LINE
  5
226
100
AcDbEntity
  8
0
100
AcDbLine
 62
7
  6
BYLAYER
 10
61.2097570581
 20
66.165312284
 11
59.9226369034
 21
66.165312284
  0
LINE
  5
227
100
AcDbEntity
  8
0
100
AcDbLine
 62
7
  6
BYLAYER
 10
55.1097570581
 20
66.165312284
 11
53.8226369034
 21
66.165312284
  0
LINE
  5
228
100
AcDbEntity
  8
0
100
AcDbLine
 62
7
  6
BYLAYER
 10
52.9161969807
 20
53.2922100656
 11
52.9161969807
 21
77.8522100656
  0
LINE
  5
229
100
AcDbEntity
  8
0
100
AcDbLine
 62
7
  6
BYLAYER
 10
53.8226369034
 20
53.2922100656
 11
53.8226369034
 21
53.885312284
  0
LINE
  5
22A
100
AcDbEntity
  8
0
100
AcDbLine
 62
7
  6
BYLAYER
 10
53.8226369034
 20
64.9791078473
 11
53.8226369034
 21
66.165312284
  0
LINE
  5
22B
100
AcDbEntity
  8
0
100
AcDbLine
 62
7
  6
BYLAYER
 10
53.8226369034
 20
77.2591078473
 11
53.8226369034
 21
77.8522100656
  0
LINE
  5
22C
100
AcDbEntity
  8
0
100
AcDbLine
 62
7
  6
BYLAYER
 10
55.1097570581
 20
77.8522100656
 11
55.1097570581
 21
77.2591078473
  0
LINE
  5
22D
100
AcDbEntity
  8
0
100
AcDbLine
 62
7
  6
BYLAYER
 10
55.1097570581
 20
66.165312284
 11
55.1097570581
 21
64.9791078473
  0
LINE
  5
22E
100
AcDbEntity
  8
0
100
AcDbLine
 62
7
  6
BYLAYER
 10
55.1097570581
 20
53.885312284
 11
55.1097570581
 21
53.2922100656
  0
LINE
  5
22F
100
AcDbEntity
  8
0
100
AcDbLine
 62
7
  6
BYLAYER
 10
10.9161969807
 20
73.0722100656
 11
31.9161969807
 21
73.0722100656
  0
LINE
  5
230
100
AcDbEntity
  8
0
100
AcDbLine
 62
7
  6
BYLAYER
 10
56.0161969807
 20
77.8522100656
 11
56.0161969807
 21
53.2922100656
  0
LINE
  5
231
100
AcDbEntity
  8
0
100
AcDbLine
 62
7
  6
BYLAYER
 10
33.2661969807
 20
74.5722100656
 11
52.9161969807
 21
74.5722100656
  0
LINE
  5
232
100
AcDbEntity
  8
0
100
AcDbLine
 62
7
  6
BYLAYER
 10
56.0161969807
 20
74.5722100656
 11
59.0161969807
 21
74.5722100656
  0
LINE
  5
233
100
AcDbEntity
  8
0
100
AcDbLine
 62
7
  6
BYLAYER
 10
62.1161969807
 20
74.5722100656
 11
82.5661969807
 21
74.5722100656
  0
LINE
  5
234
100
AcDbEntity
  8
0
100
AcDbLine
 62
7
  6
BYLAYER
 10
59.0161969807
 20
53.2922100656
 11
59.0161969807
 21
77.8522100656
  0
LINE
  5
235
100
AcDbEntity
  8
0
100
AcDbLine
 62
7
  6
BYLAYER
 10
59.9226369034
 20
53.2922100656
 11
59.9226369034
 21
53.885312284
  0
LINE
  5
236
100
AcDbEntity
  8
0
100
AcDbLine
 62
7
  6
BYLAYER
 10
59.9226369034
 20
64.9791078473
 11
59.9226369034
 21
66.165312284
  0
LINE
  5
237
100
AcDbEntity
  8
0
100
AcDbLine
 62
7
  6
BYLAYER
 10
59.9226369034
 20
77.2591078473
 11
59.9226369034
 21
77.8522100656
  0
LINE
  5
238
100
AcDbEntity
  8
0
100
AcDbLine
 62
7
  6
BYLAYER
 10
53.8226369034
 20
77.2591078473
 11
55.1097570581
 21
77.2591078473
  0
LINE
  5
239
100
AcDbEntity
  8
0
100
AcDbLine
 62
7
  6
BYLAYER
 10
59.9226369034
 20
77.2591078473
 11
61.2097570581
 21
77.2591078473
  0
LINE
  5
23A
100
AcDbEntity
  8
0
100
AcDbLine
 62
7
  6
BYLAYER
 10
52.9161969807
 20
77.8522100656
 11
56.0161969807
 21
77.8522100656
  0
LINE
  5
23B
100
AcDbEntity
  8
0
100
AcDbLine
 62
7
  6
BYLAYER
 10
59.0161969807
 20
77.8522100656
 11
62.1161969807
 21
77.8522100656
  0
LINE
  5
23C
100
AcDbEntity
  8
0
100
AcDbLine
 62
7
  6
BYLAYER
 10
61.2097570581
 20
77.8522100656
 11
61.2097570581
 21
77.2591078473
  0
LINE
  5
23D
100
AcDbEntity
  8
0
100
AcDbLine
 62
7
  6
BYLAYER
 10
61.2097570581
 20
66.165312284
 11
61.2097570581
 21
64.9791078473
  0
LINE
  5
23E
100
AcDbEntity
  8
0
100
AcDbLine
 62
7
  6
BYLAYER
 10
61.2097570581
 20
53.885312284
 11
61.2097570581
 21
53.2922100656
  0
LINE
  5
23F
100
AcDbEntity
  8
0
100
AcDbLine
 62
7
  6
BYLAYER
 10
62.1161969807
 20
77.8522100656
 11
62.1161969807
 21
53.2922100656
  0
LINE
  5
240
100
AcDbEntity
  8
0
100
AcDbLine
 62
7
  6
BYLAYER
 10
83.9161969807
 20
57.9222100656
 11
82.5661969807
 21
56.5722100656
  0
LINE
  5
241
100
AcDbEntity
  8
0
100
AcDbLine
 62
7
  6
BYLAYER
 10
83.9161969807
 20
73.2222100656
 11
82.5661969807
 21
74.5722100656
  0
LINE
  5
242
100
AcDbEntity
  8
0
100
AcDbLine
 62
7
  6
BYLAYER
 10
82.5661969807
 20
74.5722100656
 11
82.5661969807
 21
56.5722100656
  0
LINE
  5
243
100
AcDbEntity
  8
0
100
AcDbLine
 62
7
  6
BYLAYER
 10
83.9161969807
 20
73.2220111361
 11
83.9161969807
 21
57.9224089952
  0
SPLINE
  5
244
100
AcDbEntity
  8
0
100
AcDbSpline
 62
7
  6
BYLAYER
 70
0
 71
3
 72
11
 73
7
 74
0
 42
0.0000001
 43
0.0000001
 44
0.0000000001
 40
0.0
 40
0.0
 40
0.0
 40
0.0
 40
0.249025361
 40
0.4985039098
 40
0.7487719133
 40
1.0
 40
1.0
 40
1.0
 40
1.0
 10
56.0161969807
 20
71.7122100656
 30
0.0
 10
56.0161969807
 20
71.2439887478
 30
0.0
 10
55.9747306776
 20
70.3061857699
 30
0.0
 10
55.7922335704
 20
68.9087076054
 30
0.0
 10
55.5026145053
 20
67.5255277485
 30
0.0
 10
55.2489243281
 20
66.6167092224
 30
0.0
 10
55.1097570581
 20
66.165312284
 30
0.0
  0
SPLINE
  5
245
100
AcDbEntity
  8
0
100
AcDbSpline
 62
7
  6
BYLAYER
 70
0
 71
3
 72
11
 73
7
 74
0
 42
0.0000001
 43
0.0000001
 44
0.0000000001
 40
0.0
 40
0.0
 40
0.0
 40
0.0
 40
0.2490199151
 40
0.4984971059
 40
0.7487680498
 40
1.0
 40
1.0
 40
1.0
 40
1.0
 10
52.9161969807
 20
71.7122100656
 30
0.0
 10
52.9161969807
 20
71.243999692
 30
0.0
 10
52.9577799965
 20
70.3062196703
 30
0.0
 10
53.1400924734
 20
68.9087265583
 30
0.0
 10
53.4298883704
 20
67.5255734303
 30
0.0
 10
53.6834677027
 20
66.6167154849
 30
0.0
 10
53.8226369034
 20
66.165312284
 30
0.0
  0
SPLINE
  5
246
100
AcDbEntity
  8
0
100
AcDbSpline
 62
7
  6
BYLAYER
 70
0
 71
3
 72
11
 73
7
 74
0
 42
0.0000001
 43
0.0000001
 44
0.0000000001
 40
0.0
 40
0.0
 40
0.0
 40
0.0
 40
0.2490199151
 40
0.4984971059
 40
0.7487680498
 40
1.0
 40
1.0
 40
1.0
 40
1.0
 10
56.0161969807
 20
71.7122100656
 30
0.0
 10
56.0161969807
 20
72.1804204393
 30
0.0
 10
55.974613965
 20
73.118200461
 30
0.0
 10
55.7923014881
 20
74.515693573
 30
0.0
 10
55.5025055911
 20
75.898846701
 30
0.0
 10
55.2489262588
 20
76.8077046464
 30
0.0
 10
55.1097570581
 20
77.2591078473
 30
0.0
  0
SPLINE
  5
247
100
AcDbEntity
  8
0
100
AcDbSpline
 62
7
  6
BYLAYER
 70
0
 71
3
 72
11
 73
7
 74
0
 42
0.0000001
 43
0.0000001
 44
0.0000000001
 40
0.0
 40
0.0
 40
0.0
 40
0.0
 40
0.249025361
 40
0.4985039098
 40
0.7487719133
 40
1.0
 40
1.0
 40
1.0
 40
1.0
 10
52.9161969807
 20
59.4322100656
 30
0.0
 10
52.9161969807
 20
59.9004313834
 30
0.0
 10
52.9576632839
 20
60.8382343614
 30
0.0
 10
53.1401603911
 20
62.2357125259
 30
0.0
 10
53.4297794562
 20
63.6188923828
 30
0.0
 10
53.6834696334
 20
64.5277109089
 30
0.0
 10
53.8226369034
 20
64.9791078473
 30
0.0
  0
SPLINE
  5
248
100
AcDbEntity
  8
0
100
AcDbSpline
 62
7
  6
BYLAYER
 70
0
 71
3
 72
11
 73
7
 74
0
 42
0.0000001
 43
0.0000001
 44
0.0000000001
 40
0.0
 40
0.0
 40
0.0
 40
0.0
 40
0.249025361
 40
0.4985039098
 40
0.7487719133
 40
1.0
 40
1.0
 40
1.0
 40
1.0
 10
52.9161969807
 20
71.7122100656
 30
0.0
 10
52.9161969807
 20
72.1804313834
 30
0.0
 10
52.9576632839
 20
73.1182343614
 30
0.0
 10
53.1401603911
 20
74.5157125259
 30
0.0
 10
53.4297794562
 20
75.8988923828
 30
0.0
 10
53.6834696334
 20
76.8077109089
 30
0.0
 10
53.8226369034
 20
77.2591078473
 30
0.0
  0
SPLINE
  5
249
100
AcDbEntity
  8
0
100
AcDbSpline
 62
7
  6
BYLAYER
 70
0
 71
3
 72
11
 73
7
 74
0
 42
0.0000001
 43
0.0000001
 44
0.0000000001
 40
0.0
 40
0.0
 40
0.0
 40
0.0
 40
0.249025361
 40
0.4985039098
 40
0.7487719133
 40
1.0
 40
1.0
 40
1.0
 40
1.0
 10
56.0161969807
 20
59.4322100656
 30
0.0
 10
56.0161969807
 20
58.9639887478
 30
0.0
 10
55.9747306776
 20
58.0261857699
 30
0.0
 10
55.7922335704
 20
56.6287076054
 30
0.0
 10
55.5026145053
 20
55.2455277485
 30
0.0
 10
55.2489243281
 20
54.3367092224
 30
0.0
 10
55.1097570581
 20
53.885312284
 30
0.0
  0
SPLINE
  5
24A
100
AcDbEntity
  8
0
100
AcDbSpline
 62
7
  6
BYLAYER
 70
0
 71
3
 72
11
 73
7
 74
0
 42
0.0000001
 43
0.0000001
 44
0.0000000001
 40
0.0
 40
0.0
 40
0.0
 40
0.0
 40
0.2490199151
 40
0.4984971059
 40
0.7487680498
 40
1.0
 40
1.0
 40
1.0
 40
1.0
 10
56.0161969807
 20
59.4322100656
 30
0.0
 10
56.0161969807
 20
59.9004204393
 30
0.0
 10
55.974613965
 20
60.838200461
 30
0.0
 10
55.7923014881
 20
62.235693573
 30
0.0
 10
55.5025055911
 20
63.618846701
 30
0.0
 10
55.2489262588
 20
64.5277046464
 30
0.0
 10
55.1097570581
 20
64.9791078473
 30
0.0
  0
SPLINE
  5
24B
100
AcDbEntity
  8
0
100
AcDbSpline
 62
7
  6
BYLAYER
 70
0
 71
3
 72
11
 73
7
 74
0
 42
0.0000001
 43
0.0000001
 44
0.0000000001
 40
0.0
 40
0.0
 40
0.0
 40
0.0
 40
0.2490199151
 40
0.4984971059
 40
0.7487680498
 40
1.0
 40
1.0
 40
1.0
 40
1.0
 10
52.9161969807
 20
59.4322100656
 30
0.0
 10
52.9161969807
 20
58.963999692
 30
0.0
 10
52.9577799965
 20
58.0262196703
 30
0.0
 10
53.1400924734
 20
56.6287265583
 30
0.0
 10
53.4298883704
 20
55.2455734303
 30
0.0
 10
53.6834677027
 20
54.3367154849
 30
0.0
 10
53.8226369034
 20
53.885312284
 30
0.0
  0
SPLINE
  5
24C
100
AcDbEntity
  8
0
100
AcDbSpline
 62
7
  6
BYLAYER
 70
0
 71
3
 72
11
 73
7
 74
0
 42
0.0000001
 43
0.0000001
 44
0.0000000001
 40
0.0
 40
0.0
 40
0.0
 40
0.0
 40
0.249025361
 40
0.4985039098
 40
0.7487719133
 40
1.0
 40
1.0
 40
1.0
 40
1.0
 10
62.1161969807
 20
71.7122100656
 30
0.0
 10
62.1161969807
 20
71.2439887478
 30
0.0
 10
62.0747306776
 20
70.3061857699
 30
0.0
 10
61.8922335704
 20
68.9087076054
 30
0.0
 10
61.6026145053
 20
67.5255277485
 30
0.0
 10
61.3489243281
 20
66.6167092224
 30
0.0
 10
61.2097570581
 20
66.165312284
 30
0.0
  0
SPLINE
  5
24D
100
AcDbEntity
  8
0
100
AcDbSpline
 62
7
  6
BYLAYER
 70
0
 71
3
 72
11
 73
7
 74
0
 42
0.0000001
 43
0.0000001
 44
0.0000000001
 40
0.0
 40
0.0
 40
0.0
 40
0.0
 40
0.2490199151
 40
0.4984971059
 40
0.7487680498
 40
1.0
 40
1.0
 40
1.0
 40
1.0
 10
59.0161969807
 20
71.7122100656
 30
0.0
 10
59.0161969807
 20
71.243999692
 30
0.0
 10
59.0577799965
 20
70.3062196703
 30
0.0
 10
59.2400924734
 20
68.9087265583
 30
0.0
 10
59.5298883704
 20
67.5255734303
 30
0.0
 10
59.7834677027
 20
66.6167154849
 30
0.0
 10
59.9226369034
 20
66.165312284
 30
0.0
  0
SPLINE
  5
24E
100
AcDbEntity
  8
0
100
AcDbSpline
 62
7
  6
BYLAYER
 70
0
 71
3
 72
11
 73
7
 74
0
 42
0.0000001
 43
0.0000001
 44
0.0000000001
 40
0.0
 40
0.0
 40
0.0
 40
0.0
 40
0.2490199151
 40
0.4984971059
 40
0.7487680498
 40
1.0
 40
1.0
 40
1.0
 40
1.0
 10
62.1161969807
 20
71.7122100656
 30
0.0
 10
62.1161969807
 20
72.1804204393
 30
0.0
 10
62.074613965
 20
73.118200461
 30
0.0
 10
61.8923014881
 20
74.515693573
 30
0.0
 10
61.6025055911
 20
75.898846701
 30
0.0
 10
61.3489262588
 20
76.8077046464
 30
0.0
 10
61.2097570581
 20
77.2591078473
 30
0.0
  0
SPLINE
  5
24F
100
AcDbEntity
  8
0
100
AcDbSpline
 62
7
  6
BYLAYER
 70
0
 71
3
 72
11
 73
7
 74
0
 42
0.0000001
 43
0.0000001
 44
0.0000000001
 40
0.0
 40
0.0
 40
0.0
 40
0.0
 40
0.249025361
 40
0.4985039098
 40
0.7487719133
 40
1.0
 40
1.0
 40
1.0
 40
1.0
 10
59.0161969807
 20
59.4322100656
 30
0.0
 10
59.0161969807
 20
59.9004313834
 30
0.0
 10
59.0576632839
 20
60.8382343614
 30
0.0
 10
59.2401603911
 20
62.2357125259
 30
0.0
 10
59.5297794562
 20
63.6188923828
 30
0.0
 10
59.7834696334
 20
64.5277109089
 30
0.0
 10
59.9226369034
 20
64.9791078473
 30
0.0
  0
SPLINE
  5
250
100
AcDbEntity
  8
0
100
AcDbSpline
 62
7
  6
BYLAYER
 70
0
 71
3
 72
11
 73
7
 74
0
 42
0.0000001
 43
0.0000001
 44
0.0000000001
 40
0.0
 40
0.0
 40
0.0
 40
0.0
 40
0.249025361
 40
0.4985039098
 40
0.7487719133
 40
1.0
 40
1.0
 40
1.0
 40
1.0
 10
59.0161969807
 20
71.7122100656
 30
0.0
 10
59.0161969807
 20
72.1804313834
 30
0.0
 10
59.0576632839
 20
73.1182343614
 30
0.0
 10
59.2401603911
 20
74.5157125259
 30
0.0
 10
59.5297794562
 20
75.8988923828
 30
0.0
 10
59.7834696334
 20
76.8077109089
 30
0.0
 10
59.9226369034
 20
77.2591078473
 30
0.0
  0
SPLINE
  5
251
100
AcDbEntity
  8
0
100
AcDbSpline
 62
7
  6
BYLAYER
 70
0
 71
3
 72
11
 73
7
 74
0
 42
0.0000001
 43
0.0000001
 44
0.0000000001
 40
0.0
 40
0.0
 40
0.0
 40
0.0
 40
0.249025361
 40
0.4985039098
 40
0.7487719133
 40
1.0
 40
1.0
 40
1.0
 40
1.0
 10
62.1161969807
 20
59.4322100656
 30
0.0
 10
62.1161969807
 20
58.9639887478
 30
0.0
 10
62.0747306776
 20
58.0261857699
 30
0.0
 10
61.8922335704
 20
56.6287076054
 30
0.0
 10
61.6026145053
 20
55.2455277485
 30
0.0
 10
61.3489243281
 20
54.3367092224
 30
0.0
 10
61.2097570581
 20
53.885312284
 30
0.0
  0
SPLINE
  5
252
100
AcDbEntity
  8
0
100
AcDbSpline
 62
7
  6
BYLAYER
 70
0
 71
3
 72
11
 73
7
 74
0
 42
0.0000001
 43
0.0000001
 44
0.0000000001
 40
0.0
 40
0.0
 40
0.0
 40
0.0
 40
0.2490199151
 40
0.4984971059
 40
0.7487680498
 40
1.0
 40
1.0
 40
1.0
 40
1.0
 10
62.1161969807
 20
59.4322100656
 30
0.0
 10
62.1161969807
 20
59.9004204393
 30
0.0
 10
62.074613965
 20
60.838200461
 30
0.0
 10
61.8923014881
 20
62.235693573
 30
0.0
 10
61.6025055911
 20
63.618846701
 30
0.0
 10
61.3489262588
 20
64.5277046464
 30
0.0
 10
61.2097570581
 20
64.9791078473
 30
0.0
  0
SPLINE
  5
253
100
AcDbEntity
  8
0
100
AcDbSpline
 62
7
  6
BYLAYER
 70
0
 71
3
 72
11
 73
7
 74
0
 42
0.0000001
 43
0.0000001
 44
0.0000000001
 40
0.0
 40
0.0
 40
0.0
 40
0.0
 40
0.2490199151
 40
0.4984971059
 40
0.7487680498
 40
1.0
 40
1.0
 40
1.0
 40
1.0
 10
59.0161969807
 20
59.4322100656
 30
0.0
 10
59.0161969807
 20
58.963999692
 30
0.0
 10
59.0577799965
 20
58.0262196703
 30
0.0
 10
59.2400924734
 20
56.6287265583
 30
0.0
 10
59.5298883704
 20
55.2455734303
 30
0.0
 10
59.7834677027
 20
54.3367154849
 30
0.0
 10
59.9226369034
 20
53.885312284
 30
0.0
  0
ENDSEC
  0
SECTION
  2
OBJECTS
  0
DICTIONARY
  5
C
100
AcDbDictionary
280
0
281
1
  3
ACAD_GROUP
350
D
  3
ACAD_MLINESTYLE
350
17
  3
ACAD_LAYOUT
350
1A
  3
ACAD_PLOTSETTINGS
350
19
  3
ACAD_PLOTSTYLENAME
350
E
  0
DICTIONARY
  5
D
102
{ACAD_REACTORS
330
C
102
}
100
AcDbDictionary
280
0
281
1
  0
ACDBDICTIONARYWDFLT
  5
E
102
{ACAD_REACTORS
330
C
102
}
100
AcDbDictionary
281
1
  3
Normal
350
F
100
AcDbDictionaryWithDefault
340
F
  0
DICTIONARY
  5
17
102
{ACAD_REACTORS
330
C
102
}
100
AcDbDictionary
280
0
281
1
  3
Standard
350
18
  0
DICTIONARY
  5
19
102
{ACAD_REACTORS
330
C
102
}
100
AcDbDictionary
281
1
  0
DICTIONARY
  5
1A
102
{ACAD_REACTORS
330
C
102
}
100
AcDbDictionary
281
1
  3
Model
350
254
  3
Layout1
350
255
  0
ACDBPLACEHOLDER
  5
F
102
{ACAD_REACTORS
330
E
102
}
  0
MLINESTYLE
  5
18
102
{ACAD_REACTORS
330
17
102
}
100
AcDbMlineStyle
  2
STANDARD
 70
0
  3

 62
256
 51
90.0
 52
90.0
 71
2
 49
0.5
 62
256
  6
BYLAYER
 49
-0.5
 62
256
  6
BYLAYER
  0
LAYOUT
  5
254
102
{ACAD_REACTORS
330
1A
102
}
100
AcDbPlotSettings
  1

  2
none_device
  4

  6

 40
0.0
 41
0.0
 42
0.0
 43
0.0
 44
210.0
 45
297.0
 46
0.0
 47
0.0
 48
0.0
 49
0.0
140
0.0
141
0.0
142
1.0
143
1.0
 70
1024
 72
1
 73
0
 74
0
  7

 75
0
147
1.0
148
0.0
149
0.0
100
AcDbLayout
  1
Model
 70
0
 71
0
 10
0.0
 20
0.0
 11
210.0
 21
297.0
 12
0.0
 22
0.0
 32
0.0
 14
0.0
 24
0.0
 34
0.0
 15
0.0
 25
0.0
 35
0.0
146
0.0
 13
0.0
 23
0.0
 33
0.0
 16
1.0
 26
0.0
 36
0.0
 17
0.0
 27
1.0
 37
0.0
 76
0
330
210
345
0
346
0
  0
LAYOUT
  5
255
102
{ACAD_REACTORS
330
1A
102
}
100
AcDbPlotSettings
  1

  2
none_device
  4

  6

 40
0.0
 41
0.0
 42
0.0
 43
0.0
 44
210.0
 45
297.0
 46
0.0
 47
0.0
 48
0.0
 49
0.0
140
0.0
141
0.0
142
1.0
143
1.0
 70
0
 72
1
 73
0
 74
0
  7

 75
0
147
1.0
148
0.0
149
0.0
100
AcDbLayout
  1
Layout1
 70
0
 71
1
 10
0.0
 20
0.0
 11
210.0
 21
297.0
 12
0.0
 22
0.0
 32
0.0
 14
0.0
 24
0.0
 34
0.0
 15
0.0
 25
0.0
 35
0.0
146
0.0
 13
0.0
 23
0.0
 33
0.0
 16
1.0
 26
0.0
 36
0.0
 17
0.0
 27
1.0
 37
0.0
 76
0
330
211
345
0
346
0
  0
ENDSEC
  0
EOF
