999
DXF file: C:\Users\sesa63760\Dev\_Creo\CAD\MCADID0004023_3D-CAD\drw0001_1.dxf
999
Pro/ENGINEER 2019471 by Parametric Technology Corporation
  0
SECTION
  2
HEADER
  9
$ACADVER
  1
AC1024
  9
$DWGCODEPAGE
  3
ANSI_1252
  9
$EXTMAX
 10
65.3103390639
 20
92.3674795333
 30
0.0
  9
$EXTMIN
 10
0.0
 20
0.0
 30
0.0
  9
$LIMMIN
 10
0.0
 20
0.0
  9
$LIMMAX
 10
65.3103390639
 20
92.3674795333
  9
$VIEWCTR
 10
32.655169532
 20
46.1837397666
  9
$VIEWSIZE
 40
92.3674795333
  9
$CLAYER
  8
0
  9
$LTSCALE
 40
6.0209912585
  9
$CELTYPE
  6
BYLAYER
  9
$DIMSCALE
 40
1.0
  9
$DIMASZ
 40
0.7775040365
  9
$DIMEXO
 40
1.0
  9
$DIMDLI
 40
4.1599575968
  9
$DIMEXE
 40
1.0
  9
$DIMCEN
 40
0.985253115
  9
$DIMLFAC
 40
1.0
  9
$DIMBLK
  1
_FILLED
  9
$DIMALT
 70
0
  9
$DIMALTF
 40
0.0393700787
  9
$DIMTXT
 40
1.0885056511
  9
$DIMTOL
 70
1
  9
$DIMLIM
 70
0
  9
$DIMTFAC
 40
1.0
  9
$DIMTP
 40
0.01
  9
$DIMTM
 40
0.01
  9
$DIMGAP
 40
0.625
  9
$DIMDSEP
 70
46
  9
$AUNITS
 70
0
  9
$PDMODE
 70
3
  9
$PDSIZE
 40
0.3125
  9
$HANDSEED
  5
3AF
  9
$TILEMODE
 70
1
  9
$MEASUREMENT
 70
1
  9
$INSUNITS
 70
4
  0
ENDSEC
  0
SECTION
  2
CLASSES
  0
CLASS
  1
ACDBDICTIONARYWDFLT
  2
AcDbDictionaryWithDefault
  3
AutoCAD 2000
 90
0
 91
1
280
0
281
0
  0
CLASS
  1
ACDBPLACEHOLDER
  2
AcDbPlaceHolder
  3
AutoCAD 2000
 90
0
 91
1
280
0
281
0
  0
CLASS
  1
LAYOUT
  2
AcDbLayout
  3
AutoCAD 2000
 90
0
 91
0
280
0
281
0
  0
ENDSEC
  0
SECTION
  2
TABLES
  0
TABLE
  2
VPORT
  5
8
100
AcDbSymbolTable
 70
2
  0
VPORT
  5
1F4
100
AcDbSymbolTableRecord
100
AcDbViewportTableRecord
  2
*ACTIVE
 70
0
 10
0.0
 20
0.0
 11
1.0
 21
1.0
 12
32.655169532
 22
46.1837397666
 13
0.0
 23
0.0
 14
1.0
 24
1.0
 15
0.0
 25
0.0
 16
0.0
 26
0.0
 36
1.0
 17
0.0
 27
0.0
 37
0.0
 40
92.3674795333
 41
0.7070707071
 42
50.0
 43
0.0
 44
0.0
 50
0.0
 51
0.0
 71
0
 72
100
 73
1
 74
1
 75
0
 76
0
 77
0
 78
0
  0
ENDTAB
  0
TABLE
  2
LTYPE
  5
5
100
AcDbSymbolTable
 70
6
  0
LTYPE
  5
14
100
AcDbSymbolTableRecord
100
AcDbLinetypeTableRecord
  2
BYBLOCK
 70
0
  3

 72
65
 73
0
 40
0.0
  0
LTYPE
  5
15
100
AcDbSymbolTableRecord
100
AcDbLinetypeTableRecord
  2
BYLAYER
 70
0
  3

 72
65
 73
0
 40
0.0
  0
LTYPE
  5
16
100
AcDbSymbolTableRecord
100
AcDbLinetypeTableRecord
  2
CONTINUOUS
 70
64
  3
Solid line
 72
65
 73
0
 40
0.0
  0
LTYPE
  5
1F5
100
AcDbSymbolTableRecord
100
AcDbLinetypeTableRecord
  2
CENTER
 70
64
  3
____ _ ____ _ ____ _ ____ _ ____ _ ____ _ ____
 72
65
 73
4
 40
0.6
 49
0.375
 74
0
 49
-0.075
 74
0
 49
0.075
 74
0
 49
-0.075
 74
0
  0
LTYPE
  5
1F6
100
AcDbSymbolTableRecord
100
AcDbLinetypeTableRecord
  2
HIDDEN
 70
64
  3
- - - - - - - - - - - - - - - - - - - -
 72
65
 73
2
 40
0.2
 49
0.1
 74
0
 49
-0.1
 74
0
  0
LTYPE
  5
1F7
100
AcDbSymbolTableRecord
100
AcDbLinetypeTableRecord
  2
PHANTOM
 70
64
  3
_____ _ _ _____ _ _ _____ _ _ _____
 72
65
 73
6
 40
0.8
 49
0.45
 74
0
 49
-0.05
 74
0
 49
0.1
 74
0
 49
-0.05
 74
0
 49
0.1
 74
0
 49
-0.05
 74
0
  0
LTYPE
  5
1F8
100
AcDbSymbolTableRecord
100
AcDbLinetypeTableRecord
  2
DOT
 70
64
  3
. . . . . . . . . . . . . . . . . . . .
 72
65
 73
2
 40
0.2
 49
0.1
 74
0
 49
-0.1
 74
0
  0
LTYPE
  5
1F9
100
AcDbSymbolTableRecord
100
AcDbLinetypeTableRecord
  2
DASHED
 70
64
  3
- - - - - - - - - - - - - - - - - - - -
 72
65
 73
2
 40
0.2
 49
0.1
 74
0
 49
-0.1
 74
0
  0
ENDTAB
  0
TABLE
  2
LAYER
  5
2
100
AcDbSymbolTable
 70
36
  0
LAYER
  5
10
100
AcDbSymbolTableRecord
100
AcDbLayerTableRecord
  2
0
 70
0
 62
7
  6
CONTINUOUS
370
-3
390
F
  0
LAYER
  5
1FA
100
AcDbSymbolTableRecord
100
AcDbLayerTableRecord
  2
DEFAULT_1
 70
0
 62
7
  6
CENTER
370
-3
390
F
  0
LAYER
  5
1FB
100
AcDbSymbolTableRecord
100
AcDbLayerTableRecord
  2
DEFAULT_2
 70
0
 62
7
  6
HIDDEN
370
-3
390
F
  0
LAYER
  5
1FC
100
AcDbSymbolTableRecord
100
AcDbLayerTableRecord
  2
DEFAULT_3
 70
0
 62
7
  6
PHANTOM
370
-3
390
F
  0
LAYER
  5
1FD
100
AcDbSymbolTableRecord
100
AcDbLayerTableRecord
  2
00_COMPONENTS
 70
0
 62
7
  6
CONTINUOUS
370
-3
390
F
  0
LAYER
  5
1FE
100
AcDbSymbolTableRecord
100
AcDbLayerTableRecord
  2
01_1_DEFAULT_DATUMS
 70
0
 62
7
  6
CONTINUOUS
370
-3
390
F
  0
LAYER
  5
1FF
100
AcDbSymbolTableRecord
100
AcDbLayerTableRecord
  2
01_PLANES
 70
0
 62
7
  6
CONTINUOUS
370
-3
390
F
  0
LAYER
  5
200
100
AcDbSymbolTableRecord
100
AcDbLayerTableRecord
  2
02_COORD_SYS
 70
0
 62
7
  6
CONTINUOUS
370
-3
390
F
  0
LAYER
  5
201
100
AcDbSymbolTableRecord
100
AcDbLayerTableRecord
  2
03_AXES
 70
0
 62
7
  6
CONTINUOUS
370
-3
390
F
  0
LAYER
  5
202
100
AcDbSymbolTableRecord
100
AcDbLayerTableRecord
  2
04_POINTS
 70
0
 62
7
  6
CONTINUOUS
370
-3
390
F
  0
LAYER
  5
203
100
AcDbSymbolTableRecord
100
AcDbLayerTableRecord
  2
05_CURVES
 70
0
 62
7
  6
CONTINUOUS
370
-3
390
F
  0
LAYER
  5
204
100
AcDbSymbolTableRecord
100
AcDbLayerTableRecord
  2
06_SURFS
 70
0
 62
7
  6
CONTINUOUS
370
-3
390
F
  0
LAYER
  5
205
100
AcDbSymbolTableRecord
100
AcDbLayerTableRecord
  2
07_COSMETICS
 70
0
 62
7
  6
CONTINUOUS
370
-3
390
F
  0
LAYER
  5
206
100
AcDbSymbolTableRecord
100
AcDbLayerTableRecord
  2
10_NOTES
 70
0
 62
7
  6
CONTINUOUS
370
-3
390
F
  0
LAYER
  5
207
100
AcDbSymbolTableRecord
100
AcDbLayerTableRecord
  2
11_NOTES_PUB
 70
0
 62
7
  6
CONTINUOUS
370
-3
390
F
  0
LAYER
  5
208
100
AcDbSymbolTableRecord
100
AcDbLayerTableRecord
  2
13_REF_GTOL
 70
0
 62
7
  6
CONTINUOUS
370
-3
390
F
  0
LAYER
  5
209
100
AcDbSymbolTableRecord
100
AcDbLayerTableRecord
  2
16_MISC
 70
0
 62
7
  6
CONTINUOUS
370
-3
390
F
  0
LAYER
  5
20A
100
AcDbSymbolTableRecord
100
AcDbLayerTableRecord
  2
17_NO_PRINT
 70
0
 62
7
  6
CONTINUOUS
370
-3
390
F
  0
LAYER
  5
20B
100
AcDbSymbolTableRecord
100
AcDbLayerTableRecord
  2
18_DATUM_CAMS_JOINTS
 70
0
 62
7
  6
CONTINUOUS
370
-3
390
F
  0
LAYER
  5
20C
100
AcDbSymbolTableRecord
100
AcDbLayerTableRecord
  2
19_DATUM_FUNCTIONAL
 70
0
 62
7
  6
CONTINUOUS
370
-3
390
F
  0
LAYER
  5
20D
100
AcDbSymbolTableRecord
100
AcDbLayerTableRecord
  2
20_DATUM_KINEMATIC_SCHEME
 70
0
 62
7
  6
CONTINUOUS
370
-3
390
F
  0
ENDTAB
  0
TABLE
  2
STYLE
  5
3
100
AcDbSymbolTable
 70
1
  0
STYLE
  5
11
100
AcDbSymbolTableRecord
100
AcDbTextStyleTableRecord
  2
STANDARD
 70
0
 40
0.0
 41
1.0
 50
0.0
 71
0
 42
0.2
  3
ARIAL.TTF
  4

  0
STYLE
  5
20E
100
AcDbSymbolTableRecord
100
AcDbTextStyleTableRecord
  2
TEXTSTYLE_1
 70
0
 40
0.0
 41
0.8
 50
0.0
 71
0
 42
0.2
  3
gdt
  4

  0
ENDTAB
  0
TABLE
  2
VIEW
  5
6
100
AcDbSymbolTable
 70
0
  0
ENDTAB
  0
TABLE
  2
UCS
  5
7
100
AcDbSymbolTable
 70
0
  0
ENDTAB
  0
TABLE
  2
APPID
  5
9
100
AcDbSymbolTable
 70
1
  0
APPID
  5
20F
100
AcDbSymbolTableRecord
100
AcDbRegAppTableRecord
  2
ACAD
 70
0
  0
ENDTAB
  0
TABLE
  2
BLOCK_RECORD
  5
1
100
AcDbSymbolTable
 70
0
  0
BLOCK_RECORD
  5
210
100
AcDbSymbolTableRecord
100
AcDbBlockTableRecord
  2
*Model_Space
  0
BLOCK_RECORD
  5
211
100
AcDbSymbolTableRecord
100
AcDbBlockTableRecord
  2
*Paper_Space
  0
BLOCK_RECORD
  5
212
100
AcDbSymbolTableRecord
100
AcDbBlockTableRecord
  2
_FILLED
  0
ENDTAB
  0
TABLE
  2
DIMSTYLE
  5
A
100
AcDbSymbolTable
 70
1
100
AcDbDimStyleTable
 71
0
  0
DIMSTYLE
105
213
100
AcDbSymbolTableRecord
100
AcDbDimStyleTableRecord
  2
STANDARD
 70
0
  3

  4

 40
1.0
 41
0.7775040365
 42
1.0
 43
0.38
 44
1.0
 45
0.0
 46
0.0
 47
0.01
 48
0.01
140
1.0885056511
141
0.09
142
0.0
143
25.4
144
1.0
145
0.0
146
1.0
147
0.625
 71
1
 72
0
 73
0
 74
0
 75
0
 76
0
 77
1
 78
8
 79
2
170
0
171
1
172
0
173
0
174
0
175
0
176
0
177
0
178
0
270
2
179
2
271
2
272
2
273
2
274
2
275
0
280
0
281
0
282
0
283
1
284
8
285
0
286
0
287
3
288
0
340
11
278
46
341
212
342
212
343
212
344
212
  0
ENDTAB
  0
ENDSEC
  0
SECTION
  2
BLOCKS
  0
BLOCK
  5
20
100
AcDbEntity
  8
0
100
AcDbBlockBegin
  2
*Model_Space
 70
0
 10
0.0
 20
0.0
 30
0.0
  3
*Model_Space
  1

  0
ENDBLK
  5
21
100
AcDbEntity
  8
0
100
AcDbBlockEnd
  0
BLOCK
  5
1C
100
AcDbEntity
  8
0
100
AcDbBlockBegin
  2
*Paper_Space
 70
0
 10
0.0
 20
0.0
 30
0.0
  3
*Paper_Space
  1

  0
ENDBLK
  5
1D
100
AcDbEntity
  8
0
100
AcDbBlockEnd
  0
BLOCK
  5
214
100
AcDbEntity
  8
0
100
AcDbBlockBegin
  2
_FILLED
 70
64
 10
0.0
 20
0.0
  3
_FILLED
  1

  0
SOLID
  5
215
100
AcDbEntity
  8
0
  6
BYBLOCK
 62
0
100
AcDbTrace
 10
0.0
 20
0.0
 11
-1.0
 21
0.25
 12
-1.0
 22
-0.25
 13
-1.0
 23
-0.25
  0
ENDBLK
  5
216
100
AcDbEntity
  8
0
  6
BYBLOCK
 62
0
100
AcDbBlockEnd
  0
ENDSEC
  0
SECTION
  2
ENTITIES
  0
LINE
  5
217
100
AcDbEntity
  8
0
100
AcDbLine
 62
7
  6
BYLAYER
 10
14.2645563436
 20
31.3297455123
 11
14.0954395801
 21
31.4273829124
  0
LINE
  5
218
100
AcDbEntity
  8
0
100
AcDbLine
 62
7
  6
BYLAYER
 10
14.0954395801
 20
32.407185813
 11
14.1327142111
 21
32.3856657816
  0
LINE
  5
219
100
AcDbEntity
  8
0
100
AcDbLine
 62
7
  6
BYLAYER
 10
17.4189035866
 20
41.1027853121
 11
16.9592978621
 21
41.3681463879
  0
LINE
  5
21A
100
AcDbEntity
  8
0
100
AcDbLine
 62
7
  6
BYLAYER
 10
21.2018437423
 20
34.5505016488
 11
21.2018475694
 21
34.0197908778
  0
LINE
  5
21B
100
AcDbEntity
  8
0
100
AcDbLine
 62
7
  6
BYLAYER
 10
8.3440863754
 20
37.4193877009
 11
9.1353131695
 21
38.1388204193
  0
LINE
  5
21C
100
AcDbEntity
  8
0
100
AcDbLine
 62
7
  6
BYLAYER
 10
26.50923352
 20
35.805243685
 11
26.5158006797
 21
35.8044167045
  0
LINE
  5
21D
100
AcDbEntity
  8
0
100
AcDbLine
 62
7
  6
BYLAYER
 10
26.530606843
 20
35.7244827084
 11
26.5373355987
 21
35.7234079283
  0
LINE
  5
21E
100
AcDbEntity
  8
0
100
AcDbLine
 62
7
  6
BYLAYER
 10
40.3024109774
 20
60.744023009
 11
39.0586256297
 21
60.0259274902
  0
LINE
  5
21F
100
AcDbEntity
  8
0
100
AcDbLine
 62
7
  6
BYLAYER
 10
44.0083524901
 20
62.8836365673
 11
45.2521377819
 21
63.6017320538
  0
LINE
  5
220
100
AcDbEntity
  8
0
100
AcDbLine
 62
7
  6
BYLAYER
 10
9.4508952132
 20
38.3696785235
 11
9.1353131695
 21
38.1388204193
  0
LINE
  5
221
100
AcDbEntity
  8
0
100
AcDbLine
 62
7
  6
BYLAYER
 10
45.7004686529
 20
61.2262393173
 11
44.456683367
 21
60.5081438342
  0
LINE
  5
222
100
AcDbEntity
  8
0
100
AcDbLine
 62
7
  6
BYLAYER
 10
49.4064101717
 20
63.3658528791
 11
50.6501955134
 21
64.0839483944
  0
LINE
  5
223
100
AcDbEntity
  8
0
100
AcDbLine
 62
7
  6
BYLAYER
 10
46.1521177432
 20
61.0029680333
 11
44.9848342722
 21
60.3290406299
  0
LINE
  5
224
100
AcDbEntity
  8
0
100
AcDbLine
 62
7
  6
BYLAYER
 10
49.9345610578
 20
63.1867496637
 11
51.1018446255
 21
63.860677123
  0
LINE
  5
225
100
AcDbEntity
  8
0
100
AcDbLine
 62
7
  6
BYLAYER
 10
41.6994195474
 20
57.6810808801
 11
22.0908967773
 21
46.360162557
  0
LINE
  5
226
100
AcDbEntity
  8
0
100
AcDbLine
 62
7
  6
BYLAYER
 10
13.9592026493
 20
41.6653547875
 11
10.0701315446
 21
39.4200119412
  0
LINE
  5
227
100
AcDbEntity
  8
0
100
AcDbLine
 62
7
  6
BYLAYER
 10
21.1664518235
 20
45.0758829701
 11
15.5902269735
 21
41.8564672693
  0
LINE
  5
228
100
AcDbEntity
  8
0
100
AcDbLine
 62
7
  6
BYLAYER
 10
9.4508952132
 20
38.3696785235
 11
9.5961313205
 21
38.4535147766
  0
LINE
  5
229
100
AcDbEntity
  8
0
100
AcDbLine
 62
7
  6
BYLAYER
 10
9.5923423375
 20
38.4512816887
 11
9.5963458392
 21
38.4531425063
  0
LINE
  5
22A
100
AcDbEntity
  8
0
100
AcDbLine
 62
7
  6
BYLAYER
 10
52.3251850844
 20
48.0537883142
 11
52.3662045169
 21
48.0621479165
  0
LINE
  5
22B
100
AcDbEntity
  8
0
100
AcDbLine
 62
7
  6
BYLAYER
 10
23.7888749886
 20
45.2610940469
 11
22.87897995
 21
45.3851136554
  0
LINE
  5
22C
100
AcDbEntity
  8
0
100
AcDbLine
 62
7
  6
BYLAYER
 10
27.9880482138
 20
37.9878692561
 11
27.640500432
 21
37.1378690302
  0
LINE
  5
22D
100
AcDbEntity
  8
0
100
AcDbLine
 62
7
  6
BYLAYER
 10
44.6622903782
 20
61.290398547
 11
44.7026174834
 21
61.3359492603
  0
LINE
  5
22E
100
AcDbEntity
  8
0
100
AcDbLine
 62
7
  6
BYLAYER
 10
12.1401398453
 20
35.9673161266
 11
11.9412542083
 21
35.8524901359
  0
LINE
  5
22F
100
AcDbEntity
  8
0
100
AcDbLine
 62
7
  6
BYLAYER
 10
13.0906218745
 20
34.8130142616
 11
11.4412564468
 21
33.8607583721
  0
LINE
  5
230
100
AcDbEntity
  8
0
100
AcDbLine
 62
7
  6
BYLAYER
 10
52.3334949249
 20
57.2771332811
 11
52.4193726928
 21
57.3223627692
  0
LINE
  5
231
100
AcDbEntity
  8
0
100
AcDbLine
 62
7
  6
BYLAYER
 10
53.0941229394
 20
57.1308282201
 11
52.7586347503
 21
56.9541357018
  0
LINE
  5
232
100
AcDbEntity
  8
0
100
AcDbLine
 62
7
  6
BYLAYER
 10
52.9080298126
 20
56.4500790786
 11
52.8221520447
 21
56.4048495905
  0
LINE
  5
233
100
AcDbEntity
  8
0
100
AcDbLine
 62
7
  6
BYLAYER
 10
13.5954364932
 20
33.9497685626
 11
11.9412542083
 21
32.994731676
  0
LINE
  5
234
100
AcDbEntity
  8
0
100
AcDbLine
 62
7
  6
BYLAYER
 10
13.7954409232
 20
32.4369003804
 11
14.0843805216
 21
32.6037187395
  0
LINE
  5
235
100
AcDbEntity
  8
0
100
AcDbLine
 62
7
  6
BYLAYER
 10
9.2627230023
 20
36.8176643764
 11
9.8109022442
 21
36.9988573564
  0
LINE
  5
236
100
AcDbEntity
  8
0
100
AcDbLine
 62
7
  6
BYLAYER
 10
14.0954395801
 20
32.407185813
 11
14.1242562624
 21
32.4238230329
  0
LINE
  5
237
100
AcDbEntity
  8
0
100
AcDbLine
 62
7
  6
BYLAYER
 10
51.795125415
 20
53.9830333953
 11
50.6278418489
 21
53.309105937
  0
LINE
  5
238
100
AcDbEntity
  8
0
100
AcDbLine
 62
7
  6
BYLAYER
 10
55.5775687312
 20
56.1668150267
 11
56.7448522007
 21
56.8407424293
  0
LINE
  5
239
100
AcDbEntity
  8
0
100
AcDbLine
 62
7
  6
BYLAYER
 10
52.0170885636
 20
53.3683266579
 11
50.7733037724
 21
52.6502314604
  0
LINE
  5
23A
100
AcDbEntity
  8
0
100
AcDbLine
 62
7
  6
BYLAYER
 10
55.7230305738
 20
55.5079405033
 11
56.9668154122
 21
56.2260357281
  0
LINE
  5
23B
100
AcDbEntity
  8
0
100
AcDbLine
 62
7
  6
BYLAYER
 10
38.3136750551
 20
55.7382897789
 11
38.31487979
 21
55.7270276041
  0
LINE
  5
23C
100
AcDbEntity
  8
0
100
AcDbLine
 62
7
  6
BYLAYER
 10
38.3136750551
 20
55.7382897789
 11
38.3143090795
 21
55.7266981062
  0
LINE
  5
23D
100
AcDbEntity
  8
0
100
AcDbLine
 62
7
  6
BYLAYER
 10
38.3136750551
 20
55.7382897789
 11
38.3136802307
 21
55.7263343167
  0
LINE
  5
23E
100
AcDbEntity
  8
0
100
AcDbLine
 62
7
  6
BYLAYER
 10
51.5821900799
 20
58.3716421659
 11
51.652026887
 21
58.4423153721
  0
LINE
  5
23F
100
AcDbEntity
  8
0
100
AcDbLine
 62
7
  6
BYLAYER
 10
52.3541220939
 20
58.3045966178
 11
52.0812991676
 21
58.0285062332
  0
LINE
  5
240
100
AcDbEntity
  8
0
100
AcDbLine
 62
7
  6
BYLAYER
 10
52.2240906715
 20
57.6321135846
 11
52.1542538644
 21
57.5614403784
  0
LINE
  5
241
100
AcDbEntity
  8
0
100
AcDbLine
 62
7
  6
BYLAYER
 10
26.5164278722
 20
35.8093973214
 11
20.9285327826
 21
32.5832438447
  0
LINE
  5
242
100
AcDbEntity
  8
0
100
AcDbLine
 62
7
  6
BYLAYER
 10
14.9922918055
 20
29.0982390359
 11
14.850871038
 21
29.0165902052
  0
LINE
  5
243
100
AcDbEntity
  8
0
100
AcDbLine
 62
7
  6
BYLAYER
 10
57.5063895441
 20
52.9507990044
 11
57.4048204328
 21
52.8921584006
  0
LINE
  5
244
100
AcDbEntity
  8
0
100
AcDbLine
 62
7
  6
BYLAYER
 10
47.570545256
 20
47.2143708719
 11
28.090869916
 21
35.9678422033
  0
LINE
  5
245
100
AcDbEntity
  8
0
100
AcDbLine
 62
7
  6
BYLAYER
 10
19.959175788
 20
31.2730344338
 11
16.0701046833
 21
29.0276915875
  0
LINE
  5
246
100
AcDbEntity
  8
0
100
AcDbLine
 62
7
  6
BYLAYER
 10
53.4592540993
 20
55.2163011409
 11
53.3600955527
 21
55.1979690838
  0
LINE
  5
247
100
AcDbEntity
  8
0
100
AcDbLine
 62
7
  6
BYLAYER
 10
53.7067911938
 20
55.8899972047
 11
53.3194206083
 21
55.8183815957
  0
LINE
  5
248
100
AcDbEntity
  8
0
100
AcDbLine
 62
7
  6
BYLAYER
 10
52.9705509396
 20
56.1042987621
 11
53.0697094861
 21
56.1226308192
  0
LINE
  5
249
100
AcDbEntity
  8
0
100
AcDbLine
 62
7
  6
BYLAYER
 10
43.4841548579
 20
61.2380275463
 11
43.4823171803
 21
61.2261580476
  0
LINE
  5
24A
100
AcDbEntity
  8
0
100
AcDbLine
 62
7
  6
BYLAYER
 10
43.4935640248
 20
61.2413227794
 11
43.4914430832
 21
61.2293619569
  0
LINE
  5
24B
100
AcDbEntity
  8
0
100
AcDbLine
 62
7
  6
BYLAYER
 10
14.4931502172
 20
28.8587190397
 11
14.850871038
 21
29.0165902052
  0
LINE
  5
24C
100
AcDbEntity
  8
0
100
AcDbLine
 62
7
  6
BYLAYER
 10
50.7407839604
 20
59.3526470003
 11
50.7923351942
 21
59.4464924295
  0
LINE
  5
24D
100
AcDbEntity
  8
0
100
AcDbLine
 62
7
  6
BYLAYER
 10
51.5105728935
 20
59.3735765157
 11
51.3091839833
 21
59.006962037
  0
LINE
  5
24E
100
AcDbEntity
  8
0
100
AcDbLine
 62
7
  6
BYLAYER
 10
51.4294190428
 20
58.7244130973
 11
51.3778678089
 21
58.6305676681
  0
LINE
  5
24F
100
AcDbEntity
  8
0
100
AcDbLine
 62
7
  6
BYLAYER
 10
52.0170885636
 20
46.1708949395
 11
50.7733037251
 21
45.4527997147
  0
LINE
  5
250
100
AcDbEntity
  8
0
100
AcDbLine
 62
7
  6
BYLAYER
 10
55.7230305738
 20
48.3105087849
 11
56.9668153649
 21
49.0286039825
  0
LINE
  5
251
100
AcDbEntity
  8
0
100
AcDbLine
 62
7
  6
BYLAYER
 10
51.7951254158
 20
45.7241485352
 11
50.6278418698
 21
45.0502210885
  0
LINE
  5
252
100
AcDbEntity
  8
0
100
AcDbLine
 62
7
  6
BYLAYER
 10
55.5775687304
 20
47.9079301656
 11
56.7448522981
 21
48.5818576249
  0
LINE
  5
253
100
AcDbEntity
  8
0
100
AcDbLine
 62
7
  6
BYLAYER
 10
53.8600467294
 20
53.9704344096
 11
53.7507944414
 21
53.9795889909
  0
LINE
  5
254
100
AcDbEntity
  8
0
100
AcDbLine
 62
7
  6
BYLAYER
 10
54.1724351953
 20
54.6219849014
 11
53.7456326228
 21
54.6577479862
  0
LINE
  5
255
100
AcDbEntity
  8
0
100
AcDbLine
 62
7
  6
BYLAYER
 10
53.4728826193
 20
54.8908344753
 11
53.5821349073
 21
54.881679894
  0
LINE
  5
256
100
AcDbEntity
  8
0
100
AcDbLine
 62
7
  6
BYLAYER
 10
49.8363200513
 20
60.1886174817
 11
49.8679288128
 21
60.3026188647
  0
LINE
  5
257
100
AcDbEntity
  8
0
100
AcDbLine
 62
7
  6
BYLAYER
 10
13.474488127
 20
28.533218161
 11
14.4931502171
 21
28.8587190397
  0
LINE
  5
258
100
AcDbEntity
  8
0
100
AcDbLine
 62
7
  6
BYLAYER
 10
54.0975258981
 20
52.7525220665
 11
53.9816913271
 21
52.7888690505
  0
LINE
  5
259
100
AcDbEntity
  8
0
100
AcDbLine
 62
7
  6
BYLAYER
 10
48.897868567
 20
60.8526848312
 11
48.9085189246
 21
60.9831780696
  0
LINE
  5
25A
100
AcDbEntity
  8
0
100
AcDbLine
 62
7
  6
BYLAYER
 10
50.5905877034
 20
60.3034100203
 11
50.4671056146
 21
59.8580547384
  0
LINE
  5
25B
100
AcDbEntity
  8
0
100
AcDbLine
 62
7
  6
BYLAYER
 10
50.5495563263
 20
59.6918702117
 11
50.5179475648
 21
59.5778688287
  0
LINE
  5
25C
100
AcDbEntity
  8
0
100
AcDbLine
 62
7
  6
BYLAYER
 10
46.19020271
 20
61.629454023
 11
46.1804915452
 21
61.6278127496
  0
LINE
  5
25D
100
AcDbEntity
  8
0
100
AcDbLine
 62
7
  6
BYLAYER
 10
46.19020271
 20
61.629454023
 11
46.1803903794
 21
61.6280581443
  0
LINE
  5
25E
100
AcDbEntity
  8
0
100
AcDbLine
 62
7
  6
BYLAYER
 10
46.138157026
 20
61.6280450895
 11
46.1798559776
 21
61.6315733063
  0
LINE
  5
25F
100
AcDbEntity
  8
0
100
AcDbLine
 62
7
  6
BYLAYER
 10
54.4760887626
 20
53.3675462689
 11
54.023571989
 21
53.5095385926
  0
LINE
  5
260
100
AcDbEntity
  8
0
100
AcDbLine
 62
7
  6
BYLAYER
 10
53.8243446107
 20
53.6757421613
 11
53.9401791817
 21
53.6393951773
  0
LINE
  5
261
100
AcDbEntity
  8
0
100
AcDbLine
 62
7
  6
BYLAYER
 10
54.1640588295
 20
51.6017088165
 11
54.0453649939
 21
51.6640799811
  0
LINE
  5
262
100
AcDbEntity
  8
0
100
AcDbLine
 62
7
  6
BYLAYER
 10
47.9555921103
 20
61.3235053775
 11
47.9449417527
 21
61.4662963114
  0
LINE
  5
263
100
AcDbEntity
  8
0
100
AcDbLine
 62
7
  6
BYLAYER
 10
48.649204862
 20
61.1328897265
 11
48.6598552196
 21
60.9900987927
  0
LINE
  5
264
100
AcDbEntity
  8
0
100
AcDbLine
 62
7
  6
BYLAYER
 10
49.6237356046
 20
61.0642115178
 11
49.5821291531
 21
60.5544295179
  0
LINE
  5
265
100
AcDbEntity
  8
0
100
AcDbLine
 62
7
  6
BYLAYER
 10
49.6127820339
 20
60.50339006
 11
49.6021316763
 21
60.3728968215
  0
LINE
  5
266
100
AcDbEntity
  8
0
100
AcDbLine
 62
7
  6
BYLAYER
 10
54.6079922202
 20
52.1669999971
 11
54.1443055069
 21
52.4106578095
  0
LINE
  5
267
100
AcDbEntity
  8
0
100
AcDbLine
 62
7
  6
BYLAYER
 10
54.0136406361
 20
52.4980758868
 11
54.1323344716
 21
52.4357047222
  0
LINE
  5
268
100
AcDbEntity
  8
0
100
AcDbLine
 62
7
  6
BYLAYER
 10
54.0575071003
 20
50.5549827443
 11
53.9397689178
 21
50.641373429
  0
LINE
  5
269
100
AcDbEntity
  8
0
100
AcDbLine
 62
7
  6
BYLAYER
 10
54.0346865655
 20
51.395686815
 11
54.152424748
 21
51.3092961303
  0
LINE
  5
26A
100
AcDbEntity
  8
0
100
AcDbLine
 62
7
  6
BYLAYER
 10
53.781295371
 20
49.6459864871
 11
53.6682970434
 21
49.7536200242
  0
LINE
  5
26B
100
AcDbEntity
  8
0
100
AcDbLine
 62
7
  6
BYLAYER
 10
47.0397762217
 20
61.5859465611
 11
47.0081674602
 21
61.7364457723
  0
LINE
  5
26C
100
AcDbEntity
  8
0
100
AcDbLine
 62
7
  6
BYLAYER
 10
46.807974223
 20
61.5663042647
 11
46.8017590543
 21
61.5681977041
  0
LINE
  5
26D
100
AcDbEntity
  8
0
100
AcDbLine
 62
7
  6
BYLAYER
 10
53.8868059654
 20
50.4040066376
 11
53.9998042929
 21
50.2963731005
  0
LINE
  5
26E
100
AcDbEntity
  8
0
100
AcDbLine
 62
7
  6
BYLAYER
 10
53.3443013136
 20
48.9039359325
 11
53.2396747004
 21
49.0293528916
  0
LINE
  5
26F
100
AcDbEntity
  8
0
100
AcDbLine
 62
7
  6
BYLAYER
 10
53.57475184
 20
49.5549087715
 11
53.6793784533
 21
49.4294918124
  0
LINE
  5
270
100
AcDbEntity
  8
0
100
AcDbLine
 62
7
  6
BYLAYER
 10
52.7605702768
 20
48.3526811959
 11
52.6676781633
 21
48.4918505727
  0
LINE
  5
271
100
AcDbEntity
  8
0
100
AcDbLine
 62
7
  6
BYLAYER
 10
53.1085538657
 20
48.8756839208
 11
53.2014459793
 21
48.736514544
  0
LINE
  5
272
100
AcDbEntity
  8
0
100
AcDbLine
 62
7
  6
BYLAYER
 10
45.1383510937
 20
61.5259674512
 11
45.2242288616
 21
61.3815771016
  0
LINE
  5
273
100
AcDbEntity
  8
0
100
AcDbLine
 62
7
  6
BYLAYER
 10
52.5031960289
 20
48.388162931
 11
52.5813680138
 21
48.2397141547
  0
LINE
  5
274
100
AcDbEntity
  8
0
100
AcDbLine
 62
7
  6
BYLAYER
 10
45.4034699221
 20
61.458919132
 11
45.333633115
 21
61.6102311126
  0
LINE
  5
275
100
AcDbEntity
  8
0
100
AcDbLine
 62
7
  6
BYLAYER
 10
45.9056968996
 20
61.7598854837
 11
45.9755337066
 21
61.6085735031
  0
LINE
  5
276
100
AcDbEntity
  8
0
100
AcDbLine
 62
7
  6
BYLAYER
 10
46.1798559776
 20
61.6315733063
 11
46.1283047438
 21
61.7849436264
  0
LINE
  5
277
100
AcDbEntity
  8
0
100
AcDbLine
 62
7
  6
BYLAYER
 10
46.7653885924
 20
61.7713985377
 11
46.8169398262
 21
61.6180282176
  0
LINE
  5
278
100
AcDbEntity
  8
0
100
AcDbLine
 62
7
  6
BYLAYER
 10
47.6897949737
 20
61.5601365742
 11
47.7214037352
 21
61.409637363
  0
LINE
  5
279
100
AcDbEntity
  8
0
100
AcDbLine
 62
7
  6
BYLAYER
 10
53.8937236242
 20
50.4322891883
 11
53.9038105464
 21
50.4994371633
  0
LINE
  5
27A
100
AcDbEntity
  8
0
100
AcDbLine
 62
7
  6
BYLAYER
 10
53.8807691857
 20
50.3476370895
 11
53.8892686423
 21
50.4036328339
  0
LINE
  5
27B
100
AcDbEntity
  8
0
100
AcDbLine
 62
7
  6
BYLAYER
 10
48.6537553987
 20
61.0680089246
 11
48.646084152
 21
61.0712950739
  0
LINE
  5
27C
100
AcDbEntity
  8
0
100
AcDbLine
 62
7
  6
BYLAYER
 10
48.6547680281
 20
61.0583035282
 11
48.6470578167
 21
61.0620721138
  0
LINE
  5
27D
100
AcDbEntity
  8
0
100
AcDbLine
 62
7
  6
BYLAYER
 10
48.6524411987
 20
61.0894996763
 11
48.6320977433
 21
61.100119675
  0
LINE
  5
27E
100
AcDbEntity
  8
0
100
AcDbLine
 62
7
  6
BYLAYER
 10
53.9038105464
 20
50.4994371633
 11
53.9076796412
 21
50.4910289971
  0
ARC
  5
27F
100
AcDbEntity
  8
0
100
AcDbCircle
 62
7
  6
BYLAYER
 10
21.8115495001
 20
-1.4974316762
 40
62.8688278125
100
AcDbArc
 50
59.0631709568
 51
59.188798999
  0
ARC
  5
280
100
AcDbEntity
  8
0
100
AcDbCircle
 62
7
  6
BYLAYER
 10
13.6902917501
 20
38.173157265
 40
40.1676169939
100
AcDbArc
 50
14.8857566908
 51
15.3054562475
  0
ARC
  5
281
100
AcDbEntity
  8
0
100
AcDbCircle
 62
7
  6
BYLAYER
 10
20.3846716439
 20
36.9981738945
 40
34.8421948247
100
AcDbArc
 50
44.1089188661
 51
44.3245340479
  0
ARC
  5
282
100
AcDbEntity
  8
0
100
AcDbCircle
 62
7
  6
BYLAYER
 10
36.5799682463
 20
34.735124927
 40
28.9276846925
100
AcDbArc
 50
67.3575718206
 51
68.0986518524
  0
ARC
  5
283
100
AcDbEntity
  8
0
100
AcDbCircle
 62
7
  6
BYLAYER
 10
38.3774081352
 20
34.1594058762
 40
28.6742487428
100
AcDbArc
 50
72.9146946331
 51
73.5264404867
  0
ARC
  5
284
100
AcDbEntity
  8
0
100
AcDbCircle
 62
7
  6
BYLAYER
 10
35.4781720501
 20
35.9384141045
 40
28.3926501581
100
AcDbArc
 50
62.4005020116
 51
63.1941645113
  0
ARC
  5
285
100
AcDbEntity
  8
0
100
AcDbCircle
 62
7
  6
BYLAYER
 10
38.681861473
 20
35.1518097264
 40
27.6361942051
100
AcDbArc
 50
72.5795049185
 51
72.9000927993
  0
ARC
  5
286
100
AcDbEntity
  8
0
100
AcDbCircle
 62
7
  6
BYLAYER
 10
40.7360291513
 20
34.4727469654
 40
27.5055980213
100
AcDbArc
 50
78.5770153585
 51
79.5494648535
  0
ARC
  5
287
100
AcDbEntity
  8
0
100
AcDbCircle
 62
7
  6
BYLAYER
 10
35.1877163578
 20
37.6740725342
 40
27.0316454443
100
AcDbArc
 50
57.8253198592
 51
58.7386294253
  0
ARC
  5
288
100
AcDbEntity
  8
0
100
AcDbCircle
 62
7
  6
BYLAYER
 10
6.2824249471
 20
30.3206620157
 40
8.692134828
100
AcDbArc
 50
31.5734887505
 51
39.5509131344
  0
ARC
  5
289
100
AcDbEntity
  8
0
100
AcDbCircle
 62
7
  6
BYLAYER
 10
9.4566127941
 20
33.3571415595
 40
3.7594481385
100
AcDbArc
 50
60.6153201532
 51
61.8690809778
  0
ARC
  5
28A
100
AcDbEntity
  8
0
100
AcDbCircle
 62
7
  6
BYLAYER
 10
26.7927306205
 20
38.5608415912
 40
2.7733722667
100
AcDbArc
 50
264.9551838416
 51
266.2652509541
  0
ARC
  5
28B
100
AcDbEntity
  8
0
100
AcDbCircle
 62
7
  6
BYLAYER
 10
10.5170893574
 20
36.8336367655
 40
1.8639057371
100
AcDbArc
 50
108.3525349277
 51
109.8912942899
  0
ARC
  5
28C
100
AcDbEntity
  8
0
100
AcDbCircle
 62
7
  6
BYLAYER
 10
14.0808341749
 20
30.6750983546
 40
1.8213236515
100
AcDbArc
 50
300.3077254195
 51
311.6328640502
  0
ARC
  5
28D
100
AcDbEntity
  8
0
100
AcDbCircle
 62
7
  6
BYLAYER
 10
10.4988986846
 20
36.8803513122
 40
1.8137894584
100
AcDbArc
 50
109.8530269991
 51
119.8495648009
  0
ARC
  5
28E
100
AcDbEntity
  8
0
100
AcDbCircle
 62
7
  6
BYLAYER
 10
10.3542546774
 20
36.8046560858
 40
1.8070223179
100
AcDbArc
 50
114.8349056642
 51
119.9943252194
  0
ARC
  5
28F
100
AcDbEntity
  8
0
100
AcDbCircle
 62
7
  6
BYLAYER
 10
13.9481743573
 20
30.5799982222
 40
1.8052927888
100
AcDbArc
 50
300.0017217356
 51
305.0437002831
  0
ARC
  5
290
100
AcDbEntity
  8
0
100
AcDbCircle
 62
7
  6
BYLAYER
 10
14.0915466852
 20
30.6584574888
 40
1.8015513306
100
AcDbArc
 50
299.9986939535
 51
300.2806703929
  0
ARC
  5
291
100
AcDbEntity
  8
0
100
AcDbCircle
 62
7
  6
BYLAYER
 10
11.6912553275
 20
36.285503484
 40
0.5
100
AcDbArc
 50
134.5215199549
 51
299.9998519061
  0
ARC
  5
292
100
AcDbEntity
  8
0
100
AcDbCircle
 62
7
  6
BYLAYER
 10
11.6912553275
 20
33.427745024
 40
0.5
100
AcDbArc
 50
119.9998519061
 51
299.9998519061
  0
ARC
  5
293
100
AcDbEntity
  8
0
100
AcDbCircle
 62
7
  6
BYLAYER
 10
14.1661393655
 20
31.9989023832
 40
0.5
100
AcDbArc
 50
173.5990839153
 51
242.7057137736
  0
ARC
  5
294
100
AcDbEntity
  8
0
100
AcDbCircle
 62
7
  6
BYLAYER
 10
11.6090532957
 20
36.0808480672
 40
0.4357572228
100
AcDbArc
 50
355.4845087214
 51
0.0703499896
  0
ARC
  5
295
100
AcDbEntity
  8
0
100
AcDbCircle
 62
7
  6
BYLAYER
 10
25.8906947721
 20
51.8790938893
 40
28.2586576424
100
AcDbArc
 50
0.1928035519
 51
0.573900782
  0
ARC
  5
296
100
AcDbEntity
  8
0
100
AcDbCircle
 62
7
  6
BYLAYER
 10
24.128172744
 20
43.976478361
 40
3.2406579957
100
AcDbArc
 50
159.2444762695
 51
161.1712720475
  0
ARC
  5
297
100
AcDbEntity
  8
0
100
AcDbCircle
 62
7
  6
BYLAYER
 10
23.7079758184
 20
43.9298543432
 40
2.7960418823
100
AcDbArc
 50
154.2074062757
 51
155.4374706927
  0
ARC
  5
298
100
AcDbEntity
  8
0
100
AcDbCircle
 62
7
  6
BYLAYER
 10
11.8605138455
 20
59.4550863154
 40
37.752775959
100
AcDbArc
 50
1.3930591452
 51
1.6167982486
  0
ARC
  5
299
100
AcDbEntity
  8
0
100
AcDbCircle
 62
7
  6
BYLAYER
 10
25.2071044872
 20
54.7813090708
 40
29.0144187341
100
AcDbArc
 50
350.5970237724
 51
351.2102371971
  0
ARC
  5
29A
100
AcDbEntity
  8
0
100
AcDbCircle
 62
7
  6
BYLAYER
 10
25.3683464145
 20
53.1382925738
 40
28.7883586448
100
AcDbArc
 50
355.6275515563
 51
356.4328930585
  0
ARC
  5
29B
100
AcDbEntity
  8
0
100
AcDbCircle
 62
7
  6
BYLAYER
 10
25.9125565226
 20
56.6561553518
 40
28.4879268596
100
AcDbArc
 50
345.0267666404
 51
345.6560356069
  0
ARC
  5
29C
100
AcDbEntity
  8
0
100
AcDbCircle
 62
7
  6
BYLAYER
 10
26.8149238357
 20
51.8872556444
 40
27.3343932136
100
AcDbArc
 50
0.5761981166
 51
1.0971733551
  0
ARC
  5
29D
100
AcDbEntity
  8
0
100
AcDbCircle
 62
7
  6
BYLAYER
 10
28.2994268614
 20
51.1376735117
 40
25.8332612442
100
AcDbArc
 50
4.3564598513
 51
5.2679961385
  0
ARC
  5
29E
100
AcDbEntity
  8
0
100
AcDbCircle
 62
7
  6
BYLAYER
 10
35.7510112801
 20
39.7995420081
 40
24.8778488904
100
AcDbArc
 50
53.7340562947
 51
54.6629709731
  0
ARC
  5
29F
100
AcDbEntity
  8
0
100
AcDbCircle
 62
7
  6
BYLAYER
 10
31.0759697867
 20
51.0156828141
 40
22.9603626239
100
AcDbArc
 50
8.1855053213
 51
9.1270388312
  0
ARC
  5
2A0
100
AcDbEntity
  8
0
100
AcDbCircle
 62
7
  6
BYLAYER
 10
32.1781212896
 20
42.1504670243
 40
22.0245267121
100
AcDbArc
 50
17.955982715
 51
18.5792220469
  0
ARC
  5
2A1
100
AcDbEntity
  8
0
100
AcDbCircle
 62
7
  6
BYLAYER
 10
37.2883815431
 20
42.330865812
 40
21.7870394127
100
AcDbArc
 50
49.9438015614
 51
50.9105929723
  0
ARC
  5
2A2
100
AcDbEntity
  8
0
100
AcDbCircle
 62
7
  6
BYLAYER
 10
34.5512463353
 20
51.5791547021
 40
19.2409825684
100
AcDbArc
 50
11.7284513541
 51
12.7279924967
  0
ARC
  5
2A3
100
AcDbEntity
  8
0
100
AcDbCircle
 62
7
  6
BYLAYER
 10
32.0993313176
 20
49.3523944304
 40
18.5558058641
100
AcDbArc
 50
40.6222659992
 51
41.3170027361
  0
ARC
  5
2A4
100
AcDbEntity
  8
0
100
AcDbCircle
 62
7
  6
BYLAYER
 10
34.5702229998
 20
47.4159025428
 40
18.4343285976
100
AcDbArc
 50
18.838327952
 51
20.8697451085
  0
ARC
  5
2A5
100
AcDbEntity
  8
0
100
AcDbCircle
 62
7
  6
BYLAYER
 10
39.5449340728
 20
50.282634265
 40
18.4077692933
100
AcDbArc
 50
18.8368589304
 51
20.8712074081
  0
ARC
  5
2A6
100
AcDbEntity
  8
0
100
AcDbCircle
 62
7
  6
BYLAYER
 10
39.7278646365
 20
45.0571944634
 40
17.9126288898
100
AcDbArc
 50
46.3976343763
 51
47.4342288217
  0
ARC
  5
2A7
100
AcDbEntity
  8
0
100
AcDbCircle
 62
7
  6
BYLAYER
 10
38.733381063
 20
49.8391963848
 40
13.7445132851
100
AcDbArc
 50
11.6340532846
 51
14.8782825404
  0
ARC
  5
2A8
100
AcDbEntity
  8
0
100
AcDbCircle
 62
7
  6
BYLAYER
 10
39.3813789732
 20
49.4166350366
 40
13.1253067703
100
AcDbArc
 50
31.4300853551
 51
33.0285766823
  0
ARC
  5
2A9
100
AcDbEntity
  8
0
100
AcDbCircle
 62
7
  6
BYLAYER
 10
40.229136415
 20
49.5899882739
 40
12.8583752785
100
AcDbArc
 50
62.5720920914
 51
64.8172234514
  0
ARC
  5
2AA
100
AcDbEntity
  8
0
100
AcDbCircle
 62
7
  6
BYLAYER
 10
39.9786425027
 20
49.8488722829
 40
12.3877637316
100
AcDbArc
 50
37.446474438
 51
39.10860144
  0
ARC
  5
2AB
100
AcDbEntity
  8
0
100
AcDbCircle
 62
7
  6
BYLAYER
 10
26.8969005345
 20
56.4037197734
 40
27.4717298592
100
AcDbArc
 50
345.6575003344
 51
345.9802641592
  0
ARC
  5
2AC
100
AcDbEntity
  8
0
100
AcDbCircle
 62
7
  6
BYLAYER
 10
27.4593622317
 20
58.5719483193
 40
27.2683865865
100
AcDbArc
 50
338.8467333589
 51
339.8259710936
  0
ARC
  5
2AD
100
AcDbEntity
  8
0
100
AcDbCircle
 62
7
  6
BYLAYER
 10
29.7089960945
 20
60.3418173556
 40
25.4982375686
100
AcDbArc
 50
332.8132202278
 51
333.0255659806
  0
ARC
  5
2AE
100
AcDbEntity
  8
0
100
AcDbCircle
 62
7
  6
BYLAYER
 10
27.5479475027
 20
58.7229346287
 40
22.98590471
100
AcDbArc
 50
2.1315420487
 51
2.5912645337
  0
ARC
  5
2AF
100
AcDbEntity
  8
0
100
AcDbCircle
 62
7
  6
BYLAYER
 10
30.809256984
 20
57.623728866
 40
22.0466146073
100
AcDbArc
 50
356.8307032387
 51
357.5415131619
  0
ARC
  5
2B0
100
AcDbEntity
  8
0
100
AcDbCircle
 62
7
  6
BYLAYER
 10
31.4790206806
 20
57.6223923786
 40
22.0149782164
100
AcDbArc
 50
353.6774163114
 51
354.4424410425
  0
ARC
  5
2B1
100
AcDbEntity
  8
0
100
AcDbCircle
 62
7
  6
BYLAYER
 10
30.3500768689
 20
57.7902291535
 40
21.8053772899
100
AcDbArc
 50
359.3988238969
 51
0.0510158927
  0
ARC
  5
2B2
100
AcDbEntity
  8
0
100
AcDbCircle
 62
7
  6
BYLAYER
 10
29.7266099785
 20
58.1551650285
 40
21.6564764749
100
AcDbArc
 50
1.2578571121
 51
1.835482643
  0
ARC
  5
2B3
100
AcDbEntity
  8
0
100
AcDbCircle
 62
7
  6
BYLAYER
 10
32.4568399271
 20
57.7388958238
 40
21.6232487551
100
AcDbArc
 50
349.9879752101
 51
350.8080540096
  0
ARC
  5
2B4
100
AcDbEntity
  8
0
100
AcDbCircle
 62
7
  6
BYLAYER
 10
33.7197821553
 20
57.9264886051
 40
20.9031121601
100
AcDbArc
 50
345.7719171455
 51
346.6500548847
  0
ARC
  5
2B5
100
AcDbEntity
  8
0
100
AcDbCircle
 62
7
  6
BYLAYER
 10
35.1154694726
 20
58.1746891235
 40
20.0182161007
100
AcDbArc
 50
341.020233528
 51
341.7108351575
  0
ARC
  5
2B6
100
AcDbEntity
  8
0
100
AcDbCircle
 62
7
  6
BYLAYER
 10
38.6976275408
 20
64.2036477985
 40
19.9504534918
100
AcDbArc
 50
321.474183719
 51
322.8914481008
  0
ARC
  5
2B7
100
AcDbEntity
  8
0
100
AcDbCircle
 62
7
  6
BYLAYER
 10
35.3148656536
 20
58.1085079485
 40
19.8081239447
100
AcDbArc
 50
341.7116014705
 51
341.9596198529
  0
ARC
  5
2B8
100
AcDbEntity
  8
0
100
AcDbCircle
 62
7
  6
BYLAYER
 10
38.9884678238
 20
63.9728374472
 40
19.5791569269
100
AcDbArc
 50
320.8131108498
 51
321.4724701325
  0
ARC
  5
2B9
100
AcDbEntity
  8
0
100
AcDbCircle
 62
7
  6
BYLAYER
 10
34.6481565596
 20
54.5220261179
 40
19.2722907542
100
AcDbArc
 50
332.838254726
 51
334.3213540288
  0
ARC
  5
2BA
100
AcDbEntity
  8
0
100
AcDbCircle
 62
7
  6
BYLAYER
 10
36.7241322599
 20
58.4092622476
 40
18.8869860548
100
AcDbArc
 50
335.7145684813
 51
336.7161195575
  0
ARC
  5
2BB
100
AcDbEntity
  8
0
100
AcDbCircle
 62
7
  6
BYLAYER
 10
39.970539047
 20
57.1945826817
 40
18.8562090027
100
AcDbArc
 50
332.8218932444
 51
334.3377204569
  0
ARC
  5
2BC
100
AcDbEntity
  8
0
100
AcDbCircle
 62
7
  6
BYLAYER
 10
38.2493317212
 20
58.7091918041
 40
17.8310615925
100
AcDbArc
 50
329.851322424
 51
330.9136006127
  0
ARC
  5
2BD
100
AcDbEntity
  8
0
100
AcDbCircle
 62
7
  6
BYLAYER
 10
39.6476831139
 20
59.106367504
 40
16.9200608387
100
AcDbArc
 50
323.4470015267
 51
324.5621806627
  0
ARC
  5
2BE
100
AcDbEntity
  8
0
100
AcDbCircle
 62
7
  6
BYLAYER
 10
38.4216025363
 20
52.8099904764
 40
14.9239549836
100
AcDbArc
 50
15.0215972364
 51
16.122033936
  0
ARC
  5
2BF
100
AcDbEntity
  8
0
100
AcDbCircle
 62
7
  6
BYLAYER
 10
40.1873100333
 20
56.3263833717
 40
8.5316109887
100
AcDbArc
 50
37.5027409598
 51
38.2601419253
  0
ARC
  5
2C0
100
AcDbEntity
  8
0
100
AcDbCircle
 62
7
  6
BYLAYER
 10
41.0080879002
 20
33.273200428
 40
24.0939856654
100
AcDbArc
 50
57.447037983
 51
57.8642101754
  0
ARC
  5
2C1
100
AcDbEntity
  8
0
100
AcDbCircle
 62
7
  6
BYLAYER
 10
42.4388989148
 20
38.3239708758
 40
22.0342664386
100
AcDbArc
 50
64.7310658639
 51
65.483339768
  0
ARC
  5
2C2
100
AcDbEntity
  8
0
100
AcDbCircle
 62
7
  6
BYLAYER
 10
42.1725746426
 20
37.7834997136
 40
21.9828581092
100
AcDbArc
 50
61.7719742854
 51
62.4695363198
  0
ARC
  5
2C3
100
AcDbEntity
  8
0
100
AcDbCircle
 62
7
  6
BYLAYER
 10
42.9667752007
 20
39.0574261519
 40
21.7331820376
100
AcDbArc
 50
68.2339718525
 51
69.0408479628
  0
ARC
  5
2C4
100
AcDbEntity
  8
0
100
AcDbCircle
 62
7
  6
BYLAYER
 10
42.0959056922
 20
36.3867166465
 40
21.7218318892
100
AcDbArc
 50
57.8608881213
 51
58.4153495077
  0
ARC
  5
2C5
100
AcDbEntity
  8
0
100
AcDbCircle
 62
7
  6
BYLAYER
 10
42.1347844783
 20
37.288560396
 40
21.7128037126
100
AcDbArc
 50
59.4265001579
 51
60.0628566821
  0
ARC
  5
2C6
100
AcDbEntity
  8
0
100
AcDbCircle
 62
7
  6
BYLAYER
 10
43.7145199527
 20
40.0078971596
 40
21.0888100463
100
AcDbArc
 50
72.2607269943
 51
73.1248816631
  0
ARC
  5
2C7
100
AcDbEntity
  8
0
100
AcDbCircle
 62
7
  6
BYLAYER
 10
44.6129863638
 20
41.1307933151
 40
20.1820023899
100
AcDbArc
 50
76.8173994363
 51
77.742121493
  0
ARC
  5
2C8
100
AcDbEntity
  8
0
100
AcDbCircle
 62
7
  6
BYLAYER
 10
45.5898413
 20
42.3110494252
 40
19.159077698
100
AcDbArc
 50
81.9211971231
 51
82.9070503101
  0
ARC
  5
2C9
100
AcDbEntity
  8
0
100
AcDbCircle
 62
7
  6
BYLAYER
 10
46.607740706
 20
43.5050650689
 40
18.0860424146
100
AcDbArc
 50
87.5836160861
 51
88.6312004645
  0
ARC
  5
2CA
100
AcDbEntity
  8
0
100
AcDbCircle
 62
7
  6
BYLAYER
 10
47.6439854026
 20
44.5664802845
 40
17.1277866292
100
AcDbArc
 50
93.8007166496
 51
94.9037825006
  0
ARC
  5
2CB
100
AcDbEntity
  8
0
100
AcDbCircle
 62
7
  6
BYLAYER
 10
42.8667766457
 20
47.715070345
 40
13.5354787662
100
AcDbArc
 50
43.0456895732
 51
44.2026638104
  0
ARC
  5
2CC
100
AcDbEntity
  8
0
100
AcDbCircle
 62
7
  6
BYLAYER
 10
43.6688921003
 20
45.8113766114
 40
10.6368978641
100
AcDbArc
 50
20.9376713804
 51
21.7242952919
  0
ARC
  5
2CD
100
AcDbEntity
  8
0
100
AcDbCircle
 62
7
  6
BYLAYER
 10
41.2078440241
 20
50.4705013458
 40
13.1394969484
100
AcDbArc
 50
31.4309485672
 51
33.0277134702
  0
ARC
  5
2CE
100
AcDbEntity
  8
0
100
AcDbCircle
 62
7
  6
BYLAYER
 10
41.319744623
 20
50.5246497921
 40
13.015339637
100
AcDbArc
 50
25.4743134789
 51
27.0819894851
  0
ARC
  5
2CF
100
AcDbEntity
  8
0
100
AcDbCircle
 62
7
  6
BYLAYER
 10
41.3856983018
 20
50.5737630411
 40
12.8370332818
100
AcDbArc
 50
31.4792664563
 51
32.979395581
  0
ARC
  5
2D0
100
AcDbEntity
  8
0
100
AcDbCircle
 62
7
  6
BYLAYER
 10
41.4638252766
 20
50.6096911964
 40
12.7512920045
100
AcDbArc
 50
25.5250676052
 51
27.0312353588
  0
ARC
  5
2D1
100
AcDbEntity
  8
0
100
AcDbCircle
 62
7
  6
BYLAYER
 10
41.7785199717
 20
50.8798531154
 40
12.4369198031
100
AcDbArc
 50
37.4497593884
 51
39.1053164896
  0
ARC
  5
2D2
100
AcDbEntity
  8
0
100
AcDbCircle
 62
7
  6
BYLAYER
 10
41.9690185019
 20
50.9958138725
 40
12.1167615641
100
AcDbArc
 50
37.4976827159
 51
39.057393162
  0
ARC
  5
2D3
100
AcDbEntity
  8
0
100
AcDbCircle
 62
7
  6
BYLAYER
 10
42.1749690608
 20
50.8825727458
 40
12.0878571564
100
AcDbArc
 50
19.3195695256
 51
21.0092803961
  0
ARC
  5
2D4
100
AcDbEntity
  8
0
100
AcDbCircle
 62
7
  6
BYLAYER
 10
42.2697361371
 20
50.9510513967
 40
11.8757055288
100
AcDbArc
 50
19.3751187086
 51
20.9537312131
  0
ARC
  5
2D5
100
AcDbEntity
  8
0
100
AcDbCircle
 62
7
  6
BYLAYER
 10
42.8247373196
 20
51.8060758528
 40
11.0389574397
100
AcDbArc
 50
43.799119358
 51
45.5908083923
  0
ARC
  5
2D6
100
AcDbEntity
  8
0
100
AcDbCircle
 62
7
  6
BYLAYER
 10
41.0396142771
 20
50.7974229639
 40
10.9639211856
100
AcDbArc
 50
43.7929877606
 51
45.5969399897
  0
ARC
  5
2D7
100
AcDbEntity
  8
0
100
AcDbCircle
 62
7
  6
BYLAYER
 10
43.0062038808
 20
51.922836612
 40
10.7250086905
100
AcDbArc
 50
43.8486404008
 51
45.5412873495
  0
ARC
  5
2D8
100
AcDbEntity
  8
0
100
AcDbCircle
 62
7
  6
BYLAYER
 10
43.6678084038
 20
51.3280492868
 40
10.5291937594
100
AcDbArc
 50
12.6807151143
 51
14.5342073218
  0
ARC
  5
2D9
100
AcDbEntity
  8
0
100
AcDbCircle
 62
7
  6
BYLAYER
 10
42.2892956373
 20
54.5891633346
 40
10.3784590721
100
AcDbArc
 50
18.0775742952
 51
19.3533128698
  0
ARC
  5
2DA
100
AcDbEntity
  8
0
100
AcDbCircle
 62
7
  6
BYLAYER
 10
43.7068992222
 20
51.3875051573
 40
10.3729807566
100
AcDbArc
 50
12.7440353457
 51
14.4708870904
  0
ARC
  5
2DB
100
AcDbEntity
  8
0
100
AcDbCircle
 62
7
  6
BYLAYER
 10
44.0532468346
 20
53.1756358341
 40
9.1980657546
100
AcDbArc
 50
50.7900730527
 51
52.8125678705
  0
ARC
  5
2DC
100
AcDbEntity
  8
0
100
AcDbCircle
 62
7
  6
BYLAYER
 10
44.2085582653
 20
53.2776156605
 40
8.9125556881
100
AcDbArc
 50
50.8434106921
 51
52.759230231
  0
ARC
  5
2DD
100
AcDbEntity
  8
0
100
AcDbCircle
 62
7
  6
BYLAYER
 10
40.8582806828
 20
59.6762411947
 40
16.2650687806
100
AcDbArc
 50
316.5570048571
 51
317.7101099612
  0
ARC
  5
2DE
100
AcDbEntity
  8
0
100
AcDbCircle
 62
7
  6
BYLAYER
 10
44.3312759496
 20
59.2582555301
 40
2.3034451153
100
AcDbArc
 50
64.8406819263
 51
67.1910408575
  0
ARC
  5
2DF
100
AcDbEntity
  8
0
100
AcDbCircle
 62
7
  6
BYLAYER
 10
45.1165844733
 20
52.3217110283
 40
12.9988875534
100
AcDbArc
 50
62.5842364331
 51
64.8050960712
  0
ARC
  5
2E0
100
AcDbEntity
  8
0
100
AcDbCircle
 62
7
  6
BYLAYER
 10
46.3701249822
 20
50.019319258
 40
9.051068097
100
AcDbArc
 50
39.844391153
 51
41.2137210373
  0
ARC
  5
2E1
100
AcDbEntity
  8
0
100
AcDbCircle
 62
7
  6
BYLAYER
 10
45.5516397076
 20
51.6532686732
 40
8.6162943777
100
AcDbArc
 50
5.2101431069
 51
7.3296819247
  0
ARC
  5
2E2
100
AcDbEntity
  8
0
100
AcDbCircle
 62
7
  6
BYLAYER
 10
45.539012353
 20
51.714124149
 40
8.5108110579
100
AcDbArc
 50
5.2851470274
 51
7.2546780042
  0
ARC
  5
2E3
100
AcDbEntity
  8
0
100
AcDbCircle
 62
7
  6
BYLAYER
 10
45.1675103508
 20
54.8028480345
 40
7.2243771007
100
AcDbArc
 50
58.8131086128
 51
61.1880139135
  0
ARC
  5
2E4
100
AcDbEntity
  8
0
100
AcDbCircle
 62
7
  6
BYLAYER
 10
47.503088671
 20
51.720287816
 40
6.6620255502
100
AcDbArc
 50
356.4630799932
 51
358.9801247459
  0
ARC
  5
2E5
100
AcDbEntity
  8
0
100
AcDbCircle
 62
7
  6
BYLAYER
 10
47.4514185424
 20
51.792021112
 40
6.5951875438
100
AcDbArc
 50
356.5547647415
 51
358.8884399975
  0
ARC
  5
2E6
100
AcDbEntity
  8
0
100
AcDbCircle
 62
7
  6
BYLAYER
 10
48.1144399938
 20
52.3019747093
 40
6.0347994519
100
AcDbArc
 50
356.7263340732
 51
358.5915721594
  0
ARC
  5
2E7
100
AcDbEntity
  8
0
100
AcDbCircle
 62
7
  6
BYLAYER
 10
45.2878433193
 20
54.8746334787
 40
6.9835077333
100
AcDbArc
 50
58.8730645802
 51
61.1280579461
  0
ARC
  5
2E8
100
AcDbEntity
  8
0
100
AcDbCircle
 62
7
  6
BYLAYER
 10
45.6964059885
 20
56.6869019874
 40
6.0733808914
100
AcDbArc
 50
20.8526313438
 51
22.4579138318
  0
ARC
  5
2E9
100
AcDbEntity
  8
0
100
AcDbCircle
 62
7
  6
BYLAYER
 10
45.9500040346
 20
56.4359502515
 40
5.4114838983
100
AcDbArc
 50
68.367682945
 51
71.2463498774
  0
ARC
  5
2EA
100
AcDbEntity
  8
0
100
AcDbCircle
 62
7
  6
BYLAYER
 10
46.5745056059
 20
56.2248811375
 40
5.2705944367
100
AcDbArc
 50
66.8559251559
 51
67.1635698223
  0
ARC
  5
2EB
100
AcDbEntity
  8
0
100
AcDbCircle
 62
7
  6
BYLAYER
 10
46.036203334
 20
56.4662264068
 40
5.2227590673
100
AcDbArc
 50
68.4381890438
 51
71.1758437786
  0
ARC
  5
2EC
100
AcDbEntity
  8
0
100
AcDbCircle
 62
7
  6
BYLAYER
 10
46.3206524575
 20
57.8216631977
 40
3.9746948921
100
AcDbArc
 50
80.0392777256
 51
83.5756135845
  0
ARC
  5
2ED
100
AcDbEntity
  8
0
100
AcDbCircle
 62
7
  6
BYLAYER
 10
46.3818697625
 20
57.8061274607
 40
3.8366487123
100
AcDbArc
 50
80.1261507195
 51
83.4887405905
  0
ARC
  5
2EE
100
AcDbEntity
  8
0
100
AcDbCircle
 62
7
  6
BYLAYER
 10
46.3549518097
 20
58.7701752497
 40
3.0232759149
100
AcDbArc
 50
94.29934788
 51
98.5457286614
  0
ARC
  5
2EF
100
AcDbEntity
  8
0
100
AcDbCircle
 62
7
  6
BYLAYER
 10
46.4030898848
 20
58.7265355172
 40
2.9135797976
100
AcDbArc
 50
95.2171322713
 51
98.4383992269
  0
ARC
  5
2F0
100
AcDbEntity
  8
0
100
AcDbCircle
 62
7
  6
BYLAYER
 10
46.5827347718
 20
58.8344737521
 40
2.8224093903
100
AcDbArc
 50
98.1956344817
 51
99.0457614208
  0
ARC
  5
2F1
100
AcDbEntity
  8
0
100
AcDbCircle
 62
7
  6
BYLAYER
 10
46.5753422186
 20
58.880407483
 40
2.7758846531
100
AcDbArc
 50
99.0441357455
 51
101.2034143053
  0
ARC
  5
2F2
100
AcDbEntity
  8
0
100
AcDbCircle
 62
7
  6
BYLAYER
 10
46.6871194012
 20
59.6097928093
 40
2.6285817697
100
AcDbArc
 50
125.7905991219
 51
126.4067395874
  0
ARC
  5
2F3
100
AcDbEntity
  8
0
100
AcDbCircle
 62
7
  6
BYLAYER
 10
46.256797654
 20
59.2023704763
 40
2.5787643572
100
AcDbArc
 50
110.9766322279
 51
115.7035006716
  0
ARC
  5
2F4
100
AcDbEntity
  8
0
100
AcDbCircle
 62
7
  6
BYLAYER
 10
48.1649345929
 20
58.7623894769
 40
2.5496026707
100
AcDbArc
 50
23.0865590025
 51
25.4510363799
  0
ARC
  5
2F5
100
AcDbEntity
  8
0
100
AcDbCircle
 62
7
  6
BYLAYER
 10
46.3091521684
 20
59.1136222863
 40
2.5140957869
100
AcDbArc
 50
111.1150429772
 51
115.5650899223
  0
ARC
  5
2F6
100
AcDbEntity
  8
0
100
AcDbCircle
 62
7
  6
BYLAYER
 10
46.5012485483
 20
59.1536227413
 40
2.49236286
100
AcDbArc
 50
108.1424382961
 51
118.5376946034
  0
ARC
  5
2F7
100
AcDbEntity
  8
0
100
AcDbCircle
 62
7
  6
BYLAYER
 10
55.8939574457
 20
41.7299400595
 40
24.8630559811
100
AcDbArc
 50
132.619183233
 51
133.4640162454
  0
ARC
  5
2F8
100
AcDbEntity
  8
0
100
AcDbCircle
 62
7
  6
BYLAYER
 10
48.7234747699
 20
45.3991877166
 40
16.3993111234
100
AcDbArc
 50
100.5346888975
 51
101.6801377246
  0
ARC
  5
2F9
100
AcDbEntity
  8
0
100
AcDbCircle
 62
7
  6
BYLAYER
 10
49.4281945714
 20
48.638417803
 40
3.0851679799
100
AcDbArc
 50
355.3473137477
 51
357.2782914415
  0
ARC
  5
2FA
100
AcDbEntity
  8
0
100
AcDbCircle
 62
7
  6
BYLAYER
 10
49.0860500779
 20
55.1029025026
 40
9.6759916422
100
AcDbArc
 50
38.2667454417
 51
39.2697768496
  0
ARC
  5
2FB
100
AcDbEntity
  8
0
100
AcDbCircle
 62
7
  6
BYLAYER
 10
49.172149177
 20
55.1731684987
 40
9.5648594916
100
AcDbArc
 50
39.2703773582
 51
39.6146423576
  0
ARC
  5
2FC
100
AcDbEntity
  8
0
100
AcDbCircle
 62
7
  6
BYLAYER
 10
49.4540642432
 20
55.3232063678
 40
9.294374574
100
AcDbArc
 50
38.5745223457
 51
39.6139409186
  0
ARC
  5
2FD
100
AcDbEntity
  8
0
100
AcDbCircle
 62
7
  6
BYLAYER
 10
52.9549377818
 20
55.6969208929
 40
5.794121291
100
AcDbArc
 50
0.006287929
 51
1.4684507928
  0
ARC
  5
2FE
100
AcDbEntity
  8
0
100
AcDbCircle
 62
7
  6
BYLAYER
 10
51.6209040611
 20
58.049139524
 40
5.7701321547
100
AcDbArc
 50
58.4217070094
 51
59.9937912835
  0
ARC
  5
2FF
100
AcDbEntity
  8
0
100
AcDbCircle
 62
7
  6
BYLAYER
 10
49.782560127
 20
51.6976882694
 40
4.9465035261
100
AcDbArc
 50
36.7564328502
 51
38.5431365206
  0
ARC
  5
300
100
AcDbEntity
  8
0
100
AcDbCircle
 62
7
  6
BYLAYER
 10
49.2068299438
 20
51.5015576873
 40
4.9421729026
100
AcDbArc
 50
345.8856904512
 51
348.9579065762
  0
ARC
  5
301
100
AcDbEntity
  8
0
100
AcDbCircle
 62
7
  6
BYLAYER
 10
49.1336288181
 20
51.589161171
 40
4.8987023039
100
AcDbArc
 50
345.999382994
 51
348.8442140334
  0
ARC
  5
302
100
AcDbEntity
  8
0
100
AcDbCircle
 62
7
  6
BYLAYER
 10
50.4372347948
 20
51.0879981479
 40
3.6417219508
100
AcDbArc
 50
332.9081569459
 51
336.6735325742
  0
ARC
  5
303
100
AcDbEntity
  8
0
100
AcDbCircle
 62
7
  6
BYLAYER
 10
50.3598005108
 20
51.1897518177
 40
3.6067469879
100
AcDbArc
 50
333.0460930694
 51
336.5355964506
  0
ARC
  5
304
100
AcDbEntity
  8
0
100
AcDbCircle
 62
7
  6
BYLAYER
 10
51.9734368728
 20
50.8020981338
 40
3.4352408853
100
AcDbArc
 50
274.2671100148
 51
275.1040309711
  0
ARC
  5
305
100
AcDbEntity
  8
0
100
AcDbCircle
 62
7
  6
BYLAYER
 10
51.113996455
 20
50.6623263329
 40
2.8401050267
100
AcDbArc
 50
317.3063928641
 51
321.7474679943
  0
ARC
  5
306
100
AcDbEntity
  8
0
100
AcDbCircle
 62
7
  6
BYLAYER
 10
51.0446259547
 20
50.7695429207
 40
2.8011605333
100
AcDbArc
 50
317.4605265953
 51
321.5933342632
  0
ARC
  5
307
100
AcDbEntity
  8
0
100
AcDbCircle
 62
7
  6
BYLAYER
 10
51.8184978792
 20
50.7672784122
 40
2.7600149495
100
AcDbArc
 50
281.4458967162
 51
289.7008823388
  0
ARC
  5
308
100
AcDbEntity
  8
0
100
AcDbCircle
 62
7
  6
BYLAYER
 10
51.8689932384
 20
50.6305651992
 40
2.6142821212
100
AcDbArc
 50
289.6690536647
 51
307.5076045126
  0
ARC
  5
309
100
AcDbEntity
  8
0
100
AcDbCircle
 62
7
  6
BYLAYER
 10
51.3147869368
 20
50.4475412737
 40
2.5453345973
100
AcDbArc
 50
299.8419299123
 51
304.6117875641
  0
ARC
  5
30A
100
AcDbEntity
  8
0
100
AcDbCircle
 62
7
  6
BYLAYER
 10
51.259068038
 20
50.5440570515
 40
2.489123122
100
AcDbArc
 50
299.9884766235
 51
304.4652408529
  0
ARC
  5
30B
100
AcDbEntity
  8
0
100
AcDbCircle
 62
7
  6
BYLAYER
 10
51.3922956649
 20
50.6864804254
 40
2.4627426196
100
AcDbArc
 50
296.9875992239
 51
307.4661182524
  0
ARC
  5
30C
100
AcDbEntity
  8
0
100
AcDbCircle
 62
7
  6
BYLAYER
 10
55.028122819
 20
60.6162244543
 40
18.9503510942
100
AcDbArc
 50
236.09280971
 51
237.9959621918
  0
ARC
  5
30D
100
AcDbEntity
  8
0
100
AcDbCircle
 62
7
  6
BYLAYER
 10
55.3555157518
 20
80.0406776029
 40
17.7042830065
100
AcDbArc
 50
250.3650382208
 51
252.1699556008
  0
ARC
  5
30E
100
AcDbEntity
  8
0
100
AcDbCircle
 62
7
  6
BYLAYER
 10
50.3171558886
 20
76.9215953197
 40
17.4283254458
100
AcDbArc
 50
250.3507407786
 51
252.1842391824
  0
ARC
  5
30F
100
AcDbEntity
  8
0
100
AcDbCircle
 62
7
  6
BYLAYER
 10
50.8628251829
 20
63.232201556
 40
15.9148604441
100
AcDbArc
 50
274.8922216793
 51
275.1053764247
  0
ARC
  5
310
100
AcDbEntity
  8
0
100
AcDbCircle
 62
7
  6
BYLAYER
 10
61.3483202801
 20
44.0472820169
 40
25.6023970695
100
AcDbArc
 50
132.6313844727
 51
133.4518199833
  0
ARC
  5
311
100
AcDbEntity
  8
0
100
AcDbCircle
 62
7
  6
BYLAYER
 10
70.5299144298
 20
57.3574572056
 40
20.3096440395
100
AcDbArc
 50
191.4978681421
 51
193.4014742393
  0
ARC
  5
312
100
AcDbEntity
  8
0
100
AcDbCircle
 62
7
  6
BYLAYER
 10
62.156871644
 20
41.1120589294
 40
12.1830886531
100
AcDbArc
 50
159.1273321937
 51
161.1405202283
  0
ARC
  5
313
100
AcDbEntity
  8
0
100
AcDbCircle
 62
7
  6
BYLAYER
 10
66.8877714315
 20
44.04883653
 40
11.9504514069
100
AcDbArc
 50
159.1077383674
 51
161.1601207726
  0
ARC
  5
314
100
AcDbEntity
  8
0
100
AcDbCircle
 62
7
  6
BYLAYER
 10
62.1254743228
 20
66.5408003329
 40
27.9465044614
100
AcDbArc
 50
229.7929651585
 51
230.7847040542
  0
ARC
  5
315
100
AcDbEntity
  8
0
100
AcDbCircle
 62
7
  6
BYLAYER
 10
75.33404409
 20
60.1830211813
 40
20.160561264
100
AcDbArc
 50
191.4908259565
 51
193.4085101316
  0
SPLINE
  5
316
100
AcDbEntity
  8
0
100
AcDbSpline
 62
7
  6
BYLAYER
 70
0
 71
3
 72
15
 73
11
 74
0
 42
0.0000001
 43
0.0000001
 44
0.0000000001
 40
0.0
 40
0.0
 40
0.0
 40
0.0
 40
0.1141474765
 40
0.2373368178
 40
0.3669776594
 40
0.5000010819
 40
0.633024354
 40
0.7626647561
 40
0.8858534048
 40
1.0
 40
1.0
 40
1.0
 40
1.0
 10
13.671173745
 20
32.1622288154
 30
0.0
 10
13.671173745
 20
32.128693605
 30
0.0
 10
13.6773206201
 20
32.0589022198
 30
0.0
 10
13.7018029549
 20
31.9536158718
 30
0.0
 10
13.7410408063
 20
31.8469715925
 30
0.0
 10
13.7935383203
 20
31.7429766822
 30
0.0
 10
13.8573521894
 20
31.6455154563
 30
0.0
 10
13.9300901379
 20
31.5582130099
 30
0.0
 10
14.0090296624
 20
31.4843684144
 30
0.0
 10
14.066397296
 20
31.4441501037
 30
0.0
 10
14.0954395801
 20
31.4273829124
 30
0.0
  0
SPLINE
  5
317
100
AcDbEntity
  8
0
100
AcDbSpline
 62
7
  6
BYLAYER
 70
0
 71
3
 72
13
 73
9
 74
0
 42
0.0000001
 43
0.0000001
 44
0.0000000001
 40
0.0
 40
0.0
 40
0.0
 40
0.0
 40
0.1080942654
 40
0.2182331488
 40
0.3322568368
 40
0.4516850086
 40
0.7106223278
 40
1.0
 40
1.0
 40
1.0
 40
1.0
 10
13.7954431284
 20
32.4368965608
 30
0.0
 10
13.7856060187
 20
32.4312171364
 30
0.0
 10
13.7666883315
 20
32.4180241279
 30
0.0
 10
13.7417055222
 20
32.3934212936
 30
0.0
 10
13.7202083582
 20
32.3642354912
 30
0.0
 10
13.6958340036
 20
32.3184148945
 30
0.0
 10
13.6757579877
 20
32.2504288831
 30
0.0
 10
13.671173745
 20
32.1926375681
 30
0.0
 10
13.671173745
 20
32.1622288154
 30
0.0
  0
SPLINE
  5
318
100
AcDbEntity
  8
0
100
AcDbSpline
 62
7
  6
BYLAYER
 70
0
 71
3
 72
13
 73
9
 74
0
 42
0.0000001
 43
0.0000001
 44
0.0000000001
 40
0.0
 40
0.0
 40
0.0
 40
0.0
 40
0.2893766917
 40
0.5483136645
 40
0.6677419416
 40
0.7817659142
 40
0.8919052276
 40
1.0
 40
1.0
 40
1.0
 40
1.0
 10
14.0954395801
 20
32.407185813
 30
0.0
 10
14.0691054733
 20
32.4223894727
 30
0.0
 10
14.0167658982
 20
32.4473138323
 30
0.0
 10
13.9478521266
 20
32.4639194529
 30
0.0
 10
13.8959845274
 20
32.4657206005
 30
0.0
 10
13.8599611966
 20
32.4616963858
 30
0.0
 10
13.8261639022
 20
32.4523622626
 30
0.0
 10
13.8052800208
 20
32.4425758597
 30
0.0
 10
13.7954431284
 20
32.4368965608
 30
0.0
  0
SPLINE
  5
319
100
AcDbEntity
  8
0
100
AcDbSpline
 62
7
  6
BYLAYER
 70
0
 71
3
 72
12
 73
8
 74
0
 42
0.0000001
 43
0.0000001
 44
0.0000000001
 40
0.0
 40
0.0
 40
0.0
 40
0.0
 40
0.1081588022
 40
0.2183521463
 40
0.4513532897
 40
0.710426048
 40
1.0
 40
1.0
 40
1.0
 40
1.0
 10
11.9412546123
 20
32.9947309762
 30
0.0
 10
11.9494519795
 20
32.9994639829
 30
0.0
 10
11.9652129066
 20
33.0104634942
 30
0.0
 10
11.9934832081
 20
33.0382763224
 30
0.0
 10
12.0214888896
 20
33.0839252413
 30
0.0
 10
12.0409684295
 20
33.1500955711
 30
0.0
 10
12.0448101901
 20
33.1982822772
 30
0.0
 10
12.0448101901
 20
33.2236246468
 30
0.0
  0
SPLINE
  5
31A
100
AcDbEntity
  8
0
100
AcDbSpline
 62
7
  6
BYLAYER
 70
0
 71
3
 72
11
 73
7
 74
0
 42
0.0000001
 43
0.0000001
 44
0.0000000001
 40
0.0
 40
0.0
 40
0.0
 40
0.0
 40
0.222632035
 40
0.4579457054
 40
0.7153432827
 40
1.0
 40
1.0
 40
1.0
 40
1.0
 10
11.9412546123
 20
35.8524894362
 30
0.0
 10
11.9558861488
 20
35.8609374119
 30
0.0
 10
11.9834269538
 20
35.8831338201
 30
0.0
 10
12.0145085458
 20
35.9284013615
 30
0.0
 10
12.0352908753
 20
35.9841207727
 30
0.0
 10
12.0417478481
 20
36.025007046
 30
0.0
 10
12.0434579648
 20
36.0465414966
 30
0.0
  0
SPLINE
  5
31B
100
AcDbEntity
  8
0
100
AcDbSpline
 62
7
  6
BYLAYER
 70
0
 71
3
 72
20
 73
16
 74
0
 42
0.0000001
 43
0.0000001
 44
0.0000000001
 40
0.0
 40
0.0
 40
0.0
 40
0.0
 40
0.0623905849
 40
0.128806762
 40
0.2702975723
 40
0.4173613603
 40
0.5616147669
 40
0.6302508569
 40
0.6953778332
 40
0.756360748
 40
0.8128308048
 40
0.8647637883
 40
0.9125655836
 40
0.9571671477
 40
1.0
 40
1.0
 40
1.0
 40
1.0
 10
12.0448101901
 20
33.2236246468
 30
0.0
 10
12.0448101901
 20
33.2443579557
 30
0.0
 10
12.0419906178
 20
33.2871924811
 30
0.0
 10
12.0262521944
 20
33.375762976
 30
0.0
 10
11.988208326
 20
33.4882158883
 30
0.0
 10
11.9194749354
 20
33.6152371982
 30
0.0
 10
11.8454320036
 20
33.7100699155
 30
0.0
 10
11.7787961277
 20
33.7742502644
 30
0.0
 10
11.7277387948
 20
33.8142279134
 30
0.0
 10
11.6758502951
 20
33.8459688022
 30
0.0
 10
11.6241876899
 20
33.8687999918
 30
0.0
 10
11.57377924
 20
33.88219997
 30
0.0
 10
11.5256122627
 20
33.8857354403
 30
0.0
 10
11.4807559862
 20
33.8791719043
 30
0.0
 10
11.4535856763
 20
33.8678714929
 30
0.0
 10
11.4412574089
 20
33.8607567054
 30
0.0
  0
SPLINE
  5
31C
100
AcDbEntity
  8
0
100
AcDbSpline
 62
7
  6
BYLAYER
 70
0
 71
3
 72
9
 73
5
 74
0
 42
0.0000001
 43
0.0000001
 44
0.0000000001
 40
0.0
 40
0.0
 40
0.0
 40
0.0
 40
0.2553986663
 40
1.0
 40
1.0
 40
1.0
 40
1.0
 10
53.1299134055
 20
48.9403259347
 30
0.0
 10
53.1283062455
 20
48.9347565571
 30
0.0
 10
53.1218119487
 20
48.9130088822
 30
0.0
 10
53.1144969903
 20
48.8915042099
 30
0.0
 10
53.1085538657
 20
48.8756839208
 30
0.0
  0
SPLINE
  5
31D
100
AcDbEntity
  8
0
100
AcDbSpline
 62
7
  6
BYLAYER
 70
0
 71
3
 72
9
 73
5
 74
0
 42
0.0000001
 43
0.0000001
 44
0.0000000001
 40
0.0
 40
0.0
 40
0.0
 40
0.0
 40
0.2676262465
 40
1.0
 40
1.0
 40
1.0
 40
1.0
 10
49.5982598913
 20
60.5202698636
 30
0.0
 10
49.5969614391
 20
60.5233805238
 30
0.0
 10
49.5919941831
 20
60.5349539015
 30
0.0
 10
49.5865335894
 20
60.5463246262
 30
0.0
 10
49.5821291531
 20
60.5544295179
 30
0.0
  0
SPLINE
  5
31E
100
AcDbEntity
  8
0
100
AcDbSpline
 62
7
  6
BYLAYER
 70
0
 71
3
 72
9
 73
5
 74
0
 42
0.0000001
 43
0.0000001
 44
0.0000000001
 40
0.0
 40
0.0
 40
0.0
 40
0.0
 40
0.2428857083
 40
1.0
 40
1.0
 40
1.0
 40
1.0
 10
54.023571989
 20
53.5095385926
 30
0.0
 10
54.0195930053
 20
53.5155004363
 30
0.0
 10
54.0030401787
 20
53.5399322451
 30
0.0
 10
53.9858512242
 20
53.5639306958
 30
0.0
 10
53.972555067
 20
53.5818866565
 30
0.0
  0
SPLINE
  5
31F
100
AcDbEntity
  8
0
100
AcDbSpline
 62
7
  6
BYLAYER
 70
0
 71
3
 72
9
 73
5
 74
0
 42
0.0000001
 43
0.0000001
 44
0.0000000001
 40
0.0
 40
0.0
 40
0.0
 40
0.0
 40
0.2171700394
 40
1.0
 40
1.0
 40
1.0
 40
1.0
 10
54.1443055069
 20
52.4106578095
 30
0.0
 10
54.1435371945
 20
52.4119502587
 30
0.0
 10
54.1398015214
 20
52.4177840149
 30
0.0
 10
54.1354727972
 20
52.4232160046
 30
0.0
 10
54.131954924
 20
52.4273391045
 30
0.0
  0
SPLINE
  5
320
100
AcDbEntity
  8
0
100
AcDbSpline
 62
7
  6
BYLAYER
 70
0
 71
3
 72
11
 73
7
 74
0
 42
0.0000001
 43
0.0000001
 44
0.0000000001
 40
0.0
 40
0.0
 40
0.0
 40
0.0
 40
0.2369362209
 40
0.4817765332
 40
0.7358502298
 40
1.0
 40
1.0
 40
1.0
 40
1.0
 10
56.9668153663
 20
56.2260357016
 30
0.0
 10
57.0353652667
 20
55.9677754145
 30
0.0
 10
57.1600260612
 20
55.4385764334
 30
0.0
 10
57.2996077291
 20
54.6199618417
 30
0.0
 10
57.3866585184
 20
53.7631742334
 30
0.0
 10
57.4055787547
 20
53.1785314067
 30
0.0
 10
57.4055787547
 20
52.8806384908
 30
0.0
  0
SPLINE
  5
321
100
AcDbEntity
  8
0
100
AcDbSpline
 62
7
  6
BYLAYER
 70
0
 71
3
 72
11
 73
7
 74
0
 42
0.0000001
 43
0.0000001
 44
0.0000000001
 40
0.0
 40
0.0
 40
0.0
 40
0.0
 40
0.2543809818
 40
0.505829403
 40
0.7542971266
 40
1.0
 40
1.0
 40
1.0
 40
1.0
 10
54.4003604006
 20
60.6261110572
 30
0.0
 10
54.637416214
 20
60.3312154483
 30
0.0
 10
55.0896961027
 20
59.7291673653
 30
0.0
 10
55.7044832199
 20
58.789830544
 30
0.0
 10
56.2556001943
 20
57.8267749268
 30
0.0
 10
56.5872454305
 20
57.1704665183
 30
0.0
 10
56.7448522007
 20
56.8407424293
 30
0.0
  0
SPLINE
  5
322
100
AcDbEntity
  8
0
100
AcDbSpline
 62
7
  6
BYLAYER
 70
0
 71
3
 72
9
 73
5
 74
0
 42
0.0000001
 43
0.0000001
 44
0.0000000001
 40
0.0
 40
0.0
 40
0.0
 40
0.0
 40
0.2524686707
 40
1.0
 40
1.0
 40
1.0
 40
1.0
 10
43.7404159615
 20
62.6334177425
 30
0.0
 10
43.715937554
 20
62.5165518409
 30
0.0
 10
43.621576477
 20
62.0531254008
 30
0.0
 10
43.5383376255
 20
61.5873866703
 30
0.0
 10
43.4841548579
 20
61.2380275463
 30
0.0
  0
SPLINE
  5
323
100
AcDbEntity
  8
0
100
AcDbSpline
 62
7
  6
BYLAYER
 70
0
 71
3
 72
11
 73
7
 74
0
 42
0.0000001
 43
0.0000001
 44
0.0000000001
 40
0.0
 40
0.0
 40
0.0
 40
0.0
 40
0.2389827885
 40
0.4861216545
 40
0.7402452202
 40
1.0
 40
1.0
 40
1.0
 40
1.0
 10
57.4055787547
 20
52.8806384908
 30
0.0
 10
57.4055787547
 20
52.5713113364
 30
0.0
 10
57.3844492387
 20
51.9419599966
 30
0.0
 10
57.2958206724
 20
50.9874817668
 30
0.0
 10
57.1554882348
 20
50.0121633994
 30
0.0
 10
57.0337537838
 20
49.3580864145
 30
0.0
 10
56.9668153649
 20
49.0286039825
 30
0.0
  0
SPLINE
  5
324
100
AcDbEntity
  8
0
100
AcDbSpline
 62
7
  6
BYLAYER
 70
0
 71
3
 72
11
 73
7
 74
0
 42
0.0000001
 43
0.0000001
 44
0.0000000001
 40
0.0
 40
0.0
 40
0.0
 40
0.0
 40
0.2248493973
 40
0.4683883804
 40
0.7278160123
 40
1.0
 40
1.0
 40
1.0
 40
1.0
 10
52.2790529851
 20
47.3804798272
 30
0.0
 10
52.5285478009
 20
47.4027673336
 30
0.0
 10
53.0472347255
 20
47.4611830387
 30
0.0
 10
53.8493418907
 20
47.5804461936
 30
0.0
 10
54.6997429671
 20
47.7309908807
 30
0.0
 10
55.2806426722
 20
47.8464689216
 30
0.0
 10
55.5775687304
 20
47.9079301656
 30
0.0
  0
SPLINE
  5
325
100
AcDbEntity
  8
0
100
AcDbSpline
 62
7
  6
BYLAYER
 70
0
 71
3
 72
11
 73
7
 74
0
 42
0.0000001
 43
0.0000001
 44
0.0000000001
 40
0.0
 40
0.0
 40
0.0
 40
0.0
 40
0.2517023474
 40
0.5026364111
 40
0.752273952
 40
1.0
 40
1.0
 40
1.0
 40
1.0
 10
51.1018445287
 20
63.8606770671
 30
0.0
 10
51.4043548485
 20
63.6171930072
 30
0.0
 10
51.9992594874
 20
63.1193554911
 30
0.0
 10
52.8541548356
 20
62.3336622922
 30
0.0
 10
53.6602093611
 20
61.5062862462
 30
0.0
 10
54.1609095176
 20
60.9239926121
 30
0.0
 10
54.4003604006
 20
60.6261110572
 30
0.0
  0
SPLINE
  5
326
100
AcDbEntity
  8
0
100
AcDbSpline
 62
7
  6
BYLAYER
 70
0
 71
3
 72
11
 73
7
 74
0
 42
0.0000001
 43
0.0000001
 44
0.0000000001
 40
0.0
 40
0.0
 40
0.0
 40
0.0
 40
0.289032404
 40
0.5505025038
 40
0.7863777215
 40
1.0
 40
1.0
 40
1.0
 40
1.0
 10
48.3899276852
 20
64.0961575196
 30
0.0
 10
48.6072270054
 20
64.115569389
 30
0.0
 10
49.0219322409
 20
64.1442233743
 30
0.0
 10
49.6156589364
 20
64.1557631231
 30
0.0
 10
50.1522373633
 20
64.1363844029
 30
0.0
 10
50.4902307945
 20
64.1042219132
 30
0.0
 10
50.6501955134
 20
64.0839483944
 30
0.0
  0
SPLINE
  5
327
100
AcDbEntity
  8
0
100
AcDbSpline
 62
7
  6
BYLAYER
 70
0
 71
3
 72
11
 73
7
 74
0
 42
0.0000001
 43
0.0000001
 44
0.0000000001
 40
0.0
 40
0.0
 40
0.0
 40
0.0
 40
0.2717549026
 40
0.5308665852
 40
0.7744631113
 40
1.0
 40
1.0
 40
1.0
 40
1.0
 10
45.2521378379
 20
63.6017320862
 30
0.0
 10
45.5342123066
 20
63.6592545269
 30
0.0
 10
46.0861425414
 20
63.7672748639
 30
0.0
 10
46.894476707
 20
63.9080167679
 30
0.0
 10
47.6579021693
 20
64.0197858969
 30
0.0
 10
48.1519558337
 20
64.0748993297
 30
0.0
 10
48.3899276852
 20
64.0961575196
 30
0.0
  0
SPLINE
  5
328
100
AcDbEntity
  8
0
100
AcDbSpline
 62
7
  6
BYLAYER
 70
0
 71
3
 72
9
 73
5
 74
0
 42
0.0000001
 43
0.0000001
 44
0.0000000001
 40
0.0
 40
0.0
 40
0.0
 40
0.0
 40
0.2548460768
 40
1.0
 40
1.0
 40
1.0
 40
1.0
 10
46.0360078156
 20
61.6033935511
 30
0.0
 10
46.0308959815
 20
61.6040754959
 30
0.0
 10
46.0108075914
 20
61.6065200694
 30
0.0
 10
45.9906029904
 20
61.6080295579
 30
0.0
 10
45.9755337067
 20
61.6085735031
 30
0.0
  0
SPLINE
  5
329
100
AcDbEntity
  8
0
100
AcDbSpline
 62
7
  6
BYLAYER
 70
0
 71
3
 72
9
 73
5
 74
0
 42
0.0000001
 43
0.0000001
 44
0.0000000001
 40
0.0
 40
0.0
 40
0.0
 40
0.0
 40
0.5038384335
 40
1.0
 40
1.0
 40
1.0
 40
1.0
 10
44.7026201916
 20
61.3359455632
 30
0.0
 10
44.7668332787
 20
61.4084703954
 30
0.0
 10
44.9016361924
 20
61.5460905988
 30
0.0
 10
45.0502475472
 20
61.6687228472
 30
0.0
 10
45.1270204759
 20
61.7253384749
 30
0.0
  0
SPLINE
  5
32A
100
AcDbEntity
  8
0
100
AcDbSpline
 62
7
  6
BYLAYER
 70
0
 71
3
 72
30
 73
26
 74
0
 42
0.0000001
 43
0.0000001
 44
0.0000000001
 40
0.0
 40
0.0
 40
0.0
 40
0.0
 40
0.021474358
 40
0.0430034231
 40
0.0648270768
 40
0.0871688072
 40
0.1102262712
 40
0.1341635573
 40
0.1591088856
 40
0.1851539844
 40
0.2406981819
 40
0.2702621645
 40
0.3009783924
 40
0.3656225924
 40
0.4340549639
 40
0.5054445555
 40
0.5788064136
 40
0.6530602616
 40
0.7270845777
 40
0.7997677112
 40
0.8700627666
 40
0.9040267891
 40
0.9370621051
 40
0.9690842769
 40
1.0
 40
1.0
 40
1.0
 40
1.0
 10
45.1498601434
 20
61.7419926344
 30
0.0
 10
45.2418199726
 20
61.8082929772
 30
0.0
 10
45.4348453231
 20
61.9292461331
 30
0.0
 10
45.7469788867
 20
62.0718445869
 30
0.0
 10
46.0792647664
 20
62.1744270888
 30
0.0
 10
46.4295604902
 20
62.236463946
 30
0.0
 10
46.7957760068
 20
62.2576929686
 30
0.0
 10
47.1757558608
 20
62.2381415461
 30
0.0
 10
47.5673640197
 20
62.1780391745
 30
0.0
 10
48.113625488
 20
62.0414940364
 30
0.0
 10
48.6624461875
 20
61.8258364992
 30
0.0
 10
49.2053143627
 20
61.5438639102
 30
0.0
 10
49.7695815849
 20
61.2015804473
 30
0.0
 10
50.4655799721
 20
60.6849311196
 30
0.0
 10
51.2596568842
 20
59.9511303543
 30
0.0
 10
52.0091832967
 20
59.109343963
 30
0.0
 10
52.6974000815
 20
58.1784197265
 30
0.0
 10
53.3089583273
 20
57.1791504316
 30
0.0
 10
53.8301670384
 20
56.1338865963
 30
0.0
 10
54.2493358638
 20
55.0661037055
 30
0.0
 10
54.508800693
 20
54.1670425665
 30
0.0
 10
54.6557998289
 20
53.4570063672
 30
0.0
 10
54.7342892669
 20
52.9398934521
 30
0.0
 10
54.7817622976
 20
52.435186556
 30
0.0
 10
54.7928259841
 20
52.1028447265
 30
0.0
 10
54.7928259841
 20
51.9396333536
 30
0.0
  0
SPLINE
  5
32B
100
AcDbEntity
  8
0
100
AcDbSpline
 62
7
  6
BYLAYER
 70
0
 71
3
 72
9
 73
5
 74
0
 42
0.0000001
 43
0.0000001
 44
0.0000000001
 40
0.0
 40
0.0
 40
0.0
 40
0.0
 40
0.2579321655
 40
1.0
 40
1.0
 40
1.0
 40
1.0
 10
48.6200320199
 20
61.0823483176
 30
0.0
 10
48.5620331841
 20
61.1067719055
 30
0.0
 10
48.3355029708
 20
61.1973995528
 30
0.0
 10
48.1021237778
 20
61.2712883394
 30
0.0
 10
47.9262824666
 20
61.3144173986
 30
0.0
  0
SPLINE
  5
32C
100
AcDbEntity
  8
0
100
AcDbSpline
 62
7
  6
BYLAYER
 70
0
 71
3
 72
13
 73
9
 74
0
 42
0.0000001
 43
0.0000001
 44
0.0000000001
 40
0.0
 40
0.0
 40
0.0
 40
0.0
 40
0.2711320084
 40
0.5252270584
 40
0.6471824417
 40
0.7664744439
 40
0.8838209395
 40
1.0
 40
1.0
 40
1.0
 40
1.0
 10
47.9262824666
 20
61.3144173986
 30
0.0
 10
47.7451607644
 20
61.3588415932
 30
0.0
 10
47.3877461418
 20
61.4211173833
 30
0.0
 10
46.9402203167
 20
61.4256240752
 30
0.0
 10
46.6018972985
 20
61.3816985662
 30
0.0
 10
46.3610873884
 20
61.3264842879
 30
0.0
 10
46.1307683672
 20
61.2487939373
 30
0.0
 10
45.9843394837
 20
61.1819494698
 30
0.0
 10
45.9134747049
 20
61.1450191845
 30
0.0
  0
SPLINE
  5
32D
100
AcDbEntity
  8
0
100
AcDbSpline
 62
7
  6
BYLAYER
 70
0
 71
3
 72
14
 73
10
 74
0
 42
0.0000001
 43
0.0000001
 44
0.0000000001
 40
0.0
 40
0.0
 40
0.0
 40
0.0
 40
0.1189879428
 40
0.2376664948
 40
0.3571398782
 40
0.4784745041
 40
0.6026565628
 40
0.7305557559
 40
1.0
 40
1.0
 40
1.0
 40
1.0
 10
52.4067449656
 20
49.0035626483
 30
0.0
 10
52.4914780538
 20
49.0366959391
 30
0.0
 10
52.6570341431
 20
49.1128285333
 30
0.0
 10
52.8904031158
 20
49.255815771
 30
0.0
 10
53.1066683609
 20
49.4265073167
 30
0.0
 10
53.3047655507
 20
49.623923733
 30
0.0
 10
53.4837437948
 20
49.8471369335
 30
0.0
 10
53.6994738953
 20
50.1831696043
 30
0.0
 10
53.8243252613
 20
50.4626672857
 30
0.0
 10
53.8927632981
 20
50.6569910833
 30
0.0
  0
SPLINE
  5
32E
100
AcDbEntity
  8
0
100
AcDbSpline
 62
7
  6
BYLAYER
 70
0
 71
3
 72
9
 73
5
 74
0
 42
0.0000001
 43
0.0000001
 44
0.0000000001
 40
0.0
 40
0.0
 40
0.0
 40
0.0
 40
0.2421692699
 40
1.0
 40
1.0
 40
1.0
 40
1.0
 10
53.8927632981
 20
50.6569910833
 30
0.0
 10
53.9122147983
 20
50.7122219104
 30
0.0
 10
53.9872355515
 20
50.9421428163
 30
0.0
 10
54.0415026737
 20
51.1786592648
 30
0.0
 10
54.0724067182
 20
51.359276269
 30
0.0
  0
SPLINE
  5
32F
100
AcDbEntity
  8
0
100
AcDbSpline
 62
7
  6
BYLAYER
 70
0
 71
3
 72
9
 73
5
 74
0
 42
0.0000001
 43
0.0000001
 44
0.0000000001
 40
0.0
 40
0.0
 40
0.0
 40
0.0
 40
0.246649246
 40
1.0
 40
1.0
 40
1.0
 40
1.0
 10
53.129913533
 20
48.940325834
 30
0.0
 10
53.1572949105
 20
48.9673116628
 30
0.0
 10
53.2658949407
 20
49.0791525679
 30
0.0
 10
53.3646763585
 20
49.200454415
 30
0.0
 10
53.4332223993
 20
49.2957930749
 30
0.0
  0
SPLINE
  5
330
100
AcDbEntity
  8
0
100
AcDbSpline
 62
7
  6
BYLAYER
 70
0
 71
3
 72
15
 73
11
 74
0
 42
0.0000001
 43
0.0000001
 44
0.0000000001
 40
0.0
 40
0.0
 40
0.0
 40
0.0
 40
0.1108410465
 40
0.2280578197
 40
0.3507094003
 40
0.4776259691
 40
0.60747378
 40
0.7388131747
 40
0.8701524766
 40
1.0
 40
1.0
 40
1.0
 40
1.0
 10
55.2842672431
 20
51.6559060292
 30
0.0
 10
55.2842672431
 20
51.9682346339
 30
0.0
 10
55.2468570063
 20
52.6112221928
 30
0.0
 10
55.0913098436
 20
53.588513552
 30
0.0
 10
54.8373559177
 20
54.5917139475
 30
0.0
 10
54.4893023828
 20
55.603814611
 30
0.0
 10
54.0530330645
 20
56.6078097338
 30
0.0
 10
53.5359062696
 20
57.5867448173
 30
0.0
 10
52.9467248339
 20
58.5239947579
 30
0.0
 10
52.5082876929
 20
59.1162089249
 30
0.0
 10
52.2790509022
 20
59.4013798487
 30
0.0
  0
SPLINE
  5
331
100
AcDbEntity
  8
0
100
AcDbSpline
 62
7
  6
BYLAYER
 70
0
 71
3
 72
20
 73
16
 74
0
 42
0.0000001
 43
0.0000001
 44
0.0000000001
 40
0.0
 40
0.0
 40
0.0
 40
0.0
 40
0.0583200612
 40
0.1153282934
 40
0.1714029082
 40
0.2269993601
 40
0.2825983525
 40
0.3386705245
 40
0.3956661589
 40
0.4539997058
 40
0.575953923
 40
0.6402638418
 40
0.7070129732
 40
0.8482026042
 40
1.0
 40
1.0
 40
1.0
 40
1.0
 10
52.2790509203
 20
47.3804786351
 30
0.0
 10
52.3910092388
 20
47.390479552
 30
0.0
 10
52.6116148575
 20
47.4212357016
 30
0.0
 10
52.9327900917
 20
47.5011610185
 30
0.0
 10
53.2383811423
 20
47.6140887069
 30
0.0
 10
53.5269103942
 20
47.7594588421
 30
0.0
 10
53.7970544152
 20
47.9366671097
 30
0.0
 10
54.0476248027
 20
48.1448227841
 30
0.0
 10
54.2774601564
 20
48.3830393889
 30
0.0
 10
54.559048298
 20
48.7442810425
 30
0.0
 10
54.7906315705
 20
49.1587298159
 30
0.0
 10
54.971688558
 20
49.61190023
 30
0.0
 10
55.1263560867
 20
50.1138949829
 30
0.0
 10
55.253497224
 20
50.7979671987
 30
0.0
 10
55.2842672431
 20
51.3633368776
 30
0.0
 10
55.2842672431
 20
51.6559060292
 30
0.0
  0
SPLINE
  5
332
100
AcDbEntity
  8
0
100
AcDbSpline
 62
7
  6
BYLAYER
 70
0
 71
3
 72
15
 73
11
 74
0
 42
0.0000001
 43
0.0000001
 44
0.0000000001
 40
0.0
 40
0.0
 40
0.0
 40
0.0
 40
0.1274309344
 40
0.2517377626
 40
0.3740158589
 40
0.4955635692
 40
0.6177095162
 40
0.7417308445
 40
0.8688131364
 40
1.0
 40
1.0
 40
1.0
 40
1.0
 10
46.2686182475
 20
62.8714262509
 30
0.0
 10
46.14270749
 20
62.860179026
 30
0.0
 10
45.8949385947
 20
62.8240820863
 30
0.0
 10
45.5359265445
 20
62.7269623458
 30
0.0
 10
45.197140626
 20
62.5879995464
 30
0.0
 10
44.8806993711
 20
62.4080296544
 30
0.0
 10
44.5884353614
 20
62.1881245201
 30
0.0
 10
44.3220581425
 20
61.9295919057
 30
0.0
 10
44.0830472683
 20
61.6340847849
 30
0.0
 10
43.9452361962
 20
61.4173873879
 30
0.0
 10
43.8811874541
 20
61.304101654
 30
0.0
  0
SPLINE
  5
333
100
AcDbEntity
  8
0
100
AcDbSpline
 62
7
  6
BYLAYER
 70
0
 71
3
 72
16
 73
12
 74
0
 42
0.0000001
 43
0.0000001
 44
0.0000000001
 40
0.0
 40
0.0
 40
0.0
 40
0.0
 40
0.1491232978
 40
0.2932350965
 40
0.4309609541
 40
0.5611954104
 40
0.6831905489
 40
0.7966605172
 40
0.8503030691
 40
0.9019889224
 40
1.0
 40
1.0
 40
1.0
 40
1.0
 10
52.2790509022
 20
59.4013798487
 30
0.0
 10
52.054990346
 20
59.6801134587
 30
0.0
 10
51.5928307656
 20
60.2113491869
 30
0.0
 10
50.85106759
 20
60.9328135798
 30
0.0
 10
50.0823868717
 20
61.5562196518
 30
0.0
 10
49.2995497762
 20
62.0710323207
 30
0.0
 10
48.5155108546
 20
62.4684997591
 30
0.0
 10
47.8594651436
 20
62.7004453408
 30
0.0
 10
47.3473923553
 20
62.8175054068
 30
0.0
 10
46.8644554231
 20
62.8872651153
 30
0.0
 10
46.5027343451
 20
62.8923410216
 30
0.0
 10
46.2686182475
 20
62.8714262509
 30
0.0
  0
SPLINE
  5
334
100
AcDbEntity
  8
0
100
AcDbSpline
 62
7
  6
BYLAYER
 70
0
 71
3
 72
15
 73
11
 74
0
 42
0.0000001
 43
0.0000001
 44
0.0000000001
 40
0.0
 40
0.0
 40
0.0
 40
0.0
 40
0.1467895654
 40
0.2867837411
 40
0.4198772181
 40
0.5463382122
 40
0.6666659825
 40
0.7816257178
 40
0.8922902582
 40
1.0
 40
1.0
 40
1.0
 40
1.0
 10
54.7928259841
 20
51.9396333536
 30
0.0
 10
54.7928259841
 20
51.7555305903
 30
0.0
 10
54.7793298092
 20
51.3956508884
 30
0.0
 10
54.7155070445
 20
50.8722645152
 30
0.0
 10
54.6088639761
 20
50.3818120746
 30
0.0
 10
54.4601255383
 20
49.9282032517
 30
0.0
 10
54.2703143842
 20
49.5149297634
 30
0.0
 10
54.040584788
 20
49.145353072
 30
0.0
 10
53.7726763383
 20
48.8226826327
 30
0.0
 10
53.5679202179
 20
48.6389584357
 30
0.0
 10
53.4607426201
 20
48.5567269906
 30
0.0
  0
SPLINE
  5
335
100
AcDbEntity
  8
0
100
AcDbSpline
 62
7
  6
BYLAYER
 70
0
 71
3
 72
11
 73
7
 74
0
 42
0.0000001
 43
0.0000001
 44
0.0000000001
 40
0.0
 40
0.0
 40
0.0
 40
0.0
 40
0.238982068
 40
0.4861215604
 40
0.7402439331
 40
1.0
 40
1.0
 40
1.0
 40
1.0
 10
55.2842672431
 20
51.6559060292
 30
0.0
 10
55.2842672431
 20
51.9652323053
 30
0.0
 10
55.3053874256
 20
52.5945841431
 30
0.0
 10
55.3940299343
 20
53.5490594441
 30
0.0
 10
55.5343398268
 20
54.5243821792
 30
0.0
 10
55.6560918081
 20
55.1784563813
 30
0.0
 10
55.7230305738
 20
55.5079405033
 30
0.0
  0
SPLINE
  5
336
100
AcDbEntity
  8
0
100
AcDbSpline
 62
7
  6
BYLAYER
 70
0
 71
3
 72
11
 73
7
 74
0
 42
0.0000001
 43
0.0000001
 44
0.0000000001
 40
0.0
 40
0.0
 40
0.0
 40
0.0
 40
0.2517021836
 40
0.5026363535
 40
0.7522743652
 40
1.0
 40
1.0
 40
1.0
 40
1.0
 10
55.5775687312
 20
56.1668150267
 30
0.0
 10
55.275058627
 20
56.410298906
 30
0.0
 10
54.6801628583
 20
56.90814723
 30
0.0
 10
53.8252704784
 20
57.6938427421
 30
0.0
 10
53.0191832168
 20
58.5211882805
 30
0.0
 10
52.5185046237
 20
59.1035009617
 30
0.0
 10
52.2790529671
 20
59.4013810409
 30
0.0
  0
SPLINE
  5
337
100
AcDbEntity
  8
0
100
AcDbSpline
 62
7
  6
BYLAYER
 70
0
 71
3
 72
11
 73
7
 74
0
 42
0.0000001
 43
0.0000001
 44
0.0000000001
 40
0.0
 40
0.0
 40
0.0
 40
0.0
 40
0.254381437
 40
0.5058288438
 40
0.7542965745
 40
1.0
 40
1.0
 40
1.0
 40
1.0
 10
52.2790529671
 20
59.4013810409
 30
0.0
 10
52.0419979225
 20
59.696278102
 30
0.0
 10
51.5896949551
 20
60.2983082459
 30
0.0
 10
50.9749458776
 20
61.2376699071
 30
0.0
 10
50.4238273965
 20
62.2007223144
 30
0.0
 10
50.0921681657
 20
62.8570248546
 30
0.0
 10
49.9345610578
 20
63.1867496637
 30
0.0
  0
SPLINE
  5
338
100
AcDbEntity
  8
0
100
AcDbSpline
 62
7
  6
BYLAYER
 70
0
 71
3
 72
11
 73
7
 74
0
 42
0.0000001
 43
0.0000001
 44
0.0000000001
 40
0.0
 40
0.0
 40
0.0
 40
0.0
 40
0.2717549019
 40
0.5308665852
 40
0.7744631129
 40
1.0
 40
1.0
 40
1.0
 40
1.0
 10
49.4064101717
 20
63.3658528791
 30
0.0
 10
49.1243357032
 20
63.308330431
 30
0.0
 10
48.5724054623
 20
63.2003101048
 30
0.0
 10
47.7640712904
 20
63.059568195
 30
0.0
 10
47.0006458227
 20
62.9477990613
 30
0.0
 10
46.5065921547
 20
62.8926856318
 30
0.0
 10
46.2686203033
 20
62.8714274423
 30
0.0
  0
SPLINE
  5
339
100
AcDbEntity
  8
0
100
AcDbSpline
 62
7
  6
BYLAYER
 70
0
 71
3
 72
11
 73
7
 74
0
 42
0.0000001
 43
0.0000001
 44
0.0000000001
 40
0.0
 40
0.0
 40
0.0
 40
0.0
 40
0.2890324015
 40
0.550502504
 40
0.7863777221
 40
1.0
 40
1.0
 40
1.0
 40
1.0
 10
46.2686203033
 20
62.8714274423
 30
0.0
 10
46.0513209864
 20
62.8520155734
 30
0.0
 10
45.6366157534
 20
62.8233615937
 30
0.0
 10
45.0428890612
 20
62.8118218359
 30
0.0
 10
44.5063106371
 20
62.831200565
 30
0.0
 10
44.1683172057
 20
62.8633630348
 30
0.0
 10
44.0083524901
 20
62.8836365673
 30
0.0
  0
SPLINE
  5
33A
100
AcDbEntity
  8
0
100
AcDbSpline
 62
7
  6
BYLAYER
 70
0
 71
3
 72
11
 73
7
 74
0
 42
0.0000001
 43
0.0000001
 44
0.0000000001
 40
0.0
 40
0.0
 40
0.0
 40
0.0
 40
0.2369340669
 40
0.4817765276
 40
0.7358490029
 40
1.0
 40
1.0
 40
1.0
 40
1.0
 10
55.7230305738
 20
48.3105087849
 30
0.0
 10
55.6544812636
 20
48.5687668311
 30
0.0
 10
55.5297939584
 20
49.0979602852
 30
0.0
 10
55.3902493198
 20
49.9165803024
 30
0.0
 10
55.3031715791
 20
50.7733674502
 30
0.0
 10
55.2842672431
 20
51.3580116052
 30
0.0
 10
55.2842672431
 20
51.6559060292
 30
0.0
  0
SPLINE
  5
33B
100
AcDbEntity
  8
0
100
AcDbSpline
 62
7
  6
BYLAYER
 70
0
 71
3
 72
11
 73
7
 74
0
 42
0.0000001
 43
0.0000001
 44
0.0000000001
 40
0.0
 40
0.0
 40
0.0
 40
0.0
 40
0.2599652468
 40
0.5142401001
 40
0.7613526697
 40
1.0
 40
1.0
 40
1.0
 40
1.0
 10
38.790689101
 20
59.7757086654
 30
0.0
 10
38.7183448098
 20
59.430319327
 30
0.0
 10
38.5864574793
 20
58.7446615501
 30
0.0
 10
38.4337436705
 20
57.722146507
 30
0.0
 10
38.3368631888
 20
56.7217797199
 30
0.0
 10
38.3136750551
 20
56.0622367374
 30
0.0
 10
38.3136750551
 20
55.7382897789
 30
0.0
  0
SPLINE
  5
33C
100
AcDbEntity
  8
0
100
AcDbSpline
 62
7
  6
BYLAYER
 70
0
 71
3
 72
11
 73
7
 74
0
 42
0.0000001
 43
0.0000001
 44
0.0000000001
 40
0.0
 40
0.0
 40
0.0
 40
0.0
 40
0.2121825532
 40
0.4472994642
 40
0.709137791
 40
1.0
 40
1.0
 40
1.0
 40
1.0
 10
44.9848341981
 20
44.5461230412
 30
0.0
 10
45.1494401555
 20
44.52342399
 30
0.0
 10
45.498084359
 20
44.4868865417
 30
0.0
 10
46.0532415843
 20
44.463198757
 30
0.0
 10
46.6704316932
 20
44.4730308825
 30
0.0
 10
47.1024505669
 20
44.5025034213
 30
0.0
 10
47.3293261246
 20
44.5227707501
 30
0.0
  0
SPLINE
  5
33D
100
AcDbEntity
  8
0
100
AcDbSpline
 62
7
  6
BYLAYER
 70
0
 71
3
 72
11
 73
7
 74
0
 42
0.0000001
 43
0.0000001
 44
0.0000000001
 40
0.0
 40
0.0
 40
0.0
 40
0.0
 40
0.2717549027
 40
0.5308665851
 40
0.7744631113
 40
1.0
 40
1.0
 40
1.0
 40
1.0
 10
40.3024109774
 20
60.744023009
 30
0.0
 10
40.5844854448
 20
60.8015454569
 30
0.0
 10
41.1364156815
 20
60.9095657841
 30
0.0
 10
41.9447498465
 20
61.0503076914
 30
0.0
 10
42.7081753088
 20
61.1620768197
 30
0.0
 10
43.2022289732
 20
61.2171902526
 30
0.0
 10
43.4402008247
 20
61.2384484425
 30
0.0
  0
SPLINE
  5
33E
100
AcDbEntity
  8
0
100
AcDbSpline
 62
7
  6
BYLAYER
 70
0
 71
3
 72
11
 73
7
 74
0
 42
0.0000001
 43
0.0000001
 44
0.0000000001
 40
0.0
 40
0.0
 40
0.0
 40
0.0
 40
0.289032404
 40
0.5505025041
 40
0.7863777207
 40
1.0
 40
1.0
 40
1.0
 40
1.0
 10
43.4402008247
 20
61.2384484425
 30
0.0
 10
43.6575001448
 20
61.2578603119
 30
0.0
 10
44.0722053804
 20
61.286514296
 30
0.0
 10
44.6659320758
 20
61.2980540494
 30
0.0
 10
45.2025105013
 20
61.2786753166
 30
0.0
 10
45.5405039351
 20
61.24651285
 30
0.0
 10
45.7004686529
 20
61.2262393173
 30
0.0
  0
SPLINE
  5
33F
100
AcDbEntity
  8
0
100
AcDbSpline
 62
7
  6
BYLAYER
 70
0
 71
3
 72
11
 73
7
 74
0
 42
0.0000001
 43
0.0000001
 44
0.0000000001
 40
0.0
 40
0.0
 40
0.0
 40
0.0
 40
0.2517021837
 40
0.5026363534
 40
0.752274365
 40
1.0
 40
1.0
 40
1.0
 40
1.0
 10
46.1521177432
 20
61.0029680333
 30
0.0
 10
46.4546278456
 20
60.7594841555
 30
0.0
 10
47.0495236163
 20
60.2616358415
 30
0.0
 10
47.9044159877
 20
59.4759403306
 30
0.0
 10
48.7105032351
 20
58.6485947891
 30
0.0
 10
49.2111818326
 20
58.0662821183
 30
0.0
 10
49.4506334884
 20
57.7684020411
 30
0.0
  0
SPLINE
  5
340
100
AcDbEntity
  8
0
100
AcDbSpline
 62
7
  6
BYLAYER
 70
0
 71
3
 72
11
 73
7
 74
0
 42
0.0000001
 43
0.0000001
 44
0.0000000001
 40
0.0
 40
0.0
 40
0.0
 40
0.0
 40
0.2543814372
 40
0.5058288436
 40
0.7542965742
 40
1.0
 40
1.0
 40
1.0
 40
1.0
 10
49.4506334884
 20
57.7684020411
 30
0.0
 10
49.6876885352
 20
57.4735049783
 30
0.0
 10
50.1399915136
 20
56.8714748367
 30
0.0
 10
50.7547405847
 20
55.9321131627
 30
0.0
 10
51.3058590642
 20
54.9690607472
 30
0.0
 10
51.6375183059
 20
54.3127582069
 30
0.0
 10
51.795125415
 20
53.9830333953
 30
0.0
  0
SPLINE
  5
341
100
AcDbEntity
  8
0
100
AcDbSpline
 62
7
  6
BYLAYER
 70
0
 71
3
 72
11
 73
7
 74
0
 42
0.0000001
 43
0.0000001
 44
0.0000000001
 40
0.0
 40
0.0
 40
0.0
 40
0.0
 40
0.239494155
 40
0.485622226
 40
0.7390194504
 40
1.0
 40
1.0
 40
1.0
 40
1.0
 10
52.1955211234
 20
52.6109161468
 30
0.0
 10
52.2373354064
 20
52.4071782617
 30
0.0
 10
52.3122818993
 20
51.9919628497
 30
0.0
 10
52.3944453636
 20
51.3551792474
 30
0.0
 10
52.4448760944
 20
50.6963684989
 30
0.0
 10
52.4558518942
 20
50.2495734169
 30
0.0
 10
52.4558518942
 20
50.0229294137
 30
0.0
  0
SPLINE
  5
342
100
AcDbEntity
  8
0
100
AcDbSpline
 62
7
  6
BYLAYER
 70
0
 71
3
 72
11
 73
7
 74
0
 42
0.0000001
 43
0.0000001
 44
0.0000000001
 40
0.0
 40
0.0
 40
0.0
 40
0.0
 40
0.2248493973
 40
0.4683883805
 40
0.7278160122
 40
1.0
 40
1.0
 40
1.0
 40
1.0
 10
47.3293261246
 20
44.5227707501
 30
0.0
 10
47.5788209404
 20
44.5450582565
 30
0.0
 10
48.097507865
 20
44.6034739615
 30
0.0
 10
48.8996150301
 20
44.7227371168
 30
0.0
 10
49.7500161067
 20
44.8732818024
 30
0.0
 10
50.3309158112
 20
44.9887598461
 30
0.0
 10
50.6278418698
 20
45.0502210885
 30
0.0
  0
SPLINE
  5
343
100
AcDbEntity
  8
0
100
AcDbSpline
 62
7
  6
BYLAYER
 70
0
 71
3
 72
11
 73
7
 74
0
 42
0.0000001
 43
0.0000001
 44
0.0000000001
 40
0.0
 40
0.0
 40
0.0
 40
0.0
 40
0.238982068
 40
0.4861215604
 40
0.7402439331
 40
1.0
 40
1.0
 40
1.0
 40
1.0
 10
52.4558518942
 20
50.0229294137
 30
0.0
 10
52.4558518942
 20
49.7136031375
 30
0.0
 10
52.4347317117
 20
49.0842512998
 30
0.0
 10
52.346089203
 20
48.1297759987
 30
0.0
 10
52.2057793105
 20
47.1544532637
 30
0.0
 10
52.0840273293
 20
46.5003790615
 30
0.0
 10
52.0170885636
 20
46.1708949395
 30
0.0
  0
SPLINE
  5
344
100
AcDbEntity
  8
0
100
AcDbSpline
 62
7
  6
BYLAYER
 70
0
 71
3
 72
11
 73
7
 74
0
 42
0.0000001
 43
0.0000001
 44
0.0000000001
 40
0.0
 40
0.0
 40
0.0
 40
0.0
 40
0.2517023472
 40
0.502636411
 40
0.7522739523
 40
1.0
 40
1.0
 40
1.0
 40
1.0
 10
50.6278419454
 20
53.3091059928
 30
0.0
 10
50.3253316343
 20
53.5525900456
 30
0.0
 10
49.7304270214
 20
54.0504275587
 30
0.0
 10
48.8755316884
 20
54.8361207252
 30
0.0
 10
48.0694771623
 20
55.6634967269
 30
0.0
 10
47.5687770329
 20
56.2457903563
 30
0.0
 10
47.3293261547
 20
56.5436719007
 30
0.0
  0
SPLINE
  5
345
100
AcDbEntity
  8
0
100
AcDbSpline
 62
7
  6
BYLAYER
 70
0
 71
3
 72
11
 73
7
 74
0
 42
0.0000001
 43
0.0000001
 44
0.0000000001
 40
0.0
 40
0.0
 40
0.0
 40
0.0
 40
0.2389827885
 40
0.4861216545
 40
0.7402452202
 40
1.0
 40
1.0
 40
1.0
 40
1.0
 10
50.3345403826
 20
48.7981969521
 30
0.0
 10
50.3345403826
 20
49.1075241064
 30
0.0
 10
50.3556698986
 20
49.7368754462
 30
0.0
 10
50.4442984649
 20
50.6913536761
 30
0.0
 10
50.5846309025
 20
51.6666720435
 30
0.0
 10
50.7063653535
 20
52.3207490283
 30
0.0
 10
50.7733037724
 20
52.6502314604
 30
0.0
  0
SPLINE
  5
346
100
AcDbEntity
  8
0
100
AcDbSpline
 62
7
  6
BYLAYER
 70
0
 71
3
 72
11
 73
7
 74
0
 42
0.0000001
 43
0.0000001
 44
0.0000000001
 40
0.0
 40
0.0
 40
0.0
 40
0.0
 40
0.2717549018
 40
0.5308665853
 40
0.7744631129
 40
1.0
 40
1.0
 40
1.0
 40
1.0
 10
44.4566833112
 20
60.508143802
 30
0.0
 10
44.1746088415
 20
60.450621361
 30
0.0
 10
43.6226786025
 20
60.342601025
 30
0.0
 10
42.8143444299
 20
60.2018591185
 30
0.0
 10
42.0509189622
 20
60.0900899841
 30
0.0
 10
41.5568652942
 20
60.0349765547
 30
0.0
 10
41.3188934428
 20
60.0137183652
 30
0.0
  0
SPLINE
  5
347
100
AcDbEntity
  8
0
100
AcDbSpline
 62
7
  6
BYLAYER
 70
0
 71
3
 72
16
 73
12
 74
0
 42
0.0000001
 43
0.0000001
 44
0.0000000001
 40
0.0
 40
0.0
 40
0.0
 40
0.0
 40
0.1491232978
 40
0.2932350965
 40
0.4309609541
 40
0.5611954104
 40
0.6831905489
 40
0.7966605172
 40
0.8503030691
 40
0.9019889224
 40
1.0
 40
1.0
 40
1.0
 40
1.0
 10
47.3293240417
 20
56.5436707717
 30
0.0
 10
47.1052648978
 20
56.8224055169
 30
0.0
 10
46.6431032713
 20
57.3536396003
 30
0.0
 10
45.901340889
 20
58.0751046309
 30
0.0
 10
45.1326599717
 20
58.698510543
 30
0.0
 10
44.3498229253
 20
59.2133232513
 30
0.0
 10
43.5657839917
 20
59.6107906802
 30
0.0
 10
42.9097382833
 20
59.8427362636
 30
0.0
 10
42.3976654949
 20
59.9597963301
 30
0.0
 10
41.9147285626
 20
60.0295560379
 30
0.0
 10
41.5530074846
 20
60.0346319445
 30
0.0
 10
41.318891387
 20
60.0137171738
 30
0.0
  0
SPLINE
  5
348
100
AcDbEntity
  8
0
100
AcDbSpline
 62
7
  6
BYLAYER
 70
0
 71
3
 72
20
 73
16
 74
0
 42
0.0000001
 43
0.0000001
 44
0.0000000001
 40
0.0
 40
0.0
 40
0.0
 40
0.0
 40
0.058320062
 40
0.1153282938
 40
0.1714029086
 40
0.2269993604
 40
0.2825983528
 40
0.3386705248
 40
0.3956661592
 40
0.4539997061
 40
0.5759539232
 40
0.640263842
 40
0.7070129733
 40
0.8482026042
 40
1.0
 40
1.0
 40
1.0
 40
1.0
 10
41.318891387
 20
60.0137171738
 30
0.0
 10
41.2069330648
 20
60.0037162775
 30
0.0
 10
40.9863274416
 20
59.9729601348
 30
0.0
 10
40.6651522139
 20
59.8930347868
 30
0.0
 10
40.3595611654
 20
59.7801070972
 30
0.0
 10
40.0710319089
 20
59.6347369704
 30
0.0
 10
39.8008878866
 20
59.4575287035
 30
0.0
 10
39.5503174998
 20
59.2493730275
 30
0.0
 10
39.3204821453
 20
59.0111564226
 30
0.0
 10
39.0388940022
 20
58.6499147694
 30
0.0
 10
38.8073107293
 20
58.2354659955
 30
0.0
 10
38.6262537412
 20
57.782295581
 30
0.0
 10
38.4715862119
 20
57.2803008275
 30
0.0
 10
38.3444450742
 20
56.5962286107
 30
0.0
 10
38.3136750551
 20
56.030858931
 30
0.0
 10
38.3136750551
 20
55.7382897789
 30
0.0
  0
SPLINE
  5
349
100
AcDbEntity
  8
0
100
AcDbSpline
 62
7
  6
BYLAYER
 70
0
 71
3
 72
11
 73
7
 74
0
 42
0.0000001
 43
0.0000001
 44
0.0000000001
 40
0.0
 40
0.0
 40
0.0
 40
0.0
 40
0.2543809815
 40
0.5058294033
 40
0.7542971272
 40
1.0
 40
1.0
 40
1.0
 40
1.0
 10
47.3293261547
 20
56.5436719007
 30
0.0
 10
47.0922703325
 20
56.838567516
 30
0.0
 10
46.6399904445
 20
57.4406156274
 30
0.0
 10
46.0252032828
 20
58.3799524588
 30
0.0
 10
45.4740862787
 20
59.343008098
 30
0.0
 10
45.1424410467
 20
59.9993165321
 30
0.0
 10
44.9848342722
 20
60.3290406299
 30
0.0
  0
SPLINE
  5
34A
100
AcDbEntity
  8
0
100
AcDbSpline
 62
7
  6
BYLAYER
 70
0
 71
3
 72
12
 73
8
 74
0
 42
0.0000001
 43
0.0000001
 44
0.0000000001
 40
0.0
 40
0.0
 40
0.0
 40
0.0
 40
0.2780924409
 40
0.5367090816
 40
0.6589498146
 40
0.7767175934
 40
1.0
 40
1.0
 40
1.0
 40
1.0
 10
44.3148648185
 20
45.3333196491
 30
0.0
 10
44.5689648576
 20
45.1861664357
 30
0.0
 10
45.0754562811
 20
44.9285797684
 30
0.0
 10
45.7335134076
 20
44.6951601523
 30
0.0
 10
46.2472307839
 20
44.5772810216
 30
0.0
 10
46.7316452249
 20
44.5069967487
 30
0.0
 10
47.0944984575
 20
44.5017912345
 30
0.0
 10
47.3293240598
 20
44.522769558
 30
0.0
  0
SPLINE
  5
34B
100
AcDbEntity
  8
0
100
AcDbSpline
 62
7
  6
BYLAYER
 70
0
 71
3
 72
20
 73
16
 74
0
 42
0.0000001
 43
0.0000001
 44
0.0000000001
 40
0.0
 40
0.0
 40
0.0
 40
0.0
 40
0.0583200612
 40
0.1153282934
 40
0.1714029082
 40
0.2269993601
 40
0.2825983525
 40
0.3386705245
 40
0.3956661589
 40
0.4539997058
 40
0.575953923
 40
0.6402638418
 40
0.7070129732
 40
0.8482026042
 40
1.0
 40
1.0
 40
1.0
 40
1.0
 10
47.3293240598
 20
44.522769558
 30
0.0
 10
47.4412823783
 20
44.5327704749
 30
0.0
 10
47.661887997
 20
44.5635266245
 30
0.0
 10
47.9830632312
 20
44.6434519414
 30
0.0
 10
48.2886542818
 20
44.7563796298
 30
0.0
 10
48.5771835337
 20
44.901749765
 30
0.0
 10
48.8473275547
 20
45.0789580326
 30
0.0
 10
49.0978979422
 20
45.287113707
 30
0.0
 10
49.3277332959
 20
45.5253303118
 30
0.0
 10
49.6093214375
 20
45.8865719654
 30
0.0
 10
49.84090471
 20
46.3010207388
 30
0.0
 10
50.0219616975
 20
46.7541911529
 30
0.0
 10
50.1766292262
 20
47.2561859058
 30
0.0
 10
50.3037703635
 20
47.9402581216
 30
0.0
 10
50.3345403826
 20
48.5056278005
 30
0.0
 10
50.3345403826
 20
48.7981969521
 30
0.0
  0
SPLINE
  5
34C
100
AcDbEntity
  8
0
100
AcDbSpline
 62
7
  6
BYLAYER
 70
0
 71
3
 72
15
 73
11
 74
0
 42
0.0000001
 43
0.0000001
 44
0.0000000001
 40
0.0
 40
0.0
 40
0.0
 40
0.0
 40
0.1108410465
 40
0.2280578197
 40
0.3507094003
 40
0.4776259691
 40
0.60747378
 40
0.7388131747
 40
0.8701524766
 40
1.0
 40
1.0
 40
1.0
 40
1.0
 10
50.3345403826
 20
48.7981969521
 30
0.0
 10
50.3345403826
 20
49.1105255568
 30
0.0
 10
50.2971301456
 20
49.7535131156
 30
0.0
 10
50.1415829839
 20
50.7308044756
 30
0.0
 10
49.8876290539
 20
51.7340048678
 30
0.0
 10
49.5395755349
 20
52.7461055441
 30
0.0
 10
49.1033061556
 20
53.7501006179
 30
0.0
 10
48.5861795916
 20
54.7290358869
 30
0.0
 10
47.9969972958
 20
55.6662851361
 30
0.0
 10
47.5585622749
 20
56.2585010074
 30
0.0
 10
47.3293240417
 20
56.5436707717
 30
0.0
  0
SPLINE
  5
34D
100
AcDbEntity
  8
0
100
AcDbSpline
 62
7
  6
BYLAYER
 70
0
 71
3
 72
11
 73
7
 74
0
 42
0.0000001
 43
0.0000001
 44
0.0000000001
 40
0.0
 40
0.0
 40
0.0
 40
0.0
 40
0.2369362209
 40
0.4817765332
 40
0.7358502298
 40
1.0
 40
1.0
 40
1.0
 40
1.0
 10
50.773303771
 20
45.4527997412
 30
0.0
 10
50.7047538706
 20
45.7110600284
 30
0.0
 10
50.5800930761
 20
46.2402590095
 30
0.0
 10
50.4405114082
 20
47.0588736011
 30
0.0
 10
50.3534606189
 20
47.9156612094
 30
0.0
 10
50.3345403826
 20
48.5003040362
 30
0.0
 10
50.3345403826
 20
48.7981969521
 30
0.0
  0
SPLINE
  5
34E
100
AcDbEntity
  8
0
100
AcDbSpline
 62
7
  6
BYLAYER
 70
0
 71
3
 72
11
 73
7
 74
0
 42
0.0000001
 43
0.0000001
 44
0.0000000001
 40
0.0
 40
0.0
 40
0.0
 40
0.0
 40
0.2890324016
 40
0.5505025037
 40
0.786377723
 40
1.0
 40
1.0
 40
1.0
 40
1.0
 10
41.3188934428
 20
60.0137183652
 30
0.0
 10
41.1015941259
 20
59.9943064963
 30
0.0
 10
40.686888893
 20
59.9656525154
 30
0.0
 10
40.0931622005
 20
59.9541127622
 30
0.0
 10
39.5565837751
 20
59.9734914786
 30
0.0
 10
39.2185903464
 20
60.0056539718
 30
0.0
 10
39.0586256297
 20
60.0259274902
 30
0.0
  0
SPLINE
  5
34F
100
AcDbEntity
  8
0
100
AcDbSpline
 62
7
  6
BYLAYER
 70
0
 71
3
 72
11
 73
7
 74
0
 42
0.0000001
 43
0.0000001
 44
0.0000000001
 40
0.0
 40
0.0
 40
0.0
 40
0.0
 40
0.224337825
 40
0.4643547528
 40
0.7225623719
 40
1.0
 40
1.0
 40
1.0
 40
1.0
 10
9.8109022442
 20
36.9988573564
 30
0.0
 10
9.920466031
 20
37.0126813531
 30
0.0
 10
10.1505981526
 20
37.0179984193
 30
0.0
 10
10.503591706
 20
36.9635290331
 30
0.0
 10
10.8689988956
 20
36.848527715
 30
0.0
 10
11.1087061321
 20
36.7368832617
 30
0.0
 10
11.2291468857
 20
36.6724957186
 30
0.0
  0
SPLINE
  5
350
100
AcDbEntity
  8
0
100
AcDbSpline
 62
7
  6
BYLAYER
 70
0
 71
3
 72
17
 73
13
 74
0
 42
0.0000001
 43
0.0000001
 44
0.0000000001
 40
0.0
 40
0.0
 40
0.0
 40
0.0
 40
0.1533971819
 40
0.3005733463
 40
0.4398681328
 40
0.5700796496
 40
0.6905675362
 40
0.801447982
 40
0.8536379753
 40
0.903912677
 40
0.9525774597
 40
1.0
 40
1.0
 40
1.0
 40
1.0
 10
9.4787220301
 20
30.4693365345
 30
0.0
 10
9.6313297907
 20
30.2849627254
 30
0.0
 10
9.9462226027
 20
29.9364149712
 30
0.0
 10
10.4528897091
 20
29.4719093263
 30
0.0
 10
10.9759871086
 20
29.0836646521
 30
0.0
 10
11.50498899
 20
28.7797099859
 30
0.0
 10
12.0293443798
 20
28.5664547485
 30
0.0
 10
12.4629177066
 20
28.4664845651
 30
0.0
 10
12.7951623907
 20
28.4391646989
 30
0.0
 10
13.0313717914
 20
28.4440427365
 30
0.0
 10
13.2582476149
 20
28.4738378476
 30
0.0
 10
13.4040050702
 20
28.5107016333
 30
0.0
 10
13.4744846467
 20
28.5332253265
 30
0.0
  0
SPLINE
  5
351
100
AcDbEntity
  8
0
100
AcDbSpline
 62
7
  6
BYLAYER
 70
0
 71
3
 72
15
 73
11
 74
0
 42
0.0000001
 43
0.0000001
 44
0.0000000001
 40
0.0
 40
0.0
 40
0.0
 40
0.0
 40
0.1293641776
 40
0.2605083571
 40
0.3918433631
 40
0.5218308571
 40
0.6489499397
 40
0.7718017985
 40
0.8891493744
 40
1.0
 40
1.0
 40
1.0
 40
1.0
 10
12.6893759188
 20
35.4019740937
 30
0.0
 10
12.8096754716
 20
35.2566336031
 30
0.0
 10
13.0399874482
 20
34.9538652763
 30
0.0
 10
13.3497530149
 20
34.4729855218
 30
0.0
 10
13.6220858597
 20
33.9688843076
 30
0.0
 10
13.8521692035
 20
33.4505584781
 30
0.0
 10
14.0359298931
 20
32.9271141826
 30
0.0
 10
14.1701335011
 20
32.4077587445
 30
0.0
 10
14.252397397
 20
31.9016872229
 30
0.0
 10
14.2722104201
 20
31.5686811455
 30
0.0
 10
14.2722159399
 20
31.4070132654
 30
0.0
  0
SPLINE
  5
352
100
AcDbEntity
  8
0
100
AcDbSpline
 62
7
  6
BYLAYER
 70
0
 71
3
 72
23
 73
19
 74
0
 42
0.0000001
 43
0.0000001
 44
0.0000000001
 40
0.0
 40
0.0
 40
0.0
 40
0.0
 40
0.0723112982
 40
0.1455753429
 40
0.2191842378
 40
0.2925827733
 40
0.3651915761
 40
0.4364568842
 40
0.5058595398
 40
0.5729261046
 40
0.6372494899
 40
0.6985070023
 40
0.756480285
 40
0.8110799015
 40
0.8623743297
 40
0.9106167807
 40
0.9562674226
 40
1.0
 40
1.0
 40
1.0
 40
1.0
 10
14.1229387815
 20
36.5872502879
 30
0.0
 10
14.2453667683
 20
36.4393383194
 30
0.0
 10
14.4819620022
 20
36.1332538035
 30
0.0
 10
14.8080272968
 20
35.6507332084
 30
0.0
 10
15.104658453
 20
35.1462031704
 30
0.0
 10
15.3683753606
 20
34.6256693598
 30
0.0
 10
15.5960956508
 20
34.0951610917
 30
0.0
 10
15.7851602933
 20
33.5608986797
 30
0.0
 10
15.9333667082
 20
33.0291173537
 30
0.0
 10
16.0389634624
 20
32.5060052878
 30
0.0
 10
16.1007118667
 20
31.9976393834
 30
0.0
 10
16.1178699449
 20
31.5098945521
 30
0.0
 10
16.0901674859
 20
31.0483795099
 30
0.0
 10
16.0177777751
 20
30.6183823177
 30
0.0
 10
15.9013403308
 20
30.2248494417
 30
0.0
 10
15.7418337612
 20
29.8723542132
 30
0.0
 10
15.5408103634
 20
29.5653410852
 30
0.0
 10
15.3776985284
 20
29.3908806275
 30
0.0
 10
15.2908397038
 20
29.3138098239
 30
0.0
  0
SPLINE
  5
353
100
AcDbEntity
  8
0
100
AcDbSpline
 62
7
  6
BYLAYER
 70
0
 71
3
 72
13
 73
9
 74
0
 42
0.0000001
 43
0.0000001
 44
0.0000000001
 40
0.0
 40
0.0
 40
0.0
 40
0.0
 40
0.1181428928
 40
0.2370014017
 40
0.3572689461
 40
0.4795977713
 40
0.7325427082
 40
1.0
 40
1.0
 40
1.0
 40
1.0
 10
10.0701352177
 20
39.4200055791
 30
0.0
 10
10.0148849153
 20
39.3881085888
 30
0.0
 10
9.9070435561
 20
39.3187664135
 30
0.0
 10
9.7552409858
 20
39.1992648381
 30
0.0
 10
9.6136090031
 20
39.0645454797
 30
0.0
 10
9.4370295651
 20
38.8630631714
 30
0.0
 10
9.2438631587
 20
38.5726261927
 30
0.0
 10
9.1266009965
 20
38.3159683785
 30
0.0
 10
9.0755924605
 20
38.180850128
 30
0.0
  0
SPLINE
  5
354
100
AcDbEntity
  8
0
100
AcDbSpline
 62
7
  6
BYLAYER
 70
0
 71
3
 72
15
 73
11
 74
0
 42
0.0000001
 43
0.0000001
 44
0.0000000001
 40
0.0
 40
0.0
 40
0.0
 40
0.0
 40
0.1080124997
 40
0.2180618382
 40
0.3319996243
 40
0.4513571054
 40
0.5772778255
 40
0.7105008922
 40
0.8513943405
 40
1.0
 40
1.0
 40
1.0
 40
1.0
 10
13.9592063224
 20
41.6653484254
 30
0.0
 10
14.0575821469
 20
41.7221425529
 30
0.0
 10
14.2664433363
 20
41.8199646941
 30
0.0
 10
14.6044067574
 20
41.9134039299
 30
0.0
 10
14.9646766732
 20
41.953581117
 30
0.0
 10
15.3434271474
 20
41.940413767
 30
0.0
 10
15.73700506
 20
41.874370185
 30
0.0
 10
16.1417249499
 20
41.7563704935
 30
0.0
 10
16.5538168245
 20
41.5877311894
 30
0.0
 10
16.823952105
 20
41.446283424
 30
0.0
 10
16.9592978621
 20
41.368142241
 30
0.0
  0
SPLINE
  5
355
100
AcDbEntity
  8
0
100
AcDbSpline
 62
7
  6
BYLAYER
 70
0
 71
3
 72
17
 73
13
 74
0
 42
0.0000001
 43
0.0000001
 44
0.0000000001
 40
0.0
 40
0.0
 40
0.0
 40
0.0
 40
0.1374571249
 40
0.2766597336
 40
0.4146492856
 40
0.5485261742
 40
0.6756816312
 40
0.7360868726
 40
0.7940768443
 40
0.8495088772
 40
0.9023107697
 40
1.0
 40
1.0
 40
1.0
 40
1.0
 10
26.508892299
 20
43.4781588506
 30
0.0
 10
26.6818918653
 20
43.2691485822
 30
0.0
 10
27.0071243578
 20
42.8289620425
 30
0.0
 10
27.4235680056
 20
42.1228035758
 30
0.0
 10
27.7623153144
 20
41.3838360764
 30
0.0
 10
28.0125873801
 20
40.6354313822
 30
0.0
 10
28.1431777297
 20
40.0126943456
 30
0.0
 10
28.1945878664
 20
39.530398798
 30
0.0
 10
28.206499376
 20
39.1871926673
 30
0.0
 10
28.1922760759
 20
38.8589645429
 30
0.0
 10
28.1400719008
 20
38.4556606977
 30
0.0
 10
28.0610280173
 20
38.1663506241
 30
0.0
 10
27.9880448537
 20
37.9878726791
 30
0.0
  0
SPLINE
  5
356
100
AcDbEntity
  8
0
100
AcDbSpline
 62
7
  6
BYLAYER
 70
0
 71
3
 72
14
 73
10
 74
0
 42
0.0000001
 43
0.0000001
 44
0.0000000001
 40
0.0
 40
0.0
 40
0.0
 40
0.0
 40
0.2120166724
 40
0.3283583058
 40
0.451412869
 40
0.580791857
 40
0.715884908
 40
0.8559630869
 40
1.0
 40
1.0
 40
1.0
 40
1.0
 10
23.7888777187
 20
45.2610842293
 30
0.0
 10
24.021378841
 20
45.2293977756
 30
0.0
 10
24.3750690914
 20
45.1267238767
 30
0.0
 10
24.827173741
 20
44.9134857562
 30
0.0
 10
25.1783507882
 20
44.7041159013
 30
0.0
 10
25.5265428399
 20
44.4529098785
 30
0.0
 10
25.8680434713
 20
44.1626527792
 30
0.0
 10
26.1987897535
 20
43.8367537451
 30
0.0
 10
26.4072464966
 20
43.6009627219
 30
0.0
 10
26.508892299
 20
43.4781588506
 30
0.0
  0
SPLINE
  5
357
100
AcDbEntity
  8
0
100
AcDbSpline
 62
7
  6
BYLAYER
 70
0
 71
3
 72
11
 73
7
 74
0
 42
0.0000001
 43
0.0000001
 44
0.0000000001
 40
0.0
 40
0.0
 40
0.0
 40
0.0
 40
0.2535201432
 40
0.503756268
 40
0.7522480838
 40
1.0
 40
1.0
 40
1.0
 40
1.0
 10
27.640500432
 20
37.1378690302
 30
0.0
 10
27.5838711095
 20
36.9993702699
 30
0.0
 10
27.4519683354
 20
36.731511727
 30
0.0
 10
27.1955394167
 20
36.3667481301
 30
0.0
 10
26.88405479
 20
36.0521855286
 30
0.0
 10
26.6430621012
 20
35.8825091912
 30
0.0
 10
26.5164278722
 20
35.8093973214
 30
0.0
  0
SPLINE
  5
358
100
AcDbEntity
  8
0
100
AcDbSpline
 62
7
  6
BYLAYER
 70
0
 71
3
 72
11
 73
7
 74
0
 42
0.0000001
 43
0.0000001
 44
0.0000000001
 40
0.0
 40
0.0
 40
0.0
 40
0.0
 40
0.2325810675
 40
0.4780121557
 40
0.7345771936
 40
1.0
 40
1.0
 40
1.0
 40
1.0
 10
11.2317260033
 20
36.6733280541
 30
0.0
 10
11.3622165506
 20
36.5979896097
 30
0.0
 10
11.6219412916
 20
36.4281621667
 30
0.0
 10
11.9940182421
 20
36.1304732768
 30
0.0
 10
12.3542364063
 20
35.7869844318
 30
0.0
 10
12.5797340977
 20
35.5344383938
 30
0.0
 10
12.6893759188
 20
35.4019740937
 30
0.0
  0
SPLINE
  5
359
100
AcDbEntity
  8
0
100
AcDbSpline
 62
7
  6
BYLAYER
 70
0
 71
3
 72
11
 73
7
 74
0
 42
0.0000001
 43
0.0000001
 44
0.0000000001
 40
0.0
 40
0.0
 40
0.0
 40
0.0
 40
0.2535201432
 40
0.503756268
 40
0.7522480838
 40
1.0
 40
1.0
 40
1.0
 40
1.0
 10
22.87897995
 20
45.3851136554
 30
0.0
 10
22.7307219484
 20
45.4053213701
 30
0.0
 10
22.4327983604
 20
45.4250210284
 30
0.0
 10
21.9886891546
 20
45.3853311649
 30
0.0
 10
21.5605270558
 20
45.2728610793
 30
0.0
 10
21.2930860525
 20
45.1489948399
 30
0.0
 10
21.1664518235
 20
45.0758829701
 30
0.0
  0
SPLINE
  5
35A
100
AcDbEntity
  8
0
100
AcDbSpline
 62
7
  6
BYLAYER
 70
0
 71
3
 72
15
 73
11
 74
0
 42
0.0000001
 43
0.0000001
 44
0.0000000001
 40
0.0
 40
0.0
 40
0.0
 40
0.0
 40
0.1474074949
 40
0.2873708918
 40
0.420010845
 40
0.5457546079
 40
0.6653532325
 40
0.7799196023
 40
0.8908956905
 40
1.0
 40
1.0
 40
1.0
 40
1.0
 10
14.2702152978
 20
31.4055393261
 30
0.0
 10
14.2669237974
 20
31.3044509032
 30
0.0
 10
14.2524257286
 20
31.1075093526
 30
0.0
 10
14.2046887094
 20
30.8228570028
 30
0.0
 10
14.1318114448
 20
30.5588679894
 30
0.0
 10
14.0343534868
 20
30.3178415594
 30
0.0
 10
13.9129524653
 20
30.1019474098
 30
0.0
 10
13.7685615545
 20
29.9131567386
 30
0.0
 10
13.6023597849
 20
29.7534339885
 30
0.0
 10
13.4775361504
 20
29.6670723434
 30
0.0
 10
13.4127024353
 20
29.6296462419
 30
0.0
  0
SPLINE
  5
35B
100
AcDbEntity
  8
0
100
AcDbSpline
 62
7
  6
BYLAYER
 70
0
 71
3
 72
15
 73
11
 74
0
 42
0.0000001
 43
0.0000001
 44
0.0000000001
 40
0.0
 40
0.0
 40
0.0
 40
0.0
 40
0.1486055792
 40
0.2894991288
 40
0.4227228625
 40
0.548642728
 40
0.6680003308
 40
0.7819386355
 40
0.8919875705
 40
1.0
 40
1.0
 40
1.0
 40
1.0
 10
21.201846006
 20
34.0197917804
 30
0.0
 10
21.2018436868
 20
33.8635084828
 30
0.0
 10
21.1892671831
 20
33.5588409076
 30
0.0
 10
21.1292658001
 20
33.1176394725
 30
0.0
 10
21.0291036246
 20
32.7081399678
 30
0.0
 10
20.8894957707
 20
32.3342749867
 30
0.0
 10
20.7115261459
 20
31.9996844795
 30
0.0
 10
20.4966033475
 20
31.7077632179
 30
0.0
 10
20.2466857929
 20
31.4618149125
 30
0.0
 10
20.0575478294
 20
31.3298348599
 30
0.0
 10
19.9591721149
 20
31.2730407959
 30
0.0
  0
SPLINE
  5
35C
100
AcDbEntity
  8
0
100
AcDbSpline
 62
7
  6
BYLAYER
 70
0
 71
3
 72
18
 73
14
 74
0
 42
0.0000001
 43
0.0000001
 44
0.0000000001
 40
0.0
 40
0.0
 40
0.0
 40
0.0
 40
0.0473980647
 40
0.09601114
 40
0.1981977305
 40
0.2524624125
 40
0.3090457516
 40
0.3680544484
 40
0.4295297055
 40
0.5597286692
 40
0.6990936517
 40
0.8464045174
 40
1.0
 40
1.0
 40
1.0
 40
1.0
 10
9.9302146679
 20
38.6027389941
 30
0.0
 10
10.0038328872
 20
38.6271628062
 30
0.0
 10
10.1561948722
 20
38.6673914499
 30
0.0
 10
10.4779305676
 20
38.7127860608
 30
0.0
 10
10.8162627614
 20
38.7027109456
 30
0.0
 10
11.1600687025
 20
38.6433572522
 30
0.0
 10
11.4291331662
 20
38.5721220365
 30
0.0
 10
11.7025774162
 20
38.4754074363
 30
0.0
 10
12.0783764493
 20
38.3101051417
 30
0.0
 10
12.5501594035
 20
38.0405294773
 30
0.0
 10
13.0996311209
 20
37.6339938068
 30
0.0
 10
13.6319504753
 20
37.1467762446
 30
0.0
 10
13.9626725289
 20
36.7808767415
 30
0.0
 10
14.1229387815
 20
36.5872502879
 30
0.0
  0
SPLINE
  5
35D
100
AcDbEntity
  8
0
100
AcDbSpline
 62
7
  6
BYLAYER
 70
0
 71
3
 72
23
 73
19
 74
0
 42
0.0000001
 43
0.0000001
 44
0.0000000001
 40
0.0
 40
0.0
 40
0.0
 40
0.0
 40
0.0437756402
 40
0.0895060787
 40
0.1378464783
 40
0.1892419339
 40
0.2439318906
 40
0.3019754987
 40
0.3632796667
 40
0.4276229531
 40
0.4946819687
 40
0.5640517485
 40
0.6352608174
 40
0.7077952144
 40
0.7811049383
 40
0.8546176114
 40
0.9277870731
 40
1.0
 40
1.0
 40
1.0
 40
1.0
 10
8.3440882017
 20
37.4193850067
 30
0.0
 10
8.2619728756
 20
37.3447232072
 30
0.0
 10
8.1079824817
 20
37.176135722
 30
0.0
 10
7.9186380427
 20
36.8806882277
 30
0.0
 10
7.7687942259
 20
36.5422781069
 30
0.0
 10
7.659929715
 20
36.165112012
 30
0.0
 10
7.5929265631
 20
35.7535427029
 30
0.0
 10
7.5683543772
 20
35.3122628338
 30
0.0
 10
7.5863975451
 20
34.846284237
 30
0.0
 10
7.6467752585
 20
34.3609250502
 30
0.0
 10
7.7487498374
 20
33.8617476515
 30
0.0
 10
7.8911447721
 20
33.3545071253
 30
0.0
 10
8.0723035802
 20
32.8450609363
 30
0.0
 10
8.2901216319
 20
32.339305865
 30
0.0
 10
8.5420656902
 20
31.8431122944
 30
0.0
 10
8.8252440696
 20
31.3621824526
 30
0.0
 10
9.1363474859
 20
30.9022051948
 30
0.0
 10
9.3619860369
 20
30.6103716932
 30
0.0
 10
9.4787220301
 20
30.4693365345
 30
0.0
  0
SPLINE
  5
35E
100
AcDbEntity
  8
0
100
AcDbSpline
 62
7
  6
BYLAYER
 70
0
 71
3
 72
12
 73
8
 74
0
 42
0.0000001
 43
0.0000001
 44
0.0000000001
 40
0.0
 40
0.0
 40
0.0
 40
0.0
 40
0.2676335448
 40
0.5206648913
 40
0.7630255595
 40
0.8818728697
 40
1.0
 40
1.0
 40
1.0
 40
1.0
 10
14.4929075167
 20
28.787103807
 30
0.0
 10
14.6360379279
 20
28.7632980207
 30
0.0
 10
14.9182165548
 20
28.7358630825
 30
0.0
 10
15.3329106804
 20
28.7613688606
 30
0.0
 10
15.6585664506
 20
28.8402641608
 30
0.0
 10
15.9002004162
 20
28.9367546373
 30
0.0
 10
16.0146380398
 20
28.9956781823
 30
0.0
 10
16.0701010102
 20
29.0276979496
 30
0.0
  0
SPLINE
  5
35F
100
AcDbEntity
  8
0
100
AcDbSpline
 62
7
  6
BYLAYER
 70
0
 71
3
 72
11
 73
7
 74
0
 42
0.0000001
 43
0.0000001
 44
0.0000000001
 40
0.0
 40
0.0
 40
0.0
 40
0.0
 40
0.2654226625
 40
0.5219876773
 40
0.7674185833
 40
1.0
 40
1.0
 40
1.0
 40
1.0
 10
19.2324912783
 20
39.5209790415
 30
0.0
 10
19.0960764588
 20
39.68578927
 30
0.0
 10
18.8155155968
 20
40.0000038308
 30
0.0
 10
18.3673373948
 20
40.4273680909
 30
0.0
 10
17.9044051103
 20
40.7977499684
 30
0.0
 10
17.5812586425
 20
41.0090467504
 30
0.0
 10
17.4189035866
 20
41.1027816144
 30
0.0
  0
SPLINE
  5
360
100
AcDbEntity
  8
0
100
AcDbSpline
 62
7
  6
BYLAYER
 70
0
 71
3
 72
21
 73
17
 74
0
 42
0.0000001
 43
0.0000001
 44
0.0000000001
 40
0.0
 40
0.0
 40
0.0
 40
0.0
 40
0.0474936088
 40
0.0955913316
 40
0.1448591979
 40
0.1957971425
 40
0.2488147634
 40
0.3042283928
 40
0.3622545152
 40
0.4230217675
 40
0.4865734046
 40
0.5528826424
 40
0.6218590608
 40
0.6933534025
 40
0.8430272683
 40
1.0
 40
1.0
 40
1.0
 40
1.0
 10
9.9355158706
 20
38.5917302158
 30
0.0
 10
10.00724742
 20
38.6331421255
 30
0.0
 10
10.1576566607
 20
38.7064996294
 30
0.0
 10
10.3985220727
 20
38.785109633
 30
0.0
 10
10.653568427
 20
38.8322532436
 30
0.0
 10
10.9209906679
 20
38.8476208154
 30
0.0
 10
11.1990213531
 20
38.8313185122
 30
0.0
 10
11.4858595884
 20
38.783498746
 30
0.0
 10
11.7796993451
 20
38.7046081332
 30
0.0
 10
12.0786832945
 20
38.5951743692
 30
0.0
 10
12.3809446357
 20
38.4559612419
 30
0.0
 10
12.6845756826
 20
38.2878673646
 30
0.0
 10
12.9876621492
 20
38.0919748042
 30
0.0
 10
13.3946543829
 20
37.7908351022
 30
0.0
 10
13.8886618396
 20
37.3517567006
 30
0.0
 10
14.2496323408
 20
36.9558056641
 30
0.0
 10
14.4241851852
 20
36.7449187951
 30
0.0
  0
SPLINE
  5
361
100
AcDbEntity
  8
0
100
AcDbSpline
 62
7
  6
BYLAYER
 70
0
 71
3
 72
21
 73
17
 74
0
 42
0.0000001
 43
0.0000001
 44
0.0000000001
 40
0.0
 40
0.0
 40
0.0
 40
0.0
 40
0.1569727317
 40
0.3066465975
 40
0.3781409392
 40
0.4471173576
 40
0.5134265954
 40
0.5769782325
 40
0.6377454848
 40
0.6957716072
 40
0.7511852366
 40
0.8042028575
 40
0.8551408021
 40
0.9044086684
 40
0.9525063912
 40
1.0
 40
1.0
 40
1.0
 40
1.0
 10
15.104156879
 20
37.3488152008
 30
0.0
 10
14.9083966796
 20
37.5853238389
 30
0.0
 10
14.5035699493
 20
38.029381076
 30
0.0
 10
13.949542895
 20
38.5218054517
 30
0.0
 10
13.4931030068
 20
38.8595322203
 30
0.0
 10
13.1531929508
 20
39.0792248114
 30
0.0
 10
12.8126721505
 20
39.2677413093
 30
0.0
 10
12.4736874688
 20
39.423868181
 30
0.0
 10
12.1383783667
 20
39.546597636
 30
0.0
 10
11.8088384526
 20
39.6350730896
 30
0.0
 10
11.4871507121
 20
39.6887027339
 30
0.0
 10
11.1753405978
 20
39.7069856908
 30
0.0
 10
10.8754278043
 20
39.6897510308
 30
0.0
 10
10.5893945098
 20
39.6368796918
 30
0.0
 10
10.3192650758
 20
39.5487189401
 30
0.0
 10
10.1505818152
 20
39.4664488423
 30
0.0
 10
10.0701352177
 20
39.4200055791
 30
0.0
  0
SPLINE
  5
362
100
AcDbEntity
  8
0
100
AcDbSpline
 62
7
  6
BYLAYER
 70
0
 71
3
 72
21
 73
17
 74
0
 42
0.0000001
 43
0.0000001
 44
0.0000000001
 40
0.0
 40
0.0
 40
0.0
 40
0.0
 40
0.1555179595
 40
0.3041914629
 40
0.3753980563
 40
0.4442487737
 40
0.5105947221
 40
0.574341003
 40
0.635443018
 40
0.6939186489
 40
0.7498525515
 40
0.803408193
 40
0.8548303126
 40
0.9044496907
 40
0.9526786525
 40
1.0
 40
1.0
 40
1.0
 40
1.0
 10
13.9815180141
 20
36.5056014571
 30
0.0
 10
13.8123344717
 20
36.7100013777
 30
0.0
 10
13.462795601
 20
37.0948587166
 30
0.0
 10
12.9858739316
 20
37.5242982664
 30
0.0
 10
12.5929132585
 20
37.8217795256
 30
0.0
 10
12.2997573744
 20
38.0173104201
 30
0.0
 10
12.0056552247
 20
38.1872567752
 30
0.0
 10
11.7123434068
 20
38.3306500525
 30
0.0
 10
11.4215060314
 20
38.4465946192
 30
0.0
 10
11.1348441549
 20
38.5344196442
 30
0.0
 10
10.8540054727
 20
38.5935270984
 30
0.0
 10
10.5806303287
 20
38.6235404089
 30
0.0
 10
10.3163258693
 20
38.6241689292
 30
0.0
 10
10.0626672766
 20
38.595328908
 30
0.0
 10
9.8212836876
 20
38.5370944347
 30
0.0
 10
9.6685651182
 20
38.4784806948
 30
0.0
 10
9.5952961972
 20
38.4445681818
 30
0.0
  0
SPLINE
  5
363
100
AcDbEntity
  8
0
100
AcDbSpline
 62
7
  6
BYLAYER
 70
0
 71
3
 72
18
 73
14
 74
0
 42
0.0000001
 43
0.0000001
 44
0.0000000001
 40
0.0
 40
0.0
 40
0.0
 40
0.0
 40
0.0976835262
 40
0.1504813195
 40
0.2059102424
 40
0.2638961641
 40
0.3242970004
 40
0.3869154118
 40
0.4515044237
 40
0.5853736932
 40
0.7233557206
 40
0.8625499799
 40
1.0
 40
1.0
 40
1.0
 40
1.0
 10
27.6404962452
 20
37.137873294
 30
0.0
 10
27.723243077
 20
37.3402576488
 30
0.0
 10
27.8128767026
 20
37.668306818
 30
0.0
 10
27.8720883079
 20
38.1256181085
 30
0.0
 10
27.888207546
 20
38.4978025284
 30
0.0
 10
27.8746974381
 20
38.8869595908
 30
0.0
 10
27.8317456062
 20
39.29014856
 30
0.0
 10
27.7596644592
 20
39.7041403168
 30
0.0
 10
27.6239218238
 20
40.2728461248
 30
0.0
 10
27.3845153791
 20
40.9886681266
 30
0.0
 10
27.0004399635
 20
41.8265193827
 30
0.0
 10
26.5282139063
 20
42.6272733948
 30
0.0
 10
26.1594274413
 20
43.126407363
 30
0.0
 10
25.9632580782
 20
43.3634103344
 30
0.0
  0
SPLINE
  5
364
100
AcDbEntity
  8
0
100
AcDbSpline
 62
7
  6
BYLAYER
 70
0
 71
3
 72
23
 73
19
 74
0
 42
0.0000001
 43
0.0000001
 44
0.0000000001
 40
0.0
 40
0.0
 40
0.0
 40
0.0
 40
0.0808866728
 40
0.1600673419
 40
0.2371138188
 40
0.3117278051
 40
0.3836517053
 40
0.4526645776
 40
0.5186220751
 40
0.5814605758
 40
0.6412117859
 40
0.69801015
 40
0.7521172185
 40
0.803921681
 40
0.8539427405
 40
0.9028141801
 40
0.9512506431
 40
1.0
 40
1.0
 40
1.0
 40
1.0
 10
12.9845742443
 20
35.8554973941
 30
0.0
 10
12.8911951652
 20
35.9683137832
 30
0.0
 10
12.7004137454
 20
36.1866931664
 30
0.0
 10
12.4002887628
 20
36.4939681665
 30
0.0
 10
12.0910607303
 20
36.775520034
 30
0.0
 10
11.7751992544
 20
37.0291441024
 30
0.0
 10
11.4550952862
 20
37.2529317994
 30
0.0
 10
11.1331691349
 20
37.4451396258
 30
0.0
 10
10.8118865736
 20
37.6042952768
 30
0.0
 10
10.4936507987
 20
37.7291074818
 30
0.0
 10
10.180879675
 20
37.8186305669
 30
0.0
 10
9.8759037498
 20
37.872014624
 30
0.0
 10
9.581053666
 20
37.888781622
 30
0.0
 10
9.2986106472
 20
37.8685771112
 30
0.0
 10
9.0308696052
 20
37.8113986207
 30
0.0
 10
8.7800906183
 20
37.7175351424
 30
0.0
 10
8.5485632461
 20
37.5877178425
 30
0.0
 10
8.4093927435
 20
37.4787619201
 30
0.0
 10
8.3440882017
 20
37.4193850067
 30
0.0
  0
SPLINE
  5
365
100
AcDbEntity
  8
0
100
AcDbSpline
 62
7
  6
BYLAYER
 70
0
 71
3
 72
21
 73
17
 74
0
 42
0.0000001
 43
0.0000001
 44
0.0000000001
 40
0.0
 40
0.0
 40
0.0
 40
0.0
 40
0.0474936088
 40
0.0955913316
 40
0.1448591979
 40
0.1957971425
 40
0.2488147634
 40
0.3042283928
 40
0.3622545152
 40
0.4230217675
 40
0.4865734046
 40
0.5528826424
 40
0.6218590608
 40
0.6933534025
 40
0.8430272683
 40
1.0
 40
1.0
 40
1.0
 40
1.0
 10
21.1664550987
 20
45.0758772972
 30
0.0
 10
21.2381866481
 20
45.117289207
 30
0.0
 10
21.3885958888
 20
45.1906467108
 30
0.0
 10
21.6294613008
 20
45.2692567144
 30
0.0
 10
21.884507655
 20
45.316400325
 30
0.0
 10
22.1519298959
 20
45.3317678968
 30
0.0
 10
22.4299605811
 20
45.3154655936
 30
0.0
 10
22.7167988164
 20
45.2676458274
 30
0.0
 10
23.0106385731
 20
45.1887552146
 30
0.0
 10
23.3096225226
 20
45.0793214506
 30
0.0
 10
23.6118838637
 20
44.9401083233
 30
0.0
 10
23.9155149107
 20
44.772014446
 30
0.0
 10
24.2186013772
 20
44.5761218856
 30
0.0
 10
24.6255936109
 20
44.2749821836
 30
0.0
 10
25.1196010677
 20
43.835903782
 30
0.0
 10
25.4805715689
 20
43.4399527456
 30
0.0
 10
25.6551244133
 20
43.2290658765
 30
0.0
  0
SPLINE
  5
366
100
AcDbEntity
  8
0
100
AcDbSpline
 62
7
  6
BYLAYER
 70
0
 71
3
 72
25
 73
21
 74
0
 42
0.0000001
 43
0.0000001
 44
0.0000000001
 40
0.0
 40
0.0
 40
0.0
 40
0.0
 40
0.0738329985
 40
0.1486561008
 40
0.2237741785
 40
0.2985350056
 40
0.3722689335
 40
0.4443426094
 40
0.5141697824
 40
0.5812322132
 40
0.6451032142
 40
0.7054736344
 40
0.7621835835
 40
0.8152567539
 40
0.8649374603
 40
0.9117232373
 40
0.9342834602
 40
0.9564274162
 40
0.9782862422
 40
1.0
 40
1.0
 40
1.0
 40
1.0
 10
14.4241851852
 20
36.7449187951
 30
0.0
 10
14.5537643828
 20
36.5883670565
 30
0.0
 10
14.8035049631
 20
36.2637639342
 30
0.0
 10
15.1453101635
 20
35.7508515507
 30
0.0
 10
15.4533453492
 20
35.213997713
 30
0.0
 10
15.7235064934
 20
34.6604585798
 30
0.0
 10
15.9521856512
 20
34.0975437577
 30
0.0
 10
16.1363405743
 20
33.5327642869
 30
0.0
 10
16.2735270108
 20
32.9736148104
 30
0.0
 10
16.361911845
 20
32.4274926379
 30
0.0
 10
16.4002922777
 20
31.901592012
 30
0.0
 10
16.3880806163
 20
31.402798677
 30
0.0
 10
16.3253100214
 20
30.9376150464
 30
0.0
 10
16.212519868
 20
30.5120726601
 30
0.0
 10
16.0508486887
 20
30.1318767174
 30
0.0
 10
15.8743353054
 20
29.8537201756
 30
0.0
 10
15.7111726018
 20
29.6614843798
 30
0.0
 10
15.5796988957
 20
29.5334617388
 30
0.0
 10
15.4381651453
 20
29.420377477
 30
0.0
 10
15.3372451101
 20
29.3551377395
 30
0.0
 10
15.285485369
 20
29.3252559129
 30
0.0
  0
SPLINE
  5
367
100
AcDbEntity
  8
0
100
AcDbSpline
 62
7
  6
BYLAYER
 70
0
 71
3
 72
21
 73
17
 74
0
 42
0.0000001
 43
0.0000001
 44
0.0000000001
 40
0.0
 40
0.0
 40
0.0
 40
0.0
 40
0.0474937594
 40
0.0955911404
 40
0.1448595599
 40
0.1957967317
 40
0.2488152288
 40
0.3042279469
 40
0.3622551225
 40
0.4230210505
 40
0.4865734884
 40
0.5528829295
 40
0.6218605143
 40
0.6933512284
 40
0.8430310187
 40
1.0
 40
1.0
 40
1.0
 40
1.0
 10
13.4127024353
 20
29.6296462419
 30
0.0
 10
13.3570587279
 20
29.5975251914
 30
0.0
 10
13.2403832781
 20
29.5406304965
 30
0.0
 10
13.0535489085
 20
29.4796335779
 30
0.0
 10
12.8557060447
 20
29.4430865993
 30
0.0
 10
12.6482671349
 20
29.4311422846
 30
0.0
 10
12.432600629
 20
29.4438109153
 30
0.0
 10
12.2100955063
 20
29.4808834236
 30
0.0
 10
11.9821703334
 20
29.5420985285
 30
0.0
 10
11.7502413335
 20
29.6269681594
 30
0.0
 10
11.5157835072
 20
29.7349698865
 30
0.0
 10
11.2802488534
 20
29.8653517386
 30
0.0
 10
11.0451537431
 20
30.017314657
 30
0.0
 10
10.7294357096
 20
30.2508974997
 30
0.0
 10
10.3462450749
 20
30.5915021075
 30
0.0
 10
10.0662344124
 20
30.8986393804
 30
0.0
 10
9.9308369004
 20
31.0622205439
 30
0.0
  0
SPLINE
  5
368
100
AcDbEntity
  8
0
100
AcDbSpline
 62
7
  6
BYLAYER
 70
0
 71
3
 72
15
 73
11
 74
0
 42
0.0000001
 43
0.0000001
 44
0.0000000001
 40
0.0
 40
0.0
 40
0.0
 40
0.0
 40
0.1293672771
 40
0.2605099173
 40
0.3918460899
 40
0.52183356
 40
0.6489544628
 40
0.7718007184
 40
0.8891544134
 40
1.0
 40
1.0
 40
1.0
 40
1.0
 10
9.7739203557
 20
30.9228598349
 30
0.0
 10
9.6536170565
 20
31.0682048517
 30
0.0
 10
9.4233014768
 20
31.3709768152
 30
0.0
 10
9.1135345138
 20
31.8518653089
 30
0.0
 10
8.8412001938
 20
32.3559696247
 30
0.0
 10
8.6111148801
 20
32.8743040845
 30
0.0
 10
8.4273628847
 20
33.3977493644
 30
0.0
 10
8.2931498162
 20
33.9171102913
 30
0.0
 10
8.2109027756
 20
34.4231810838
 30
0.0
 10
8.1910763191
 20
34.7561905167
 30
0.0
 10
8.1910763191
 20
34.9178522087
 30
0.0
  0
SPLINE
  5
369
100
AcDbEntity
  8
0
100
AcDbSpline
 62
7
  6
BYLAYER
 70
0
 71
3
 72
15
 73
11
 74
0
 42
0.0000001
 43
0.0000001
 44
0.0000000001
 40
0.0
 40
0.0
 40
0.0
 40
0.0
 40
0.1508617861
 40
0.2925483158
 40
0.4252230941
 40
0.5496037671
 40
0.6670385823
 40
0.7795156031
 40
0.8895618502
 40
1.0
 40
1.0
 40
1.0
 40
1.0
 10
14.2722159399
 20
31.4070132654
 30
0.0
 10
14.2722203779
 20
31.2770291577
 30
0.0
 10
14.260131213
 20
31.0247190622
 30
0.0
 10
14.2019696636
 20
30.6621516973
 30
0.0
 10
14.104841033
 20
30.3315079626
 30
0.0
 10
13.9696294209
 20
30.0371291862
 30
0.0
 10
13.7976690735
 20
29.7830545939
 30
0.0
 10
13.5908231396
 20
29.5731358742
 30
0.0
 10
13.3519728563
 20
29.4109469472
 30
0.0
 10
13.1753648356
 20
29.3371123039
 30
0.0
 10
13.0844809562
 20
29.3089248452
 30
0.0
  0
SPLINE
  5
36A
100
AcDbEntity
  8
0
100
AcDbSpline
 62
7
  6
BYLAYER
 70
0
 71
3
 72
17
 73
13
 74
0
 42
0.0000001
 43
0.0000001
 44
0.0000000001
 40
0.0
 40
0.0
 40
0.0
 40
0.0
 40
0.0474415646
 40
0.0961445848
 40
0.146469206
 40
0.1987137181
 40
0.3096948892
 40
0.4302428863
 40
0.560457628
 40
0.6996935998
 40
0.8467574373
 40
1.0
 40
1.0
 40
1.0
 40
1.0
 10
13.0844809562
 20
29.3089248452
 30
0.0
 10
13.0258824492
 20
29.290750632
 30
0.0
 10
12.9047586257
 20
29.2611681145
 30
0.0
 10
12.7164075512
 20
29.2378161113
 30
0.0
 10
12.520425438
 20
29.2350037698
 30
0.0
 10
12.2449132531
 20
29.2591561188
 30
0.0
 10
11.8856528424
 20
29.3435551691
 30
0.0
 10
11.4513689964
 20
29.5216160125
 30
0.0
 10
11.0133917866
 20
29.7743694832
 30
0.0
 10
10.5803837774
 20
30.0965363829
 30
0.0
 10
10.1609921479
 20
30.4815146841
 30
0.0
 10
9.9002818107
 20
30.7701956276
 30
0.0
 10
9.7739203557
 20
30.9228598349
 30
0.0
  0
SPLINE
  5
36B
100
AcDbEntity
  8
0
100
AcDbSpline
 62
7
  6
BYLAYER
 70
0
 71
3
 72
23
 73
19
 74
0
 42
0.0000001
 43
0.0000001
 44
0.0000000001
 40
0.0
 40
0.0
 40
0.0
 40
0.0
 40
0.0457630154
 40
0.0913681574
 40
0.137879805
 40
0.1862615489
 40
0.237289772
 40
0.2915121003
 40
0.3492471845
 40
0.4106088844
 40
0.47553448
 40
0.5438135887
 40
0.6151189795
 40
0.6890284037
 40
0.7650413739
 40
0.8426069467
 40
0.9211343394
 40
1.0
 40
1.0
 40
1.0
 40
1.0
 10
13.4744846467
 20
28.5332253265
 30
0.0
 10
13.5783032401
 20
28.5664034225
 30
0.0
 10
13.7800934648
 20
28.6517959592
 30
0.0
 10
14.0543125767
 20
28.835882575
 30
0.0
 10
14.2939001553
 20
29.0721570103
 30
0.0
 10
14.4957990258
 20
29.3570241367
 30
0.0
 10
14.6579306543
 20
29.6865773032
 30
0.0
 10
14.7787955705
 20
30.0566522489
 30
0.0
 10
14.8573593661
 20
30.4628474954
 30
0.0
 10
14.8929314629
 20
30.9004610382
 30
0.0
 10
14.8852272484
 20
31.3644439115
 30
0.0
 10
14.8344372358
 20
31.8494282385
 30
0.0
 10
14.741187922
 20
32.3497778191
 30
0.0
 10
14.6065700814
 20
32.8596397373
 30
0.0
 10
14.4321979499
 20
33.3730415318
 30
0.0
 10
14.2201126435
 20
33.8839576645
 30
0.0
 10
13.9728198185
 20
34.3863349722
 30
0.0
 10
13.7863190162
 20
34.7118380106
 30
0.0
 10
13.6878569349
 20
34.8717920887
 30
0.0
  0
SPLINE
  5
36C
100
AcDbEntity
  8
0
100
AcDbSpline
 62
7
  6
BYLAYER
 70
0
 71
3
 72
15
 73
11
 74
0
 42
0.0000001
 43
0.0000001
 44
0.0000000001
 40
0.0
 40
0.0
 40
0.0
 40
0.0
 40
0.1293679291
 40
0.260508229
 40
0.3918455681
 40
0.5218335887
 40
0.6489536195
 40
0.7718037832
 40
0.8891499055
 40
1.0
 40
1.0
 40
1.0
 40
1.0
 10
18.9932279836
 20
39.594158047
 30
0.0
 10
19.1610927733
 20
39.391351384
 30
0.0
 10
19.482461255
 20
38.9688859898
 30
0.0
 10
19.9146890606
 20
38.2978832509
 30
0.0
 10
20.2946937327
 20
37.5944910332
 30
0.0
 10
20.6157373531
 20
36.871235248
 30
0.0
 10
20.8721463501
 20
36.1408478094
 30
0.0
 10
21.0594038038
 20
35.4161685211
 30
0.0
 10
21.1741809223
 20
34.7100294335
 30
0.0
 10
21.2018493534
 20
34.2453738963
 30
0.0
 10
21.201846006
 20
34.0197917804
 30
0.0
  0
SPLINE
  5
36D
100
AcDbEntity
  8
0
100
AcDbSpline
 62
7
  6
BYLAYER
 70
0
 71
3
 72
23
 73
19
 74
0
 42
0.0000001
 43
0.0000001
 44
0.0000000001
 40
0.0
 40
0.0
 40
0.0
 40
0.0
 40
0.0434970686
 40
0.0885076217
 40
0.1358862268
 40
0.1862577065
 40
0.2400049998
 40
0.2972875066
 40
0.3580737951
 40
0.4221746145
 40
0.4892722425
 40
0.5589464549
 40
0.6306978496
 40
0.7039690266
 40
0.7781612705
 40
0.8526444904
 40
0.9268095687
 40
1.0
 40
1.0
 40
1.0
 40
1.0
 10
14.9847753686
 20
29.1019791437
 30
0.0
 10
15.0818225431
 20
29.1700383489
 30
0.0
 10
15.2660160084
 20
29.3284589453
 30
0.0
 10
15.4981047958
 20
29.6194119143
 30
0.0
 10
15.6864074677
 20
29.9617929247
 30
0.0
 10
15.828895287
 20
30.3507382755
 30
0.0
 10
15.9242909185
 20
30.7812665023
 30
0.0
 10
15.971736056
 20
31.2480100405
 30
0.0
 10
15.9708412087
 20
31.7452201871
 30
0.0
 10
15.9217163006
 20
32.2667550641
 30
0.0
 10
15.8250209642
 20
32.8061351935
 30
0.0
 10
15.6820001129
 20
33.3566252941
 30
0.0
 10
15.4944632276
 20
33.9113265279
 30
0.0
 10
15.2647658928
 20
34.4632683151
 30
0.0
 10
14.9957966057
 20
35.005476435
 30
0.0
 10
14.6909547126
 20
35.5311800584
 30
0.0
 10
14.3540856653
 20
36.03364597
 30
0.0
 10
14.1086925328
 20
36.351954943
 30
0.0
 10
13.9815180141
 20
36.5056014571
 30
0.0
  0
SPLINE
  5
36E
100
AcDbEntity
  8
0
100
AcDbSpline
 62
7
  6
BYLAYER
 70
0
 71
3
 72
14
 73
10
 74
0
 42
0.0000001
 43
0.0000001
 44
0.0000000001
 40
0.0
 40
0.0
 40
0.0
 40
0.0
 40
0.1440436499
 40
0.2841122197
 40
0.4192056572
 40
0.5485876543
 40
0.6716411137
 40
0.7879822935
 40
1.0
 40
1.0
 40
1.0
 40
1.0
 10
25.9632580782
 20
43.3634103344
 30
0.0
 10
25.8479944704
 20
43.5026666234
 30
0.0
 10
25.6116276171
 20
43.7700357673
 30
0.0
 10
25.2365847439
 20
44.1395721078
 30
0.0
 10
24.8493545741
 20
44.4686926034
 30
0.0
 10
24.4545381496
 20
44.7535530945
 30
0.0
 10
24.0563260716
 20
44.9909567755
 30
0.0
 10
23.5436736715
 20
45.2327472194
 30
0.0
 10
23.1426179196
 20
45.3491675012
 30
0.0
 10
22.8789807429
 20
45.3851108003
 30
0.0
  0
SPLINE
  5
36F
100
AcDbEntity
  8
0
100
AcDbSpline
 62
7
  6
BYLAYER
 70
0
 71
3
 72
24
 73
20
 74
0
 42
0.0000001
 43
0.0000001
 44
0.0000000001
 40
0.0
 40
0.0
 40
0.0
 40
0.0
 40
0.0738332233
 40
0.1486655354
 40
0.2237864171
 40
0.2985508114
 40
0.3722890972
 40
0.4443664231
 40
0.5141977312
 40
0.5812634946
 40
0.6451373255
 40
0.7055112391
 40
0.7622245534
 40
0.815300072
 40
0.8649828906
 40
0.9117714915
 40
0.9564283643
 40
0.9782868583
 40
1.0
 40
1.0
 40
1.0
 40
1.0
 10
9.9308369004
 20
31.0622205439
 30
0.0
 10
9.8303269483
 20
31.1836521319
 30
0.0
 10
9.6366042924
 20
31.4354532636
 30
0.0
 10
9.3714588939
 20
31.8333177238
 30
0.0
 10
9.1325108557
 20
32.2497637006
 30
0.0
 10
8.9229503489
 20
32.6791451229
 30
0.0
 10
8.7455661437
 20
33.1158007177
 30
0.0
 10
8.602714919
 20
33.5539026889
 30
0.0
 10
8.4962930432
 20
33.9876354192
 30
0.0
 10
8.4277396438
 20
34.4112646875
 30
0.0
 10
8.3979762558
 20
34.8192069347
 30
0.0
 10
8.4074413552
 20
35.2061213509
 30
0.0
 10
8.4561326031
 20
35.5669708588
 30
0.0
 10
8.543619895
 20
35.8970493563
 30
0.0
 10
8.6690860567
 20
36.1920050776
 30
0.0
 10
8.8312366453
 20
36.447687279
 30
0.0
 10
8.9969233999
 20
36.6261530668
 30
0.0
 10
9.1442979371
 20
36.743873225
 30
0.0
 10
9.2225768237
 20
36.7944855559
 30
0.0
 10
9.2627229608
 20
36.8176644483
 30
0.0
  0
SPLINE
  5
370
100
AcDbEntity
  8
0
100
AcDbSpline
 62
7
  6
BYLAYER
 70
0
 71
3
 72
11
 73
7
 74
0
 42
0.0000001
 43
0.0000001
 44
0.0000000001
 40
0.0
 40
0.0
 40
0.0
 40
0.0
 40
0.2325814167
 40
0.4780123227
 40
0.7345773375
 40
1.0
 40
1.0
 40
1.0
 40
1.0
 10
16.9592978621
 20
41.368142241
 30
0.0
 10
17.1413782986
 20
41.2630190291
 30
0.0
 10
17.5037855523
 20
41.0260506754
 30
0.0
 10
18.022961946
 20
40.6106691305
 30
0.0
 10
18.5255917054
 20
40.1313821099
 30
0.0
 10
18.840239401
 20
39.7789919482
 30
0.0
 10
18.9932279836
 20
39.594158047
 30
0.0
  0
SPLINE
  5
371
100
AcDbEntity
  8
0
100
AcDbSpline
 62
7
  6
BYLAYER
 70
0
 71
3
 72
15
 73
11
 74
0
 42
0.0000001
 43
0.0000001
 44
0.0000000001
 40
0.0
 40
0.0
 40
0.0
 40
0.0
 40
0.1108500945
 40
0.2281962168
 40
0.3510463805
 40
0.4781664113
 40
0.6081544319
 40
0.739491771
 40
0.8706320709
 40
1.0
 40
1.0
 40
1.0
 40
1.0
 10
21.2018423482
 20
34.5505024537
 30
0.0
 10
21.201845333
 20
34.751646507
 30
0.0
 10
21.1771743153
 20
35.1659643611
 30
0.0
 10
21.0748313846
 20
35.7956050475
 30
0.0
 10
20.907860155
 20
36.4417774129
 30
0.0
 10
20.6792287994
 20
37.0930395457
 30
0.0
 10
20.3929649045
 20
37.7379426208
 30
0.0
 10
20.0541274052
 20
38.3651340149
 30
0.0
 10
19.6687242786
 20
38.9634447904
 30
0.0
 10
19.3821707157
 20
39.3401431002
 30
0.0
 10
19.2324912783
 20
39.5209790415
 30
0.0
  0
SPLINE
  5
372
100
AcDbEntity
  8
0
100
AcDbSpline
 62
7
  6
BYLAYER
 70
0
 71
3
 72
25
 73
21
 74
0
 42
0.0000001
 43
0.0000001
 44
0.0000000001
 40
0.0
 40
0.0
 40
0.0
 40
0.0
 40
0.0738329985
 40
0.1486561008
 40
0.2237741785
 40
0.2985350056
 40
0.3722689335
 40
0.4443426094
 40
0.5141697824
 40
0.5812322132
 40
0.6451032142
 40
0.7054736344
 40
0.7621835835
 40
0.8152567539
 40
0.8649374603
 40
0.9117232373
 40
0.9342834602
 40
0.9564274162
 40
0.9782862422
 40
1.0
 40
1.0
 40
1.0
 40
1.0
 10
25.6551244133
 20
43.2290658765
 30
0.0
 10
25.7847036109
 20
43.0725141379
 30
0.0
 10
26.0344441912
 20
42.7479110157
 30
0.0
 10
26.3762493916
 20
42.2349986321
 30
0.0
 10
26.6842845772
 20
41.6981447944
 30
0.0
 10
26.9544457214
 20
41.1446056612
 30
0.0
 10
27.1831248792
 20
40.5816908391
 30
0.0
 10
27.3672798023
 20
40.0169113683
 30
0.0
 10
27.5044662389
 20
39.4577618918
 30
0.0
 10
27.592851073
 20
38.9116397193
 30
0.0
 10
27.6312315057
 20
38.3857390934
 30
0.0
 10
27.6190198443
 20
37.8869457584
 30
0.0
 10
27.5562492494
 20
37.4217621278
 30
0.0
 10
27.4434590961
 20
36.9962197416
 30
0.0
 10
27.2817879167
 20
36.6160237988
 30
0.0
 10
27.1052745334
 20
36.337867257
 30
0.0
 10
26.9421118299
 20
36.1456314612
 30
0.0
 10
26.8106381237
 20
36.0176088202
 30
0.0
 10
26.6691043734
 20
35.9045245585
 30
0.0
 10
26.5681843381
 20
35.839284821
 30
0.0
 10
26.516424597
 20
35.8094029943
 30
0.0
  0
SPLINE
  5
373
100
AcDbEntity
  8
0
100
AcDbSpline
 62
7
  6
BYLAYER
 70
0
 71
3
 72
25
 73
21
 74
0
 42
0.0000001
 43
0.0000001
 44
0.0000000001
 40
0.0
 40
0.0
 40
0.0
 40
0.0
 40
0.0217137578
 40
0.0435725838
 40
0.0657165398
 40
0.0882767627
 40
0.1350625397
 40
0.1847432461
 40
0.2378164165
 40
0.2945263656
 40
0.3548967858
 40
0.4187677868
 40
0.4858302176
 40
0.5556573906
 40
0.6277310665
 40
0.7014649944
 40
0.7762258215
 40
0.8513438992
 40
0.9261670015
 40
1.0
 40
1.0
 40
1.0
 40
1.0
 10
16.0701010102
 20
29.0276979496
 30
0.0
 10
16.128149318
 20
29.0612102786
 30
0.0
 10
16.241330666
 20
29.1343763393
 30
0.0
 10
16.4000601056
 20
29.2611998105
 30
0.0
 10
16.5475072527
 20
29.4047766041
 30
0.0
 10
16.7304934623
 20
29.6203681508
 30
0.0
 10
16.9284523968
 20
29.9323194127
 30
0.0
 10
17.109765869
 20
30.3587073858
 30
0.0
 10
17.2362594989
 20
30.8359511835
 30
0.0
 10
17.3066564278
 20
31.3576524515
 30
0.0
 10
17.320351749
 20
31.9170468459
 30
0.0
 10
17.2773082731
 20
32.5068419403
 30
0.0
 10
17.1781850946
 20
33.1193154048
 30
0.0
 10
17.0243311471
 20
33.7463989298
 30
0.0
 10
16.8178022613
 20
34.3797964672
 30
0.0
 10
16.5613396545
 20
35.0111028097
 30
0.0
 10
16.2583551937
 20
35.631894361
 30
0.0
 10
15.9128951724
 20
36.2339734313
 30
0.0
 10
15.5295622373
 20
36.8092022726
 30
0.0
 10
15.2494793436
 20
37.1732431574
 30
0.0
 10
15.104156879
 20
37.3488152008
 30
0.0
  0
SPLINE
  5
374
100
AcDbEntity
  8
0
100
AcDbSpline
 62
7
  6
BYLAYER
 70
0
 71
3
 72
11
 73
7
 74
0
 42
0.0000001
 43
0.0000001
 44
0.0000000001
 40
0.0
 40
0.0
 40
0.0
 40
0.0
 40
0.2224605835
 40
0.4617902292
 40
0.7206799047
 40
1.0
 40
1.0
 40
1.0
 40
1.0
 10
9.649650712
 20
37.0740738816
 30
0.0
 10
9.7716783539
 20
37.0894704808
 30
0.0
 10
10.0290175816
 20
37.093442857
 30
0.0
 10
10.4234274375
 20
37.0250435185
 30
0.0
 10
10.8314535998
 20
36.8849007092
 30
0.0
 10
11.0979839205
 20
36.7505437656
 30
0.0
 10
11.2317260033
 20
36.6733280541
 30
0.0
  0
SPLINE
  5
375
100
AcDbEntity
  8
0
100
AcDbSpline
 62
7
  6
BYLAYER
 70
0
 71
3
 72
14
 73
10
 74
0
 42
0.0000001
 43
0.0000001
 44
0.0000000001
 40
0.0
 40
0.0
 40
0.0
 40
0.0
 40
0.1453015966
 40
0.2844524794
 40
0.543780744
 40
0.6647828738
 40
0.7805914055
 40
0.8919940685
 40
1.0
 40
1.0
 40
1.0
 40
1.0
 10
8.1910763191
 20
34.9178522087
 30
0.0
 10
8.1910763191
 20
35.0113504956
 30
0.0
 10
8.1974184143
 20
35.1945058857
 30
0.0
 10
8.2362481372
 20
35.542427205
 30
0.0
 10
8.3142447697
 20
35.8698488429
 30
0.0
 10
8.4354611661
 20
36.1657680256
 30
0.0
 10
8.5431374305
 20
36.3628644807
 30
0.0
 10
8.668940408
 20
36.5387403484
 30
0.0
 10
8.7656379215
 20
36.642298974
 30
0.0
 10
8.8164684557
 20
36.6896953807
 30
0.0
  0
SPLINE
  5
376
100
AcDbEntity
  8
0
100
AcDbSpline
 62
7
  6
BYLAYER
 70
0
 71
3
 72
11
 73
7
 74
0
 42
0.0000001
 43
0.0000001
 44
0.0000000001
 40
0.0
 40
0.0
 40
0.0
 40
0.0
 40
0.2485532177
 40
0.4952903941
 40
0.7444947395
 40
1.0
 40
1.0
 40
1.0
 40
1.0
 10
8.8164684557
 20
36.6896953807
 30
0.0
 10
8.8729509459
 20
36.7423618952
 30
0.0
 10
8.9938320065
 20
36.8388181789
 30
0.0
 10
9.1963189618
 20
36.952662875
 30
0.0
 10
9.4164213857
 20
37.033358675
 30
0.0
 10
9.5708879723
 20
37.0641361468
 30
0.0
 10
9.649650712
 20
37.0740738816
 30
0.0
  0
SPLINE
  5
377
100
AcDbEntity
  8
0
100
AcDbSpline
 62
7
  6
BYLAYER
 70
0
 71
3
 72
11
 73
7
 74
0
 42
0.0000001
 43
0.0000001
 44
0.0000000001
 40
0.0
 40
0.0
 40
0.0
 40
0.0
 40
0.2224420291
 40
0.4618007538
 40
0.720675398
 40
1.0
 40
1.0
 40
1.0
 40
1.0
 10
52.2989647069
 20
63.6050851123
 30
0.0
 10
52.4692212998
 20
63.6265669052
 30
0.0
 10
52.8283054852
 20
63.6320874835
 30
0.0
 10
53.3786469277
 20
63.536684253
 30
0.0
 10
53.9479886622
 20
63.3411041198
 30
0.0
 10
54.3198978595
 20
63.1536622233
 30
0.0
 10
54.506511618
 20
63.0459078907
 30
0.0
  0
SPLINE
  5
378
100
AcDbEntity
  8
0
100
AcDbSpline
 62
7
  6
BYLAYER
 70
0
 71
3
 72
15
 73
11
 74
0
 42
0.0000001
 43
0.0000001
 44
0.0000000001
 40
0.0
 40
0.0
 40
0.0
 40
0.0
 40
0.1299859572
 40
0.2613851596
 40
0.3927102475
 40
0.5225205529
 40
0.6493792808
 40
0.7719769399
 40
0.8891601498
 40
1.0
 40
1.0
 40
1.0
 40
1.0
 10
56.7203859773
 20
61.1185464941
 30
0.0
 10
56.8752843688
 20
60.9243496064
 30
0.0
 10
57.1714933237
 20
60.5214128884
 30
0.0
 10
57.569413363
 20
59.8843242673
 30
0.0
 10
57.9184724846
 20
59.2195342849
 30
0.0
 10
58.2128761417
 20
58.5382264241
 30
0.0
 10
58.447670093
 20
57.8517013357
 30
0.0
 10
58.6189389359
 20
57.171386146
 30
0.0
 10
58.7238238373
 20
56.5086759352
 30
0.0
 10
58.7490595192
 20
56.0726727513
 30
0.0
 10
58.7490538869
 20
55.8608546896
 30
0.0
  0
SPLINE
  5
379
100
AcDbEntity
  8
0
100
AcDbSpline
 62
7
  6
BYLAYER
 70
0
 71
3
 72
11
 73
7
 74
0
 42
0.0000001
 43
0.0000001
 44
0.0000000001
 40
0.0
 40
0.0
 40
0.0
 40
0.0
 40
0.2673159802
 40
0.5203352529
 40
0.7629267493
 40
1.0
 40
1.0
 40
1.0
 40
1.0
 10
26.5373355987
 20
35.7234079283
 30
0.0
 10
26.6783282231
 20
35.7010426535
 30
0.0
 10
26.9562566962
 20
35.6760264331
 30
0.0
 10
27.3645901243
 20
35.7035147749
 30
0.0
 10
27.7465283723
 20
35.7974789024
 30
0.0
 10
27.9812235277
 20
35.9045455817
 30
0.0
 10
28.0908636528
 20
35.967853051
 30
0.0
  0
SPLINE
  5
37A
100
AcDbEntity
  8
0
100
AcDbSpline
 62
7
  6
BYLAYER
 70
0
 71
3
 72
15
 73
11
 74
0
 42
0.0000001
 43
0.0000001
 44
0.0000000001
 40
0.0
 40
0.0
 40
0.0
 40
0.0
 40
0.1486048756
 40
0.2894990555
 40
0.4227228722
 40
0.5486415478
 40
0.6680011944
 40
0.7819377907
 40
0.8919873963
 40
1.0
 40
1.0
 40
1.0
 40
1.0
 10
58.749059038
 20
55.6975567691
 30
0.0
 10
58.7490549828
 20
55.5412743433
 30
0.0
 10
58.7364721026
 20
55.2366075735
 30
0.0
 10
58.6764809053
 20
54.7954056715
 30
0.0
 10
58.5763180823
 20
54.3859055239
 30
0.0
 10
58.4366934943
 20
54.0120488038
 30
0.0
 10
58.2587589946
 20
53.6774381479
 30
0.0
 10
58.0437950295
 20
53.3855480607
 30
0.0
 10
57.7939128682
 20
53.1395651502
 30
0.0
 10
57.6047550851
 20
53.0076108633
 30
0.0
 10
57.5063832809
 20
52.9508098521
 30
0.0
  0
SPLINE
  5
37B
100
AcDbEntity
  8
0
100
AcDbSpline
 62
7
  6
BYLAYER
 70
0
 71
3
 72
11
 73
7
 74
0
 42
0.0000001
 43
0.0000001
 44
0.0000000001
 40
0.0
 40
0.0
 40
0.0
 40
0.0
 40
0.2325802766
 40
0.4780002557
 40
0.734607181
 40
1.0
 40
1.0
 40
1.0
 40
1.0
 10
54.6479287567
 20
62.9642537841
 30
0.0
 10
54.82393316
 20
62.8626255662
 30
0.0
 10
55.1742610204
 20
62.6335796889
 30
0.0
 10
55.676149934
 20
62.2320238286
 30
0.0
 10
56.1620105938
 20
61.7686983708
 30
0.0
 10
56.4661890522
 20
61.4280584741
 30
0.0
 10
56.614061215
 20
61.2494060005
 30
0.0
  0
SPLINE
  5
37C
100
AcDbEntity
  8
0
100
AcDbSpline
 62
7
  6
BYLAYER
 70
0
 71
3
 72
9
 73
5
 74
0
 42
0.0000001
 43
0.0000001
 44
0.0000000001
 40
0.0
 40
0.0
 40
0.0
 40
0.0
 40
0.493694339
 40
1.0
 40
1.0
 40
1.0
 40
1.0
 10
51.6350818623
 20
63.411293548
 30
0.0
 10
51.7378603603
 20
63.4610539297
 30
0.0
 10
51.9550719863
 20
63.5440671823
 30
0.0
 10
52.1827782037
 20
63.5904255073
 30
0.0
 10
52.2989647069
 20
63.6050851123
 30
0.0
  0
SPLINE
  5
37D
100
AcDbEntity
  8
0
100
AcDbSpline
 62
7
  6
BYLAYER
 70
0
 71
3
 72
11
 73
7
 74
0
 42
0.0000001
 43
0.0000001
 44
0.0000000001
 40
0.0
 40
0.0
 40
0.0
 40
0.0
 40
0.2369095174
 40
0.4794134617
 40
0.7324732169
 40
1.0
 40
1.0
 40
1.0
 40
1.0
 10
22.0909030404
 20
46.3601517093
 30
0.0
 10
21.9804572138
 20
46.2963790187
 30
0.0
 10
21.768869739
 20
46.1454020995
 30
0.0
 10
21.4950148551
 20
45.8587997546
 30
0.0
 10
21.2661664509
 20
45.5154126916
 30
0.0
 10
21.1488753728
 20
45.2595742841
 30
0.0
 10
21.0978300525
 20
45.1249065986
 30
0.0
  0
SPLINE
  5
37E
100
AcDbEntity
  8
0
100
AcDbSpline
 62
7
  6
BYLAYER
 70
0
 71
3
 72
14
 73
10
 74
0
 42
0.0000001
 43
0.0000001
 44
0.0000000001
 40
0.0
 40
0.0
 40
0.0
 40
0.0
 40
0.2604108345
 40
0.3912916698
 40
0.5207819695
 40
0.647548788
 40
0.7703672317
 40
0.8881506033
 40
1.0
 40
1.0
 40
1.0
 40
1.0
 10
56.6830190555
 20
61.0954709514
 30
0.0
 10
56.991060372
 20
60.7049894612
 30
0.0
 10
57.4104351098
 20
60.0821703256
 30
0.0
 10
57.8747094098
 20
59.201918454
 30
0.0
 10
58.1714970946
 20
58.5238995263
 30
0.0
 10
58.4113990753
 20
57.8400698061
 30
0.0
 10
58.5907583439
 20
57.1609107689
 30
0.0
 10
58.7068013729
 20
56.4970061002
 30
0.0
 10
58.741691688
 20
56.0589550096
 30
0.0
 10
58.7471562106
 20
55.8454039161
 30
0.0
  0
SPLINE
  5
37F
100
AcDbEntity
  8
0
100
AcDbSpline
 62
7
  6
BYLAYER
 70
0
 71
3
 72
23
 73
19
 74
0
 42
0.0000001
 43
0.0000001
 44
0.0000000001
 40
0.0
 40
0.0
 40
0.0
 40
0.0
 40
0.0829476763
 40
0.1637531208
 40
0.2418361018
 40
0.3168032451
 40
0.3883307069
 40
0.4561794433
 40
0.520259249
 40
0.5806354589
 40
0.6375579206
 40
0.6914881549
 40
0.7431036782
 40
0.7932838888
 40
0.8430452515
 40
0.8934476712
 40
0.9454858917
 40
1.0
 40
1.0
 40
1.0
 40
1.0
 10
26.915700052
 20
44.1031515379
 30
0.0
 10
26.7926993124
 20
44.2517554804
 30
0.0
 10
26.5406157786
 20
44.5376219337
 30
0.0
 10
26.141395809
 20
44.9343635292
 30
0.0
 10
25.7293221557
 20
45.2900402019
 30
0.0
 10
25.3088853485
 20
45.6008024514
 30
0.0
 10
24.8844862609
 20
45.8634609936
 30
0.0
 10
24.4604859171
 20
46.075109998
 30
0.0
 10
24.0413246134
 20
46.2335100556
 30
0.0
 10
23.6312771032
 20
46.3368002315
 30
0.0
 10
23.2345756842
 20
46.3836387619
 30
0.0
 10
22.855402395
 20
46.3731750591
 30
0.0
 10
22.4979979682
 20
46.3049485221
 30
0.0
 10
22.1666505763
 20
46.1794227315
 30
0.0
 10
21.8656398773
 20
45.9978051855
 30
0.0
 10
21.5987579633
 20
45.7624834838
 30
0.0
 10
21.3691140337
 20
45.4767032685
 30
0.0
 10
21.2456583009
 20
45.2605996033
 30
0.0
 10
21.1904895429
 20
45.1464533156
 30
0.0
  0
SPLINE
  5
380
100
AcDbEntity
  8
0
100
AcDbSpline
 62
7
  6
BYLAYER
 70
0
 71
3
 72
27
 73
23
 74
0
 42
0.0000001
 43
0.0000001
 44
0.0000000001
 40
0.0
 40
0.0
 40
0.0
 40
0.0
 40
0.0492235748
 40
0.0727936498
 40
0.0958815491
 40
0.1186891185
 40
0.1414323434
 40
0.1643294298
 40
0.1875922939
 40
0.2114149765
 40
0.2359691185
 40
0.287757016
 40
0.3438073301
 40
0.404447704
 40
0.4696220078
 40
0.5389707086
 40
0.6119000885
 40
0.6876417285
 40
0.7653088606
 40
0.8439222269
 40
0.9225010256
 40
1.0
 40
1.0
 40
1.0
 40
1.0
 10
26.612080036
 20
35.793359144
 30
0.0
 10
26.7796414087
 20
35.782434046
 30
0.0
 10
27.0302124234
 20
35.7892473266
 30
0.0
 10
27.3516829653
 20
35.8524465147
 30
0.0
 10
27.5779940562
 20
35.9246068361
 30
0.0
 10
27.7915519062
 20
36.0219734651
 30
0.0
 10
27.9912770174
 20
36.1440246851
 30
0.0
 10
28.1761479503
 20
36.2900859062
 30
0.0
 10
28.3451586835
 20
36.4594402063
 30
0.0
 10
28.4975731755
 20
36.6511145329
 30
0.0
 10
28.680812016
 20
36.9401786715
 30
0.0
 10
28.863121026
 20
37.356554049
 30
0.0
 10
29.0011421101
 20
37.9167873279
 30
0.0
 10
29.0611268703
 20
38.5361730792
 30
0.0
 10
29.0424197843
 20
39.203158445
 30
0.0
 10
28.9456781176
 20
39.9054548924
 30
0.0
 10
28.7728195549
 20
40.6299201412
 30
0.0
 10
28.5271467333
 20
41.3629138789
 30
0.0
 10
28.2133259477
 20
42.0905056274
 30
0.0
 10
27.8373547565
 20
42.7989743721
 30
0.0
 10
27.4063737914
 20
43.4746396341
 30
0.0
 10
27.0842708184
 20
43.8994919456
 30
0.0
 10
26.915700052
 20
44.1031515379
 30
0.0
  0
SPLINE
  5
381
100
AcDbEntity
  8
0
100
AcDbSpline
 62
7
  6
BYLAYER
 70
0
 71
3
 72
17
 73
13
 74
0
 42
0.0000001
 43
0.0000001
 44
0.0000000001
 40
0.0
 40
0.0
 40
0.0
 40
0.0
 40
0.1570329619
 40
0.3067830496
 40
0.447238153
 40
0.5770674791
 40
0.6957943117
 40
0.8041183553
 40
0.8550785523
 40
0.9043673917
 40
0.9524860681
 40
1.0
 40
1.0
 40
1.0
 40
1.0
 10
27.1249221116
 20
44.2889658166
 30
0.0
 10
26.929171331
 20
44.5254630754
 30
0.0
 10
26.5242957302
 20
44.9695609178
 30
0.0
 10
25.8694845558
 20
45.5515526424
 30
0.0
 10
25.1943398329
 20
46.0227591646
 30
0.0
 10
24.5152361448
 20
46.3712118203
 30
0.0
 10
23.8484130761
 20
46.5877316806
 30
0.0
 10
23.3042073301
 20
46.6533587651
 30
0.0
 10
22.8962040826
 20
46.6299029414
 30
0.0
 10
22.6101592917
 20
46.5770208784
 30
0.0
 10
22.340031745
 20
46.4888695377
 30
0.0
 10
22.1713460631
 20
46.4066004359
 30
0.0
 10
22.0909030404
 20
46.3601517093
 30
0.0
  0
SPLINE
  5
382
100
AcDbEntity
  8
0
100
AcDbSpline
 62
7
  6
BYLAYER
 70
0
 71
3
 72
11
 73
7
 74
0
 42
0.0000001
 43
0.0000001
 44
0.0000000001
 40
0.0
 40
0.0
 40
0.0
 40
0.0
 40
0.2341529001
 40
0.4799808632
 40
0.7359903922
 40
1.0
 40
1.0
 40
1.0
 40
1.0
 10
54.6425098382
 20
62.9648616083
 30
0.0
 10
54.8123373501
 20
62.8605106938
 30
0.0
 10
55.1498921315
 20
62.6290485474
 30
0.0
 10
55.6340280029
 20
62.2302929979
 30
0.0
 10
56.1027666342
 20
61.7762706916
 30
0.0
 10
56.3971416121
 20
61.4450513646
 30
0.0
 10
56.5404417397
 20
61.2719226176
 30
0.0
  0
SPLINE
  5
383
100
AcDbEntity
  8
0
100
AcDbSpline
 62
7
  6
BYLAYER
 70
0
 71
3
 72
23
 73
19
 74
0
 42
0.0000001
 43
0.0000001
 44
0.0000000001
 40
0.0
 40
0.0
 40
0.0
 40
0.0
 40
0.043522869
 40
0.0881819439
 40
0.1349725221
 40
0.1846577541
 40
0.2377369698
 40
0.2944529631
 40
0.3548293335
 40
0.4187073167
 40
0.4857766035
 40
0.5556107188
 40
0.6276921029
 40
0.7014350642
 40
0.7762012598
 40
0.8513257104
 40
0.9261684616
 40
1.0
 40
1.0
 40
1.0
 40
1.0
 10
28.0908636528
 20
35.967853051
 30
0.0
 10
28.2071982652
 20
36.0350259943
 30
0.0
 10
28.4296795875
 20
36.1955388505
 30
0.0
 10
28.7146282031
 20
36.5027413361
 30
0.0
 10
28.9491687239
 20
36.8724439927
 30
0.0
 10
29.1305537136
 20
37.2988652637
 30
0.0
 10
29.2570171754
 20
37.7761014122
 30
0.0
 10
29.3274142956
 20
38.2978063198
 30
0.0
 10
29.3411205888
 20
38.8571996603
 30
0.0
 10
29.2980661899
 20
39.4469937754
 30
0.0
 10
29.1989450417
 20
40.0594659051
 30
0.0
 10
29.0451049473
 20
40.6865518813
 30
0.0
 10
28.8385613122
 20
41.3199486789
 30
0.0
 10
28.5820902726
 20
41.9512473157
 30
0.0
 10
28.2791338081
 20
42.5720431482
 30
0.0
 10
27.9336559284
 20
43.174141032
 30
0.0
 10
27.5503004605
 20
43.7493581704
 30
0.0
 10
27.2702264623
 20
44.1134156576
 30
0.0
 10
27.1249221116
 20
44.2889658166
 30
0.0
  0
ELLIPSE
  5
384
100
AcDbEntity
  8
0
100
AcDbEllipse
 62
7
  6
BYLAYER
 10
49.5231049298
 20
55.4436552387
 30
0.0
 11
-3.6066470397
 21
7.2086009469
 31
0.0
 40
0.2453828282
 41
-3.3910696436
 42
-3.3283357449
  0
ELLIPSE
  5
385
100
AcDbEntity
  8
0
100
AcDbEllipse
 62
7
  6
BYLAYER
 10
49.7281363681
 20
55.098926192
 30
0.0
 11
-4.71510858
 21
6.5698679073
 31
0.0
 40
0.2404175762
 41
-3.6158708971
 42
-3.5531369984
  0
ELLIPSE
  5
386
100
AcDbEntity
  8
0
100
AcDbEllipse
 62
7
  6
BYLAYER
 10
49.9648753976
 20
54.7818022747
 30
0.0
 11
5.7735913517
 21
-5.9750700875
 31
0.0
 40
0.1991620239
 41
-0.6858284081
 42
-0.6230945094
  0
ELLIPSE
  5
387
100
AcDbEntity
  8
0
100
AcDbEllipse
 62
7
  6
BYLAYER
 10
50.2257130311
 20
54.5024761107
 30
0.0
 11
6.7370164904
 21
-5.4620904007
 31
0.0
 40
0.1341060615
 41
-0.871821364
 42
-0.8090874652
  0
ELLIPSE
  5
388
100
AcDbEntity
  8
0
100
AcDbEllipse
 62
7
  6
BYLAYER
 10
50.5022657323
 20
54.2699254726
 30
0.0
 11
7.6047994626
 21
-5.0265841444
 31
0.0
 40
0.0584246483
 41
-1.0319727013
 42
-0.9692388025
  0
ELLIPSE
  5
389
100
AcDbEntity
  8
0
100
AcDbEllipse
 62
7
  6
BYLAYER
 10
49.1387703366
 20
56.7038505049
 30
0.0
 11
-0.3625804779
 21
9.2253608163
 31
0.0
 40
0.0389576821
 41
1.0057702097
 42
1.0685041084
  0
ELLIPSE
  5
38A
100
AcDbEntity
  8
0
100
AcDbEllipse
 62
7
  6
BYLAYER
 10
49.1894206369
 20
56.3523232071
 30
0.0
 11
-1.1492953848
 21
8.7030773551
 31
0.0
 40
0.1157674235
 41
0.8513759714
 42
0.9141098701
  0
ELLIPSE
  5
38B
100
AcDbEntity
  8
0
100
AcDbEllipse
 62
7
  6
BYLAYER
 10
49.2890932953
 20
55.9881158275
 30
0.0
 11
-2.0445427629
 21
8.1361040132
 31
0.0
 40
0.1845627073
 41
0.6721415873
 42
0.734875486
  0
ELLIPSE
  5
38C
100
AcDbEntity
  8
0
100
AcDbEllipse
 62
7
  6
BYLAYER
 10
49.4345847505
 20
55.622934291
 30
0.0
 11
-3.0619007789
 21
7.5264544388
 31
0.0
 40
0.2331297805
 41
0.46637588
 42
0.5291097787
  0
ELLIPSE
  5
38D
100
AcDbEntity
  8
0
100
AcDbEllipse
 62
7
  6
BYLAYER
 10
49.6212187874
 20
55.2685158325
 30
0.0
 11
-4.1619637824
 21
6.8874313125
 31
0.0
 40
0.247895524
 41
0.2430130202
 42
0.3057469189
  0
ELLIPSE
  5
38E
100
AcDbEntity
  8
0
100
AcDbEllipse
 62
7
  6
BYLAYER
 10
50.7856448701
 20
54.0916247293
 30
0.0
 11
8.3881569032
 21
-4.6404777574
 31
0.0
 40
0.0193745784
 41
1.1084034071
 42
1.1711373058
  0
ELLIPSE
  5
38F
100
AcDbEntity
  8
0
100
AcDbEllipse
 62
7
  6
BYLAYER
 10
51.0667424056
 20
53.9733046134
 30
0.0
 11
9.0946414578
 21
-4.2727747201
 31
0.0
 40
0.0951330741
 41
1.2316034705
 42
1.2943373693
  0
ELLIPSE
  5
390
100
AcDbEntity
  8
0
100
AcDbEllipse
 62
7
  6
BYLAYER
 10
51.3365236329
 20
53.9187680307
 30
0.0
 11
9.7265685199
 21
-3.8972910534
 31
0.0
 40
0.1672994674
 41
1.3425521994
 42
1.4052860981
  0
ELLIPSE
  5
391
100
AcDbEntity
  8
0
100
AcDbEllipse
 62
7
  6
BYLAYER
 10
51.5863175613
 20
53.9297678319
 30
0.0
 11
10.2828381498
 21
-3.4931435963
 31
0.0
 40
0.2356155066
 41
1.4436328327
 42
1.5063667315
  0
ELLIPSE
  5
392
100
AcDbEntity
  8
0
100
AcDbEllipse
 62
7
  6
BYLAYER
 10
51.8080956084
 20
54.0059504743
 30
0.0
 11
10.7605510813
 21
-3.0431127334
 31
0.0
 40
0.3003714379
 41
1.5361711941
 42
1.5989050928
  0
ELLIPSE
  5
393
100
AcDbEntity
  8
0
100
AcDbEllipse
 62
7
  6
BYLAYER
 10
51.9947296453
 20
54.1448673852
 30
0.0
 11
11.1558953492
 21
-2.5316571615
 31
0.0
 40
0.3620131256
 41
1.6206526796
 42
1.6833865783
  0
ELLIPSE
  5
394
100
AcDbEntity
  8
0
100
AcDbEllipse
 62
7
  6
BYLAYER
 10
52.1402211005
 20
54.3420536606
 30
0.0
 11
11.4643549843
 21
-1.9428829031
 31
0.0
 40
0.4209211904
 41
1.6968203838
 42
1.7595542825
  0
ELLIPSE
  5
395
100
AcDbEntity
  8
0
100
AcDbEllipse
 62
7
  6
BYLAYER
 10
52.2398937589
 20
54.5911715716
 30
0.0
 11
11.6801882444
 21
-1.258389704
 31
0.0
 40
0.4772521871
 41
1.7636596284
 42
1.8263935271
  0
ELLIPSE
  5
396
100
AcDbEntity
  8
0
100
AcDbEllipse
 62
7
  6
BYLAYER
 10
52.2905440592
 20
54.8842142633
 30
0.0
 11
11.7948571827
 21
-0.4550705746
 31
0.0
 40
0.5307714873
 41
1.8192944692
 42
1.8820283679
  0
ELLIPSE
  5
397
100
AcDbEntity
  8
0
100
AcDbEllipse
 62
7
  6
BYLAYER
 10
52.2905440592
 20
55.2117631027
 30
0.0
 11
11.7938114461
 21
0.4962090353
 31
0.0
 40
0.580625743
 41
1.860876915
 42
1.9236108137
  0
ELLIPSE
  5
398
100
AcDbEntity
  8
0
100
AcDbEllipse
 62
7
  6
BYLAYER
 10
52.2398937589
 20
55.5632904004
 30
0.0
 11
11.6512877389
 21
1.6276594979
 31
0.0
 40
0.6250306916
 41
1.8847385249
 42
1.9474724236
  0
ELLIPSE
  5
399
100
AcDbEntity
  8
0
100
AcDbEllipse
 62
7
  6
BYLAYER
 10
52.1402211005
 20
55.92749778
 30
0.0
 11
11.3258556974
 21
2.9590335292
 31
0.0
 40
0.660965281
 41
1.8875136536
 42
1.9502475523
  0
ELLIPSE
  5
39A
100
AcDbEntity
  8
0
100
AcDbEllipse
 62
7
  6
BYLAYER
 10
51.9947296453
 20
56.2926793166
 30
0.0
 11
10.769371867
 21
4.4600629322
 31
0.0
 40
0.6842910997
 41
1.8692829677
 42
1.9320168664
  0
ELLIPSE
  5
39B
100
AcDbEntity
  8
0
100
AcDbEllipse
 62
7
  6
BYLAYER
 10
51.8080956084
 20
56.647097775
 30
0.0
 11
9.9686030449
 21
6.0103936778
 31
0.0
 40
0.691060192
 41
1.8379037458
 42
1.8914794756
  0
ELLIPSE
  5
39C
100
AcDbEntity
  8
0
100
AcDbEllipse
 62
7
  6
BYLAYER
 10
50.3625719902
 20
57.9423089942
 30
0.0
 11
4.9329537224
 21
10.6836207232
 31
0.0
 40
0.4909110334
 41
-1.8414411537
 42
-1.778707255
  0
ELLIPSE
  5
39D
100
AcDbEntity
  8
0
100
AcDbEllipse
 62
7
  6
BYLAYER
 10
50.0927907629
 20
57.9968455769
 30
0.0
 11
4.2207639767
 21
10.8736638169
 31
0.0
 40
0.4352410711
 41
-1.7771894694
 42
-1.7144555707
  0
ELLIPSE
  5
39E
100
AcDbEntity
  8
0
100
AcDbEllipse
 62
7
  6
BYLAYER
 10
49.8429968345
 20
57.9858457757
 30
0.0
 11
3.5488150597
 21
10.9314627358
 31
0.0
 40
0.3769795809
 41
-1.7032265171
 42
-1.6404926184
  0
ELLIPSE
  5
39F
100
AcDbEntity
  8
0
100
AcDbEllipse
 62
7
  6
BYLAYER
 10
49.6212187874
 20
57.9096631332
 30
0.0
 11
2.9034459426
 21
10.8721111763
 31
0.0
 40
0.3160505287
 41
-1.6207700752
 42
-1.5580361765
  0
ELLIPSE
  5
3A0
100
AcDbEntity
  8
0
100
AcDbEllipse
 62
7
  6
BYLAYER
 10
49.4345847505
 20
57.7707462224
 30
0.0
 11
2.2729000816
 21
10.7078704523
 31
0.0
 40
0.2521150975
 41
-1.530260916
 42
-1.4675270173
  0
ELLIPSE
  5
3A1
100
AcDbEntity
  8
0
100
AcDbEllipse
 62
7
  6
BYLAYER
 10
49.2890932953
 20
57.5735599469
 30
0.0
 11
1.6458003161
 21
10.4499067785
 31
0.0
 40
0.1847269141
 41
-1.4314036489
 42
-1.3686697502
  0
ELLIPSE
  5
3A2
100
AcDbEntity
  8
0
100
AcDbEllipse
 62
7
  6
BYLAYER
 10
51.9062094659
 20
56.4719583688
 30
0.0
 11
10.3972985764
 21
5.2400577578
 31
0.0
 40
0.6899187507
 41
-1.8670549939
 42
-1.8297334279
  0
ELLIPSE
  5
3A3
100
AcDbEntity
  8
0
100
AcDbEllipse
 62
7
  6
BYLAYER
 10
49.1894206369
 20
57.324442036
 30
0.0
 11
1.0093513794
 21
10.1092829621
 31
0.0
 40
0.1135291806
 41
-1.3230983556
 42
-1.2603644569
  0
ELLIPSE
  5
3A4
100
AcDbEntity
  8
0
100
AcDbEllipse
 62
7
  6
BYLAYER
 10
49.1387703366
 20
57.0313993442
 30
0.0
 11
0.3472533399
 21
9.6973413751
 31
0.0
 40
0.0385908566
 41
-1.2032519168
 42
-1.1405180181
  0
ELLIPSE
  5
3A5
100
AcDbEntity
  8
0
100
AcDbEllipse
 62
7
  6
BYLAYER
 10
51.7011780277
 20
56.8166874156
 30
0.0
 11
9.4954169501
 21
6.7472347875
 31
0.0
 40
0.6876505957
 41
-1.924895593
 42
-1.8621616943
  0
ELLIPSE
  5
3A6
100
AcDbEntity
  8
0
100
AcDbEllipse
 62
7
  6
BYLAYER
 10
51.4644389982
 20
57.1338113328
 30
0.0
 11
8.4813414634
 21
8.0475036784
 31
0.0
 40
0.6681503389
 41
-1.9475139678
 42
-1.8847800691
  0
ELLIPSE
  5
3A7
100
AcDbEntity
  8
0
100
AcDbEllipse
 62
7
  6
BYLAYER
 10
51.2036013647
 20
57.4131374968
 30
0.0
 11
7.4760303513
 21
9.0655838576
 31
0.0
 40
0.6349518649
 41
-1.9502324227
 42
-1.887498524
  0
ELLIPSE
  5
3A8
100
AcDbEntity
  8
0
100
AcDbEllipse
 62
7
  6
BYLAYER
 10
50.9270486635
 20
57.6456881349
 30
0.0
 11
6.5453965784
 21
9.8150588292
 31
0.0
 40
0.5923285981
 41
-1.9313869042
 42
-1.8686530055
  0
ELLIPSE
  5
3A9
100
AcDbEntity
  8
0
100
AcDbEllipse
 62
7
  6
BYLAYER
 10
46.2846690593
 20
50.8481820473
 30
0.0
 11
2.2729000816
 21
10.7078704523
 31
0.0
 40
0.2521150975
 41
-0.8755884233
 42
-0.8622656111
  0
ELLIPSE
  5
3AA
100
AcDbEntity
  8
0
100
AcDbEllipse
 62
7
  6
BYLAYER
 10
46.0980350224
 20
50.7092651365
 30
0.0
 11
2.9034459426
 21
10.8721111763
 31
0.0
 40
0.3160505287
 41
-0.96043821
 42
-0.9527747704
  0
ELLIPSE
  5
3AB
100
AcDbEntity
  8
0
100
AcDbEllipse
 62
7
  6
BYLAYER
 10
43.7245241645
 20
54.4740608845
 30
0.0
 11
11.1558953492
 21
-2.5316571615
 31
0.0
 40
0.3620131256
 41
1.0153912734
 42
1.0268759576
  0
ELLIPSE
  5
3AC
100
AcDbEntity
  8
0
100
AcDbEllipse
 62
7
  6
BYLAYER
 10
43.5790327093
 20
54.2768746091
 30
0.0
 11
11.4643549843
 21
-1.9428829031
 31
0.0
 40
0.4209211904
 41
1.0915589776
 42
1.1006845363
  0
ENDSEC
  0
SECTION
  2
OBJECTS
  0
DICTIONARY
  5
C
100
AcDbDictionary
280
0
281
1
  3
ACAD_GROUP
350
D
  3
ACAD_MLINESTYLE
350
17
  3
ACAD_LAYOUT
350
1A
  3
ACAD_PLOTSETTINGS
350
19
  3
ACAD_PLOTSTYLENAME
350
E
  0
DICTIONARY
  5
D
102
{ACAD_REACTORS
330
C
102
}
100
AcDbDictionary
280
0
281
1
  0
ACDBDICTIONARYWDFLT
  5
E
102
{ACAD_REACTORS
330
C
102
}
100
AcDbDictionary
281
1
  3
Normal
350
F
100
AcDbDictionaryWithDefault
340
F
  0
DICTIONARY
  5
17
102
{ACAD_REACTORS
330
C
102
}
100
AcDbDictionary
280
0
281
1
  3
Standard
350
18
  0
DICTIONARY
  5
19
102
{ACAD_REACTORS
330
C
102
}
100
AcDbDictionary
281
1
  0
DICTIONARY
  5
1A
102
{ACAD_REACTORS
330
C
102
}
100
AcDbDictionary
281
1
  3
Model
350
3AD
  3
Layout1
350
3AE
  0
ACDBPLACEHOLDER
  5
F
102
{ACAD_REACTORS
330
E
102
}
  0
MLINESTYLE
  5
18
102
{ACAD_REACTORS
330
17
102
}
100
AcDbMlineStyle
  2
STANDARD
 70
0
  3

 62
256
 51
90.0
 52
90.0
 71
2
 49
0.5
 62
256
  6
BYLAYER
 49
-0.5
 62
256
  6
BYLAYER
  0
LAYOUT
  5
3AD
102
{ACAD_REACTORS
330
1A
102
}
100
AcDbPlotSettings
  1

  2
none_device
  4

  6

 40
0.0
 41
0.0
 42
0.0
 43
0.0
 44
210.0
 45
297.0
 46
0.0
 47
0.0
 48
0.0
 49
0.0
140
0.0
141
0.0
142
1.0
143
1.0
 70
1024
 72
1
 73
0
 74
0
  7

 75
0
147
1.0
148
0.0
149
0.0
100
AcDbLayout
  1
Model
 70
0
 71
0
 10
0.0
 20
0.0
 11
210.0
 21
297.0
 12
0.0
 22
0.0
 32
0.0
 14
0.0
 24
0.0
 34
0.0
 15
0.0
 25
0.0
 35
0.0
146
0.0
 13
0.0
 23
0.0
 33
0.0
 16
1.0
 26
0.0
 36
0.0
 17
0.0
 27
1.0
 37
0.0
 76
0
330
210
345
0
346
0
  0
LAYOUT
  5
3AE
102
{ACAD_REACTORS
330
1A
102
}
100
AcDbPlotSettings
  1

  2
none_device
  4

  6

 40
0.0
 41
0.0
 42
0.0
 43
0.0
 44
210.0
 45
297.0
 46
0.0
 47
0.0
 48
0.0
 49
0.0
140
0.0
141
0.0
142
1.0
143
1.0
 70
0
 72
1
 73
0
 74
0
  7

 75
0
147
1.0
148
0.0
149
0.0
100
AcDbLayout
  1
Layout1
 70
0
 71
1
 10
0.0
 20
0.0
 11
210.0
 21
297.0
 12
0.0
 22
0.0
 32
0.0
 14
0.0
 24
0.0
 34
0.0
 15
0.0
 25
0.0
 35
0.0
146
0.0
 13
0.0
 23
0.0
 33
0.0
 16
1.0
 26
0.0
 36
0.0
 17
0.0
 27
1.0
 37
0.0
 76
0
330
211
345
0
346
0
  0
ENDSEC
  0
EOF
