999
DXF file: C:\Users\sesa63760\Dev\_Creo\CAD\MCADID0001816_3D-CAD\drw0001_1.dxf
999
Pro/ENGINEER 2019471 by Parametric Technology Corporation
  0
SECTION
  2
HEADER
  9
$ACADVER
  1
AC1024
  9
$DWGCODEPAGE
  3
ANSI_1252
  9
$EXTMAX
 10
61.8926058746
 20
87.5338283084
 30
0.0
  9
$EXTMIN
 10
0.0
 20
0.0
 30
0.0
  9
$LIMMIN
 10
0.0
 20
0.0
  9
$LIMMAX
 10
61.8926058746
 20
87.5338283084
  9
$VIEWCTR
 10
30.9463029373
 20
43.7669141542
  9
$VIEWSIZE
 40
87.5338283084
  9
$CLAYER
  8
0
  9
$LTSCALE
 40
5.7059088082
  9
$CELTYPE
  6
BYLAYER
  9
$DIMSCALE
 40
1.0
  9
$DIMASZ
 40
0.7368167366
  9
$DIMEXO
 40
1.0
  9
$DIMDLI
 40
3.9422642675
  9
$DIMEXE
 40
1.0
  9
$DIMCEN
 40
0.9336941686
  9
$DIMLFAC
 40
1.0
  9
$DIMBLK
  1
_FILLED
  9
$DIMALT
 70
0
  9
$DIMALTF
 40
0.0393700787
  9
$DIMTXT
 40
1.0315434312
  9
$DIMTOL
 70
1
  9
$DIMLIM
 70
0
  9
$DIMTFAC
 40
1.0
  9
$DIMTP
 40
0.01
  9
$DIMTM
 40
0.01
  9
$DIMGAP
 40
0.625
  9
$DIMDSEP
 70
46
  9
$AUNITS
 70
0
  9
$PDMODE
 70
3
  9
$PDSIZE
 40
0.3125
  9
$HANDSEED
  5
35B
  9
$TILEMODE
 70
1
  9
$MEASUREMENT
 70
1
  9
$INSUNITS
 70
4
  0
ENDSEC
  0
SECTION
  2
CLASSES
  0
CLASS
  1
ACDBDICTIONARYWDFLT
  2
AcDbDictionaryWithDefault
  3
AutoCAD 2000
 90
0
 91
1
280
0
281
0
  0
CLASS
  1
ACDBPLACEHOLDER
  2
AcDbPlaceHolder
  3
AutoCAD 2000
 90
0
 91
1
280
0
281
0
  0
CLASS
  1
LAYOUT
  2
AcDbLayout
  3
AutoCAD 2000
 90
0
 91
0
280
0
281
0
  0
ENDSEC
  0
SECTION
  2
TABLES
  0
TABLE
  2
VPORT
  5
8
100
AcDbSymbolTable
 70
2
  0
VPORT
  5
1F4
100
AcDbSymbolTableRecord
100
AcDbViewportTableRecord
  2
*ACTIVE
 70
0
 10
0.0
 20
0.0
 11
1.0
 21
1.0
 12
30.9463029373
 22
43.7669141542
 13
0.0
 23
0.0
 14
1.0
 24
1.0
 15
0.0
 25
0.0
 16
0.0
 26
0.0
 36
1.0
 17
0.0
 27
0.0
 37
0.0
 40
87.5338283084
 41
0.7070707071
 42
50.0
 43
0.0
 44
0.0
 50
0.0
 51
0.0
 71
0
 72
100
 73
1
 74
1
 75
0
 76
0
 77
0
 78
0
  0
ENDTAB
  0
TABLE
  2
LTYPE
  5
5
100
AcDbSymbolTable
 70
6
  0
LTYPE
  5
14
100
AcDbSymbolTableRecord
100
AcDbLinetypeTableRecord
  2
BYBLOCK
 70
0
  3

 72
65
 73
0
 40
0.0
  0
LTYPE
  5
15
100
AcDbSymbolTableRecord
100
AcDbLinetypeTableRecord
  2
BYLAYER
 70
0
  3

 72
65
 73
0
 40
0.0
  0
LTYPE
  5
16
100
AcDbSymbolTableRecord
100
AcDbLinetypeTableRecord
  2
CONTINUOUS
 70
64
  3
Solid line
 72
65
 73
0
 40
0.0
  0
LTYPE
  5
1F5
100
AcDbSymbolTableRecord
100
AcDbLinetypeTableRecord
  2
CENTER
 70
64
  3
____ _ ____ _ ____ _ ____ _ ____ _ ____ _ ____
 72
65
 73
4
 40
0.6
 49
0.375
 74
0
 49
-0.075
 74
0
 49
0.075
 74
0
 49
-0.075
 74
0
  0
LTYPE
  5
1F6
100
AcDbSymbolTableRecord
100
AcDbLinetypeTableRecord
  2
HIDDEN
 70
64
  3
- - - - - - - - - - - - - - - - - - - -
 72
65
 73
2
 40
0.2
 49
0.1
 74
0
 49
-0.1
 74
0
  0
LTYPE
  5
1F7
100
AcDbSymbolTableRecord
100
AcDbLinetypeTableRecord
  2
PHANTOM
 70
64
  3
_____ _ _ _____ _ _ _____ _ _ _____
 72
65
 73
6
 40
0.8
 49
0.45
 74
0
 49
-0.05
 74
0
 49
0.1
 74
0
 49
-0.05
 74
0
 49
0.1
 74
0
 49
-0.05
 74
0
  0
LTYPE
  5
1F8
100
AcDbSymbolTableRecord
100
AcDbLinetypeTableRecord
  2
DOT
 70
64
  3
. . . . . . . . . . . . . . . . . . . .
 72
65
 73
2
 40
0.2
 49
0.1
 74
0
 49
-0.1
 74
0
  0
LTYPE
  5
1F9
100
AcDbSymbolTableRecord
100
AcDbLinetypeTableRecord
  2
DASHED
 70
64
  3
- - - - - - - - - - - - - - - - - - - -
 72
65
 73
2
 40
0.2
 49
0.1
 74
0
 49
-0.1
 74
0
  0
ENDTAB
  0
TABLE
  2
LAYER
  5
2
100
AcDbSymbolTable
 70
36
  0
LAYER
  5
10
100
AcDbSymbolTableRecord
100
AcDbLayerTableRecord
  2
0
 70
0
 62
7
  6
CONTINUOUS
370
-3
390
F
  0
LAYER
  5
1FA
100
AcDbSymbolTableRecord
100
AcDbLayerTableRecord
  2
DEFAULT_1
 70
0
 62
7
  6
CENTER
370
-3
390
F
  0
LAYER
  5
1FB
100
AcDbSymbolTableRecord
100
AcDbLayerTableRecord
  2
DEFAULT_2
 70
0
 62
8
  6
HIDDEN
370
-3
390
F
  0
LAYER
  5
1FC
100
AcDbSymbolTableRecord
100
AcDbLayerTableRecord
  2
DEFAULT_3
 70
0
 62
7
  6
PHANTOM
370
-3
390
F
  0
LAYER
  5
1FD
100
AcDbSymbolTableRecord
100
AcDbLayerTableRecord
  2
00_COMPONENTS
 70
0
 62
7
  6
CONTINUOUS
370
-3
390
F
  0
LAYER
  5
1FE
100
AcDbSymbolTableRecord
100
AcDbLayerTableRecord
  2
01_1_DEFAULT_DATUMS
 70
0
 62
7
  6
CONTINUOUS
370
-3
390
F
  0
LAYER
  5
1FF
100
AcDbSymbolTableRecord
100
AcDbLayerTableRecord
  2
01_PLANES
 70
0
 62
7
  6
CONTINUOUS
370
-3
390
F
  0
LAYER
  5
200
100
AcDbSymbolTableRecord
100
AcDbLayerTableRecord
  2
02_COORD_SYS
 70
0
 62
7
  6
CONTINUOUS
370
-3
390
F
  0
LAYER
  5
201
100
AcDbSymbolTableRecord
100
AcDbLayerTableRecord
  2
03_AXES
 70
0
 62
7
  6
CONTINUOUS
370
-3
390
F
  0
LAYER
  5
202
100
AcDbSymbolTableRecord
100
AcDbLayerTableRecord
  2
04_POINTS
 70
0
 62
7
  6
CONTINUOUS
370
-3
390
F
  0
LAYER
  5
203
100
AcDbSymbolTableRecord
100
AcDbLayerTableRecord
  2
05_CURVES
 70
0
 62
7
  6
CONTINUOUS
370
-3
390
F
  0
LAYER
  5
204
100
AcDbSymbolTableRecord
100
AcDbLayerTableRecord
  2
06_SURFS
 70
0
 62
7
  6
CONTINUOUS
370
-3
390
F
  0
LAYER
  5
205
100
AcDbSymbolTableRecord
100
AcDbLayerTableRecord
  2
07_COSMETICS
 70
0
 62
7
  6
CONTINUOUS
370
-3
390
F
  0
LAYER
  5
206
100
AcDbSymbolTableRecord
100
AcDbLayerTableRecord
  2
10_NOTES
 70
0
 62
7
  6
CONTINUOUS
370
-3
390
F
  0
LAYER
  5
207
100
AcDbSymbolTableRecord
100
AcDbLayerTableRecord
  2
11_NOTES_PUB
 70
0
 62
7
  6
CONTINUOUS
370
-3
390
F
  0
LAYER
  5
208
100
AcDbSymbolTableRecord
100
AcDbLayerTableRecord
  2
13_REF_GTOL
 70
0
 62
7
  6
CONTINUOUS
370
-3
390
F
  0
LAYER
  5
209
100
AcDbSymbolTableRecord
100
AcDbLayerTableRecord
  2
16_MISC
 70
0
 62
7
  6
CONTINUOUS
370
-3
390
F
  0
LAYER
  5
20A
100
AcDbSymbolTableRecord
100
AcDbLayerTableRecord
  2
17_NO_PRINT
 70
0
 62
7
  6
CONTINUOUS
370
-3
390
F
  0
LAYER
  5
20B
100
AcDbSymbolTableRecord
100
AcDbLayerTableRecord
  2
18_DATUM_CAMS_JOINTS
 70
0
 62
7
  6
CONTINUOUS
370
-3
390
F
  0
LAYER
  5
20C
100
AcDbSymbolTableRecord
100
AcDbLayerTableRecord
  2
19_DATUM_FUNCTIONAL
 70
0
 62
7
  6
CONTINUOUS
370
-3
390
F
  0
LAYER
  5
20D
100
AcDbSymbolTableRecord
100
AcDbLayerTableRecord
  2
20_DATUM_KINEMATIC_SCHEME
 70
0
 62
7
  6
CONTINUOUS
370
-3
390
F
  0
ENDTAB
  0
TABLE
  2
STYLE
  5
3
100
AcDbSymbolTable
 70
1
  0
STYLE
  5
11
100
AcDbSymbolTableRecord
100
AcDbTextStyleTableRecord
  2
STANDARD
 70
0
 40
0.0
 41
0.8
 50
0.0
 71
0
 42
0.2
  3
txt
  4

  0
STYLE
  5
20E
100
AcDbSymbolTableRecord
100
AcDbTextStyleTableRecord
  2
TEXTSTYLE_1
 70
0
 40
0.0
 41
0.8
 50
0.0
 71
0
 42
0.2
  3
gdt
  4

  0
ENDTAB
  0
TABLE
  2
VIEW
  5
6
100
AcDbSymbolTable
 70
0
  0
ENDTAB
  0
TABLE
  2
UCS
  5
7
100
AcDbSymbolTable
 70
0
  0
ENDTAB
  0
TABLE
  2
APPID
  5
9
100
AcDbSymbolTable
 70
1
  0
APPID
  5
20F
100
AcDbSymbolTableRecord
100
AcDbRegAppTableRecord
  2
ACAD
 70
0
  0
ENDTAB
  0
TABLE
  2
BLOCK_RECORD
  5
1
100
AcDbSymbolTable
 70
0
  0
BLOCK_RECORD
  5
210
100
AcDbSymbolTableRecord
100
AcDbBlockTableRecord
  2
*Model_Space
  0
BLOCK_RECORD
  5
211
100
AcDbSymbolTableRecord
100
AcDbBlockTableRecord
  2
*Paper_Space
  0
BLOCK_RECORD
  5
212
100
AcDbSymbolTableRecord
100
AcDbBlockTableRecord
  2
_FILLED
  0
ENDTAB
  0
TABLE
  2
DIMSTYLE
  5
A
100
AcDbSymbolTable
 70
1
100
AcDbDimStyleTable
 71
0
  0
DIMSTYLE
105
213
100
AcDbSymbolTableRecord
100
AcDbDimStyleTableRecord
  2
STANDARD
 70
0
  3

  4

 40
1.0
 41
0.7368167366
 42
1.0
 43
0.38
 44
1.0
 45
0.0
 46
0.0
 47
0.01
 48
0.01
140
1.0315434312
141
0.09
142
0.0
143
25.4
144
1.0
145
0.0
146
1.0
147
0.625
 71
1
 72
0
 73
0
 74
0
 75
0
 76
0
 77
1
 78
8
 79
2
170
0
171
1
172
0
173
0
174
0
175
0
176
0
177
0
178
0
270
2
179
2
271
2
272
2
273
2
274
2
275
0
280
0
281
0
282
0
283
1
284
8
285
0
286
0
287
3
288
0
340
11
278
46
341
212
342
212
343
212
344
212
  0
ENDTAB
  0
ENDSEC
  0
SECTION
  2
BLOCKS
  0
BLOCK
  5
20
100
AcDbEntity
  8
0
100
AcDbBlockBegin
  2
*Model_Space
 70
0
 10
0.0
 20
0.0
 30
0.0
  3
*Model_Space
  1

  0
ENDBLK
  5
21
100
AcDbEntity
  8
0
100
AcDbBlockEnd
  0
BLOCK
  5
1C
100
AcDbEntity
  8
0
100
AcDbBlockBegin
  2
*Paper_Space
 70
0
 10
0.0
 20
0.0
 30
0.0
  3
*Paper_Space
  1

  0
ENDBLK
  5
1D
100
AcDbEntity
  8
0
100
AcDbBlockEnd
  0
BLOCK
  5
214
100
AcDbEntity
  8
0
100
AcDbBlockBegin
  2
_FILLED
 70
64
 10
0.0
 20
0.0
  3
_FILLED
  1

  0
SOLID
  5
215
100
AcDbEntity
  8
0
  6
BYBLOCK
 62
0
100
AcDbTrace
 10
0.0
 20
0.0
 11
-1.0
 21
0.25
 12
-1.0
 22
-0.25
 13
-1.0
 23
-0.25
  0
ENDBLK
  5
216
100
AcDbEntity
  8
0
  6
BYBLOCK
 62
0
100
AcDbBlockEnd
  0
ENDSEC
  0
SECTION
  2
ENTITIES
  0
LINE
  5
217
100
AcDbEntity
  8
0
100
AcDbLine
 62
7
  6
CONTINUOUS
 10
11.8769269407
 20
67.0070483339
 11
12.5953474304
 21
67.4218332887
  0
LINE
  5
218
100
AcDbEntity
  8
0
100
AcDbLine
 62
7
  6
CONTINUOUS
 10
15.2894100591
 20
68.9772346205
 11
16.0078305488
 21
69.3920195753
  0
LINE
  5
219
100
AcDbEntity
  8
0
100
AcDbLine
 62
7
  6
CONTINUOUS
 10
20.1387311658
 20
71.7769819222
 11
19.4203106761
 21
71.3621969674
  0
LINE
  5
21A
100
AcDbEntity
  8
0
100
AcDbLine
 62
7
  6
CONTINUOUS
 10
26.9547255588
 20
74.5508016609
 11
24.3145412514
 21
73.0264996392
  0
LINE
  5
21B
100
AcDbEntity
  8
0
100
AcDbLine
 62
7
  6
CONTINUOUS
 10
24.6737529918
 20
72.8191133359
 11
27.3139372992
 21
74.3434153576
  0
LINE
  5
21C
100
AcDbEntity
  8
0
100
AcDbLine
 62
7
  6
CONTINUOUS
 10
23.9553325021
 20
71.5228432422
 11
22.2671414233
 21
70.5481714864
  0
LINE
  5
21D
100
AcDbEntity
  8
0
100
AcDbLine
 62
7
  6
CONTINUOUS
 10
20.8535302428
 20
69.7320275625
 11
20.536270307
 21
69.5488585466
  0
LINE
  5
21E
100
AcDbEntity
  8
0
100
AcDbLine
 62
7
  6
CONTINUOUS
 10
19.4203106761
 20
68.9045627992
 11
18.1362408063
 21
68.1632091395
  0
LINE
  5
21F
100
AcDbEntity
  8
0
100
AcDbLine
 62
7
  6
CONTINUOUS
 10
16.7226296258
 20
67.3470652156
 11
16.40536969
 21
67.1638961997
  0
LINE
  5
220
100
AcDbEntity
  8
0
100
AcDbLine
 62
7
  6
CONTINUOUS
 10
15.2894100591
 20
66.5196004523
 11
14.7237576879
 21
66.1930228529
  0
LINE
  5
221
100
AcDbEntity
  8
0
100
AcDbLine
 62
7
  6
CONTINUOUS
 10
13.3101465074
 20
65.376878929
 11
12.9928865716
 21
65.1937099131
  0
LINE
  5
222
100
AcDbEntity
  8
0
100
AcDbLine
 62
7
  6
CONTINUOUS
 10
11.8769269407
 20
64.5494141657
 11
7.1802543728
 21
61.8378051805
  0
LINE
  5
223
100
AcDbEntity
  8
0
100
AcDbLine
 62
7
  6
CONTINUOUS
 10
22.7789374575
 20
70.252692593
 11
22.4197287082
 21
70.0453045628
  0
LINE
  5
224
100
AcDbEntity
  8
0
100
AcDbLine
 62
7
  6
CONTINUOUS
 10
18.6480368405
 20
67.867730246
 11
18.2888280912
 21
67.6603422159
  0
LINE
  5
225
100
AcDbEntity
  8
0
100
AcDbLine
 62
7
  6
CONTINUOUS
 10
15.2355537221
 20
65.8975439595
 11
14.8763449728
 21
65.6901559293
  0
LINE
  5
226
100
AcDbEntity
  8
0
100
AcDbLine
 62
7
  6
CONTINUOUS
 10
7.3598594952
 20
60.6855020139
 11
7.2004293832
 21
60.5934555452
  0
LINE
  5
227
100
AcDbEntity
  8
0
100
AcDbLine
 62
7
  6
CONTINUOUS
 10
15.2355567132
 20
65.0679863981
 11
15.5947654625
 21
65.2753744283
  0
LINE
  5
228
100
AcDbEntity
  8
0
100
AcDbLine
 62
7
  6
CONTINUOUS
 10
18.6480398316
 20
67.0381726847
 11
19.0072485809
 21
67.2455607148
  0
LINE
  5
229
100
AcDbEntity
  8
0
100
AcDbLine
 62
7
  6
CONTINUOUS
 10
22.7789404486
 20
69.4231350316
 11
23.1381491979
 21
69.6305230618
  0
LINE
  5
22A
100
AcDbEntity
  8
0
100
AcDbLine
 62
7
  6
CONTINUOUS
 10
7.7048046424
 20
29.484714665
 11
7.6543671165
 21
32.595588753
  0
LINE
  5
22B
100
AcDbEntity
  8
0
100
AcDbLine
 62
7
  6
CONTINUOUS
 10
7.6510046148
 20
32.8029803589
 11
7.2508669091
 21
57.4825814572
  0
LINE
  5
22C
100
AcDbEntity
  8
0
100
AcDbLine
 62
7
  6
CONTINUOUS
 10
7.2475044074
 20
57.6899730631
 11
7.2004293832
 21
60.5934555452
  0
LINE
  5
22D
100
AcDbEntity
  8
0
100
AcDbLine
 62
7
  6
CONTINUOUS
 10
7.1970668814
 20
60.8008471511
 11
7.1802543728
 21
61.8378051805
  0
LINE
  5
22E
100
AcDbEntity
  8
0
100
AcDbLine
 62
7
  6
CONTINUOUS
 10
7.3598594952
 20
57.4825817192
 11
7.3598594952
 21
57.6251062903
  0
LINE
  5
22F
100
AcDbEntity
  8
0
100
AcDbLine
 62
7
  6
CONTINUOUS
 10
7.3598594952
 20
60.5934559285
 11
7.3598594952
 21
60.706860918
  0
LINE
  5
230
100
AcDbEntity
  8
0
100
AcDbLine
 62
7
  6
CONTINUOUS
 10
7.7190697401
 20
32.5955889085
 11
7.7190697401
 21
32.7636838295
  0
LINE
  5
231
100
AcDbEntity
  8
0
100
AcDbLine
 62
7
  6
CONTINUOUS
 10
7.3598594952
 20
57.5455079805
 11
7.2508669091
 21
57.4825814572
  0
LINE
  5
232
100
AcDbEntity
  8
0
100
AcDbLine
 62
7
  6
CONTINUOUS
 10
24.3145442425
 20
67.219543343
 11
27.6731460485
 21
69.1586214251
  0
LINE
  5
233
100
AcDbEntity
  8
0
100
AcDbLine
 62
7
  6
CONTINUOUS
 10
27.1509091623
 20
17.4359537395
 11
16.4845368499
 21
23.5940473506
  0
LINE
  5
234
100
AcDbEntity
  8
0
100
AcDbLine
 62
7
  6
CONTINUOUS
 10
35.9171914189
 20
13.1966540503
 11
27.6661493987
 21
17.9602876139
  0
LINE
  5
235
100
AcDbEntity
  8
0
100
AcDbLine
 62
7
  6
CONTINUOUS
 10
15.9558466625
 20
24.7210811014
 11
7.7048046424
 21
29.484714665
  0
LINE
  5
236
100
AcDbEntity
  8
0
100
AcDbLine
 62
7
  6
CONTINUOUS
 10
23.9553325021
 20
72.4043283811
 11
24.3145412514
 21
73.0264996392
  0
LINE
  5
237
100
AcDbEntity
  8
0
100
AcDbLine
 62
7
  6
CONTINUOUS
 10
18.881555878
 20
62.9630154196
 11
19.5999763677
 21
63.3778003744
  0
LINE
  5
238
100
AcDbEntity
  8
0
100
AcDbLine
 62
7
  6
CONTINUOUS
 10
23.0124594861
 20
65.347986661
 11
22.2940389964
 21
64.9332017062
  0
LINE
  5
239
100
AcDbEntity
  8
0
100
AcDbLine
 62
7
  6
CONTINUOUS
 10
27.1433601031
 20
67.7329490079
 11
26.4249396134
 21
67.3181640531
  0
LINE
  5
23A
100
AcDbEntity
  8
0
100
AcDbLine
 62
7
  6
CONTINUOUS
 10
15.2355567132
 20
60.0905876633
 11
15.5947654625
 21
60.2979756934
  0
LINE
  5
23B
100
AcDbEntity
  8
0
100
AcDbLine
 62
7
  6
CONTINUOUS
 10
18.6480398316
 20
62.0607739499
 11
18.881555878
 21
62.1955936973
  0
LINE
  5
23C
100
AcDbEntity
  8
0
100
AcDbLine
 62
7
  6
CONTINUOUS
 10
7.6543671165
 20
32.595588753
 11
35.9171916289
 21
16.2784085567
  0
LINE
  5
23D
100
AcDbEntity
  8
0
100
AcDbLine
 62
7
  6
CONTINUOUS
 10
7.7190697401
 20
32.5955889085
 11
35.9171913595
 21
16.3157640998
  0
LINE
  5
23E
100
AcDbEntity
  8
0
100
AcDbLine
 62
7
  6
CONTINUOUS
 10
35.9171916428
 20
16.4838588571
 11
7.6510046148
 21
32.8029803589
  0
LINE
  5
23F
100
AcDbEntity
  8
0
100
AcDbLine
 62
7
  6
CONTINUOUS
 10
15.9558466625
 20
24.7210811014
 11
16.4845368499
 21
23.5940473506
  0
LINE
  5
240
100
AcDbEntity
  8
0
100
AcDbLine
 62
7
  6
CONTINUOUS
 10
11.8769269407
 20
62.0296495991
 11
11.8769269407
 21
67.0070483339
  0
LINE
  5
241
100
AcDbEntity
  8
0
100
AcDbLine
 62
7
  6
CONTINUOUS
 10
24.6737529918
 20
72.8191133359
 11
24.3145442425
 21
72.1969420778
  0
LINE
  5
242
100
AcDbEntity
  8
0
100
AcDbLine
 62
7
  6
CONTINUOUS
 10
29.7835663948
 20
66.2086596787
 11
29.4243576455
 21
66.0012716485
  0
LINE
  5
243
100
AcDbEntity
  8
0
100
AcDbLine
 62
7
  6
CONTINUOUS
 10
25.6526657778
 20
63.8236973318
 11
25.2934570285
 21
63.6163093016
  0
LINE
  5
244
100
AcDbEntity
  8
0
100
AcDbLine
 62
7
  6
CONTINUOUS
 10
22.2401826594
 20
61.8535110452
 11
21.8809739101
 21
61.646123015
  0
LINE
  5
245
100
AcDbEntity
  8
0
100
AcDbLine
 62
7
  6
CONTINUOUS
 10
22.2401856505
 20
61.0239534838
 11
22.5993943998
 21
61.231341514
  0
LINE
  5
246
100
AcDbEntity
  8
0
100
AcDbLine
 62
7
  6
CONTINUOUS
 10
25.6526687689
 20
62.9941397704
 11
26.0118775182
 21
63.2015278006
  0
LINE
  5
247
100
AcDbEntity
  8
0
100
AcDbLine
 62
7
  6
CONTINUOUS
 10
29.7835693859
 20
65.3791021173
 11
30.1427781352
 21
65.5864901475
  0
LINE
  5
248
100
AcDbEntity
  8
0
100
AcDbLine
 62
7
  6
CONTINUOUS
 10
42.0319624584
 20
16.7269976827
 11
42.7436733224
 21
16.3161005195
  0
LINE
  5
249
100
AcDbEntity
  8
0
100
AcDbLine
 62
7
  6
CONTINUOUS
 10
15.2355567132
 20
65.0679863981
 11
15.2355567132
 21
60.0905876633
  0
LINE
  5
24A
100
AcDbEntity
  8
0
100
AcDbLine
 62
7
  6
CONTINUOUS
 10
15.2894100591
 20
65.8042625654
 11
15.2894100591
 21
68.9772346205
  0
LINE
  5
24B
100
AcDbEntity
  8
0
100
AcDbLine
 62
7
  6
CONTINUOUS
 10
15.5947654625
 20
60.2979756934
 11
15.5947654625
 21
65.2753744283
  0
LINE
  5
24C
100
AcDbEntity
  8
0
100
AcDbLine
 62
7
  6
CONTINUOUS
 10
26.604605305
 20
59.3337674601
 11
25.8861848153
 21
58.9189825054
  0
LINE
  5
24D
100
AcDbEntity
  8
0
100
AcDbLine
 62
7
  6
CONTINUOUS
 10
30.0170884234
 20
61.3039537467
 11
29.2986679337
 21
60.8891687919
  0
LINE
  5
24E
100
AcDbEntity
  8
0
100
AcDbLine
 62
7
  6
CONTINUOUS
 10
34.1479890404
 20
63.6889160936
 11
33.4295685507
 21
63.2741311389
  0
LINE
  5
24F
100
AcDbEntity
  8
0
100
AcDbLine
 62
7
  6
CONTINUOUS
 10
18.6480398316
 20
67.0381726847
 11
18.6480398316
 21
62.0607739499
  0
LINE
  5
250
100
AcDbEntity
  8
0
100
AcDbLine
 62
7
  6
CONTINUOUS
 10
22.2401856505
 20
56.046554749
 11
22.5993943998
 21
56.2539427792
  0
LINE
  5
251
100
AcDbEntity
  8
0
100
AcDbLine
 62
7
  6
CONTINUOUS
 10
25.6526687689
 20
58.0167410356
 11
25.8861848153
 21
58.1515607831
  0
LINE
  5
252
100
AcDbEntity
  8
0
100
AcDbLine
 62
7
  6
CONTINUOUS
 10
36.7881953321
 20
62.1646267644
 11
36.4289865828
 21
61.9572387342
  0
LINE
  5
253
100
AcDbEntity
  8
0
100
AcDbLine
 62
7
  6
CONTINUOUS
 10
32.6572947151
 20
59.7796644175
 11
32.2980859658
 21
59.5722763873
  0
LINE
  5
254
100
AcDbEntity
  8
0
100
AcDbLine
 62
7
  6
CONTINUOUS
 10
29.2448115968
 20
57.8094781309
 11
28.8856028474
 21
57.6020901007
  0
LINE
  5
255
100
AcDbEntity
  8
0
100
AcDbLine
 62
7
  6
CONTINUOUS
 10
18.881555878
 20
57.9856166848
 11
18.881555878
 21
62.9630154196
  0
LINE
  5
256
100
AcDbEntity
  8
0
100
AcDbLine
 62
7
  6
CONTINUOUS
 10
19.0072485809
 20
63.0355862103
 11
19.0072485809
 21
67.2455607148
  0
LINE
  5
257
100
AcDbEntity
  8
0
100
AcDbLine
 62
7
  6
CONTINUOUS
 10
19.4203106761
 20
66.3847982326
 11
19.4203106761
 21
71.3621969674
  0
LINE
  5
258
100
AcDbEntity
  8
0
100
AcDbLine
 62
7
  6
CONTINUOUS
 10
29.2448145878
 20
56.9799205695
 11
29.6040233371
 21
57.1873085997
  0
LINE
  5
259
100
AcDbEntity
  8
0
100
AcDbLine
 62
7
  6
CONTINUOUS
 10
32.6572977062
 20
58.9501068561
 11
33.0165064555
 21
59.1574948863
  0
LINE
  5
25A
100
AcDbEntity
  8
0
100
AcDbLine
 62
7
  6
CONTINUOUS
 10
36.7881983232
 20
61.335069203
 11
37.1474070725
 21
61.5424572332
  0
LINE
  5
25B
100
AcDbEntity
  8
0
100
AcDbLine
 62
7
  6
CONTINUOUS
 10
42.2284374883
 20
16.840431917
 11
42.7436733224
 21
16.3161005195
  0
LINE
  5
25C
100
AcDbEntity
  8
0
100
AcDbLine
 62
7
  6
CONTINUOUS
 10
22.2401856505
 20
61.0239534838
 11
22.2401856505
 21
56.046554749
  0
LINE
  5
25D
100
AcDbEntity
  8
0
100
AcDbLine
 62
7
  6
CONTINUOUS
 10
22.2940389964
 20
61.7602296511
 11
22.2940389964
 21
64.9332017062
  0
LINE
  5
25E
100
AcDbEntity
  8
0
100
AcDbLine
 62
7
  6
CONTINUOUS
 10
22.5993943998
 20
56.2539427792
 11
22.5993943998
 21
61.231341514
  0
LINE
  5
25F
100
AcDbEntity
  8
0
100
AcDbLine
 62
7
  6
CONTINUOUS
 10
22.7789404486
 20
69.4231350316
 11
22.7789404486
 21
65.2131651866
  0
LINE
  5
260
100
AcDbEntity
  8
0
100
AcDbLine
 62
7
  6
CONTINUOUS
 10
23.1381491979
 20
65.2754213137
 11
23.1381491979
 21
69.6305230618
  0
LINE
  5
261
100
AcDbEntity
  8
0
100
AcDbLine
 62
7
  6
CONTINUOUS
 10
23.9553325021
 20
72.4043283811
 11
23.9553325021
 21
67.4269296463
  0
LINE
  5
262
100
AcDbEntity
  8
0
100
AcDbLine
 62
7
  6
CONTINUOUS
 10
33.6092342423
 20
55.2897345459
 11
32.8908137526
 21
54.8749495911
  0
LINE
  5
263
100
AcDbEntity
  8
0
100
AcDbLine
 62
7
  6
CONTINUOUS
 10
37.0217173607
 20
57.2599208324
 11
36.303296871
 21
56.8451358777
  0
LINE
  5
264
100
AcDbEntity
  8
0
100
AcDbLine
 62
7
  6
CONTINUOUS
 10
41.1526179777
 20
59.6448831794
 11
40.434197488
 21
59.2300982246
  0
LINE
  5
265
100
AcDbEntity
  8
0
100
AcDbLine
 62
7
  6
CONTINUOUS
 10
29.2448145878
 20
52.0025218347
 11
29.6040233371
 21
52.2099098649
  0
LINE
  5
266
100
AcDbEntity
  8
0
100
AcDbLine
 62
7
  6
CONTINUOUS
 10
32.6572977062
 20
53.9727081213
 11
32.8908137526
 21
54.1075278688
  0
LINE
  5
267
100
AcDbEntity
  8
0
100
AcDbLine
 62
7
  6
CONTINUOUS
 10
48.238021176
 20
62.2631631906
 11
45.5978368686
 21
60.7388611689
  0
LINE
  5
268
100
AcDbEntity
  8
0
100
AcDbLine
 62
7
  6
CONTINUOUS
 10
24.3145442425
 20
67.219543343
 11
24.3145442425
 21
72.1969420778
  0
LINE
  5
269
100
AcDbEntity
  8
0
100
AcDbLine
 62
7
  6
CONTINUOUS
 10
25.6526687689
 20
62.9941397704
 11
25.6526687689
 21
58.0167410356
  0
LINE
  5
26A
100
AcDbEntity
  8
0
100
AcDbLine
 62
7
  6
CONTINUOUS
 10
25.8861848153
 20
53.9415837705
 11
25.8861848153
 21
58.9189825054
  0
LINE
  5
26B
100
AcDbEntity
  8
0
100
AcDbLine
 62
7
  6
CONTINUOUS
 10
26.0118775182
 20
58.9915532961
 11
26.0118775182
 21
63.2015278006
  0
LINE
  5
26C
100
AcDbEntity
  8
0
100
AcDbLine
 62
7
  6
CONTINUOUS
 10
26.4249396134
 20
62.3407653183
 11
26.4249396134
 21
67.3181640531
  0
LINE
  5
26D
100
AcDbEntity
  8
0
100
AcDbLine
 62
7
  6
CONTINUOUS
 10
45.957048609
 20
60.5314748656
 11
48.5972329164
 21
62.0557768873
  0
LINE
  5
26E
100
AcDbEntity
  8
0
100
AcDbLine
 62
7
  6
CONTINUOUS
 10
43.7928242695
 20
58.1205938501
 11
43.4336155201
 21
57.91320582
  0
LINE
  5
26F
100
AcDbEntity
  8
0
100
AcDbLine
 62
7
  6
CONTINUOUS
 10
39.6619236525
 20
55.7356315032
 11
39.3027149031
 21
55.528243473
  0
LINE
  5
270
100
AcDbEntity
  8
0
100
AcDbLine
 62
7
  6
CONTINUOUS
 10
36.2494405341
 20
53.7654452166
 11
35.8902317848
 21
53.5580571865
  0
LINE
  5
271
100
AcDbEntity
  8
0
100
AcDbLine
 62
7
  6
CONTINUOUS
 10
36.2494435251
 20
52.9358876553
 11
36.6086522744
 21
53.1432756854
  0
LINE
  5
272
100
AcDbEntity
  8
0
100
AcDbLine
 62
7
  6
CONTINUOUS
 10
39.6619266435
 20
54.9060739418
 11
40.0211353928
 21
55.113461972
  0
LINE
  5
273
100
AcDbEntity
  8
0
100
AcDbLine
 62
7
  6
CONTINUOUS
 10
43.7928272605
 20
57.2910362888
 11
44.1520360098
 21
57.4984243189
  0
LINE
  5
274
100
AcDbEntity
  8
0
100
AcDbLine
 62
7
  6
CONTINUOUS
 10
27.6731460485
 20
74.1360201599
 11
27.6731460485
 21
69.1586214251
  0
LINE
  5
275
100
AcDbEntity
  8
0
100
AcDbLine
 62
7
  6
CONTINUOUS
 10
45.5978398597
 20
54.9319048727
 11
48.9564416657
 21
56.8709829547
  0
LINE
  5
276
100
AcDbEntity
  8
0
100
AcDbLine
 62
7
  6
CONTINUOUS
 10
55.1995620708
 20
27.4110238692
 11
55.1348594473
 21
27.4483791012
  0
LINE
  5
277
100
AcDbEntity
  8
0
100
AcDbLine
 62
7
  6
CONTINUOUS
 10
15.2355567132
 20
65.0679863981
 11
14.8763449728
 21
65.6901559293
  0
LINE
  5
278
100
AcDbEntity
  8
0
100
AcDbLine
 62
7
  6
CONTINUOUS
 10
15.2355537221
 20
65.8975439595
 11
15.5947654625
 21
65.2753744283
  0
LINE
  5
279
100
AcDbEntity
  8
0
100
AcDbLine
 62
7
  6
CONTINUOUS
 10
29.2448145878
 20
56.9799205695
 11
29.2448145878
 21
52.0025218347
  0
LINE
  5
27A
100
AcDbEntity
  8
0
100
AcDbLine
 62
7
  6
CONTINUOUS
 10
29.2986679337
 20
57.7161967368
 11
29.2986679337
 21
60.8891687919
  0
LINE
  5
27B
100
AcDbEntity
  8
0
100
AcDbLine
 62
7
  6
CONTINUOUS
 10
29.6040233371
 20
52.2099098649
 11
29.6040233371
 21
57.1873085997
  0
LINE
  5
27C
100
AcDbEntity
  8
0
100
AcDbLine
 62
7
  6
CONTINUOUS
 10
29.7835693859
 20
65.3791021173
 11
29.7835693859
 21
61.1691322723
  0
LINE
  5
27D
100
AcDbEntity
  8
0
100
AcDbLine
 62
7
  6
CONTINUOUS
 10
30.1427781352
 20
61.2313883994
 11
30.1427781352
 21
65.5864901475
  0
LINE
  5
27E
100
AcDbEntity
  8
0
100
AcDbLine
 62
7
  6
CONTINUOUS
 10
7.7190697401
 20
32.6329446071
 11
7.6543671165
 21
32.595588753
  0
LINE
  5
27F
100
AcDbEntity
  8
0
100
AcDbLine
 62
7
  6
CONTINUOUS
 10
36.2494435251
 20
47.9584889204
 11
36.6086522744
 21
48.1658769506
  0
LINE
  5
280
100
AcDbEntity
  8
0
100
AcDbLine
 62
7
  6
CONTINUOUS
 10
39.6619266435
 20
49.928675207
 11
40.0211353928
 21
50.1360632372
  0
LINE
  5
281
100
AcDbEntity
  8
0
100
AcDbLine
 62
7
  6
CONTINUOUS
 10
43.7928272605
 20
52.3136375539
 11
44.1520360098
 21
52.5210255841
  0
LINE
  5
282
100
AcDbEntity
  8
0
100
AcDbLine
 62
7
  6
CONTINUOUS
 10
7.2508669091
 20
57.4825814572
 11
35.9171933088
 21
40.9324446078
  0
LINE
  5
283
100
AcDbEntity
  8
0
100
AcDbLine
 62
7
  6
CONTINUOUS
 10
7.3598594952
 20
57.4825817192
 11
35.917192855
 21
40.9953706071
  0
LINE
  5
284
100
AcDbEntity
  8
0
100
AcDbLine
 62
7
  6
CONTINUOUS
 10
35.9171933228
 20
41.1378949082
 11
7.2475044074
 21
57.6899730631
  0
LINE
  5
285
100
AcDbEntity
  8
0
100
AcDbLine
 62
7
  6
CONTINUOUS
 10
32.6572977062
 20
58.9501068561
 11
32.6572977062
 21
53.9727081213
  0
LINE
  5
286
100
AcDbEntity
  8
0
100
AcDbLine
 62
7
  6
CONTINUOUS
 10
32.8908137526
 20
49.8975508563
 11
32.8908137526
 21
54.8749495911
  0
LINE
  5
287
100
AcDbEntity
  8
0
100
AcDbLine
 62
7
  6
CONTINUOUS
 10
33.0165064555
 20
54.9475203818
 11
33.0165064555
 21
59.1574948863
  0
LINE
  5
288
100
AcDbEntity
  8
0
100
AcDbLine
 62
7
  6
CONTINUOUS
 10
33.4295685507
 20
58.296732404
 11
33.4295685507
 21
63.2741311389
  0
LINE
  5
289
100
AcDbEntity
  8
0
100
AcDbLine
 62
7
  6
CONTINUOUS
 10
35.9171936028
 20
45.2469009167
 11
55.6736748145
 21
56.6532425759
  0
LINE
  5
28A
100
AcDbEntity
  8
0
100
AcDbLine
 62
7
  6
CONTINUOUS
 10
55.6568623059
 20
55.6162844657
 11
35.9171935328
 21
44.2196494146
  0
LINE
  5
28B
100
AcDbEntity
  8
0
100
AcDbLine
 62
7
  6
CONTINUOUS
 10
35.917192855
 20
44.1062448164
 11
55.4940696921
 21
55.4088924605
  0
LINE
  5
28C
100
AcDbEntity
  8
0
100
AcDbLine
 62
7
  6
CONTINUOUS
 10
35.9171935188
 20
44.0141991142
 11
55.6534998042
 21
55.4088928437
  0
LINE
  5
28D
100
AcDbEntity
  8
0
100
AcDbLine
 62
7
  6
CONTINUOUS
 10
42.3829495947
 20
39.6472583847
 11
42.4852176032
 21
39.5882152583
  0
LINE
  5
28E
100
AcDbEntity
  8
0
100
AcDbLine
 62
7
  6
CONTINUOUS
 10
7.2004293832
 20
60.5934555452
 11
35.9171935188
 21
44.0141991142
  0
LINE
  5
28F
100
AcDbEntity
  8
0
100
AcDbLine
 62
7
  6
CONTINUOUS
 10
7.3598594952
 20
60.5934559285
 11
35.917192855
 21
44.1062448164
  0
LINE
  5
290
100
AcDbEntity
  8
0
100
AcDbLine
 62
7
  6
CONTINUOUS
 10
35.9171935328
 20
44.2196494146
 11
7.1970668814
 21
60.8008471511
  0
LINE
  5
291
100
AcDbEntity
  8
0
100
AcDbLine
 62
7
  6
CONTINUOUS
 10
18.6480398316
 20
67.0381726847
 11
18.2888280912
 21
67.6603422159
  0
LINE
  5
292
100
AcDbEntity
  8
0
100
AcDbLine
 62
7
  6
CONTINUOUS
 10
22.2401856505
 20
61.0239534838
 11
21.8809739101
 21
61.646123015
  0
LINE
  5
293
100
AcDbEntity
  8
0
100
AcDbLine
 62
7
  6
CONTINUOUS
 10
18.6480368405
 20
67.867730246
 11
19.0072485809
 21
67.2455607148
  0
LINE
  5
294
100
AcDbEntity
  8
0
100
AcDbLine
 62
7
  6
CONTINUOUS
 10
22.2401826594
 20
61.8535110452
 11
22.5993943998
 21
61.231341514
  0
LINE
  5
295
100
AcDbEntity
  8
0
100
AcDbLine
 62
7
  6
CONTINUOUS
 10
35.9171914189
 20
13.1966540503
 11
35.9171916289
 21
16.2784085567
  0
LINE
  5
296
100
AcDbEntity
  8
0
100
AcDbLine
 62
7
  6
CONTINUOUS
 10
35.9171913595
 20
16.3157640998
 11
35.9171933088
 21
40.9324446078
  0
LINE
  5
297
100
AcDbEntity
  8
0
100
AcDbLine
 62
7
  6
CONTINUOUS
 10
35.917192855
 20
40.9953706071
 11
35.9171935188
 21
44.0141991142
  0
LINE
  5
298
100
AcDbEntity
  8
0
100
AcDbLine
 62
7
  6
CONTINUOUS
 10
35.917192855
 20
44.1062448164
 11
35.9171936028
 21
45.2469009167
  0
LINE
  5
299
100
AcDbEntity
  8
0
100
AcDbLine
 62
7
  6
CONTINUOUS
 10
36.2494435251
 20
52.9358876553
 11
36.2494435251
 21
47.9584889204
  0
LINE
  5
29A
100
AcDbEntity
  8
0
100
AcDbLine
 62
7
  6
CONTINUOUS
 10
36.303296871
 20
53.6721638225
 11
36.303296871
 21
56.8451358777
  0
LINE
  5
29B
100
AcDbEntity
  8
0
100
AcDbLine
 62
7
  6
CONTINUOUS
 10
36.6086522744
 20
48.1658769506
 11
36.6086522744
 21
53.1432756854
  0
LINE
  5
29C
100
AcDbEntity
  8
0
100
AcDbLine
 62
7
  6
CONTINUOUS
 10
36.7881983232
 20
61.335069203
 11
36.7881983232
 21
57.1250993581
  0
LINE
  5
29D
100
AcDbEntity
  8
0
100
AcDbLine
 62
7
  6
CONTINUOUS
 10
45.2386281193
 20
60.1166899108
 11
45.5978368686
 21
60.7388611689
  0
LINE
  5
29E
100
AcDbEntity
  8
0
100
AcDbLine
 62
7
  6
CONTINUOUS
 10
45.957048609
 20
60.5314748656
 11
45.5978398597
 21
59.9093036075
  0
LINE
  5
29F
100
AcDbEntity
  8
0
100
AcDbLine
 62
7
  6
CONTINUOUS
 10
55.60642478
 20
52.5054101352
 11
35.9171933228
 21
41.1378949082
  0
LINE
  5
2A0
100
AcDbEntity
  8
0
100
AcDbLine
 62
7
  6
CONTINUOUS
 10
35.917192855
 20
40.9953706071
 11
55.4940696921
 21
52.2980182512
  0
LINE
  5
2A1
100
AcDbEntity
  8
0
100
AcDbLine
 62
7
  6
CONTINUOUS
 10
35.9171933088
 20
40.9324446078
 11
55.6030622782
 21
52.2980185132
  0
LINE
  5
2A2
100
AcDbEntity
  8
0
100
AcDbLine
 62
7
  6
CONTINUOUS
 10
7.1802543728
 20
61.8378051805
 11
35.9171936028
 21
45.2469009167
  0
LINE
  5
2A3
100
AcDbEntity
  8
0
100
AcDbLine
 62
7
  6
CONTINUOUS
 10
25.6526687689
 20
62.9941397704
 11
25.2934570285
 21
63.6163093016
  0
LINE
  5
2A4
100
AcDbEntity
  8
0
100
AcDbLine
 62
7
  6
CONTINUOUS
 10
29.2448145878
 20
56.9799205695
 11
28.8856028474
 21
57.6020901007
  0
LINE
  5
2A5
100
AcDbEntity
  8
0
100
AcDbLine
 62
7
  6
CONTINUOUS
 10
25.6526657778
 20
63.8236973318
 11
26.0118775182
 21
63.2015278006
  0
LINE
  5
2A6
100
AcDbEntity
  8
0
100
AcDbLine
 62
7
  6
CONTINUOUS
 10
29.2448115968
 20
57.8094781309
 11
29.6040233371
 21
57.1873085997
  0
LINE
  5
2A7
100
AcDbEntity
  8
0
100
AcDbLine
 62
7
  6
CONTINUOUS
 10
22.7789404486
 20
69.4231350316
 11
22.4197287082
 21
70.0453045628
  0
LINE
  5
2A8
100
AcDbEntity
  8
0
100
AcDbLine
 62
7
  6
CONTINUOUS
 10
37.1474070725
 20
57.1873554851
 11
37.1474070725
 21
61.5424572332
  0
LINE
  5
2A9
100
AcDbEntity
  8
0
100
AcDbLine
 62
7
  6
CONTINUOUS
 10
38.9267552674
 20
41.6427541812
 11
38.8931301101
 21
37.5143349566
  0
LINE
  5
2AA
100
AcDbEntity
  8
0
100
AcDbLine
 62
7
  6
CONTINUOUS
 10
42.5188427604
 20
43.7166344829
 11
38.9267552674
 21
41.6427541812
  0
LINE
  5
2AB
100
AcDbEntity
  8
0
100
AcDbLine
 62
7
  6
CONTINUOUS
 10
11.8769269407
 20
62.0296495991
 11
15.2355567132
 21
60.0905876633
  0
LINE
  5
2AC
100
AcDbEntity
  8
0
100
AcDbLine
 62
7
  6
CONTINUOUS
 10
18.881555878
 20
57.9856166848
 11
22.2401856505
 21
56.046554749
  0
LINE
  5
2AD
100
AcDbEntity
  8
0
100
AcDbLine
 62
7
  6
CONTINUOUS
 10
25.8861848153
 20
53.9415837705
 11
29.2448145878
 21
52.0025218347
  0
LINE
  5
2AE
100
AcDbEntity
  8
0
100
AcDbLine
 62
7
  6
CONTINUOUS
 10
32.8908137526
 20
49.8975508563
 11
36.2494435251
 21
47.9584889204
  0
LINE
  5
2AF
100
AcDbEntity
  8
0
100
AcDbLine
 62
7
  6
CONTINUOUS
 10
22.7789374575
 20
70.252692593
 11
23.1381491979
 21
69.6305230618
  0
LINE
  5
2B0
100
AcDbEntity
  8
0
100
AcDbLine
 62
7
  6
CONTINUOUS
 10
39.6619266435
 20
54.9060739418
 11
39.6619266435
 21
49.928675207
  0
LINE
  5
2B1
100
AcDbEntity
  8
0
100
AcDbLine
 62
7
  6
CONTINUOUS
 10
40.0211353928
 20
50.1360632372
 11
40.0211353928
 21
55.113461972
  0
LINE
  5
2B2
100
AcDbEntity
  8
0
100
AcDbLine
 62
7
  6
CONTINUOUS
 10
40.434197488
 20
54.2526994898
 11
40.434197488
 21
59.2300982246
  0
LINE
  5
2B3
100
AcDbEntity
  8
0
100
AcDbLine
 62
7
  6
CONTINUOUS
 10
42.3829495947
 20
39.6472583847
 11
38.8940964514
 21
37.6329801069
  0
LINE
  5
2B4
100
AcDbEntity
  8
0
100
AcDbLine
 62
7
  6
CONTINUOUS
 10
38.8931301101
 20
37.5143349566
 11
42.4852176032
 21
39.5882152583
  0
LINE
  5
2B5
100
AcDbEntity
  8
0
100
AcDbLine
 62
7
  6
CONTINUOUS
 10
15.5947654625
 20
63.8235428496
 11
18.6480398316
 21
62.0607739499
  0
LINE
  5
2B6
100
AcDbEntity
  8
0
100
AcDbLine
 62
7
  6
CONTINUOUS
 10
22.5993943998
 20
59.7795099353
 11
25.6526687689
 21
58.0167410356
  0
LINE
  5
2B7
100
AcDbEntity
  8
0
100
AcDbLine
 62
7
  6
CONTINUOUS
 10
29.6040233371
 20
55.735477021
 11
32.6572977062
 21
53.9727081213
  0
LINE
  5
2B8
100
AcDbEntity
  8
0
100
AcDbLine
 62
7
  6
CONTINUOUS
 10
36.6086522744
 20
51.6914441068
 11
39.6619266435
 21
49.928675207
  0
LINE
  5
2B9
100
AcDbEntity
  8
0
100
AcDbLine
 62
7
  6
CONTINUOUS
 10
12.2361386811
 20
67.2144452585
 11
14.8763449728
 21
65.6901559293
  0
LINE
  5
2BA
100
AcDbEntity
  8
0
100
AcDbLine
 62
7
  6
CONTINUOUS
 10
19.2407676184
 20
63.1704123442
 11
21.8809739101
 21
61.646123015
  0
LINE
  5
2BB
100
AcDbEntity
  8
0
100
AcDbLine
 62
7
  6
CONTINUOUS
 10
26.2453965557
 20
59.12637943
 11
28.8856028474
 21
57.6020901007
  0
LINE
  5
2BC
100
AcDbEntity
  8
0
100
AcDbLine
 62
7
  6
CONTINUOUS
 10
33.250025493
 20
55.0823465157
 11
35.8902317848
 21
53.5580571865
  0
LINE
  5
2BD
100
AcDbEntity
  8
0
100
AcDbLine
 62
7
  6
CONTINUOUS
 10
32.6572977062
 20
58.9501068561
 11
32.2980859658
 21
59.5722763873
  0
LINE
  5
2BE
100
AcDbEntity
  8
0
100
AcDbLine
 62
7
  6
CONTINUOUS
 10
36.2494435251
 20
52.9358876553
 11
35.8902317848
 21
53.5580571865
  0
LINE
  5
2BF
100
AcDbEntity
  8
0
100
AcDbLine
 62
7
  6
CONTINUOUS
 10
32.6572947151
 20
59.7796644175
 11
33.0165064555
 21
59.1574948863
  0
LINE
  5
2C0
100
AcDbEntity
  8
0
100
AcDbLine
 62
7
  6
CONTINUOUS
 10
36.2494405341
 20
53.7654452166
 11
36.6086522744
 21
53.1432756854
  0
LINE
  5
2C1
100
AcDbEntity
  8
0
100
AcDbLine
 62
7
  6
CONTINUOUS
 10
29.7835693859
 20
65.3791021173
 11
29.4243576455
 21
66.0012716485
  0
LINE
  5
2C2
100
AcDbEntity
  8
0
100
AcDbLine
 62
7
  6
CONTINUOUS
 10
29.7835663948
 20
66.2086596787
 11
30.1427781352
 21
65.5864901475
  0
LINE
  5
2C3
100
AcDbEntity
  8
0
100
AcDbLine
 62
7
  6
CONTINUOUS
 10
42.3829495947
 20
43.6381769954
 11
42.3829495947
 21
39.6472583847
  0
LINE
  5
2C4
100
AcDbEntity
  8
0
100
AcDbLine
 62
7
  6
CONTINUOUS
 10
43.7928272605
 20
57.2910362888
 11
43.7928272605
 21
52.3136375539
  0
LINE
  5
2C5
100
AcDbEntity
  8
0
100
AcDbLine
 62
7
  6
CONTINUOUS
 10
44.1520360098
 20
52.5210255841
 11
44.1520360098
 21
57.4984243189
  0
LINE
  5
2C6
100
AcDbEntity
  8
0
100
AcDbLine
 62
7
  6
CONTINUOUS
 10
42.4852176032
 20
39.5882152583
 11
42.5188427604
 21
43.7166344829
  0
LINE
  5
2C7
100
AcDbEntity
  8
0
100
AcDbLine
 62
7
  6
CONTINUOUS
 10
36.2494405341
 20
53.7654452166
 11
33.6092342423
 21
55.2897345459
  0
LINE
  5
2C8
100
AcDbEntity
  8
0
100
AcDbLine
 62
7
  6
CONTINUOUS
 10
29.2448115968
 20
57.8094781309
 11
26.604605305
 21
59.3337674601
  0
LINE
  5
2C9
100
AcDbEntity
  8
0
100
AcDbLine
 62
7
  6
CONTINUOUS
 10
22.2401826594
 20
61.8535110452
 11
19.5999763677
 21
63.3778003744
  0
LINE
  5
2CA
100
AcDbEntity
  8
0
100
AcDbLine
 62
7
  6
CONTINUOUS
 10
15.2355537221
 20
65.8975439595
 11
12.5953474304
 21
67.4218332887
  0
LINE
  5
2CB
100
AcDbEntity
  8
0
100
AcDbLine
 62
7
  6
CONTINUOUS
 10
39.6619266435
 20
54.9060739418
 11
39.3027149031
 21
55.528243473
  0
LINE
  5
2CC
100
AcDbEntity
  8
0
100
AcDbLine
 62
7
  6
CONTINUOUS
 10
39.6619236525
 20
55.7356315032
 11
40.0211353928
 21
55.113461972
  0
LINE
  5
2CD
100
AcDbEntity
  8
0
100
AcDbLine
 62
7
  6
CONTINUOUS
 10
36.7881983232
 20
61.335069203
 11
36.4289865828
 21
61.9572387342
  0
LINE
  5
2CE
100
AcDbEntity
  8
0
100
AcDbLine
 62
7
  6
CONTINUOUS
 10
45.2386281193
 20
60.1166899108
 11
45.2386281193
 21
55.139291176
  0
LINE
  5
2CF
100
AcDbEntity
  8
0
100
AcDbLine
 62
7
  6
CONTINUOUS
 10
45.5978398597
 20
54.9319048727
 11
45.5978398597
 21
59.9093036075
  0
LINE
  5
2D0
100
AcDbEntity
  8
0
100
AcDbLine
 62
7
  6
CONTINUOUS
 10
27.1509091623
 20
17.4359537395
 11
27.6661493987
 21
17.9602876139
  0
LINE
  5
2D1
100
AcDbEntity
  8
0
100
AcDbLine
 62
7
  6
CONTINUOUS
 10
19.4203106761
 20
66.3847982326
 11
22.2940389964
 21
64.7256879474
  0
LINE
  5
2D2
100
AcDbEntity
  8
0
100
AcDbLine
 62
7
  6
CONTINUOUS
 10
26.4249396134
 20
62.3407653183
 11
29.2986679337
 21
60.6816550331
  0
LINE
  5
2D3
100
AcDbEntity
  8
0
100
AcDbLine
 62
7
  6
CONTINUOUS
 10
33.4295685507
 20
58.296732404
 11
36.303296871
 21
56.6376221188
  0
LINE
  5
2D4
100
AcDbEntity
  8
0
100
AcDbLine
 62
7
  6
CONTINUOUS
 10
40.434197488
 20
54.2526994898
 11
43.7928272605
 21
52.3136375539
  0
LINE
  5
2D5
100
AcDbEntity
  8
0
100
AcDbLine
 62
7
  6
CONTINUOUS
 10
15.6486217995
 20
69.1846315451
 11
18.2888280912
 21
67.6603422159
  0
LINE
  5
2D6
100
AcDbEntity
  8
0
100
AcDbLine
 62
7
  6
CONTINUOUS
 10
22.6532507368
 20
65.1405986308
 11
25.2934570285
 21
63.6163093016
  0
LINE
  5
2D7
100
AcDbEntity
  8
0
100
AcDbLine
 62
7
  6
CONTINUOUS
 10
29.6578796741
 20
61.0965657165
 11
32.2980859658
 21
59.5722763873
  0
LINE
  5
2D8
100
AcDbEntity
  8
0
100
AcDbLine
 62
7
  6
CONTINUOUS
 10
36.6625086114
 20
57.0525328023
 11
39.3027149031
 21
55.528243473
  0
LINE
  5
2D9
100
AcDbEntity
  8
0
100
AcDbLine
 62
7
  6
CONTINUOUS
 10
39.6619236525
 20
55.7356315032
 11
37.0217173607
 21
57.2599208324
  0
LINE
  5
2DA
100
AcDbEntity
  8
0
100
AcDbLine
 62
7
  6
CONTINUOUS
 10
32.6572947151
 20
59.7796644175
 11
30.0170884234
 21
61.3039537467
  0
LINE
  5
2DB
100
AcDbEntity
  8
0
100
AcDbLine
 62
7
  6
CONTINUOUS
 10
25.6526657778
 20
63.8236973318
 11
23.0124594861
 21
65.347986661
  0
LINE
  5
2DC
100
AcDbEntity
  8
0
100
AcDbLine
 62
7
  6
CONTINUOUS
 10
18.6480368405
 20
67.867730246
 11
16.0078305488
 21
69.3920195753
  0
LINE
  5
2DD
100
AcDbEntity
  8
0
100
AcDbLine
 62
7
  6
CONTINUOUS
 10
36.7881953321
 20
62.1646267644
 11
37.1474070725
 21
61.5424572332
  0
LINE
  5
2DE
100
AcDbEntity
  8
0
100
AcDbLine
 62
7
  6
CONTINUOUS
 10
48.9564416657
 20
61.8483816896
 11
48.9564416657
 21
56.8709829547
  0
LINE
  5
2DF
100
AcDbEntity
  8
0
100
AcDbLine
 62
7
  6
CONTINUOUS
 10
23.9553325021
 20
67.4269296463
 11
24.3145442425
 21
67.219543343
  0
LINE
  5
2E0
100
AcDbEntity
  8
0
100
AcDbLine
 62
7
  6
CONTINUOUS
 10
45.2386281193
 20
55.139291176
 11
45.5978398597
 21
54.9319048727
  0
LINE
  5
2E1
100
AcDbEntity
  8
0
100
AcDbLine
 62
7
  6
CONTINUOUS
 10
19.7795224165
 20
71.569593892
 11
22.4197287082
 21
70.0453045628
  0
LINE
  5
2E2
100
AcDbEntity
  8
0
100
AcDbLine
 62
7
  6
CONTINUOUS
 10
26.7841513538
 20
67.5255609777
 11
29.4243576455
 21
66.0012716485
  0
LINE
  5
2E3
100
AcDbEntity
  8
0
100
AcDbLine
 62
7
  6
CONTINUOUS
 10
33.7887802911
 20
63.4815280635
 11
36.4289865828
 21
61.9572387342
  0
LINE
  5
2E4
100
AcDbEntity
  8
0
100
AcDbLine
 62
7
  6
CONTINUOUS
 10
40.7934092284
 20
59.4374951492
 11
43.4336155201
 21
57.91320582
  0
LINE
  5
2E5
100
AcDbEntity
  8
0
100
AcDbLine
 62
7
  6
CONTINUOUS
 10
43.7928242695
 20
58.1205938501
 11
41.1526179777
 21
59.6448831794
  0
LINE
  5
2E6
100
AcDbEntity
  8
0
100
AcDbLine
 62
7
  6
CONTINUOUS
 10
36.7881953321
 20
62.1646267644
 11
34.1479890404
 21
63.6889160936
  0
LINE
  5
2E7
100
AcDbEntity
  8
0
100
AcDbLine
 62
7
  6
CONTINUOUS
 10
29.7835663948
 20
66.2086596787
 11
27.1433601031
 21
67.7329490079
  0
LINE
  5
2E8
100
AcDbEntity
  8
0
100
AcDbLine
 62
7
  6
CONTINUOUS
 10
22.7789374575
 20
70.252692593
 11
20.1387311658
 21
71.7769819222
  0
LINE
  5
2E9
100
AcDbEntity
  8
0
100
AcDbLine
 62
7
  6
CONTINUOUS
 10
43.7928272605
 20
57.2910362888
 11
43.4336155201
 21
57.91320582
  0
LINE
  5
2EA
100
AcDbEntity
  8
0
100
AcDbLine
 62
7
  6
CONTINUOUS
 10
43.7928242695
 20
58.1205938501
 11
44.1520360098
 21
57.4984243189
  0
LINE
  5
2EB
100
AcDbEntity
  8
0
100
AcDbLine
 62
7
  6
CONTINUOUS
 10
27.1509091623
 20
17.4359537395
 11
27.8626200824
 21
17.846857778
  0
LINE
  5
2EC
100
AcDbEntity
  8
0
100
AcDbLine
 62
7
  6
CONTINUOUS
 10
55.6030622782
 20
52.2980185132
 11
55.4940696921
 21
52.3609439886
  0
LINE
  5
2ED
100
AcDbEntity
  8
0
100
AcDbLine
 62
7
  6
CONTINUOUS
 10
23.9553325021
 20
72.4043283811
 11
24.3145442425
 21
72.1969420778
  0
LINE
  5
2EE
100
AcDbEntity
  8
0
100
AcDbLine
 62
7
  6
CONTINUOUS
 10
45.2386281193
 20
60.1166899108
 11
45.5978398597
 21
59.9093036075
  0
LINE
  5
2EF
100
AcDbEntity
  8
0
100
AcDbLine
 62
7
  6
CONTINUOUS
 10
55.1348594473
 20
27.4110237137
 11
55.1348594473
 21
27.5791183074
  0
LINE
  5
2F0
100
AcDbEntity
  8
0
100
AcDbLine
 62
7
  6
CONTINUOUS
 10
45.957048609
 20
60.5314748656
 11
45.5978368686
 21
60.7388611689
  0
LINE
  5
2F1
100
AcDbEntity
  8
0
100
AcDbLine
 62
7
  6
CONTINUOUS
 10
24.6737529918
 20
72.8191133359
 11
24.3145412514
 21
73.0264996392
  0
LINE
  5
2F2
100
AcDbEntity
  8
0
100
AcDbLine
 62
7
  6
CONTINUOUS
 10
55.6534998042
 20
55.4088928437
 11
55.4940696921
 21
55.5009377795
  0
LINE
  5
2F3
100
AcDbEntity
  8
0
100
AcDbLine
 62
7
  6
CONTINUOUS
 10
55.6736748145
 20
56.6532425759
 11
48.9564416657
 21
60.5313512081
  0
LINE
  5
2F4
100
AcDbEntity
  8
0
100
AcDbLine
 62
7
  6
CONTINUOUS
 10
47.0974138172
 20
61.6046371558
 11
27.6731460485
 21
72.8189896784
  0
LINE
  5
2F5
100
AcDbEntity
  8
0
100
AcDbLine
 62
7
  6
CONTINUOUS
 10
55.4940696921
 20
52.2980182512
 11
55.4940696921
 21
52.4405422822
  0
LINE
  5
2F6
100
AcDbEntity
  8
0
100
AcDbLine
 62
7
  6
CONTINUOUS
 10
55.4940696921
 20
55.4088924605
 11
55.4940696921
 21
55.5222966674
  0
LINE
  5
2F7
100
AcDbEntity
  8
0
100
AcDbLine
 62
7
  6
CONTINUOUS
 10
55.135674538
 20
23.4705830506
 11
55.1995620708
 21
27.4110238692
  0
LINE
  5
2F8
100
AcDbEntity
  8
0
100
AcDbLine
 62
7
  6
CONTINUOUS
 10
55.2029245725
 20
27.6184154912
 11
55.6030622782
 21
52.2980185132
  0
LINE
  5
2F9
100
AcDbEntity
  8
0
100
AcDbLine
 62
7
  6
CONTINUOUS
 10
55.60642478
 20
52.5054101352
 11
55.6534998042
 21
55.4088928437
  0
LINE
  5
2FA
100
AcDbEntity
  8
0
100
AcDbLine
 62
7
  6
CONTINUOUS
 10
55.6568623059
 20
55.6162844657
 11
55.6736748145
 21
56.6532425759
  0
LINE
  5
2FB
100
AcDbEntity
  8
0
100
AcDbLine
 62
7
  6
CONTINUOUS
 10
55.2029245725
 20
27.6184154912
 11
35.9171916428
 21
16.4838588571
  0
LINE
  5
2FC
100
AcDbEntity
  8
0
100
AcDbLine
 62
7
  6
CONTINUOUS
 10
35.9171913595
 20
16.3157640998
 11
55.1348594473
 21
27.4110237137
  0
LINE
  5
2FD
100
AcDbEntity
  8
0
100
AcDbLine
 62
7
  6
CONTINUOUS
 10
35.9171916289
 20
16.2784085567
 11
55.1995620708
 21
27.4110238692
  0
LINE
  5
2FE
100
AcDbEntity
  8
0
100
AcDbLine
 62
7
  6
CONTINUOUS
 10
27.6731460485
 20
74.1360201599
 11
27.3139372992
 21
74.3434153576
  0
LINE
  5
2FF
100
AcDbEntity
  8
0
100
AcDbLine
 62
7
  6
CONTINUOUS
 10
26.9547255588
 20
74.5508016609
 11
27.3139372992
 21
74.3434153576
  0
LINE
  5
300
100
AcDbEntity
  8
0
100
AcDbLine
 62
7
  6
CONTINUOUS
 10
48.9564416657
 20
61.8483816896
 11
48.238021176
 21
62.2631631906
  0
LINE
  5
301
100
AcDbEntity
  8
0
100
AcDbLine
 62
7
  6
CONTINUOUS
 10
42.2284374883
 20
16.840431917
 11
35.9171914189
 21
13.1966540503
  0
LINE
  5
302
100
AcDbEntity
  8
0
100
AcDbLine
 62
7
  6
CONTINUOUS
 10
55.135674538
 20
23.4705830506
 11
42.7436733224
 21
16.3161005195
  0
SPLINE
  5
303
100
AcDbEntity
  8
0
100
AcDbSpline
 62
7
  6
CONTINUOUS
 70
0
 71
3
 72
10
 73
6
 74
0
 42
0.0000001
 43
0.0000001
 44
0.0000000001
 40
0.0
 40
0.0
 40
0.0
 40
0.0
 40
0.4621721647
 40
0.7215757803
 40
1.0
 40
1.0
 40
1.0
 40
1.0
 10
46.4219337537
 20
57.9469035894
 30
0.0
 10
46.5016817592
 20
57.9394678737
 30
0.0
 10
46.6291927089
 20
57.9548622396
 30
0.0
 10
46.7926574792
 20
58.0127197433
 30
0.0
 10
46.8761427149
 20
58.0549253577
 30
0.0
 10
46.9179290223
 20
58.0790505495
 30
0.0
  0
SPLINE
  5
304
100
AcDbEntity
  8
0
100
AcDbSpline
 62
7
  6
CONTINUOUS
 70
0
 71
3
 72
19
 73
15
 74
0
 42
0.0000001
 43
0.0000001
 44
0.0000000001
 40
0.0
 40
0.0
 40
0.0
 40
0.0
 40
0.0428391559
 40
0.0874444434
 40
0.1352565711
 40
0.1871945237
 40
0.2436731925
 40
0.3046655562
 40
0.4382693929
 40
0.5825444777
 40
0.7296404985
 40
0.871167504
 40
0.9376094049
 40
1.0
 40
1.0
 40
1.0
 40
1.0
 10
46.5786549933
 20
57.8024779178
 30
0.0
 10
46.5442126904
 20
57.8223592605
 30
0.0
 10
46.4789453234
 20
57.8723497267
 30
0.0
 10
46.4003569656
 20
57.9716757941
 30
0.0
 10
46.3416652217
 20
58.0931828495
 30
0.0
 10
46.3036427566
 20
58.2338572561
 30
0.0
 10
46.2867015055
 20
58.3907617521
 30
0.0
 10
46.2927050284
 20
58.6243146969
 30
0.0
 10
46.3560679407
 20
58.9350041568
 30
0.0
 10
46.5045921231
 20
59.3024838827
 30
0.0
 10
46.7159829246
 20
59.6463709623
 30
0.0
 10
46.9349276306
 20
59.8955318711
 30
0.0
 10
47.1272809517
 20
60.057338188
 30
0.0
 10
47.2269816788
 20
60.124012812
 30
0.0
 10
47.2771407627
 20
60.1529719997
 30
0.0
  0
SPLINE
  5
305
100
AcDbEntity
  8
0
100
AcDbSpline
 62
7
  6
CONTINUOUS
 70
0
 71
3
 72
17
 73
13
 74
0
 42
0.0000001
 43
0.0000001
 44
0.0000000001
 40
0.0
 40
0.0
 40
0.0
 40
0.0
 40
0.1232409961
 40
0.2581679778
 40
0.399384598
 40
0.5405659005
 40
0.6754021531
 40
0.7387628738
 40
0.7986656393
 40
0.8547592422
 40
0.9069266389
 40
1.0
 40
1.0
 40
1.0
 40
1.0
 10
25.6346334051
 20
70.3666890199
 30
0.0
 10
25.7261359413
 20
70.4195177184
 30
0.0
 10
25.9049354381
 20
70.5530004833
 30
0.0
 10
26.1398134708
 20
70.804013718
 30
0.0
 10
26.3418034943
 20
71.1010413538
 30
0.0
 10
26.4974878293
 20
71.4244980282
 30
0.0
 10
26.5821117538
 20
71.704467006
 30
0.0
 10
26.6165836191
 20
71.9233520966
 30
0.0
 10
26.6252871108
 20
72.0771418729
 30
0.0
 10
26.6170128067
 20
72.2215200425
 30
0.0
 10
26.5851132322
 20
72.3912890197
 30
0.0
 10
26.5347118993
 20
72.5088033248
 30
0.0
 10
26.48849864
 20
72.573853077
 30
0.0
  0
SPLINE
  5
306
100
AcDbEntity
  8
0
100
AcDbSpline
 62
7
  6
CONTINUOUS
 70
0
 71
3
 72
17
 73
13
 74
0
 42
0.0000001
 43
0.0000001
 44
0.0000000001
 40
0.0
 40
0.0
 40
0.0
 40
0.0
 40
0.0931531098
 40
0.1453617292
 40
0.2014898333
 40
0.2614180545
 40
0.3247929652
 40
0.4596269168
 40
0.6007750217
 40
0.7419390047
 40
0.8768094151
 40
1.0
 40
1.0
 40
1.0
 40
1.0
 10
20.6037765739
 20
69.7983622937
 30
0.0
 10
20.5578038656
 20
69.7331357949
 30
0.0
 10
20.5077481198
 20
69.6154952439
 30
0.0
 10
20.4762111443
 20
69.4456620521
 30
0.0
 10
20.4681835921
 20
69.3013001907
 30
0.0
 10
20.4770944402
 20
69.1475816687
 30
0.0
 10
20.5117883694
 20
68.928877941
 30
0.0
 10
20.5965658686
 20
68.6492217826
 30
0.0
 10
20.752283359
 20
68.326183011
 30
0.0
 10
20.9541687111
 20
68.02957858
 30
0.0
 10
21.1888409758
 20
67.7789352347
 30
0.0
 10
21.3674410243
 20
67.6456403727
 30
0.0
 10
21.4588343117
 20
67.5928756274
 30
0.0
  0
SPLINE
  5
307
100
AcDbEntity
  8
0
100
AcDbSpline
 62
7
  6
CONTINUOUS
 70
0
 71
3
 72
11
 73
7
 74
0
 42
0.0000001
 43
0.0000001
 44
0.0000000001
 40
0.0
 40
0.0
 40
0.0
 40
0.0
 40
0.2177849011
 40
0.4509184398
 40
0.7103088704
 40
1.0
 40
1.0
 40
1.0
 40
1.0
 10
20.4011318875
 20
69.7359751974
 30
0.0
 10
20.4472169544
 20
69.762573867
 30
0.0
 10
20.5530917163
 20
69.8010088452
 30
0.0
 10
20.7289604254
 20
69.8054578724
 30
0.0
 10
20.9163875872
 20
69.7601943811
 30
0.0
 10
21.0383291301
 20
69.7021840617
 30
0.0
 10
21.0996255624
 20
69.6667953507
 30
0.0
  0
SPLINE
  5
308
100
AcDbEntity
  8
0
100
AcDbSpline
 62
7
  6
CONTINUOUS
 70
0
 71
3
 72
17
 73
13
 74
0
 42
0.0000001
 43
0.0000001
 44
0.0000000001
 40
0.0
 40
0.0
 40
0.0
 40
0.0
 40
0.0931531098
 40
0.1453617292
 40
0.2014898333
 40
0.2614180545
 40
0.3247929652
 40
0.4596269168
 40
0.6007750217
 40
0.7419390047
 40
0.8768094151
 40
1.0
 40
1.0
 40
1.0
 40
1.0
 10
27.6084055112
 20
65.7543293794
 30
0.0
 10
27.5624328029
 20
65.6891028806
 30
0.0
 10
27.5123770571
 20
65.5714623297
 30
0.0
 10
27.4808400816
 20
65.4016291378
 30
0.0
 10
27.4728125294
 20
65.2572672764
 30
0.0
 10
27.4817233775
 20
65.1035487545
 30
0.0
 10
27.5164173067
 20
64.8848450267
 30
0.0
 10
27.6011948059
 20
64.6051888683
 30
0.0
 10
27.7569122963
 20
64.2821500967
 30
0.0
 10
27.9587976484
 20
63.9855456657
 30
0.0
 10
28.1934699131
 20
63.7349023204
 30
0.0
 10
28.3720699616
 20
63.6016074585
 30
0.0
 10
28.463463249
 20
63.5488427131
 30
0.0
  0
SPLINE
  5
309
100
AcDbEntity
  8
0
100
AcDbSpline
 62
7
  6
CONTINUOUS
 70
0
 71
3
 72
11
 73
7
 74
0
 42
0.0000001
 43
0.0000001
 44
0.0000000001
 40
0.0
 40
0.0
 40
0.0
 40
0.0
 40
0.2177849011
 40
0.4509184398
 40
0.7103088704
 40
1.0
 40
1.0
 40
1.0
 40
1.0
 10
27.4057608248
 20
65.6919422831
 30
0.0
 10
27.4518458917
 20
65.7185409527
 30
0.0
 10
27.5577206537
 20
65.7569759309
 30
0.0
 10
27.7335893627
 20
65.7614249581
 30
0.0
 10
27.9210165245
 20
65.7161614669
 30
0.0
 10
28.0429580674
 20
65.6581511475
 30
0.0
 10
28.1042544997
 20
65.6227624364
 30
0.0
  0
SPLINE
  5
30A
100
AcDbEntity
  8
0
100
AcDbSpline
 62
7
  6
CONTINUOUS
 70
0
 71
3
 72
17
 73
13
 74
0
 42
0.0000001
 43
0.0000001
 44
0.0000000001
 40
0.0
 40
0.0
 40
0.0
 40
0.0
 40
0.0931531098
 40
0.1453617292
 40
0.2014898333
 40
0.2614180545
 40
0.3247929652
 40
0.4596269168
 40
0.6007750217
 40
0.7419390047
 40
0.8768094151
 40
1.0
 40
1.0
 40
1.0
 40
1.0
 10
34.6130344485
 20
61.7102964651
 30
0.0
 10
34.5670617402
 20
61.6450699663
 30
0.0
 10
34.5170059944
 20
61.5274294154
 30
0.0
 10
34.4854690189
 20
61.3575962236
 30
0.0
 10
34.4774414667
 20
61.2132343621
 30
0.0
 10
34.4863523148
 20
61.0595158402
 30
0.0
 10
34.521046244
 20
60.8408121125
 30
0.0
 10
34.6058237432
 20
60.5611559541
 30
0.0
 10
34.7615412336
 20
60.2381171824
 30
0.0
 10
34.9634265857
 20
59.9415127515
 30
0.0
 10
35.1980988504
 20
59.6908694061
 30
0.0
 10
35.3766988989
 20
59.5575745442
 30
0.0
 10
35.4680921863
 20
59.5048097988
 30
0.0
  0
SPLINE
  5
30B
100
AcDbEntity
  8
0
100
AcDbSpline
 62
7
  6
CONTINUOUS
 70
0
 71
3
 72
11
 73
7
 74
0
 42
0.0000001
 43
0.0000001
 44
0.0000000001
 40
0.0
 40
0.0
 40
0.0
 40
0.0
 40
0.2177849011
 40
0.4509184398
 40
0.7103088704
 40
1.0
 40
1.0
 40
1.0
 40
1.0
 10
34.4103897621
 20
61.6479093688
 30
0.0
 10
34.456474829
 20
61.6745080384
 30
0.0
 10
34.562349591
 20
61.7129430167
 30
0.0
 10
34.7382183
 20
61.7173920438
 30
0.0
 10
34.9256454618
 20
61.6721285526
 30
0.0
 10
35.0475870047
 20
61.6141182332
 30
0.0
 10
35.108883437
 20
61.5787295221
 30
0.0
  0
SPLINE
  5
30C
100
AcDbEntity
  8
0
100
AcDbSpline
 62
7
  6
CONTINUOUS
 70
0
 71
3
 72
17
 73
13
 74
0
 42
0.0000001
 43
0.0000001
 44
0.0000000001
 40
0.0
 40
0.0
 40
0.0
 40
0.0
 40
0.0931531098
 40
0.1453617292
 40
0.2014898333
 40
0.2614180545
 40
0.3247929652
 40
0.4596269168
 40
0.6007750217
 40
0.7419390047
 40
0.8768094151
 40
1.0
 40
1.0
 40
1.0
 40
1.0
 10
41.6176633858
 20
57.6662635508
 30
0.0
 10
41.5716906775
 20
57.6010370521
 30
0.0
 10
41.5216349318
 20
57.4833965011
 30
0.0
 10
41.4900979562
 20
57.3135633093
 30
0.0
 10
41.482070404
 20
57.1692014478
 30
0.0
 10
41.4909812521
 20
57.0154829259
 30
0.0
 10
41.5256751813
 20
56.7967791982
 30
0.0
 10
41.6104526805
 20
56.5171230398
 30
0.0
 10
41.7661701709
 20
56.1940842681
 30
0.0
 10
41.968055523
 20
55.8974798372
 30
0.0
 10
42.2027277877
 20
55.6468364919
 30
0.0
 10
42.3813278362
 20
55.5135416299
 30
0.0
 10
42.4727211236
 20
55.4607768845
 30
0.0
  0
SPLINE
  5
30D
100
AcDbEntity
  8
0
100
AcDbSpline
 62
7
  6
CONTINUOUS
 70
0
 71
3
 72
11
 73
7
 74
0
 42
0.0000001
 43
0.0000001
 44
0.0000000001
 40
0.0
 40
0.0
 40
0.0
 40
0.0
 40
0.2177849011
 40
0.4509184398
 40
0.7103088704
 40
1.0
 40
1.0
 40
1.0
 40
1.0
 10
41.4150186994
 20
57.6038764546
 30
0.0
 10
41.4611037663
 20
57.6304751242
 30
0.0
 10
41.5669785283
 20
57.6689101024
 30
0.0
 10
41.7428472374
 20
57.6733591295
 30
0.0
 10
41.9302743991
 20
57.6280956383
 30
0.0
 10
42.052215942
 20
57.5700853189
 30
0.0
 10
42.1135123743
 20
57.5346966078
 30
0.0
  0
SPLINE
  5
30E
100
AcDbEntity
  8
0
100
AcDbSpline
 62
7
  6
CONTINUOUS
 70
0
 71
3
 72
17
 73
13
 74
0
 42
0.0000001
 43
0.0000001
 44
0.0000000001
 40
0.0
 40
0.0
 40
0.0
 40
0.0
 40
0.0931531098
 40
0.1453617292
 40
0.2014898333
 40
0.2614180545
 40
0.3247929652
 40
0.4596269168
 40
0.6007750217
 40
0.7419390047
 40
0.8768094151
 40
1.0
 40
1.0
 40
1.0
 40
1.0
 10
16.4728759569
 20
67.4133999467
 30
0.0
 10
16.4269032486
 20
67.348173448
 30
0.0
 10
16.3768475028
 20
67.230532897
 30
0.0
 10
16.3453105273
 20
67.0606997052
 30
0.0
 10
16.3372829751
 20
66.9163378438
 30
0.0
 10
16.3461938232
 20
66.7626193218
 30
0.0
 10
16.3808877524
 20
66.5439155941
 30
0.0
 10
16.4656652516
 20
66.2642594357
 30
0.0
 10
16.621382742
 20
65.9412206641
 30
0.0
 10
16.8232680941
 20
65.6446162331
 30
0.0
 10
17.0579403588
 20
65.3939728878
 30
0.0
 10
17.2365404073
 20
65.2606780258
 30
0.0
 10
17.3279336947
 20
65.2079132805
 30
0.0
  0
SPLINE
  5
30F
100
AcDbEntity
  8
0
100
AcDbSpline
 62
7
  6
CONTINUOUS
 70
0
 71
3
 72
11
 73
7
 74
0
 42
0.0000001
 43
0.0000001
 44
0.0000000001
 40
0.0
 40
0.0
 40
0.0
 40
0.0
 40
0.2177849011
 40
0.4509184398
 40
0.7103088704
 40
1.0
 40
1.0
 40
1.0
 40
1.0
 10
16.2702312705
 20
67.3510128505
 30
0.0
 10
16.3163163374
 20
67.3776115201
 30
0.0
 10
16.4221910993
 20
67.4160464983
 30
0.0
 10
16.5980598084
 20
67.4204955255
 30
0.0
 10
16.7854869702
 20
67.3752320342
 30
0.0
 10
16.9074285131
 20
67.3172217148
 30
0.0
 10
16.9687249454
 20
67.2818330038
 30
0.0
  0
SPLINE
  5
310
100
AcDbEntity
  8
0
100
AcDbSpline
 62
7
  6
CONTINUOUS
 70
0
 71
3
 72
17
 73
13
 74
0
 42
0.0000001
 43
0.0000001
 44
0.0000000001
 40
0.0
 40
0.0
 40
0.0
 40
0.0
 40
0.0931531098
 40
0.1453617292
 40
0.2014898333
 40
0.2614180545
 40
0.3247929652
 40
0.4596269168
 40
0.6007750217
 40
0.7419390047
 40
0.8768094151
 40
1.0
 40
1.0
 40
1.0
 40
1.0
 10
23.4775048942
 20
63.3693670325
 30
0.0
 10
23.4315321859
 20
63.3041405337
 30
0.0
 10
23.3814764401
 20
63.1864999827
 30
0.0
 10
23.3499394646
 20
63.0166667909
 30
0.0
 10
23.3419119124
 20
62.8723049295
 30
0.0
 10
23.3508227605
 20
62.7185864075
 30
0.0
 10
23.3855166897
 20
62.4998826798
 30
0.0
 10
23.4702941889
 20
62.2202265214
 30
0.0
 10
23.6260116793
 20
61.8971877498
 30
0.0
 10
23.8278970314
 20
61.6005833188
 30
0.0
 10
24.0625692961
 20
61.3499399735
 30
0.0
 10
24.2411693446
 20
61.2166451116
 30
0.0
 10
24.332562632
 20
61.1638803662
 30
0.0
  0
SPLINE
  5
311
100
AcDbEntity
  8
0
100
AcDbSpline
 62
7
  6
CONTINUOUS
 70
0
 71
3
 72
11
 73
7
 74
0
 42
0.0000001
 43
0.0000001
 44
0.0000000001
 40
0.0
 40
0.0
 40
0.0
 40
0.0
 40
0.2177849011
 40
0.4509184398
 40
0.7103088704
 40
1.0
 40
1.0
 40
1.0
 40
1.0
 10
23.2748602078
 20
63.3069799362
 30
0.0
 10
23.3209452747
 20
63.3335786058
 30
0.0
 10
23.4268200366
 20
63.372013584
 30
0.0
 10
23.6026887457
 20
63.3764626112
 30
0.0
 10
23.7901159075
 20
63.3311991199
 30
0.0
 10
23.9120574504
 20
63.2731888005
 30
0.0
 10
23.9733538827
 20
63.2378000895
 30
0.0
  0
SPLINE
  5
312
100
AcDbEntity
  8
0
100
AcDbSpline
 62
7
  6
CONTINUOUS
 70
0
 71
3
 72
17
 73
13
 74
0
 42
0.0000001
 43
0.0000001
 44
0.0000000001
 40
0.0
 40
0.0
 40
0.0
 40
0.0
 40
0.0931531098
 40
0.1453617292
 40
0.2014898333
 40
0.2614180545
 40
0.3247929652
 40
0.4596269168
 40
0.6007750217
 40
0.7419390047
 40
0.8768094151
 40
1.0
 40
1.0
 40
1.0
 40
1.0
 10
30.4821338315
 20
59.3253341182
 30
0.0
 10
30.4361611232
 20
59.2601076194
 30
0.0
 10
30.3861053774
 20
59.1424670685
 30
0.0
 10
30.3545684019
 20
58.9726338766
 30
0.0
 10
30.3465408497
 20
58.8282720152
 30
0.0
 10
30.3554516978
 20
58.6745534933
 30
0.0
 10
30.390145627
 20
58.4558497655
 30
0.0
 10
30.4749231262
 20
58.1761936071
 30
0.0
 10
30.6306406166
 20
57.8531548355
 30
0.0
 10
30.8325259687
 20
57.5565504045
 30
0.0
 10
31.0671982334
 20
57.3059070592
 30
0.0
 10
31.2457982819
 20
57.1726121973
 30
0.0
 10
31.3371915693
 20
57.1198474519
 30
0.0
  0
SPLINE
  5
313
100
AcDbEntity
  8
0
100
AcDbSpline
 62
7
  6
CONTINUOUS
 70
0
 71
3
 72
11
 73
7
 74
0
 42
0.0000001
 43
0.0000001
 44
0.0000000001
 40
0.0
 40
0.0
 40
0.0
 40
0.0
 40
0.2177849011
 40
0.4509184398
 40
0.7103088704
 40
1.0
 40
1.0
 40
1.0
 40
1.0
 10
30.2794891451
 20
59.2629470219
 30
0.0
 10
30.325574212
 20
59.2895456915
 30
0.0
 10
30.431448974
 20
59.3279806698
 30
0.0
 10
30.607317683
 20
59.3324296969
 30
0.0
 10
30.7947448448
 20
59.2871662057
 30
0.0
 10
30.9166863877
 20
59.2291558863
 30
0.0
 10
30.97798282
 20
59.1937671752
 30
0.0
  0
SPLINE
  5
314
100
AcDbEntity
  8
0
100
AcDbSpline
 62
7
  6
CONTINUOUS
 70
0
 71
3
 72
17
 73
13
 74
0
 42
0.0000001
 43
0.0000001
 44
0.0000000001
 40
0.0
 40
0.0
 40
0.0
 40
0.0
 40
0.0931531098
 40
0.1453617292
 40
0.2014898333
 40
0.2614180545
 40
0.3247929652
 40
0.4596269168
 40
0.6007750217
 40
0.7419390047
 40
0.8768094151
 40
1.0
 40
1.0
 40
1.0
 40
1.0
 10
37.4867627688
 20
55.2813012039
 30
0.0
 10
37.4407900605
 20
55.2160747052
 30
0.0
 10
37.3907343147
 20
55.0984341542
 30
0.0
 10
37.3591973392
 20
54.9286009624
 30
0.0
 10
37.351169787
 20
54.7842391009
 30
0.0
 10
37.3600806351
 20
54.630520579
 30
0.0
 10
37.3947745643
 20
54.4118168513
 30
0.0
 10
37.4795520635
 20
54.1321606929
 30
0.0
 10
37.6352695539
 20
53.8091219212
 30
0.0
 10
37.837154906
 20
53.5125174903
 30
0.0
 10
38.0718271707
 20
53.2618741449
 30
0.0
 10
38.2504272192
 20
53.128579283
 30
0.0
 10
38.3418205066
 20
53.0758145376
 30
0.0
  0
SPLINE
  5
315
100
AcDbEntity
  8
0
100
AcDbSpline
 62
7
  6
CONTINUOUS
 70
0
 71
3
 72
11
 73
7
 74
0
 42
0.0000001
 43
0.0000001
 44
0.0000000001
 40
0.0
 40
0.0
 40
0.0
 40
0.0
 40
0.2177849011
 40
0.4509184398
 40
0.7103088704
 40
1.0
 40
1.0
 40
1.0
 40
1.0
 10
37.2841180824
 20
55.2189141077
 30
0.0
 10
37.3302031493
 20
55.2455127772
 30
0.0
 10
37.4360779113
 20
55.2839477555
 30
0.0
 10
37.6119466204
 20
55.2883967826
 30
0.0
 10
37.7993737821
 20
55.2431332914
 30
0.0
 10
37.921315325
 20
55.185122972
 30
0.0
 10
37.9826117573
 20
55.1497342609
 30
0.0
  0
SPLINE
  5
316
100
AcDbEntity
  8
0
100
AcDbSpline
 62
7
  6
CONTINUOUS
 70
0
 71
3
 72
17
 73
13
 74
0
 42
0.0000001
 43
0.0000001
 44
0.0000000001
 40
0.0
 40
0.0
 40
0.0
 40
0.0
 40
0.0931531098
 40
0.1453617292
 40
0.2014898333
 40
0.2614180545
 40
0.3247929652
 40
0.4596269168
 40
0.6007750217
 40
0.7419390047
 40
0.8768094151
 40
1.0
 40
1.0
 40
1.0
 40
1.0
 10
13.0603928385
 20
65.4432136602
 30
0.0
 10
13.0144201302
 20
65.3779871614
 30
0.0
 10
12.9643643844
 20
65.2603466104
 30
0.0
 10
12.9328274089
 20
65.0905134186
 30
0.0
 10
12.9247998567
 20
64.9461515572
 30
0.0
 10
12.9337107048
 20
64.7924330352
 30
0.0
 10
12.968404634
 20
64.5737293075
 30
0.0
 10
13.0531821332
 20
64.2940731491
 30
0.0
 10
13.2088996236
 20
63.9710343775
 30
0.0
 10
13.4107849757
 20
63.6744299465
 30
0.0
 10
13.6454572404
 20
63.4237866012
 30
0.0
 10
13.8240572889
 20
63.2904917392
 30
0.0
 10
13.9154505763
 20
63.2377269939
 30
0.0
  0
SPLINE
  5
317
100
AcDbEntity
  8
0
100
AcDbSpline
 62
7
  6
CONTINUOUS
 70
0
 71
3
 72
11
 73
7
 74
0
 42
0.0000001
 43
0.0000001
 44
0.0000000001
 40
0.0
 40
0.0
 40
0.0
 40
0.0
 40
0.2177849011
 40
0.4509184398
 40
0.7103088704
 40
1.0
 40
1.0
 40
1.0
 40
1.0
 10
12.8577481521
 20
65.3808265639
 30
0.0
 10
12.903833219
 20
65.4074252335
 30
0.0
 10
13.0097079809
 20
65.4458602117
 30
0.0
 10
13.18557669
 20
65.4503092389
 30
0.0
 10
13.3730038518
 20
65.4050457476
 30
0.0
 10
13.4949453947
 20
65.3470354282
 30
0.0
 10
13.556241827
 20
65.3116467172
 30
0.0
  0
SPLINE
  5
318
100
AcDbEntity
  8
0
100
AcDbSpline
 62
7
  6
CONTINUOUS
 70
0
 71
3
 72
17
 73
13
 74
0
 42
0.0000001
 43
0.0000001
 44
0.0000000001
 40
0.0
 40
0.0
 40
0.0
 40
0.0
 40
0.0931531098
 40
0.1453617292
 40
0.2014898333
 40
0.2614180545
 40
0.3247929652
 40
0.4596269168
 40
0.6007750217
 40
0.7419390047
 40
0.8768094151
 40
1.0
 40
1.0
 40
1.0
 40
1.0
 10
20.0650217758
 20
61.3991807459
 30
0.0
 10
20.0190490675
 20
61.3339542471
 30
0.0
 10
19.9689933217
 20
61.2163136962
 30
0.0
 10
19.9374563462
 20
61.0464805043
 30
0.0
 10
19.929428794
 20
60.9021186429
 30
0.0
 10
19.9383396421
 20
60.748400121
 30
0.0
 10
19.9730335713
 20
60.5296963932
 30
0.0
 10
20.0578110705
 20
60.2500402348
 30
0.0
 10
20.2135285609
 20
59.9270014632
 30
0.0
 10
20.415413913
 20
59.6303970322
 30
0.0
 10
20.6500861777
 20
59.3797536869
 30
0.0
 10
20.8286862262
 20
59.246458825
 30
0.0
 10
20.9200795136
 20
59.1936940796
 30
0.0
  0
SPLINE
  5
319
100
AcDbEntity
  8
0
100
AcDbSpline
 62
7
  6
CONTINUOUS
 70
0
 71
3
 72
11
 73
7
 74
0
 42
0.0000001
 43
0.0000001
 44
0.0000000001
 40
0.0
 40
0.0
 40
0.0
 40
0.0
 40
0.2177849011
 40
0.4509184398
 40
0.7103088704
 40
1.0
 40
1.0
 40
1.0
 40
1.0
 10
19.8623770894
 20
61.3367936496
 30
0.0
 10
19.9084621563
 20
61.3633923192
 30
0.0
 10
20.0143369183
 20
61.4018272974
 30
0.0
 10
20.1902056273
 20
61.4062763246
 30
0.0
 10
20.3776327891
 20
61.3610128334
 30
0.0
 10
20.499574332
 20
61.303002514
 30
0.0
 10
20.5608707643
 20
61.2676138029
 30
0.0
  0
SPLINE
  5
31A
100
AcDbEntity
  8
0
100
AcDbSpline
 62
7
  6
CONTINUOUS
 70
0
 71
3
 72
17
 73
13
 74
0
 42
0.0000001
 43
0.0000001
 44
0.0000000001
 40
0.0
 40
0.0
 40
0.0
 40
0.0
 40
0.0931531098
 40
0.1453617292
 40
0.2014898333
 40
0.2614180545
 40
0.3247929652
 40
0.4596269168
 40
0.6007750217
 40
0.7419390047
 40
0.8768094151
 40
1.0
 40
1.0
 40
1.0
 40
1.0
 10
27.0696507131
 20
57.3551478316
 30
0.0
 10
27.0236780048
 20
57.2899213328
 30
0.0
 10
26.973622259
 20
57.1722807819
 30
0.0
 10
26.9420852835
 20
57.0024475901
 30
0.0
 10
26.9340577313
 20
56.8580857286
 30
0.0
 10
26.9429685794
 20
56.7043672067
 30
0.0
 10
26.9776625086
 20
56.485663479
 30
0.0
 10
27.0624400078
 20
56.2060073206
 30
0.0
 10
27.2181574982
 20
55.8829685489
 30
0.0
 10
27.4200428503
 20
55.586364118
 30
0.0
 10
27.654715115
 20
55.3357207726
 30
0.0
 10
27.8333151635
 20
55.2024259107
 30
0.0
 10
27.9247084509
 20
55.1496611653
 30
0.0
  0
SPLINE
  5
31B
100
AcDbEntity
  8
0
100
AcDbSpline
 62
7
  6
CONTINUOUS
 70
0
 71
3
 72
11
 73
7
 74
0
 42
0.0000001
 43
0.0000001
 44
0.0000000001
 40
0.0
 40
0.0
 40
0.0
 40
0.0
 40
0.2177849011
 40
0.4509184398
 40
0.7103088704
 40
1.0
 40
1.0
 40
1.0
 40
1.0
 10
26.8670060267
 20
57.2927607353
 30
0.0
 10
26.9130910936
 20
57.3193594049
 30
0.0
 10
27.0189658556
 20
57.3577943832
 30
0.0
 10
27.1948345647
 20
57.3622434103
 30
0.0
 10
27.3822617264
 20
57.3169799191
 30
0.0
 10
27.5042032693
 20
57.2589695997
 30
0.0
 10
27.5654997016
 20
57.2235808886
 30
0.0
  0
SPLINE
  5
31C
100
AcDbEntity
  8
0
100
AcDbSpline
 62
7
  6
CONTINUOUS
 70
0
 71
3
 72
17
 73
13
 74
0
 42
0.0000001
 43
0.0000001
 44
0.0000000001
 40
0.0
 40
0.0
 40
0.0
 40
0.0
 40
0.0931531098
 40
0.1453617292
 40
0.2014898333
 40
0.2614180545
 40
0.3247929652
 40
0.4596269168
 40
0.6007750217
 40
0.7419390047
 40
0.8768094151
 40
1.0
 40
1.0
 40
1.0
 40
1.0
 10
34.0742796504
 20
53.3111149173
 30
0.0
 10
34.0283069421
 20
53.2458884186
 30
0.0
 10
33.9782511964
 20
53.1282478676
 30
0.0
 10
33.9467142208
 20
52.9584146758
 30
0.0
 10
33.9386866686
 20
52.8140528143
 30
0.0
 10
33.9475975167
 20
52.6603342924
 30
0.0
 10
33.9822914459
 20
52.4416305647
 30
0.0
 10
34.0670689451
 20
52.1619744063
 30
0.0
 10
34.2227864355
 20
51.8389356346
 30
0.0
 10
34.4246717876
 20
51.5423312037
 30
0.0
 10
34.6593440524
 20
51.2916878584
 30
0.0
 10
34.8379441008
 20
51.1583929964
 30
0.0
 10
34.9293373882
 20
51.105628251
 30
0.0
  0
SPLINE
  5
31D
100
AcDbEntity
  8
0
100
AcDbSpline
 62
7
  6
CONTINUOUS
 70
0
 71
3
 72
11
 73
7
 74
0
 42
0.0000001
 43
0.0000001
 44
0.0000000001
 40
0.0
 40
0.0
 40
0.0
 40
0.0
 40
0.2177849011
 40
0.4509184398
 40
0.7103088704
 40
1.0
 40
1.0
 40
1.0
 40
1.0
 10
33.871634964
 20
53.2487278211
 30
0.0
 10
33.9177200309
 20
53.2753264907
 30
0.0
 10
34.0235947929
 20
53.3137614689
 30
0.0
 10
34.199463502
 20
53.318210496
 30
0.0
 10
34.3868906638
 20
53.2729470048
 30
0.0
 10
34.5088322066
 20
53.2149366854
 30
0.0
 10
34.5701286389
 20
53.1795479743
 30
0.0
  0
SPLINE
  5
31E
100
AcDbEntity
  8
0
100
AcDbSpline
 62
7
  6
CONTINUOUS
 70
0
 71
3
 72
10
 73
6
 74
0
 42
0.0000001
 43
0.0000001
 44
0.0000000001
 40
0.0
 40
0.0
 40
0.0
 40
0.0
 40
0.4621721647
 40
0.7215757803
 40
1.0
 40
1.0
 40
1.0
 40
1.0
 10
25.1386381365
 20
70.2345420597
 30
0.0
 10
25.218386142
 20
70.2271063441
 30
0.0
 10
25.3458970917
 20
70.2425007099
 30
0.0
 10
25.5093618621
 20
70.3003582136
 30
0.0
 10
25.5928470977
 20
70.342563828
 30
0.0
 10
25.6346334051
 20
70.3666890199
 30
0.0
  0
SPLINE
  5
31F
100
AcDbEntity
  8
0
100
AcDbSpline
 62
7
  6
CONTINUOUS
 70
0
 71
3
 72
19
 73
15
 74
0
 42
0.0000001
 43
0.0000001
 44
0.0000000001
 40
0.0
 40
0.0
 40
0.0
 40
0.0
 40
0.0428391559
 40
0.0874444434
 40
0.1352565711
 40
0.1871945237
 40
0.2436731925
 40
0.3046655562
 40
0.4382693929
 40
0.5825444777
 40
0.7296404985
 40
0.871167504
 40
0.9376094049
 40
1.0
 40
1.0
 40
1.0
 40
1.0
 10
25.2953593761
 20
70.0901163881
 30
0.0
 10
25.2609170732
 20
70.1099977309
 30
0.0
 10
25.1956497062
 20
70.159988197
 30
0.0
 10
25.1170613484
 20
70.2593142644
 30
0.0
 10
25.0583696045
 20
70.3808213198
 30
0.0
 10
25.0203471394
 20
70.5214957264
 30
0.0
 10
25.0034058883
 20
70.6784002224
 30
0.0
 10
25.0094094112
 20
70.9119531672
 30
0.0
 10
25.0727723235
 20
71.2226426271
 30
0.0
 10
25.2212965059
 20
71.590122353
 30
0.0
 10
25.4326873074
 20
71.9340094326
 30
0.0
 10
25.6516320134
 20
72.1831703414
 30
0.0
 10
25.8439853345
 20
72.3449766583
 30
0.0
 10
25.9436860616
 20
72.4116512823
 30
0.0
 10
25.9938451455
 20
72.44061047
 30
0.0
  0
SPLINE
  5
320
100
AcDbEntity
  8
0
100
AcDbSpline
 62
7
  6
CONTINUOUS
 70
0
 71
3
 72
11
 73
7
 74
0
 42
0.0000001
 43
0.0000001
 44
0.0000000001
 40
0.0
 40
0.0
 40
0.0
 40
0.0
 40
0.2897011399
 40
0.5490888176
 40
0.7822183492
 40
1.0
 40
1.0
 40
1.0
 40
1.0
 10
25.9938451455
 20
72.44061047
 30
0.0
 10
26.0551427768
 20
72.4760004627
 30
0.0
 10
26.1770840752
 20
72.534011624
 30
0.0
 10
26.364510335
 20
72.5792765794
 30
0.0
 10
26.5403732159
 20
72.5748241679
 30
0.0
 10
26.6462484626
 20
72.5363972565
 30
0.0
 10
26.6923309149
 20
72.5097967985
 30
0.0
  0
SPLINE
  5
321
100
AcDbEntity
  8
0
100
AcDbSpline
 62
7
  6
CONTINUOUS
 70
0
 71
3
 72
17
 73
13
 74
0
 42
0.0000001
 43
0.0000001
 44
0.0000000001
 40
0.0
 40
0.0
 40
0.0
 40
0.0
 40
0.1232409961
 40
0.2581679778
 40
0.399384598
 40
0.5405659005
 40
0.6754021531
 40
0.7387628738
 40
0.7986656393
 40
0.8547592422
 40
0.9069266389
 40
1.0
 40
1.0
 40
1.0
 40
1.0
 10
46.9179290223
 20
58.0790505495
 30
0.0
 10
47.0094315585
 20
58.1318792481
 30
0.0
 10
47.1882310552
 20
58.265362013
 30
0.0
 10
47.423109088
 20
58.5163752477
 30
0.0
 10
47.6250991115
 20
58.8134028835
 30
0.0
 10
47.7807834465
 20
59.1368595579
 30
0.0
 10
47.865407371
 20
59.4168285357
 30
0.0
 10
47.8998792363
 20
59.6357136263
 30
0.0
 10
47.908582728
 20
59.7895034026
 30
0.0
 10
47.9003084239
 20
59.9338815722
 30
0.0
 10
47.8684088494
 20
60.1036505494
 30
0.0
 10
47.8180075165
 20
60.2211648545
 30
0.0
 10
47.7717942572
 20
60.2862146067
 30
0.0
  0
SPLINE
  5
322
100
AcDbEntity
  8
0
100
AcDbSpline
 62
7
  6
CONTINUOUS
 70
0
 71
3
 72
11
 73
7
 74
0
 42
0.0000001
 43
0.0000001
 44
0.0000000001
 40
0.0
 40
0.0
 40
0.0
 40
0.0
 40
0.2897011399
 40
0.5490888176
 40
0.7822183492
 40
1.0
 40
1.0
 40
1.0
 40
1.0
 10
47.2771407627
 20
60.1529719997
 30
0.0
 10
47.338438394
 20
60.1883619924
 30
0.0
 10
47.4603796924
 20
60.2463731537
 30
0.0
 10
47.6478059522
 20
60.291638109
 30
0.0
 10
47.8236688331
 20
60.2871856976
 30
0.0
 10
47.9295440798
 20
60.2487587862
 30
0.0
 10
47.9756265321
 20
60.2221583282
 30
0.0
  0
SPLINE
  5
323
100
AcDbEntity
  8
0
100
AcDbSpline
 62
7
  6
CONTINUOUS
 70
0
 71
3
 72
10
 73
6
 74
0
 42
0.0000001
 43
0.0000001
 44
0.0000000001
 40
0.0
 40
0.0
 40
0.0
 40
0.0
 40
0.2782840223
 40
0.5376524342
 40
1.0
 40
1.0
 40
1.0
 40
1.0
 10
21.4588343117
 20
67.5928756274
 30
0.0
 10
21.5004213796
 20
67.5688658657
 30
0.0
 10
21.583508573
 20
67.5268341441
 30
0.0
 10
21.7462197089
 20
67.4690681325
 30
0.0
 10
21.8731267688
 20
67.453437522
 30
0.0
 10
21.9525933126
 20
67.4605264905
 30
0.0
  0
SPLINE
  5
324
100
AcDbEntity
  8
0
100
AcDbSpline
 62
7
  6
CONTINUOUS
 70
0
 71
3
 72
19
 73
15
 74
0
 42
0.0000001
 43
0.0000001
 44
0.0000000001
 40
0.0
 40
0.0
 40
0.0
 40
0.0
 40
0.0623912204
 40
0.12883165
 40
0.2703521188
 40
0.4174418405
 40
0.5617162437
 40
0.6953237839
 40
0.7563173263
 40
0.8127977205
 40
0.8647364846
 40
0.9125503751
 40
0.9571578678
 40
1.0
 40
1.0
 40
1.0
 40
1.0
 10
21.0996255624
 20
69.6667953507
 30
0.0
 10
21.1497853536
 20
69.6378362368
 30
0.0
 10
21.2494860682
 20
69.5711630249
 30
0.0
 10
21.4418352632
 20
69.4093624715
 30
0.0
 10
21.6607739448
 20
69.1602144433
 30
0.0
 10
21.8721650674
 20
68.8163422803
 30
0.0
 10
22.020694293
 20
68.4488685107
 30
0.0
 10
22.0840685521
 20
68.1381765123
 30
0.0
 10
22.0900712894
 20
67.9046178832
 30
0.0
 10
22.0731392518
 20
67.7477085474
 30
0.0
 10
22.0351123657
 20
67.6070315868
 30
0.0
 10
21.9764279318
 20
67.4855156959
 30
0.0
 10
21.8978325475
 20
67.3861872415
 30
0.0
 10
21.8325649973
 20
67.3361886241
 30
0.0
 10
21.7981192372
 20
67.3163077505
 30
0.0
  0
SPLINE
  5
325
100
AcDbEntity
  8
0
100
AcDbSpline
 62
7
  6
CONTINUOUS
 70
0
 71
3
 72
10
 73
6
 74
0
 42
0.0000001
 43
0.0000001
 44
0.0000000001
 40
0.0
 40
0.0
 40
0.0
 40
0.0
 40
0.2782840223
 40
0.5376524342
 40
1.0
 40
1.0
 40
1.0
 40
1.0
 10
28.463463249
 20
63.5488427131
 30
0.0
 10
28.5050503169
 20
63.5248329514
 30
0.0
 10
28.5881375103
 20
63.4828012298
 30
0.0
 10
28.7508486462
 20
63.4250352183
 30
0.0
 10
28.8777557061
 20
63.4094046077
 30
0.0
 10
28.95722225
 20
63.4164935763
 30
0.0
  0
SPLINE
  5
326
100
AcDbEntity
  8
0
100
AcDbSpline
 62
7
  6
CONTINUOUS
 70
0
 71
3
 72
19
 73
15
 74
0
 42
0.0000001
 43
0.0000001
 44
0.0000000001
 40
0.0
 40
0.0
 40
0.0
 40
0.0
 40
0.0623912204
 40
0.12883165
 40
0.2703521188
 40
0.4174418405
 40
0.5617162437
 40
0.6953237839
 40
0.7563173263
 40
0.8127977205
 40
0.8647364846
 40
0.9125503751
 40
0.9571578678
 40
1.0
 40
1.0
 40
1.0
 40
1.0
 10
28.1042544997
 20
65.6227624364
 30
0.0
 10
28.1544142909
 20
65.5938033225
 30
0.0
 10
28.2541150055
 20
65.5271301106
 30
0.0
 10
28.4464642005
 20
65.3653295572
 30
0.0
 10
28.6654028821
 20
65.1161815291
 30
0.0
 10
28.8767940047
 20
64.772309366
 30
0.0
 10
29.0253232303
 20
64.4048355964
 30
0.0
 10
29.0886974894
 20
64.094143598
 30
0.0
 10
29.0947002267
 20
63.8605849689
 30
0.0
 10
29.0777681891
 20
63.7036756331
 30
0.0
 10
29.039741303
 20
63.5629986725
 30
0.0
 10
28.9810568691
 20
63.4414827816
 30
0.0
 10
28.9024614848
 20
63.3421543272
 30
0.0
 10
28.8371939346
 20
63.2921557098
 30
0.0
 10
28.8027481746
 20
63.2722748362
 30
0.0
  0
SPLINE
  5
327
100
AcDbEntity
  8
0
100
AcDbSpline
 62
7
  6
CONTINUOUS
 70
0
 71
3
 72
10
 73
6
 74
0
 42
0.0000001
 43
0.0000001
 44
0.0000000001
 40
0.0
 40
0.0
 40
0.0
 40
0.0
 40
0.2782840223
 40
0.5376524342
 40
1.0
 40
1.0
 40
1.0
 40
1.0
 10
35.4680921863
 20
59.5048097988
 30
0.0
 10
35.5096792542
 20
59.4808000371
 30
0.0
 10
35.5927664476
 20
59.4387683155
 30
0.0
 10
35.7554775835
 20
59.381002304
 30
0.0
 10
35.8823846434
 20
59.3653716935
 30
0.0
 10
35.9618511873
 20
59.372460662
 30
0.0
  0
SPLINE
  5
328
100
AcDbEntity
  8
0
100
AcDbSpline
 62
7
  6
CONTINUOUS
 70
0
 71
3
 72
19
 73
15
 74
0
 42
0.0000001
 43
0.0000001
 44
0.0000000001
 40
0.0
 40
0.0
 40
0.0
 40
0.0
 40
0.0623912204
 40
0.12883165
 40
0.2703521188
 40
0.4174418405
 40
0.5617162437
 40
0.6953237839
 40
0.7563173263
 40
0.8127977205
 40
0.8647364846
 40
0.9125503751
 40
0.9571578678
 40
1.0
 40
1.0
 40
1.0
 40
1.0
 10
35.108883437
 20
61.5787295221
 30
0.0
 10
35.1590432282
 20
61.5497704083
 30
0.0
 10
35.2587439428
 20
61.4830971963
 30
0.0
 10
35.4510931379
 20
61.3212966429
 30
0.0
 10
35.6700318194
 20
61.0721486148
 30
0.0
 10
35.881422942
 20
60.7282764517
 30
0.0
 10
36.0299521676
 20
60.3608026821
 30
0.0
 10
36.0933264267
 20
60.0501106837
 30
0.0
 10
36.099329164
 20
59.8165520547
 30
0.0
 10
36.0823971264
 20
59.6596427188
 30
0.0
 10
36.0443702403
 20
59.5189657582
 30
0.0
 10
35.9856858064
 20
59.3974498674
 30
0.0
 10
35.9070904221
 20
59.2981214129
 30
0.0
 10
35.8418228719
 20
59.2481227955
 30
0.0
 10
35.8073771119
 20
59.2282419219
 30
0.0
  0
SPLINE
  5
329
100
AcDbEntity
  8
0
100
AcDbSpline
 62
7
  6
CONTINUOUS
 70
0
 71
3
 72
19
 73
15
 74
0
 42
0.0000001
 43
0.0000001
 44
0.0000000001
 40
0.0
 40
0.0
 40
0.0
 40
0.0
 40
0.0623912204
 40
0.12883165
 40
0.2703521188
 40
0.4174418405
 40
0.5617162437
 40
0.6953237839
 40
0.7563173263
 40
0.8127977205
 40
0.8647364846
 40
0.9125503751
 40
0.9571578678
 40
1.0
 40
1.0
 40
1.0
 40
1.0
 10
34.5701286389
 20
53.1795479743
 30
0.0
 10
34.6202884302
 20
53.1505888605
 30
0.0
 10
34.7199891447
 20
53.0839156486
 30
0.0
 10
34.9123383398
 20
52.9221150952
 30
0.0
 10
35.1312770213
 20
52.672967067
 30
0.0
 10
35.3426681439
 20
52.3290949039
 30
0.0
 10
35.4911973696
 20
51.9616211344
 30
0.0
 10
35.5545716286
 20
51.6509291359
 30
0.0
 10
35.560574366
 20
51.4173705069
 30
0.0
 10
35.5436423283
 20
51.2604611711
 30
0.0
 10
35.5056154422
 20
51.1197842104
 30
0.0
 10
35.4469310083
 20
50.9982683196
 30
0.0
 10
35.368335624
 20
50.8989398652
 30
0.0
 10
35.3030680739
 20
50.8489412478
 30
0.0
 10
35.2686223138
 20
50.8290603742
 30
0.0
  0
SPLINE
  5
32A
100
AcDbEntity
  8
0
100
AcDbSpline
 62
7
  6
CONTINUOUS
 70
0
 71
3
 72
10
 73
6
 74
0
 42
0.0000001
 43
0.0000001
 44
0.0000000001
 40
0.0
 40
0.0
 40
0.0
 40
0.0
 40
0.2782840223
 40
0.5376524342
 40
1.0
 40
1.0
 40
1.0
 40
1.0
 10
34.9293373882
 20
51.105628251
 30
0.0
 10
34.9709244561
 20
51.0816184893
 30
0.0
 10
35.0540116495
 20
51.0395867678
 30
0.0
 10
35.2167227854
 20
50.9818207562
 30
0.0
 10
35.3436298453
 20
50.9661901457
 30
0.0
 10
35.4230963892
 20
50.9732791142
 30
0.0
  0
SPLINE
  5
32B
100
AcDbEntity
  8
0
100
AcDbSpline
 62
7
  6
CONTINUOUS
 70
0
 71
3
 72
19
 73
15
 74
0
 42
0.0000001
 43
0.0000001
 44
0.0000000001
 40
0.0
 40
0.0
 40
0.0
 40
0.0
 40
0.0623912204
 40
0.12883165
 40
0.2703521188
 40
0.4174418405
 40
0.5617162437
 40
0.6953237839
 40
0.7563173263
 40
0.8127977205
 40
0.8647364846
 40
0.9125503751
 40
0.9571578678
 40
1.0
 40
1.0
 40
1.0
 40
1.0
 10
27.5654997016
 20
57.2235808886
 30
0.0
 10
27.6156594928
 20
57.1946217748
 30
0.0
 10
27.7153602074
 20
57.1279485628
 30
0.0
 10
27.9077094025
 20
56.9661480094
 30
0.0
 10
28.126648084
 20
56.7169999813
 30
0.0
 10
28.3380392066
 20
56.3731278182
 30
0.0
 10
28.4865684322
 20
56.0056540486
 30
0.0
 10
28.5499426913
 20
55.6949620502
 30
0.0
 10
28.5559454287
 20
55.4614034212
 30
0.0
 10
28.539013391
 20
55.3044940853
 30
0.0
 10
28.5009865049
 20
55.1638171247
 30
0.0
 10
28.442302071
 20
55.0423012339
 30
0.0
 10
28.3637066867
 20
54.9429727794
 30
0.0
 10
28.2984391365
 20
54.892974162
 30
0.0
 10
28.2639933765
 20
54.8730932884
 30
0.0
  0
SPLINE
  5
32C
100
AcDbEntity
  8
0
100
AcDbSpline
 62
7
  6
CONTINUOUS
 70
0
 71
3
 72
10
 73
6
 74
0
 42
0.0000001
 43
0.0000001
 44
0.0000000001
 40
0.0
 40
0.0
 40
0.0
 40
0.0
 40
0.2782840223
 40
0.5376524342
 40
1.0
 40
1.0
 40
1.0
 40
1.0
 10
27.9247084509
 20
55.1496611653
 30
0.0
 10
27.9662955188
 20
55.1256514036
 30
0.0
 10
28.0493827122
 20
55.083619682
 30
0.0
 10
28.2120938481
 20
55.0258536705
 30
0.0
 10
28.339000908
 20
55.01022306
 30
0.0
 10
28.4184674519
 20
55.0173120285
 30
0.0
  0
SPLINE
  5
32D
100
AcDbEntity
  8
0
100
AcDbSpline
 62
7
  6
CONTINUOUS
 70
0
 71
3
 72
19
 73
15
 74
0
 42
0.0000001
 43
0.0000001
 44
0.0000000001
 40
0.0
 40
0.0
 40
0.0
 40
0.0
 40
0.0623912204
 40
0.12883165
 40
0.2703521188
 40
0.4174418405
 40
0.5617162437
 40
0.6953237839
 40
0.7563173263
 40
0.8127977205
 40
0.8647364846
 40
0.9125503751
 40
0.9571578678
 40
1.0
 40
1.0
 40
1.0
 40
1.0
 10
20.5608707643
 20
61.2676138029
 30
0.0
 10
20.6110305555
 20
61.238654689
 30
0.0
 10
20.7107312701
 20
61.1719814771
 30
0.0
 10
20.9030804651
 20
61.0101809237
 30
0.0
 10
21.1220191467
 20
60.7610328956
 30
0.0
 10
21.3334102693
 20
60.4171607325
 30
0.0
 10
21.4819394949
 20
60.0496869629
 30
0.0
 10
21.545313754
 20
59.7389949645
 30
0.0
 10
21.5513164913
 20
59.5054363354
 30
0.0
 10
21.5343844537
 20
59.3485269996
 30
0.0
 10
21.4963575676
 20
59.207850039
 30
0.0
 10
21.4376731337
 20
59.0863341481
 30
0.0
 10
21.3590777494
 20
58.9870056937
 30
0.0
 10
21.2938101992
 20
58.9370070763
 30
0.0
 10
21.2593644392
 20
58.9171262027
 30
0.0
  0
SPLINE
  5
32E
100
AcDbEntity
  8
0
100
AcDbSpline
 62
7
  6
CONTINUOUS
 70
0
 71
3
 72
10
 73
6
 74
0
 42
0.0000001
 43
0.0000001
 44
0.0000000001
 40
0.0
 40
0.0
 40
0.0
 40
0.0
 40
0.2782840223
 40
0.5376524342
 40
1.0
 40
1.0
 40
1.0
 40
1.0
 10
42.4727211236
 20
55.4607768845
 30
0.0
 10
42.5143081915
 20
55.4367671228
 30
0.0
 10
42.5973953849
 20
55.3947354013
 30
0.0
 10
42.7601065208
 20
55.3369693897
 30
0.0
 10
42.8870135807
 20
55.3213387792
 30
0.0
 10
42.9664801246
 20
55.3284277477
 30
0.0
  0
SPLINE
  5
32F
100
AcDbEntity
  8
0
100
AcDbSpline
 62
7
  6
CONTINUOUS
 70
0
 71
3
 72
10
 73
6
 74
0
 42
0.0000001
 43
0.0000001
 44
0.0000000001
 40
0.0
 40
0.0
 40
0.0
 40
0.0
 40
0.2782840223
 40
0.5376524342
 40
1.0
 40
1.0
 40
1.0
 40
1.0
 10
20.9200795136
 20
59.1936940796
 30
0.0
 10
20.9616665815
 20
59.1696843179
 30
0.0
 10
21.0447537749
 20
59.1276525963
 30
0.0
 10
21.2074649108
 20
59.0698865848
 30
0.0
 10
21.3343719707
 20
59.0542559742
 30
0.0
 10
21.4138385146
 20
59.0613449428
 30
0.0
  0
SPLINE
  5
330
100
AcDbEntity
  8
0
100
AcDbSpline
 62
7
  6
CONTINUOUS
 70
0
 71
3
 72
19
 73
15
 74
0
 42
0.0000001
 43
0.0000001
 44
0.0000000001
 40
0.0
 40
0.0
 40
0.0
 40
0.0
 40
0.0623912204
 40
0.12883165
 40
0.2703521188
 40
0.4174418405
 40
0.5617162437
 40
0.6953237839
 40
0.7563173263
 40
0.8127977205
 40
0.8647364846
 40
0.9125503751
 40
0.9571578678
 40
1.0
 40
1.0
 40
1.0
 40
1.0
 10
42.1135123743
 20
57.5346966078
 30
0.0
 10
42.1636721656
 20
57.505737494
 30
0.0
 10
42.2633728801
 20
57.4390642821
 30
0.0
 10
42.4557220752
 20
57.2772637287
 30
0.0
 10
42.6746607567
 20
57.0281157005
 30
0.0
 10
42.8860518793
 20
56.6842435374
 30
0.0
 10
43.034581105
 20
56.3167697679
 30
0.0
 10
43.097955364
 20
56.0060777694
 30
0.0
 10
43.1039581014
 20
55.7725191404
 30
0.0
 10
43.0870260637
 20
55.6156098046
 30
0.0
 10
43.0489991776
 20
55.4749328439
 30
0.0
 10
42.9903147437
 20
55.3534169531
 30
0.0
 10
42.9117193594
 20
55.2540884987
 30
0.0
 10
42.8464518092
 20
55.2040898813
 30
0.0
 10
42.8120060492
 20
55.1842090077
 30
0.0
  0
SPLINE
  5
331
100
AcDbEntity
  8
0
100
AcDbSpline
 62
7
  6
CONTINUOUS
 70
0
 71
3
 72
19
 73
15
 74
0
 42
0.0000001
 43
0.0000001
 44
0.0000000001
 40
0.0
 40
0.0
 40
0.0
 40
0.0
 40
0.0623912204
 40
0.12883165
 40
0.2703521188
 40
0.4174418405
 40
0.5617162437
 40
0.6953237839
 40
0.7563173263
 40
0.8127977205
 40
0.8647364846
 40
0.9125503751
 40
0.9571578678
 40
1.0
 40
1.0
 40
1.0
 40
1.0
 10
13.556241827
 20
65.3116467172
 30
0.0
 10
13.6064016182
 20
65.2826876033
 30
0.0
 10
13.7061023328
 20
65.2160143914
 30
0.0
 10
13.8984515278
 20
65.054213838
 30
0.0
 10
14.1173902094
 20
64.8050658098
 30
0.0
 10
14.328781332
 20
64.4611936468
 30
0.0
 10
14.4773105576
 20
64.0937198772
 30
0.0
 10
14.5406848167
 20
63.7830278788
 30
0.0
 10
14.546687554
 20
63.5494692497
 30
0.0
 10
14.5297555164
 20
63.3925599139
 30
0.0
 10
14.4917286303
 20
63.2518829533
 30
0.0
 10
14.4330441964
 20
63.1303670624
 30
0.0
 10
14.3544488121
 20
63.031038608
 30
0.0
 10
14.2891812619
 20
62.9810399906
 30
0.0
 10
14.2547355018
 20
62.961159117
 30
0.0
  0
SPLINE
  5
332
100
AcDbEntity
  8
0
100
AcDbSpline
 62
7
  6
CONTINUOUS
 70
0
 71
3
 72
10
 73
6
 74
0
 42
0.0000001
 43
0.0000001
 44
0.0000000001
 40
0.0
 40
0.0
 40
0.0
 40
0.0
 40
0.2782840223
 40
0.5376524342
 40
1.0
 40
1.0
 40
1.0
 40
1.0
 10
13.9154505763
 20
63.2377269939
 30
0.0
 10
13.9570376442
 20
63.2137172322
 30
0.0
 10
14.0401248376
 20
63.1716855106
 30
0.0
 10
14.2028359735
 20
63.113919499
 30
0.0
 10
14.3297430334
 20
63.0982888885
 30
0.0
 10
14.4092095772
 20
63.105377857
 30
0.0
  0
SPLINE
  5
333
100
AcDbEntity
  8
0
100
AcDbSpline
 62
7
  6
CONTINUOUS
 70
0
 71
3
 72
19
 73
15
 74
0
 42
0.0000001
 43
0.0000001
 44
0.0000000001
 40
0.0
 40
0.0
 40
0.0
 40
0.0
 40
0.0623912204
 40
0.12883165
 40
0.2703521188
 40
0.4174418405
 40
0.5617162437
 40
0.6953237839
 40
0.7563173263
 40
0.8127977205
 40
0.8647364846
 40
0.9125503751
 40
0.9571578678
 40
1.0
 40
1.0
 40
1.0
 40
1.0
 10
37.9826117573
 20
55.1497342609
 30
0.0
 10
38.0327715485
 20
55.1207751471
 30
0.0
 10
38.1324722631
 20
55.0541019351
 30
0.0
 10
38.3248214582
 20
54.8923013817
 30
0.0
 10
38.5437601397
 20
54.6431533536
 30
0.0
 10
38.7551512623
 20
54.2992811905
 30
0.0
 10
38.9036804879
 20
53.9318074209
 30
0.0
 10
38.967054747
 20
53.6211154225
 30
0.0
 10
38.9730574844
 20
53.3875567935
 30
0.0
 10
38.9561254467
 20
53.2306474577
 30
0.0
 10
38.9180985606
 20
53.089970497
 30
0.0
 10
38.8594141267
 20
52.9684546062
 30
0.0
 10
38.7808187424
 20
52.8691261517
 30
0.0
 10
38.7155511922
 20
52.8191275344
 30
0.0
 10
38.6811054322
 20
52.7992466607
 30
0.0
  0
SPLINE
  5
334
100
AcDbEntity
  8
0
100
AcDbSpline
 62
7
  6
CONTINUOUS
 70
0
 71
3
 72
10
 73
6
 74
0
 42
0.0000001
 43
0.0000001
 44
0.0000000001
 40
0.0
 40
0.0
 40
0.0
 40
0.0
 40
0.2782840223
 40
0.5376524342
 40
1.0
 40
1.0
 40
1.0
 40
1.0
 10
38.3418205066
 20
53.0758145376
 30
0.0
 10
38.3834075745
 20
53.0518047759
 30
0.0
 10
38.4664947679
 20
53.0097730543
 30
0.0
 10
38.6292059038
 20
52.9520070428
 30
0.0
 10
38.7561129637
 20
52.9363764323
 30
0.0
 10
38.8355795076
 20
52.9434654008
 30
0.0
  0
SPLINE
  5
335
100
AcDbEntity
  8
0
100
AcDbSpline
 62
7
  6
CONTINUOUS
 70
0
 71
3
 72
19
 73
15
 74
0
 42
0.0000001
 43
0.0000001
 44
0.0000000001
 40
0.0
 40
0.0
 40
0.0
 40
0.0
 40
0.0623912204
 40
0.12883165
 40
0.2703521188
 40
0.4174418405
 40
0.5617162437
 40
0.6953237839
 40
0.7563173263
 40
0.8127977205
 40
0.8647364846
 40
0.9125503751
 40
0.9571578678
 40
1.0
 40
1.0
 40
1.0
 40
1.0
 10
30.97798282
 20
59.1937671752
 30
0.0
 10
31.0281426112
 20
59.1648080613
 30
0.0
 10
31.1278433258
 20
59.0981348494
 30
0.0
 10
31.3201925208
 20
58.936334296
 30
0.0
 10
31.5391312024
 20
58.6871862679
 30
0.0
 10
31.750522325
 20
58.3433141048
 30
0.0
 10
31.8990515506
 20
57.9758403352
 30
0.0
 10
31.9624258097
 20
57.6651483368
 30
0.0
 10
31.968428547
 20
57.4315897078
 30
0.0
 10
31.9514965094
 20
57.2746803719
 30
0.0
 10
31.9134696233
 20
57.1340034113
 30
0.0
 10
31.8547851894
 20
57.0124875204
 30
0.0
 10
31.7761898051
 20
56.913159066
 30
0.0
 10
31.7109222549
 20
56.8631604486
 30
0.0
 10
31.6764764949
 20
56.843279575
 30
0.0
  0
SPLINE
  5
336
100
AcDbEntity
  8
0
100
AcDbSpline
 62
7
  6
CONTINUOUS
 70
0
 71
3
 72
10
 73
6
 74
0
 42
0.0000001
 43
0.0000001
 44
0.0000000001
 40
0.0
 40
0.0
 40
0.0
 40
0.0
 40
0.2782840223
 40
0.5376524342
 40
1.0
 40
1.0
 40
1.0
 40
1.0
 10
17.3279336947
 20
65.2079132805
 30
0.0
 10
17.3695207626
 20
65.1839035188
 30
0.0
 10
17.452607956
 20
65.1418717972
 30
0.0
 10
17.6153190919
 20
65.0841057856
 30
0.0
 10
17.7422261518
 20
65.0684751751
 30
0.0
 10
17.8216926956
 20
65.0755641436
 30
0.0
  0
SPLINE
  5
337
100
AcDbEntity
  8
0
100
AcDbSpline
 62
7
  6
CONTINUOUS
 70
0
 71
3
 72
10
 73
6
 74
0
 42
0.0000001
 43
0.0000001
 44
0.0000000001
 40
0.0
 40
0.0
 40
0.0
 40
0.0
 40
0.2782840223
 40
0.5376524342
 40
1.0
 40
1.0
 40
1.0
 40
1.0
 10
31.3371915693
 20
57.1198474519
 30
0.0
 10
31.3787786372
 20
57.0958376902
 30
0.0
 10
31.4618658306
 20
57.0538059686
 30
0.0
 10
31.6245769665
 20
56.9960399571
 30
0.0
 10
31.7514840264
 20
56.9804093465
 30
0.0
 10
31.8309505703
 20
56.9874983151
 30
0.0
  0
SPLINE
  5
338
100
AcDbEntity
  8
0
100
AcDbSpline
 62
7
  6
CONTINUOUS
 70
0
 71
3
 72
19
 73
15
 74
0
 42
0.0000001
 43
0.0000001
 44
0.0000000001
 40
0.0
 40
0.0
 40
0.0
 40
0.0
 40
0.0623912204
 40
0.12883165
 40
0.2703521188
 40
0.4174418405
 40
0.5617162437
 40
0.6953237839
 40
0.7563173263
 40
0.8127977205
 40
0.8647364846
 40
0.9125503751
 40
0.9571578678
 40
1.0
 40
1.0
 40
1.0
 40
1.0
 10
16.9687249454
 20
67.2818330038
 30
0.0
 10
17.0188847366
 20
67.2528738899
 30
0.0
 10
17.1185854512
 20
67.186200678
 30
0.0
 10
17.3109346462
 20
67.0244001246
 30
0.0
 10
17.5298733278
 20
66.7752520964
 30
0.0
 10
17.7412644504
 20
66.4313799334
 30
0.0
 10
17.889793676
 20
66.0639061638
 30
0.0
 10
17.9531679351
 20
65.7532141653
 30
0.0
 10
17.9591706724
 20
65.5196555363
 30
0.0
 10
17.9422386348
 20
65.3627462005
 30
0.0
 10
17.9042117487
 20
65.2220692399
 30
0.0
 10
17.8455273148
 20
65.100553349
 30
0.0
 10
17.7669319305
 20
65.0012248946
 30
0.0
 10
17.7016643803
 20
64.9512262772
 30
0.0
 10
17.6672186202
 20
64.9313454036
 30
0.0
  0
SPLINE
  5
339
100
AcDbEntity
  8
0
100
AcDbSpline
 62
7
  6
CONTINUOUS
 70
0
 71
3
 72
19
 73
15
 74
0
 42
0.0000001
 43
0.0000001
 44
0.0000000001
 40
0.0
 40
0.0
 40
0.0
 40
0.0
 40
0.0623912204
 40
0.12883165
 40
0.2703521188
 40
0.4174418405
 40
0.5617162437
 40
0.6953237839
 40
0.7563173263
 40
0.8127977205
 40
0.8647364846
 40
0.9125503751
 40
0.9571578678
 40
1.0
 40
1.0
 40
1.0
 40
1.0
 10
23.9733538827
 20
63.2378000895
 30
0.0
 10
24.0235136739
 20
63.2088409756
 30
0.0
 10
24.1232143885
 20
63.1421677637
 30
0.0
 10
24.3155635835
 20
62.9803672103
 30
0.0
 10
24.5345022651
 20
62.7312191822
 30
0.0
 10
24.7458933877
 20
62.3873470191
 30
0.0
 10
24.8944226133
 20
62.0198732495
 30
0.0
 10
24.9577968724
 20
61.7091812511
 30
0.0
 10
24.9637996097
 20
61.475622622
 30
0.0
 10
24.9468675721
 20
61.3187132862
 30
0.0
 10
24.908840686
 20
61.1780363256
 30
0.0
 10
24.8501562521
 20
61.0565204347
 30
0.0
 10
24.7715608678
 20
60.9571919803
 30
0.0
 10
24.7062933176
 20
60.9071933629
 30
0.0
 10
24.6718475575
 20
60.8873124893
 30
0.0
  0
SPLINE
  5
33A
100
AcDbEntity
  8
0
100
AcDbSpline
 62
7
  6
CONTINUOUS
 70
0
 71
3
 72
10
 73
6
 74
0
 42
0.0000001
 43
0.0000001
 44
0.0000000001
 40
0.0
 40
0.0
 40
0.0
 40
0.0
 40
0.2782840223
 40
0.5376524342
 40
1.0
 40
1.0
 40
1.0
 40
1.0
 10
24.332562632
 20
61.1638803662
 30
0.0
 10
24.3741496999
 20
61.1398706045
 30
0.0
 10
24.4572368933
 20
61.0978388829
 30
0.0
 10
24.6199480292
 20
61.0400728713
 30
0.0
 10
24.7468550891
 20
61.0244422608
 30
0.0
 10
24.8263216329
 20
61.0315312293
 30
0.0
  0
SPLINE
  5
33B
100
AcDbEntity
  8
0
100
AcDbSpline
 62
7
  6
CONTINUOUS
 70
0
 71
3
 72
19
 73
15
 74
0
 42
0.0000001
 43
0.0000001
 44
0.0000000001
 40
0.0
 40
0.0
 40
0.0
 40
0.0
 40
0.0623912204
 40
0.12883165
 40
0.2703521188
 40
0.4174418405
 40
0.5617162437
 40
0.6953237839
 40
0.7563173263
 40
0.8127977205
 40
0.8647364846
 40
0.9125503751
 40
0.9571578678
 40
1.0
 40
1.0
 40
1.0
 40
1.0
 10
28.1042544997
 20
63.3414546829
 30
0.0
 10
28.0540947084
 20
63.3704137968
 30
0.0
 10
27.9543939938
 20
63.4370870087
 30
0.0
 10
27.7620447988
 20
63.5988875621
 30
0.0
 10
27.5431061172
 20
63.8480355903
 30
0.0
 10
27.3317149947
 20
64.1919077533
 30
0.0
 10
27.183185769
 20
64.5593815229
 30
0.0
 10
27.1198115099
 20
64.8700735214
 30
0.0
 10
27.1138087726
 20
65.1036321504
 30
0.0
 10
27.1307408102
 20
65.2605414862
 30
0.0
 10
27.1687676963
 20
65.4012184468
 30
0.0
 10
27.2274521302
 20
65.5227343377
 30
0.0
 10
27.3060475145
 20
65.6220627921
 30
0.0
 10
27.3713150647
 20
65.6720614095
 30
0.0
 10
27.4057608248
 20
65.6919422831
 30
0.0
  0
SPLINE
  5
33C
100
AcDbEntity
  8
0
100
AcDbSpline
 62
7
  6
CONTINUOUS
 70
0
 71
3
 72
11
 73
7
 74
0
 42
0.0000001
 43
0.0000001
 44
0.0000000001
 40
0.0
 40
0.0
 40
0.0
 40
0.0
 40
0.2177849011
 40
0.4509184398
 40
0.7103088704
 40
1.0
 40
1.0
 40
1.0
 40
1.0
 10
17.6672186202
 20
64.9313454036
 30
0.0
 10
17.6211335533
 20
64.904746734
 30
0.0
 10
17.5152587914
 20
64.8663117558
 30
0.0
 10
17.3393900823
 20
64.8618627286
 30
0.0
 10
17.1519629205
 20
64.9071262198
 30
0.0
 10
17.0300213776
 20
64.9651365392
 30
0.0
 10
16.9687249454
 20
65.0005252503
 30
0.0
  0
SPLINE
  5
33D
100
AcDbEntity
  8
0
100
AcDbSpline
 62
7
  6
CONTINUOUS
 70
0
 71
3
 72
11
 73
7
 74
0
 42
0.0000001
 43
0.0000001
 44
0.0000000001
 40
0.0
 40
0.0
 40
0.0
 40
0.0
 40
0.2177849011
 40
0.4509184398
 40
0.7103088704
 40
1.0
 40
1.0
 40
1.0
 40
1.0
 10
14.2547355018
 20
62.961159117
 30
0.0
 10
14.2086504349
 20
62.9345604474
 30
0.0
 10
14.102775673
 20
62.8961254692
 30
0.0
 10
13.9269069639
 20
62.891676442
 30
0.0
 10
13.7394798021
 20
62.9369399333
 30
0.0
 10
13.6175382592
 20
62.9949502527
 30
0.0
 10
13.556241827
 20
63.0303389637
 30
0.0
  0
SPLINE
  5
33E
100
AcDbEntity
  8
0
100
AcDbSpline
 62
7
  6
CONTINUOUS
 70
0
 71
3
 72
11
 73
7
 74
0
 42
0.0000001
 43
0.0000001
 44
0.0000000001
 40
0.0
 40
0.0
 40
0.0
 40
0.0
 40
0.2897011399
 40
0.5490888176
 40
0.7822183492
 40
1.0
 40
1.0
 40
1.0
 40
1.0
 10
25.9938451455
 20
70.1593027166
 30
0.0
 10
25.9325475142
 20
70.1239127239
 30
0.0
 10
25.8106062158
 20
70.0659015625
 30
0.0
 10
25.623179956
 20
70.0206366072
 30
0.0
 10
25.4473170751
 20
70.0250890186
 30
0.0
 10
25.3414418285
 20
70.06351593
 30
0.0
 10
25.2953593761
 20
70.0901163881
 30
0.0
  0
SPLINE
  5
33F
100
AcDbEntity
  8
0
100
AcDbSpline
 62
7
  6
CONTINUOUS
 70
0
 71
3
 72
19
 73
15
 74
0
 42
0.0000001
 43
0.0000001
 44
0.0000000001
 40
0.0
 40
0.0
 40
0.0
 40
0.0
 40
0.0428391559
 40
0.0874444434
 40
0.1352565711
 40
0.1871945237
 40
0.2436731925
 40
0.3046655562
 40
0.4382693929
 40
0.5825444777
 40
0.7296404985
 40
0.871167504
 40
0.9376094049
 40
1.0
 40
1.0
 40
1.0
 40
1.0
 10
47.9756265321
 20
60.2221583282
 30
0.0
 10
48.010068835
 20
60.2022769854
 30
0.0
 10
48.075336202
 20
60.1522865192
 30
0.0
 10
48.1539245598
 20
60.0529604519
 30
0.0
 10
48.2126163038
 20
59.9314533964
 30
0.0
 10
48.2506387688
 20
59.7907789899
 30
0.0
 10
48.26758002
 20
59.6338744939
 30
0.0
 10
48.261576497
 20
59.400321549
 30
0.0
 10
48.1982135847
 20
59.0896320892
 30
0.0
 10
48.0496894023
 20
58.7221523633
 30
0.0
 10
47.8382986008
 20
58.3782652837
 30
0.0
 10
47.6193538948
 20
58.1291043749
 30
0.0
 10
47.4270005737
 20
57.967298058
 30
0.0
 10
47.3272998466
 20
57.900623434
 30
0.0
 10
47.2771407627
 20
57.8716642462
 30
0.0
  0
SPLINE
  5
340
100
AcDbEntity
  8
0
100
AcDbSpline
 62
7
  6
CONTINUOUS
 70
0
 71
3
 72
19
 73
15
 74
0
 42
0.0000001
 43
0.0000001
 44
0.0000000001
 40
0.0
 40
0.0
 40
0.0
 40
0.0
 40
0.0623912204
 40
0.12883165
 40
0.2703521188
 40
0.4174418405
 40
0.5617162437
 40
0.6953237839
 40
0.7563173263
 40
0.8127977205
 40
0.8647364846
 40
0.9125503751
 40
0.9571578678
 40
1.0
 40
1.0
 40
1.0
 40
1.0
 10
34.5701286389
 20
50.8982402209
 30
0.0
 10
34.5199688476
 20
50.9271993347
 30
0.0
 10
34.420268133
 20
50.9938725467
 30
0.0
 10
34.227918938
 20
51.1556731001
 30
0.0
 10
34.0089802564
 20
51.4048211282
 30
0.0
 10
33.7975891339
 20
51.7486932913
 30
0.0
 10
33.6490599082
 20
52.1161670609
 30
0.0
 10
33.5856856491
 20
52.4268590593
 30
0.0
 10
33.5796829118
 20
52.6604176883
 30
0.0
 10
33.5966149494
 20
52.8173270242
 30
0.0
 10
33.6346418355
 20
52.9580039848
 30
0.0
 10
33.6933262694
 20
53.0795198756
 30
0.0
 10
33.7719216537
 20
53.1788483301
 30
0.0
 10
33.8371892039
 20
53.2288469475
 30
0.0
 10
33.871634964
 20
53.2487278211
 30
0.0
  0
SPLINE
  5
341
100
AcDbEntity
  8
0
100
AcDbSpline
 62
7
  6
CONTINUOUS
 70
0
 71
3
 72
19
 73
15
 74
0
 42
0.0000001
 43
0.0000001
 44
0.0000000001
 40
0.0
 40
0.0
 40
0.0
 40
0.0
 40
0.0623912204
 40
0.12883165
 40
0.2703521188
 40
0.4174418405
 40
0.5617162437
 40
0.6953237839
 40
0.7563173263
 40
0.8127977205
 40
0.8647364846
 40
0.9125503751
 40
0.9571578678
 40
1.0
 40
1.0
 40
1.0
 40
1.0
 10
35.108883437
 20
59.2974217687
 30
0.0
 10
35.0587236457
 20
59.3263808825
 30
0.0
 10
34.9590229311
 20
59.3930540944
 30
0.0
 10
34.7666737361
 20
59.5548546478
 30
0.0
 10
34.5477350545
 20
59.804002676
 30
0.0
 10
34.336343932
 20
60.1478748391
 30
0.0
 10
34.1878147063
 20
60.5153486086
 30
0.0
 10
34.1244404472
 20
60.8260406071
 30
0.0
 10
34.1184377099
 20
61.0595992361
 30
0.0
 10
34.1353697475
 20
61.2165085719
 30
0.0
 10
34.1733966336
 20
61.3571855326
 30
0.0
 10
34.2320810675
 20
61.4787014234
 30
0.0
 10
34.3106764518
 20
61.5780298778
 30
0.0
 10
34.375944002
 20
61.6280284952
 30
0.0
 10
34.4103897621
 20
61.6479093688
 30
0.0
  0
SPLINE
  5
342
100
AcDbEntity
  8
0
100
AcDbSpline
 62
7
  6
CONTINUOUS
 70
0
 71
3
 72
11
 73
7
 74
0
 42
0.0000001
 43
0.0000001
 44
0.0000000001
 40
0.0
 40
0.0
 40
0.0
 40
0.0
 40
0.2177849011
 40
0.4509184398
 40
0.7103088704
 40
1.0
 40
1.0
 40
1.0
 40
1.0
 10
21.2593644392
 20
58.9171262027
 30
0.0
 10
21.2132793722
 20
58.8905275331
 30
0.0
 10
21.1074046103
 20
58.8520925549
 30
0.0
 10
20.9315359012
 20
58.8476435277
 30
0.0
 10
20.7441087394
 20
58.892907019
 30
0.0
 10
20.6221671965
 20
58.9509173384
 30
0.0
 10
20.5608707643
 20
58.9863060494
 30
0.0
  0
SPLINE
  5
343
100
AcDbEntity
  8
0
100
AcDbSpline
 62
7
  6
CONTINUOUS
 70
0
 71
3
 72
19
 73
15
 74
0
 42
0.0000001
 43
0.0000001
 44
0.0000000001
 40
0.0
 40
0.0
 40
0.0
 40
0.0
 40
0.0623912204
 40
0.12883165
 40
0.2703521188
 40
0.4174418405
 40
0.5617162437
 40
0.6953237839
 40
0.7563173263
 40
0.8127977205
 40
0.8647364846
 40
0.9125503751
 40
0.9571578678
 40
1.0
 40
1.0
 40
1.0
 40
1.0
 10
27.5654997016
 20
54.9422731352
 30
0.0
 10
27.5153399103
 20
54.971232249
 30
0.0
 10
27.4156391957
 20
55.0379054609
 30
0.0
 10
27.2232900007
 20
55.1997060143
 30
0.0
 10
27.0043513191
 20
55.4488540425
 30
0.0
 10
26.7929601966
 20
55.7927262056
 30
0.0
 10
26.6444309709
 20
56.1601999751
 30
0.0
 10
26.5810567118
 20
56.4708919736
 30
0.0
 10
26.5750539745
 20
56.7044506026
 30
0.0
 10
26.5919860121
 20
56.8613599384
 30
0.0
 10
26.6300128982
 20
57.0020368991
 30
0.0
 10
26.6886973321
 20
57.1235527899
 30
0.0
 10
26.7672927164
 20
57.2228812443
 30
0.0
 10
26.8325602666
 20
57.2728798617
 30
0.0
 10
26.8670060267
 20
57.2927607353
 30
0.0
  0
SPLINE
  5
344
100
AcDbEntity
  8
0
100
AcDbSpline
 62
7
  6
CONTINUOUS
 70
0
 71
3
 72
11
 73
7
 74
0
 42
0.0000001
 43
0.0000001
 44
0.0000000001
 40
0.0
 40
0.0
 40
0.0
 40
0.0
 40
0.2177849011
 40
0.4509184398
 40
0.7103088704
 40
1.0
 40
1.0
 40
1.0
 40
1.0
 10
24.6718475575
 20
60.8873124893
 30
0.0
 10
24.6257624906
 20
60.8607138197
 30
0.0
 10
24.5198877287
 20
60.8222788415
 30
0.0
 10
24.3440190196
 20
60.8178298143
 30
0.0
 10
24.1565918578
 20
60.8630933056
 30
0.0
 10
24.0346503149
 20
60.921103625
 30
0.0
 10
23.9733538827
 20
60.956492336
 30
0.0
  0
SPLINE
  5
345
100
AcDbEntity
  8
0
100
AcDbSpline
 62
7
  6
CONTINUOUS
 70
0
 71
3
 72
11
 73
7
 74
0
 42
0.0000001
 43
0.0000001
 44
0.0000000001
 40
0.0
 40
0.0
 40
0.0
 40
0.0
 40
0.2177849011
 40
0.4509184398
 40
0.7103088704
 40
1.0
 40
1.0
 40
1.0
 40
1.0
 10
28.2639933765
 20
54.8730932884
 30
0.0
 10
28.2179083095
 20
54.8464946188
 30
0.0
 10
28.1120335476
 20
54.8080596406
 30
0.0
 10
27.9361648385
 20
54.8036106135
 30
0.0
 10
27.7487376767
 20
54.8488741047
 30
0.0
 10
27.6267961338
 20
54.9068844241
 30
0.0
 10
27.5654997016
 20
54.9422731352
 30
0.0
  0
SPLINE
  5
346
100
AcDbEntity
  8
0
100
AcDbSpline
 62
7
  6
CONTINUOUS
 70
0
 71
3
 72
19
 73
15
 74
0
 42
0.0000001
 43
0.0000001
 44
0.0000000001
 40
0.0
 40
0.0
 40
0.0
 40
0.0
 40
0.0623912204
 40
0.12883165
 40
0.2703521188
 40
0.4174418405
 40
0.5617162437
 40
0.6953237839
 40
0.7563173263
 40
0.8127977205
 40
0.8647364846
 40
0.9125503751
 40
0.9571578678
 40
1.0
 40
1.0
 40
1.0
 40
1.0
 10
20.5608707643
 20
58.9863060494
 30
0.0
 10
20.510710973
 20
59.0152651633
 30
0.0
 10
20.4110102584
 20
59.0819383752
 30
0.0
 10
20.2186610634
 20
59.2437389286
 30
0.0
 10
19.9997223818
 20
59.4928869568
 30
0.0
 10
19.7883312593
 20
59.8367591198
 30
0.0
 10
19.6398020336
 20
60.2042328894
 30
0.0
 10
19.5764277745
 20
60.5149248879
 30
0.0
 10
19.5704250372
 20
60.7484835169
 30
0.0
 10
19.5873570748
 20
60.9053928527
 30
0.0
 10
19.6253839609
 20
61.0460698133
 30
0.0
 10
19.6840683948
 20
61.1675857042
 30
0.0
 10
19.7626637791
 20
61.2669141586
 30
0.0
 10
19.8279313293
 20
61.316912776
 30
0.0
 10
19.8623770894
 20
61.3367936496
 30
0.0
  0
SPLINE
  5
347
100
AcDbEntity
  8
0
100
AcDbSpline
 62
7
  6
CONTINUOUS
 70
0
 71
3
 72
11
 73
7
 74
0
 42
0.0000001
 43
0.0000001
 44
0.0000000001
 40
0.0
 40
0.0
 40
0.0
 40
0.0
 40
0.2897011399
 40
0.5490888176
 40
0.7822183492
 40
1.0
 40
1.0
 40
1.0
 40
1.0
 10
47.2771407627
 20
57.8716642462
 30
0.0
 10
47.2158431314
 20
57.8362742536
 30
0.0
 10
47.093901833
 20
57.7782630922
 30
0.0
 10
46.9064755732
 20
57.7329981369
 30
0.0
 10
46.7306126923
 20
57.7374505483
 30
0.0
 10
46.6247374457
 20
57.7758774597
 30
0.0
 10
46.5786549933
 20
57.8024779178
 30
0.0
  0
SPLINE
  5
348
100
AcDbEntity
  8
0
100
AcDbSpline
 62
7
  6
CONTINUOUS
 70
0
 71
3
 72
19
 73
15
 74
0
 42
0.0000001
 43
0.0000001
 44
0.0000000001
 40
0.0
 40
0.0
 40
0.0
 40
0.0
 40
0.0623912204
 40
0.12883165
 40
0.2703521188
 40
0.4174418405
 40
0.5617162437
 40
0.6953237839
 40
0.7563173263
 40
0.8127977205
 40
0.8647364846
 40
0.9125503751
 40
0.9571578678
 40
1.0
 40
1.0
 40
1.0
 40
1.0
 10
13.556241827
 20
63.0303389637
 30
0.0
 10
13.5060820357
 20
63.0592980776
 30
0.0
 10
13.4063813211
 20
63.1259712895
 30
0.0
 10
13.2140321261
 20
63.2877718429
 30
0.0
 10
12.9950934445
 20
63.536919871
 30
0.0
 10
12.783702322
 20
63.8807920341
 30
0.0
 10
12.6351730963
 20
64.2482658037
 30
0.0
 10
12.5717988372
 20
64.5589578021
 30
0.0
 10
12.5657960999
 20
64.7925164312
 30
0.0
 10
12.5827281375
 20
64.949425767
 30
0.0
 10
12.6207550236
 20
65.0901027276
 30
0.0
 10
12.6794394575
 20
65.2116186185
 30
0.0
 10
12.7580348418
 20
65.3109470729
 30
0.0
 10
12.823302392
 20
65.3609456903
 30
0.0
 10
12.8577481521
 20
65.3808265639
 30
0.0
  0
SPLINE
  5
349
100
AcDbEntity
  8
0
100
AcDbSpline
 62
7
  6
CONTINUOUS
 70
0
 71
3
 72
19
 73
15
 74
0
 42
0.0000001
 43
0.0000001
 44
0.0000000001
 40
0.0
 40
0.0
 40
0.0
 40
0.0
 40
0.0623912204
 40
0.12883165
 40
0.2703521188
 40
0.4174418405
 40
0.5617162437
 40
0.6953237839
 40
0.7563173263
 40
0.8127977205
 40
0.8647364846
 40
0.9125503751
 40
0.9571578678
 40
1.0
 40
1.0
 40
1.0
 40
1.0
 10
42.1135123743
 20
55.2533888544
 30
0.0
 10
42.063352583
 20
55.2823479682
 30
0.0
 10
41.9636518684
 20
55.3490211802
 30
0.0
 10
41.7713026734
 20
55.5108217336
 30
0.0
 10
41.5523639918
 20
55.7599697617
 30
0.0
 10
41.3409728693
 20
56.1038419248
 30
0.0
 10
41.1924436436
 20
56.4713156944
 30
0.0
 10
41.1290693845
 20
56.7820076928
 30
0.0
 10
41.1230666472
 20
57.0155663218
 30
0.0
 10
41.1399986848
 20
57.1724756577
 30
0.0
 10
41.1780255709
 20
57.3131526183
 30
0.0
 10
41.2367100048
 20
57.4346685091
 30
0.0
 10
41.3153053891
 20
57.5339969636
 30
0.0
 10
41.3805729393
 20
57.583995581
 30
0.0
 10
41.4150186994
 20
57.6038764546
 30
0.0
  0
SPLINE
  5
34A
100
AcDbEntity
  8
0
100
AcDbSpline
 62
7
  6
CONTINUOUS
 70
0
 71
3
 72
11
 73
7
 74
0
 42
0.0000001
 43
0.0000001
 44
0.0000000001
 40
0.0
 40
0.0
 40
0.0
 40
0.0
 40
0.2177849011
 40
0.4509184398
 40
0.7103088704
 40
1.0
 40
1.0
 40
1.0
 40
1.0
 10
28.8027481746
 20
63.2722748362
 30
0.0
 10
28.7566631076
 20
63.2456761666
 30
0.0
 10
28.6507883457
 20
63.2072411884
 30
0.0
 10
28.4749196366
 20
63.2027921612
 30
0.0
 10
28.2874924748
 20
63.2480556525
 30
0.0
 10
28.1655509319
 20
63.3060659719
 30
0.0
 10
28.1042544997
 20
63.3414546829
 30
0.0
  0
SPLINE
  5
34B
100
AcDbEntity
  8
0
100
AcDbSpline
 62
7
  6
CONTINUOUS
 70
0
 71
3
 72
19
 73
15
 74
0
 42
0.0000001
 43
0.0000001
 44
0.0000000001
 40
0.0
 40
0.0
 40
0.0
 40
0.0
 40
0.0623912204
 40
0.12883165
 40
0.2703521188
 40
0.4174418405
 40
0.5617162437
 40
0.6953237839
 40
0.7563173263
 40
0.8127977205
 40
0.8647364846
 40
0.9125503751
 40
0.9571578678
 40
1.0
 40
1.0
 40
1.0
 40
1.0
 10
37.9826117573
 20
52.8684265075
 30
0.0
 10
37.932451966
 20
52.8973856213
 30
0.0
 10
37.8327512514
 20
52.9640588332
 30
0.0
 10
37.6404020564
 20
53.1258593867
 30
0.0
 10
37.4214633748
 20
53.3750074148
 30
0.0
 10
37.2100722523
 20
53.7188795779
 30
0.0
 10
37.0615430266
 20
54.0863533474
 30
0.0
 10
36.9981687675
 20
54.3970453459
 30
0.0
 10
36.9921660302
 20
54.6306039749
 30
0.0
 10
37.0090980678
 20
54.7875133107
 30
0.0
 10
37.0471249539
 20
54.9281902714
 30
0.0
 10
37.1058093878
 20
55.0497061622
 30
0.0
 10
37.1844047721
 20
55.1490346166
 30
0.0
 10
37.2496723223
 20
55.199033234
 30
0.0
 10
37.2841180824
 20
55.2189141077
 30
0.0
  0
SPLINE
  5
34C
100
AcDbEntity
  8
0
100
AcDbSpline
 62
7
  6
CONTINUOUS
 70
0
 71
3
 72
11
 73
7
 74
0
 42
0.0000001
 43
0.0000001
 44
0.0000000001
 40
0.0
 40
0.0
 40
0.0
 40
0.0
 40
0.2177849011
 40
0.4509184398
 40
0.7103088704
 40
1.0
 40
1.0
 40
1.0
 40
1.0
 10
35.2686223138
 20
50.8290603742
 30
0.0
 10
35.2225372468
 20
50.8024617046
 30
0.0
 10
35.1166624849
 20
50.7640267263
 30
0.0
 10
34.9407937758
 20
50.7595776992
 30
0.0
 10
34.753366614
 20
50.8048411904
 30
0.0
 10
34.6314250711
 20
50.8628515098
 30
0.0
 10
34.5701286389
 20
50.8982402209
 30
0.0
  0
SPLINE
  5
34D
100
AcDbEntity
  8
0
100
AcDbSpline
 62
7
  6
CONTINUOUS
 70
0
 71
3
 72
11
 73
7
 74
0
 42
0.0000001
 43
0.0000001
 44
0.0000000001
 40
0.0
 40
0.0
 40
0.0
 40
0.0
 40
0.2177849011
 40
0.4509184398
 40
0.7103088704
 40
1.0
 40
1.0
 40
1.0
 40
1.0
 10
21.7981192372
 20
67.3163077505
 30
0.0
 10
21.7520341703
 20
67.2897090809
 30
0.0
 10
21.6461594084
 20
67.2512741027
 30
0.0
 10
21.4702906993
 20
67.2468250755
 30
0.0
 10
21.2828635375
 20
67.2920885668
 30
0.0
 10
21.1609219946
 20
67.3500988862
 30
0.0
 10
21.0996255624
 20
67.3854875972
 30
0.0
  0
SPLINE
  5
34E
100
AcDbEntity
  8
0
100
AcDbSpline
 62
7
  6
CONTINUOUS
 70
0
 71
3
 72
11
 73
7
 74
0
 42
0.0000001
 43
0.0000001
 44
0.0000000001
 40
0.0
 40
0.0
 40
0.0
 40
0.0
 40
0.2177849011
 40
0.4509184398
 40
0.7103088704
 40
1.0
 40
1.0
 40
1.0
 40
1.0
 10
31.6764764949
 20
56.843279575
 30
0.0
 10
31.6303914279
 20
56.8166809054
 30
0.0
 10
31.524516666
 20
56.7782459272
 30
0.0
 10
31.3486479569
 20
56.7737969001
 30
0.0
 10
31.1612207951
 20
56.8190603913
 30
0.0
 10
31.0392792522
 20
56.8770707107
 30
0.0
 10
30.97798282
 20
56.9124594217
 30
0.0
  0
SPLINE
  5
34F
100
AcDbEntity
  8
0
100
AcDbSpline
 62
7
  6
CONTINUOUS
 70
0
 71
3
 72
19
 73
15
 74
0
 42
0.0000001
 43
0.0000001
 44
0.0000000001
 40
0.0
 40
0.0
 40
0.0
 40
0.0
 40
0.0623912204
 40
0.12883165
 40
0.2703521188
 40
0.4174418405
 40
0.5617162437
 40
0.6953237839
 40
0.7563173263
 40
0.8127977205
 40
0.8647364846
 40
0.9125503751
 40
0.9571578678
 40
1.0
 40
1.0
 40
1.0
 40
1.0
 10
21.0996255624
 20
67.3854875972
 30
0.0
 10
21.0494657711
 20
67.4144467111
 30
0.0
 10
20.9497650565
 20
67.481119923
 30
0.0
 10
20.7574158615
 20
67.6429204764
 30
0.0
 10
20.5384771799
 20
67.8920685045
 30
0.0
 10
20.3270860574
 20
68.2359406676
 30
0.0
 10
20.1785568317
 20
68.6034144372
 30
0.0
 10
20.1151825726
 20
68.9141064356
 30
0.0
 10
20.1091798353
 20
69.1476650647
 30
0.0
 10
20.1261118729
 20
69.3045744005
 30
0.0
 10
20.164138759
 20
69.4452513611
 30
0.0
 10
20.2228231929
 20
69.566767252
 30
0.0
 10
20.3014185772
 20
69.6660957064
 30
0.0
 10
20.3666861274
 20
69.7160943238
 30
0.0
 10
20.4011318875
 20
69.7359751974
 30
0.0
  0
SPLINE
  5
350
100
AcDbEntity
  8
0
100
AcDbSpline
 62
7
  6
CONTINUOUS
 70
0
 71
3
 72
19
 73
15
 74
0
 42
0.0000001
 43
0.0000001
 44
0.0000000001
 40
0.0
 40
0.0
 40
0.0
 40
0.0
 40
0.0623912204
 40
0.12883165
 40
0.2703521188
 40
0.4174418405
 40
0.5617162437
 40
0.6953237839
 40
0.7563173263
 40
0.8127977205
 40
0.8647364846
 40
0.9125503751
 40
0.9571578678
 40
1.0
 40
1.0
 40
1.0
 40
1.0
 10
30.97798282
 20
56.9124594217
 30
0.0
 10
30.9278230287
 20
56.9414185356
 30
0.0
 10
30.8281223141
 20
57.0080917475
 30
0.0
 10
30.6357731191
 20
57.1698923009
 30
0.0
 10
30.4168344375
 20
57.4190403291
 30
0.0
 10
30.205443315
 20
57.7629124921
 30
0.0
 10
30.0569140893
 20
58.1303862617
 30
0.0
 10
29.9935398302
 20
58.4410782602
 30
0.0
 10
29.9875370929
 20
58.6746368892
 30
0.0
 10
30.0044691305
 20
58.831546225
 30
0.0
 10
30.0424960166
 20
58.9722231856
 30
0.0
 10
30.1011804505
 20
59.0937390765
 30
0.0
 10
30.1797758348
 20
59.1930675309
 30
0.0
 10
30.245043385
 20
59.2430661483
 30
0.0
 10
30.2794891451
 20
59.2629470219
 30
0.0
  0
SPLINE
  5
351
100
AcDbEntity
  8
0
100
AcDbSpline
 62
7
  6
CONTINUOUS
 70
0
 71
3
 72
11
 73
7
 74
0
 42
0.0000001
 43
0.0000001
 44
0.0000000001
 40
0.0
 40
0.0
 40
0.0
 40
0.0
 40
0.2177849011
 40
0.4509184398
 40
0.7103088704
 40
1.0
 40
1.0
 40
1.0
 40
1.0
 10
42.8120060492
 20
55.1842090077
 30
0.0
 10
42.7659209822
 20
55.1576103381
 30
0.0
 10
42.6600462203
 20
55.1191753598
 30
0.0
 10
42.4841775112
 20
55.1147263327
 30
0.0
 10
42.2967503494
 20
55.1599898239
 30
0.0
 10
42.1748088065
 20
55.2180001433
 30
0.0
 10
42.1135123743
 20
55.2533888544
 30
0.0
  0
SPLINE
  5
352
100
AcDbEntity
  8
0
100
AcDbSpline
 62
7
  6
CONTINUOUS
 70
0
 71
3
 72
11
 73
7
 74
0
 42
0.0000001
 43
0.0000001
 44
0.0000000001
 40
0.0
 40
0.0
 40
0.0
 40
0.0
 40
0.2248566696
 40
0.4612004352
 40
0.7178985584
 40
1.0
 40
1.0
 40
1.0
 40
1.0
 10
26.6923309149
 20
72.5097967985
 30
0.0
 10
26.7309348589
 20
72.487513206
 30
0.0
 10
26.8037588159
 20
72.4298598876
 30
0.0
 10
26.8879468364
 20
72.3132723417
 30
0.0
 10
26.9466979527
 20
72.1700209282
 30
0.0
 10
26.9673249502
 20
72.0645661352
 30
0.0
 10
26.973827896
 20
72.0090239864
 30
0.0
  0
SPLINE
  5
353
100
AcDbEntity
  8
0
100
AcDbSpline
 62
7
  6
CONTINUOUS
 70
0
 71
3
 72
9
 73
5
 74
0
 42
0.0000001
 43
0.0000001
 44
0.0000000001
 40
0.0
 40
0.0
 40
0.0
 40
0.0
 40
0.2439830716
 40
1.0
 40
1.0
 40
1.0
 40
1.0
 10
26.973827896
 20
72.0090239864
 30
0.0
 10
26.9751002817
 20
71.9981564444
 30
0.0
 10
26.9796392951
 20
71.9535365006
 30
0.0
 10
26.9815401075
 20
71.9086579721
 30
0.0
 10
26.9816558406
 20
71.8747534938
 30
0.0
  0
SPLINE
  5
354
100
AcDbEntity
  8
0
100
AcDbSpline
 62
7
  6
CONTINUOUS
 70
0
 71
3
 72
15
 73
11
 74
0
 42
0.0000001
 43
0.0000001
 44
0.0000000001
 40
0.0
 40
0.0
 40
0.0
 40
0.0
 40
0.113998803
 40
0.2370759856
 40
0.3666902991
 40
0.4997357645
 40
0.6328256084
 40
0.7625313246
 40
0.8858285572
 40
1.0
 40
1.0
 40
1.0
 40
1.0
 10
26.9816558406
 20
71.8747534938
 30
0.0
 10
26.981922601
 20
71.7966049924
 30
0.0
 10
26.9680579716
 20
71.6338829964
 30
0.0
 10
26.9114745613
 20
71.3882805596
 30
0.0
 10
26.820377797
 20
71.1393498271
 30
0.0
 10
26.6981700738
 20
70.8964896101
 30
0.0
 10
26.5494290502
 20
70.6688400429
 30
0.0
 10
26.3797616628
 20
70.4648601334
 30
0.0
 10
26.1955317914
 20
70.292383786
 30
0.0
 10
26.0616267215
 20
70.1984361941
 30
0.0
 10
25.9938451455
 20
70.1593027166
 30
0.0
  0
SPLINE
  5
355
100
AcDbEntity
  8
0
100
AcDbSpline
 62
7
  6
CONTINUOUS
 70
0
 71
3
 72
11
 73
7
 74
0
 42
0.0000001
 43
0.0000001
 44
0.0000000001
 40
0.0
 40
0.0
 40
0.0
 40
0.0
 40
0.2177849011
 40
0.4509184398
 40
0.7103088704
 40
1.0
 40
1.0
 40
1.0
 40
1.0
 10
35.8073771119
 20
59.2282419219
 30
0.0
 10
35.7612920449
 20
59.2016432523
 30
0.0
 10
35.655417283
 20
59.1632082741
 30
0.0
 10
35.4795485739
 20
59.158759247
 30
0.0
 10
35.2921214121
 20
59.2040227382
 30
0.0
 10
35.1701798692
 20
59.2620330576
 30
0.0
 10
35.108883437
 20
59.2974217687
 30
0.0
  0
SPLINE
  5
356
100
AcDbEntity
  8
0
100
AcDbSpline
 62
7
  6
CONTINUOUS
 70
0
 71
3
 72
19
 73
15
 74
0
 42
0.0000001
 43
0.0000001
 44
0.0000000001
 40
0.0
 40
0.0
 40
0.0
 40
0.0
 40
0.0623912204
 40
0.12883165
 40
0.2703521188
 40
0.4174418405
 40
0.5617162437
 40
0.6953237839
 40
0.7563173263
 40
0.8127977205
 40
0.8647364846
 40
0.9125503751
 40
0.9571578678
 40
1.0
 40
1.0
 40
1.0
 40
1.0
 10
23.9733538827
 20
60.956492336
 30
0.0
 10
23.9231940914
 20
60.9854514499
 30
0.0
 10
23.8234933768
 20
61.0521246618
 30
0.0
 10
23.6311441818
 20
61.2139252152
 30
0.0
 10
23.4122055002
 20
61.4630732434
 30
0.0
 10
23.2008143777
 20
61.8069454064
 30
0.0
 10
23.052285152
 20
62.174419176
 30
0.0
 10
22.9889108929
 20
62.4851111744
 30
0.0
 10
22.9829081556
 20
62.7186698035
 30
0.0
 10
22.9998401932
 20
62.8755791393
 30
0.0
 10
23.0378670793
 20
63.0162560999
 30
0.0
 10
23.0965515132
 20
63.1377719908
 30
0.0
 10
23.1751468975
 20
63.2371004452
 30
0.0
 10
23.2404144477
 20
63.2870990626
 30
0.0
 10
23.2748602078
 20
63.3069799362
 30
0.0
  0
SPLINE
  5
357
100
AcDbEntity
  8
0
100
AcDbSpline
 62
7
  6
CONTINUOUS
 70
0
 71
3
 72
19
 73
15
 74
0
 42
0.0000001
 43
0.0000001
 44
0.0000000001
 40
0.0
 40
0.0
 40
0.0
 40
0.0
 40
0.0623912204
 40
0.12883165
 40
0.2703521188
 40
0.4174418405
 40
0.5617162437
 40
0.6953237839
 40
0.7563173263
 40
0.8127977205
 40
0.8647364846
 40
0.9125503751
 40
0.9571578678
 40
1.0
 40
1.0
 40
1.0
 40
1.0
 10
16.9687249454
 20
65.0005252503
 30
0.0
 10
16.9185651541
 20
65.0294843642
 30
0.0
 10
16.8188644395
 20
65.0961575761
 30
0.0
 10
16.6265152445
 20
65.2579581295
 30
0.0
 10
16.4075765629
 20
65.5071061576
 30
0.0
 10
16.1961854403
 20
65.8509783207
 30
0.0
 10
16.0476562147
 20
66.2184520903
 30
0.0
 10
15.9842819556
 20
66.5291440887
 30
0.0
 10
15.9782792183
 20
66.7627027178
 30
0.0
 10
15.9952112559
 20
66.9196120536
 30
0.0
 10
16.033238142
 20
67.0602890142
 30
0.0
 10
16.0919225759
 20
67.1818049051
 30
0.0
 10
16.1705179602
 20
67.2811333595
 30
0.0
 10
16.2357855104
 20
67.3311319769
 30
0.0
 10
16.2702312705
 20
67.3510128505
 30
0.0
  0
SPLINE
  5
358
100
AcDbEntity
  8
0
100
AcDbSpline
 62
7
  6
CONTINUOUS
 70
0
 71
3
 72
11
 73
7
 74
0
 42
0.0000001
 43
0.0000001
 44
0.0000000001
 40
0.0
 40
0.0
 40
0.0
 40
0.0
 40
0.2177849011
 40
0.4509184398
 40
0.7103088704
 40
1.0
 40
1.0
 40
1.0
 40
1.0
 10
38.6811054322
 20
52.7992466607
 30
0.0
 10
38.6350203652
 20
52.7726479911
 30
0.0
 10
38.5291456033
 20
52.7342130129
 30
0.0
 10
38.3532768942
 20
52.7297639858
 30
0.0
 10
38.1658497324
 20
52.775027477
 30
0.0
 10
38.0439081895
 20
52.8330377964
 30
0.0
 10
37.9826117573
 20
52.8684265075
 30
0.0
  0
ENDSEC
  0
SECTION
  2
OBJECTS
  0
DICTIONARY
  5
C
100
AcDbDictionary
280
0
281
1
  3
ACAD_GROUP
350
D
  3
ACAD_MLINESTYLE
350
17
  3
ACAD_LAYOUT
350
1A
  3
ACAD_PLOTSETTINGS
350
19
  3
ACAD_PLOTSTYLENAME
350
E
  0
DICTIONARY
  5
D
102
{ACAD_REACTORS
330
C
102
}
100
AcDbDictionary
280
0
281
1
  0
ACDBDICTIONARYWDFLT
  5
E
102
{ACAD_REACTORS
330
C
102
}
100
AcDbDictionary
281
1
  3
Normal
350
F
100
AcDbDictionaryWithDefault
340
F
  0
DICTIONARY
  5
17
102
{ACAD_REACTORS
330
C
102
}
100
AcDbDictionary
280
0
281
1
  3
Standard
350
18
  0
DICTIONARY
  5
19
102
{ACAD_REACTORS
330
C
102
}
100
AcDbDictionary
281
1
  0
DICTIONARY
  5
1A
102
{ACAD_REACTORS
330
C
102
}
100
AcDbDictionary
281
1
  3
Model
350
359
  3
Layout1
350
35A
  0
ACDBPLACEHOLDER
  5
F
102
{ACAD_REACTORS
330
E
102
}
  0
MLINESTYLE
  5
18
102
{ACAD_REACTORS
330
17
102
}
100
AcDbMlineStyle
  2
STANDARD
 70
0
  3

 62
256
 51
90.0
 52
90.0
 71
2
 49
0.5
 62
256
  6
BYLAYER
 49
-0.5
 62
256
  6
BYLAYER
  0
LAYOUT
  5
359
102
{ACAD_REACTORS
330
1A
102
}
100
AcDbPlotSettings
  1

  2
none_device
  4

  6

 40
0.0
 41
0.0
 42
0.0
 43
0.0
 44
210.0
 45
297.0
 46
0.0
 47
0.0
 48
0.0
 49
0.0
140
0.0
141
0.0
142
1.0
143
1.0
 70
1024
 72
1
 73
0
 74
0
  7

 75
0
147
1.0
148
0.0
149
0.0
100
AcDbLayout
  1
Model
 70
0
 71
0
 10
0.0
 20
0.0
 11
210.0
 21
297.0
 12
0.0
 22
0.0
 32
0.0
 14
0.0
 24
0.0
 34
0.0
 15
0.0
 25
0.0
 35
0.0
146
0.0
 13
0.0
 23
0.0
 33
0.0
 16
1.0
 26
0.0
 36
0.0
 17
0.0
 27
1.0
 37
0.0
 76
0
330
210
345
0
346
0
  0
LAYOUT
  5
35A
102
{ACAD_REACTORS
330
1A
102
}
100
AcDbPlotSettings
  1

  2
none_device
  4

  6

 40
0.0
 41
0.0
 42
0.0
 43
0.0
 44
210.0
 45
297.0
 46
0.0
 47
0.0
 48
0.0
 49
0.0
140
0.0
141
0.0
142
1.0
143
1.0
 70
0
 72
1
 73
0
 74
0
  7

 75
0
147
1.0
148
0.0
149
0.0
100
AcDbLayout
  1
Layout1
 70
0
 71
1
 10
0.0
 20
0.0
 11
210.0
 21
297.0
 12
0.0
 22
0.0
 32
0.0
 14
0.0
 24
0.0
 34
0.0
 15
0.0
 25
0.0
 35
0.0
146
0.0
 13
0.0
 23
0.0
 33
0.0
 16
1.0
 26
0.0
 36
0.0
 17
0.0
 27
1.0
 37
0.0
 76
0
330
211
345
0
346
0
  0
ENDSEC
  0
EOF
