999
DXF file: C:\Users\sesa63760\Dev\_Creo\CAD\MCADID0003429_3D-CAD\drw0001_1.dxf
999
Pro/ENGINEER 2019471 by Parametric Technology Corporation
  0
SECTION
  2
HEADER
  9
$ACADVER
  1
AC1024
  9
$DWGCODEPAGE
  3
ANSI_1252
  9
$EXTMAX
 10
103.6046076227
 20
146.5265164949
 30
0.0
  9
$EXTMIN
 10
0.0
 20
0.0
 30
0.0
  9
$LIMMIN
 10
0.0
 20
0.0
  9
$LIMMAX
 10
103.6046076227
 20
146.5265164949
  9
$VIEWCTR
 10
51.8023038113
 20
73.2632582475
  9
$VIEWSIZE
 40
146.5265164949
  9
$CLAYER
  8
0
  9
$LTSCALE
 40
9.5513581123
  9
$CELTYPE
  6
BYLAYER
  9
$DIMSCALE
 40
1.0
  9
$DIMASZ
 40
1.233388186
  9
$DIMEXO
 40
1.0
  9
$DIMDLI
 40
6.5991201503
  9
$DIMEXE
 40
1.0
  9
$DIMCEN
 40
1.5629495093
  9
$DIMLFAC
 40
1.0
  9
$DIMBLK
  1
_FILLED
  9
$DIMALT
 70
0
  9
$DIMALTF
 40
0.0393700787
  9
$DIMTXT
 40
1.7267434604
  9
$DIMTOL
 70
1
  9
$DIMLIM
 70
0
  9
$DIMTFAC
 40
1.0
  9
$DIMTP
 40
0.01
  9
$DIMTM
 40
0.01
  9
$DIMGAP
 40
0.625
  9
$DIMDSEP
 70
46
  9
$AUNITS
 70
0
  9
$PDMODE
 70
3
  9
$PDSIZE
 40
0.3125
  9
$HANDSEED
  5
30A
  9
$TILEMODE
 70
1
  9
$MEASUREMENT
 70
1
  9
$INSUNITS
 70
4
  0
ENDSEC
  0
SECTION
  2
CLASSES
  0
CLASS
  1
ACDBDICTIONARYWDFLT
  2
AcDbDictionaryWithDefault
  3
AutoCAD 2000
 90
0
 91
1
280
0
281
0
  0
CLASS
  1
ACDBPLACEHOLDER
  2
AcDbPlaceHolder
  3
AutoCAD 2000
 90
0
 91
1
280
0
281
0
  0
CLASS
  1
LAYOUT
  2
AcDbLayout
  3
AutoCAD 2000
 90
0
 91
0
280
0
281
0
  0
ENDSEC
  0
SECTION
  2
TABLES
  0
TABLE
  2
VPORT
  5
8
100
AcDbSymbolTable
 70
2
  0
VPORT
  5
1F4
100
AcDbSymbolTableRecord
100
AcDbViewportTableRecord
  2
*ACTIVE
 70
0
 10
0.0
 20
0.0
 11
1.0
 21
1.0
 12
51.8023038113
 22
73.2632582475
 13
0.0
 23
0.0
 14
1.0
 24
1.0
 15
0.0
 25
0.0
 16
0.0
 26
0.0
 36
1.0
 17
0.0
 27
0.0
 37
0.0
 40
146.5265164949
 41
0.7070707071
 42
50.0
 43
0.0
 44
0.0
 50
0.0
 51
0.0
 71
0
 72
100
 73
1
 74
1
 75
0
 76
0
 77
0
 78
0
  0
ENDTAB
  0
TABLE
  2
LTYPE
  5
5
100
AcDbSymbolTable
 70
6
  0
LTYPE
  5
14
100
AcDbSymbolTableRecord
100
AcDbLinetypeTableRecord
  2
BYBLOCK
 70
0
  3

 72
65
 73
0
 40
0.0
  0
LTYPE
  5
15
100
AcDbSymbolTableRecord
100
AcDbLinetypeTableRecord
  2
BYLAYER
 70
0
  3

 72
65
 73
0
 40
0.0
  0
LTYPE
  5
16
100
AcDbSymbolTableRecord
100
AcDbLinetypeTableRecord
  2
CONTINUOUS
 70
64
  3
Solid line
 72
65
 73
0
 40
0.0
  0
LTYPE
  5
1F5
100
AcDbSymbolTableRecord
100
AcDbLinetypeTableRecord
  2
CENTER
 70
64
  3
____ _ ____ _ ____ _ ____ _ ____ _ ____ _ ____
 72
65
 73
4
 40
0.6
 49
0.375
 74
0
 49
-0.075
 74
0
 49
0.075
 74
0
 49
-0.075
 74
0
  0
LTYPE
  5
1F6
100
AcDbSymbolTableRecord
100
AcDbLinetypeTableRecord
  2
HIDDEN
 70
64
  3
- - - - - - - - - - - - - - - - - - - -
 72
65
 73
2
 40
0.2
 49
0.1
 74
0
 49
-0.1
 74
0
  0
LTYPE
  5
1F7
100
AcDbSymbolTableRecord
100
AcDbLinetypeTableRecord
  2
PHANTOM
 70
64
  3
_____ _ _ _____ _ _ _____ _ _ _____
 72
65
 73
6
 40
0.8
 49
0.45
 74
0
 49
-0.05
 74
0
 49
0.1
 74
0
 49
-0.05
 74
0
 49
0.1
 74
0
 49
-0.05
 74
0
  0
LTYPE
  5
1F8
100
AcDbSymbolTableRecord
100
AcDbLinetypeTableRecord
  2
DOT
 70
64
  3
. . . . . . . . . . . . . . . . . . . .
 72
65
 73
2
 40
0.2
 49
0.1
 74
0
 49
-0.1
 74
0
  0
LTYPE
  5
1F9
100
AcDbSymbolTableRecord
100
AcDbLinetypeTableRecord
  2
DASHED
 70
64
  3
- - - - - - - - - - - - - - - - - - - -
 72
65
 73
2
 40
0.2
 49
0.1
 74
0
 49
-0.1
 74
0
  0
ENDTAB
  0
TABLE
  2
LAYER
  5
2
100
AcDbSymbolTable
 70
36
  0
LAYER
  5
10
100
AcDbSymbolTableRecord
100
AcDbLayerTableRecord
  2
0
 70
0
 62
7
  6
CONTINUOUS
370
-3
390
F
  0
LAYER
  5
1FA
100
AcDbSymbolTableRecord
100
AcDbLayerTableRecord
  2
DEFAULT_1
 70
0
 62
7
  6
CENTER
370
-3
390
F
  0
LAYER
  5
1FB
100
AcDbSymbolTableRecord
100
AcDbLayerTableRecord
  2
DEFAULT_2
 70
0
 62
7
  6
HIDDEN
370
-3
390
F
  0
LAYER
  5
1FC
100
AcDbSymbolTableRecord
100
AcDbLayerTableRecord
  2
DEFAULT_3
 70
0
 62
7
  6
PHANTOM
370
-3
390
F
  0
LAYER
  5
1FD
100
AcDbSymbolTableRecord
100
AcDbLayerTableRecord
  2
00_COMPONENTS
 70
0
 62
7
  6
CONTINUOUS
370
-3
390
F
  0
LAYER
  5
1FE
100
AcDbSymbolTableRecord
100
AcDbLayerTableRecord
  2
01_1_DEFAULT_DATUMS
 70
0
 62
7
  6
CONTINUOUS
370
-3
390
F
  0
LAYER
  5
1FF
100
AcDbSymbolTableRecord
100
AcDbLayerTableRecord
  2
01_PLANES
 70
0
 62
7
  6
CONTINUOUS
370
-3
390
F
  0
LAYER
  5
200
100
AcDbSymbolTableRecord
100
AcDbLayerTableRecord
  2
02_COORD_SYS
 70
0
 62
7
  6
CONTINUOUS
370
-3
390
F
  0
LAYER
  5
201
100
AcDbSymbolTableRecord
100
AcDbLayerTableRecord
  2
03_AXES
 70
0
 62
7
  6
CONTINUOUS
370
-3
390
F
  0
LAYER
  5
202
100
AcDbSymbolTableRecord
100
AcDbLayerTableRecord
  2
04_POINTS
 70
0
 62
7
  6
CONTINUOUS
370
-3
390
F
  0
LAYER
  5
203
100
AcDbSymbolTableRecord
100
AcDbLayerTableRecord
  2
05_CURVES
 70
0
 62
7
  6
CONTINUOUS
370
-3
390
F
  0
LAYER
  5
204
100
AcDbSymbolTableRecord
100
AcDbLayerTableRecord
  2
06_SURFS
 70
0
 62
7
  6
CONTINUOUS
370
-3
390
F
  0
LAYER
  5
205
100
AcDbSymbolTableRecord
100
AcDbLayerTableRecord
  2
07_COSMETICS
 70
0
 62
7
  6
CONTINUOUS
370
-3
390
F
  0
LAYER
  5
206
100
AcDbSymbolTableRecord
100
AcDbLayerTableRecord
  2
10_NOTES
 70
0
 62
7
  6
CONTINUOUS
370
-3
390
F
  0
LAYER
  5
207
100
AcDbSymbolTableRecord
100
AcDbLayerTableRecord
  2
11_NOTES_PUB
 70
0
 62
7
  6
CONTINUOUS
370
-3
390
F
  0
LAYER
  5
208
100
AcDbSymbolTableRecord
100
AcDbLayerTableRecord
  2
13_REF_GTOL
 70
0
 62
7
  6
CONTINUOUS
370
-3
390
F
  0
LAYER
  5
209
100
AcDbSymbolTableRecord
100
AcDbLayerTableRecord
  2
16_MISC
 70
0
 62
7
  6
CONTINUOUS
370
-3
390
F
  0
LAYER
  5
20A
100
AcDbSymbolTableRecord
100
AcDbLayerTableRecord
  2
17_NO_PRINT
 70
0
 62
7
  6
CONTINUOUS
370
-3
390
F
  0
LAYER
  5
20B
100
AcDbSymbolTableRecord
100
AcDbLayerTableRecord
  2
18_DATUM_CAMS_JOINTS
 70
0
 62
7
  6
CONTINUOUS
370
-3
390
F
  0
LAYER
  5
20C
100
AcDbSymbolTableRecord
100
AcDbLayerTableRecord
  2
19_DATUM_FUNCTIONAL
 70
0
 62
7
  6
CONTINUOUS
370
-3
390
F
  0
LAYER
  5
20D
100
AcDbSymbolTableRecord
100
AcDbLayerTableRecord
  2
20_DATUM_KINEMATIC_SCHEME
 70
0
 62
7
  6
CONTINUOUS
370
-3
390
F
  0
ENDTAB
  0
TABLE
  2
STYLE
  5
3
100
AcDbSymbolTable
 70
1
  0
STYLE
  5
11
100
AcDbSymbolTableRecord
100
AcDbTextStyleTableRecord
  2
STANDARD
 70
0
 40
0.0
 41
1.0
 50
0.0
 71
0
 42
0.2
  3
ARIAL.TTF
  4

  0
STYLE
  5
20E
100
AcDbSymbolTableRecord
100
AcDbTextStyleTableRecord
  2
TEXTSTYLE_1
 70
0
 40
0.0
 41
0.8
 50
0.0
 71
0
 42
0.2
  3
gdt
  4

  0
ENDTAB
  0
TABLE
  2
VIEW
  5
6
100
AcDbSymbolTable
 70
0
  0
ENDTAB
  0
TABLE
  2
UCS
  5
7
100
AcDbSymbolTable
 70
0
  0
ENDTAB
  0
TABLE
  2
APPID
  5
9
100
AcDbSymbolTable
 70
1
  0
APPID
  5
20F
100
AcDbSymbolTableRecord
100
AcDbRegAppTableRecord
  2
ACAD
 70
0
  0
ENDTAB
  0
TABLE
  2
BLOCK_RECORD
  5
1
100
AcDbSymbolTable
 70
0
  0
BLOCK_RECORD
  5
210
100
AcDbSymbolTableRecord
100
AcDbBlockTableRecord
  2
*Model_Space
  0
BLOCK_RECORD
  5
211
100
AcDbSymbolTableRecord
100
AcDbBlockTableRecord
  2
*Paper_Space
  0
BLOCK_RECORD
  5
212
100
AcDbSymbolTableRecord
100
AcDbBlockTableRecord
  2
_FILLED
  0
ENDTAB
  0
TABLE
  2
DIMSTYLE
  5
A
100
AcDbSymbolTable
 70
1
100
AcDbDimStyleTable
 71
0
  0
DIMSTYLE
105
213
100
AcDbSymbolTableRecord
100
AcDbDimStyleTableRecord
  2
STANDARD
 70
0
  3

  4

 40
1.0
 41
1.233388186
 42
1.0
 43
0.38
 44
1.0
 45
0.0
 46
0.0
 47
0.01
 48
0.01
140
1.7267434604
141
0.09
142
0.0
143
25.4
144
1.0
145
0.0
146
1.0
147
0.625
 71
1
 72
0
 73
0
 74
0
 75
0
 76
0
 77
1
 78
8
 79
2
170
0
171
1
172
0
173
0
174
0
175
0
176
0
177
0
178
0
270
2
179
2
271
2
272
2
273
2
274
2
275
0
280
0
281
0
282
0
283
1
284
8
285
0
286
0
287
3
288
0
340
11
278
46
341
212
342
212
343
212
344
212
  0
ENDTAB
  0
ENDSEC
  0
SECTION
  2
BLOCKS
  0
BLOCK
  5
20
100
AcDbEntity
  8
0
100
AcDbBlockBegin
  2
*Model_Space
 70
0
 10
0.0
 20
0.0
 30
0.0
  3
*Model_Space
  1

  0
ENDBLK
  5
21
100
AcDbEntity
  8
0
100
AcDbBlockEnd
  0
BLOCK
  5
1C
100
AcDbEntity
  8
0
100
AcDbBlockBegin
  2
*Paper_Space
 70
0
 10
0.0
 20
0.0
 30
0.0
  3
*Paper_Space
  1

  0
ENDBLK
  5
1D
100
AcDbEntity
  8
0
100
AcDbBlockEnd
  0
BLOCK
  5
214
100
AcDbEntity
  8
0
100
AcDbBlockBegin
  2
_FILLED
 70
64
 10
0.0
 20
0.0
  3
_FILLED
  1

  0
SOLID
  5
215
100
AcDbEntity
  8
0
  6
BYBLOCK
 62
0
100
AcDbTrace
 10
0.0
 20
0.0
 11
-1.0
 21
0.25
 12
-1.0
 22
-0.25
 13
-1.0
 23
-0.25
  0
ENDBLK
  5
216
100
AcDbEntity
  8
0
  6
BYBLOCK
 62
0
100
AcDbBlockEnd
  0
ENDSEC
  0
SECTION
  2
ENTITIES
  0
LINE
  5
217
100
AcDbEntity
  8
0
100
AcDbLine
 62
7
  6
BYLAYER
 10
25.0072953657
 20
132.9555293514
 11
28.8963664704
 21
135.2008721977
  0
LWPOLYLINE
  5
218
100
AcDbEntity
  8
0
100
AcDbPolyline
 62
7
  6
BYLAYER
 90
6
 70
0
 10
28.8963704767
 20
135.2008652588
 10
29.3615491275
 20
135.4131615996
 10
31.6287030324
 20
135.3703983201
 10
34.1428994559
 20
133.9244101693
 10
36.410560857
 20
131.3624374305
 10
37.9864298127
 20
128.1838334826
  0
LINE
  5
219
100
AcDbEntity
  8
0
100
AcDbLine
 62
7
  6
BYLAYER
 10
26.5582754753
 20
129.2321875291
 11
27.0072864119
 21
129.4914225668
  0
LINE
  5
21A
100
AcDbEntity
  8
0
100
AcDbLine
 62
7
  6
BYLAYER
 10
32.2958258238
 20
18.8567824506
 11
44.3438441648
 21
11.9010131787
  0
LINE
  5
21B
100
AcDbEntity
  8
0
100
AcDbLine
 62
7
  6
BYLAYER
 10
46.1398879113
 20
12.958692491
 11
46.1578484983
 21
12.9483231758
  0
LINE
  5
21C
100
AcDbEntity
  8
0
100
AcDbLine
 62
7
  6
BYLAYER
 10
30.5582575678
 20
122.30397396
 11
31.0072685044
 21
122.5632089977
  0
LINE
  5
21D
100
AcDbEntity
  8
0
100
AcDbLine
 62
7
  6
BYLAYER
 10
47.9449120261
 20
13.9697087796
 11
47.9718528318
 21
13.9541548501
  0
LINE
  5
21E
100
AcDbEntity
  8
0
100
AcDbLine
 62
7
  6
BYLAYER
 10
31.6870982115
 20
25.805394144
 11
32.2958258238
 21
25.4539530438
  0
LINE
  5
21F
100
AcDbEntity
  8
0
100
AcDbLine
 62
7
  6
BYLAYER
 10
50.0931643435
 20
15.1788873117
 11
56.3793697864
 21
11.5496270119
  0
LINE
  5
220
100
AcDbEntity
  8
0
100
AcDbLine
 62
7
  6
BYLAYER
 10
37.1390069137
 20
121.5026894202
 11
36.8960173194
 21
121.3449878541
  0
LINE
  5
221
100
AcDbEntity
  8
0
100
AcDbLine
 62
7
  6
BYLAYER
 10
33.0072595507
 20
119.0991022131
 11
36.8963306553
 21
121.3444450594
  0
LINE
  5
222
100
AcDbEntity
  8
0
100
AcDbLine
 62
7
  6
BYLAYER
 10
52.4620294972
 20
19.3879704632
 11
46.1758240407
 21
23.0172307708
  0
LINE
  5
223
100
AcDbEntity
  8
0
100
AcDbLine
 62
7
  6
BYLAYER
 10
30.4638459479
 20
32.0883403363
 11
24.1776404914
 21
35.717600644
  0
LINE
  5
224
100
AcDbEntity
  8
0
100
AcDbLine
 62
7
  6
BYLAYER
 10
30.7750193874
 20
108.6537071876
 11
31.6730412607
 21
109.1721772631
  0
LINE
  5
225
100
AcDbEntity
  8
0
100
AcDbLine
 62
7
  6
BYLAYER
 10
56.0541169903
 20
21.420372442
 11
56.0271761845
 21
21.4359263716
  0
LINE
  5
226
100
AcDbEntity
  8
0
100
AcDbLine
 62
7
  6
BYLAYER
 10
31.6947377774
 20
107.0637231271
 11
34.2032380631
 21
108.5119977974
  0
LINE
  5
227
100
AcDbEntity
  8
0
100
AcDbLine
 62
7
  6
BYLAYER
 10
38.037028787
 20
110.7254246914
 11
55.7003473677
 21
120.9232855557
  0
LINE
  5
228
100
AcDbEntity
  8
0
100
AcDbLine
 62
7
  6
BYLAYER
 10
24.1776404914
 20
75.4072932392
 11
24.1776404914
 21
35.717600644
  0
LINE
  5
229
100
AcDbEntity
  8
0
100
AcDbLine
 62
7
  6
BYLAYER
 10
31.6730412607
 20
94.0549968472
 11
35.0176777383
 21
96.5681478945
  0
LINE
  5
22A
100
AcDbEntity
  8
0
100
AcDbLine
 62
7
  6
BYLAYER
 10
38.037028787
 20
98.8368803265
 11
39.6126475655
 21
100.0207961301
  0
LINE
  5
22B
100
AcDbEntity
  8
0
100
AcDbLine
 62
7
  6
BYLAYER
 10
25.9916448249
 20
76.4546032362
 11
25.9916448249
 21
76.4338640749
  0
LINE
  5
22C
100
AcDbEntity
  8
0
100
AcDbLine
 62
7
  6
BYLAYER
 10
27.7697279844
 20
77.5226518636
 11
27.7697279844
 21
77.4915433871
  0
LINE
  5
22D
100
AcDbEntity
  8
0
100
AcDbLine
 62
7
  6
BYLAYER
 10
28.653690212
 20
119.8635559832
 11
28.653690212
 21
90.0490384446
  0
LINE
  5
22E
100
AcDbEntity
  8
0
100
AcDbLine
 62
7
  6
BYLAYER
 10
28.653690212
 20
82.0978141065
 11
28.653690212
 21
68.0963677802
  0
LINE
  5
22F
100
AcDbEntity
  8
0
100
AcDbLine
 62
7
  6
BYLAYER
 10
29.891039496
 20
32.419042814
 11
29.891039496
 21
28.9162418235
  0
LINE
  5
230
100
AcDbEntity
  8
0
100
AcDbLine
 62
7
  6
BYLAYER
 10
26.9863120017
 20
89.0863829323
 11
30.6738585127
 21
91.2153761947
  0
LINE
  5
231
100
AcDbEntity
  8
0
100
AcDbLine
 62
7
  6
BYLAYER
 10
32.3744432412
 20
92.1972033848
 11
30.7750193874
 21
91.2686910466
  0
LINE
  5
232
100
AcDbEntity
  8
0
100
AcDbLine
 62
7
  6
BYLAYER
 10
28.2088065287
 20
86.9689476602
 11
24.2949867897
 21
84.7093162685
  0
LINE
  5
233
100
AcDbEntity
  8
0
100
AcDbLine
 62
7
  6
BYLAYER
 10
30.6739778167
 20
91.2151696661
 11
30.7750193874
 21
91.2686910466
  0
LINE
  5
234
100
AcDbEntity
  8
0
100
AcDbLine
 62
7
  6
BYLAYER
 10
30.7750193874
 20
108.6537071876
 11
30.7750193874
 21
91.2686910466
  0
LINE
  5
235
100
AcDbEntity
  8
0
100
AcDbLine
 62
7
  6
BYLAYER
 10
30.7750193874
 20
81.1887414786
 11
30.7750193874
 21
67.8514483988
  0
LINE
  5
236
100
AcDbEntity
  8
0
100
AcDbLine
 62
7
  6
BYLAYER
 10
31.6730412607
 20
68.3699184743
 11
31.6730412607
 21
81.5269787123
  0
LINE
  5
237
100
AcDbEntity
  8
0
100
AcDbLine
 62
7
  6
BYLAYER
 10
31.6730412607
 20
91.7871611221
 11
31.6730412607
 21
109.1721772631
  0
LINE
  5
238
100
AcDbEntity
  8
0
100
AcDbLine
 62
7
  6
BYLAYER
 10
31.6947377774
 20
94.0712995527
 11
31.6947377774
 21
107.0637231271
  0
LINE
  5
239
100
AcDbEntity
  8
0
100
AcDbLine
 62
7
  6
BYLAYER
 10
32.2958258238
 20
18.8567824506
 11
32.2958258238
 21
28.9152757272
  0
LINE
  5
23A
100
AcDbEntity
  8
0
100
AcDbLine
 62
7
  6
BYLAYER
 10
32.2958258238
 20
72.835757247
 11
32.2958258238
 21
80.0944637353
  0
LINE
  5
23B
100
AcDbEntity
  8
0
100
AcDbLine
 62
7
  6
BYLAYER
 10
30.2087975749
 20
83.5048408756
 11
26.2949778359
 21
81.245209484
  0
LINE
  5
23C
100
AcDbEntity
  8
0
100
AcDbLine
 62
7
  6
BYLAYER
 10
32.0478169085
 20
62.2176005288
 11
33.7448802172
 21
61.2378227362
  0
LINE
  5
23D
100
AcDbEntity
  8
0
100
AcDbLine
 62
7
  6
BYLAYER
 10
35.0176777383
 20
65.4020038717
 11
35.0176777383
 21
83.4630840141
  0
LINE
  5
23E
100
AcDbEntity
  8
0
100
AcDbLine
 62
7
  6
BYLAYER
 10
35.0176777383
 20
88.8192465195
 11
35.0176777383
 21
106.2042626605
  0
LINE
  5
23F
100
AcDbEntity
  8
0
100
AcDbLine
 62
7
  6
BYLAYER
 10
37.1390069137
 20
63.1974787259
 11
37.1390069137
 21
121.5026894202
  0
LINE
  5
240
100
AcDbEntity
  8
0
100
AcDbLine
 62
7
  6
BYLAYER
 10
38.037028787
 20
122.706114797
 11
38.037028787
 21
63.7159488013
  0
LINE
  5
241
100
AcDbEntity
  8
0
100
AcDbLine
 62
7
  6
BYLAYER
 10
31.4312921019
 20
81.3874056036
 11
35.118838613
 21
83.516398866
  0
LINE
  5
242
100
AcDbEntity
  8
0
100
AcDbLine
 62
7
  6
BYLAYER
 10
28.653690212
 20
78.0330046473
 11
27.7697279844
 21
77.5226518636
  0
LINE
  5
243
100
AcDbEntity
  8
0
100
AcDbLine
 62
7
  6
BYLAYER
 10
32.2958258238
 20
80.0944637353
 11
35.0176777383
 21
81.6659159321
  0
LINE
  5
244
100
AcDbEntity
  8
0
100
AcDbLine
 62
7
  6
BYLAYER
 10
27.7876885714
 20
77.4915433871
 11
25.9916448249
 21
76.4546032362
  0
LINE
  5
245
100
AcDbEntity
  8
0
100
AcDbLine
 62
7
  6
BYLAYER
 10
25.9736842379
 20
76.44423339
 11
24.1776404914
 21
75.4072932392
  0
LINE
  5
246
100
AcDbEntity
  8
0
100
AcDbLine
 62
7
  6
BYLAYER
 10
79.7061568487
 20
107.0638385324
 11
55.7005472583
 21
93.2042761038
  0
LINE
  5
247
100
AcDbEntity
  8
0
100
AcDbLine
 62
7
  6
BYLAYER
 10
38.037028787
 20
82.9445991285
 11
47.2139677525
 21
86.8548447719
  0
LINE
  5
248
100
AcDbEntity
  8
0
100
AcDbLine
 62
7
  6
BYLAYER
 10
32.2868613588
 20
72.8512842485
 11
32.2598896944
 21
72.8357122437
  0
LINE
  5
249
100
AcDbEntity
  8
0
100
AcDbLine
 62
7
  6
BYLAYER
 10
32.2598896944
 20
72.8149730823
 11
31.6730412607
 21
72.4761580036
  0
LINE
  5
24A
100
AcDbEntity
  8
0
100
AcDbLine
 62
7
  6
BYLAYER
 10
24.1776404914
 20
75.4072932392
 11
28.653690212
 21
72.8231031903
  0
LINE
  5
24B
100
AcDbEntity
  8
0
100
AcDbLine
 62
7
  6
BYLAYER
 10
46.1758240407
 20
62.7069233661
 11
52.4620294972
 21
59.0776630584
  0
LINE
  5
24C
100
AcDbEntity
  8
0
100
AcDbLine
 62
7
  6
BYLAYER
 10
54.2580732438
 20
60.1146032092
 11
47.9718677872
 21
63.7438635169
  0
LINE
  5
24D
100
AcDbEntity
  8
0
100
AcDbLine
 62
7
  6
BYLAYER
 10
32.2598896944
 20
72.8149730823
 11
31.6730412607
 21
73.1537825186
  0
LINE
  5
24E
100
AcDbEntity
  8
0
100
AcDbLine
 62
7
  6
BYLAYER
 10
28.653690212
 20
74.8969662233
 11
25.9736842379
 21
76.44423339
  0
LINE
  5
24F
100
AcDbEntity
  8
0
100
AcDbLine
 62
7
  6
BYLAYER
 10
54.2401126567
 20
60.1457116858
 11
47.9718677872
 21
63.7646026783
  0
LINE
  5
250
100
AcDbEntity
  8
0
100
AcDbLine
 62
7
  6
BYLAYER
 10
32.2598896944
 20
72.8357122437
 11
31.6730412607
 21
73.17452168
  0
LINE
  5
251
100
AcDbEntity
  8
0
100
AcDbLine
 62
7
  6
BYLAYER
 10
28.653690212
 20
74.9177053847
 11
25.9916448249
 21
76.4546032362
  0
LINE
  5
252
100
AcDbEntity
  8
0
100
AcDbLine
 62
7
  6
BYLAYER
 10
56.0361564033
 20
61.1826518366
 11
49.7679115337
 21
64.8015428291
  0
LINE
  5
253
100
AcDbEntity
  8
0
100
AcDbLine
 62
7
  6
BYLAYER
 10
32.2958258238
 20
74.8888280122
 11
31.6730412607
 21
75.2483847131
  0
LINE
  5
254
100
AcDbEntity
  8
0
100
AcDbLine
 62
7
  6
BYLAYER
 10
28.653690212
 20
76.9915684177
 11
27.7876885714
 21
77.4915433871
  0
LINE
  5
255
100
AcDbEntity
  8
0
100
AcDbLine
 62
7
  6
BYLAYER
 10
56.0541169903
 20
61.1930216828
 11
49.7679115337
 21
64.8222819905
  0
LINE
  5
256
100
AcDbEntity
  8
0
100
AcDbLine
 62
7
  6
BYLAYER
 10
32.2958258238
 20
74.9095671735
 11
31.6730412607
 21
75.2691238745
  0
LINE
  5
257
100
AcDbEntity
  8
0
100
AcDbLine
 62
7
  6
BYLAYER
 10
28.653690212
 20
77.0123075791
 11
27.7697279844
 21
77.5226518636
  0
LINE
  5
258
100
AcDbEntity
  8
0
100
AcDbLine
 62
7
  6
BYLAYER
 10
44.3438441648
 20
73.1386944635
 11
44.3438441648
 21
65.8799879752
  0
LINE
  5
259
100
AcDbEntity
  8
0
100
AcDbLine
 62
7
  6
BYLAYER
 10
44.3438441648
 20
21.9595064554
 11
44.3438441648
 21
11.9010131787
  0
LINE
  5
25A
100
AcDbEntity
  8
0
100
AcDbLine
 62
7
  6
BYLAYER
 10
46.1398879113
 20
12.9379533296
 11
46.1398879113
 21
22.9964466062
  0
LINE
  5
25B
100
AcDbEntity
  8
0
100
AcDbLine
 62
7
  6
BYLAYER
 10
46.1398879113
 20
66.916928126
 11
46.1398879113
 21
74.1756346143
  0
LINE
  5
25C
100
AcDbEntity
  8
0
100
AcDbLine
 62
7
  6
BYLAYER
 10
46.1578484983
 20
12.9483231758
 11
46.1578484983
 21
22.986077291
  0
LINE
  5
25D
100
AcDbEntity
  8
0
100
AcDbLine
 62
7
  6
BYLAYER
 10
46.1578484983
 20
66.9065588108
 11
46.1578484983
 21
74.1445261377
  0
LINE
  5
25E
100
AcDbEntity
  8
0
100
AcDbLine
 62
7
  6
BYLAYER
 10
47.9538922448
 20
13.9852633266
 11
47.9538922448
 21
21.9906858381
  0
LINE
  5
25F
100
AcDbEntity
  8
0
100
AcDbLine
 62
7
  6
BYLAYER
 10
47.9538922448
 20
67.9434989617
 11
47.9538922448
 21
75.1814662886
  0
LINE
  5
260
100
AcDbEntity
  8
0
100
AcDbLine
 62
7
  6
BYLAYER
 10
47.9718528318
 20
13.9541548501
 11
47.9718528318
 21
21.9803165229
  0
LINE
  5
261
100
AcDbEntity
  8
0
100
AcDbLine
 62
7
  6
BYLAYER
 10
47.9718528318
 20
67.9331296465
 11
47.9718528318
 21
75.1918361348
  0
LINE
  5
262
100
AcDbEntity
  8
0
100
AcDbLine
 62
7
  6
BYLAYER
 10
31.6730412607
 20
68.3699184743
 11
30.7750193874
 21
67.8514483988
  0
LINE
  5
263
100
AcDbEntity
  8
0
100
AcDbLine
 62
7
  6
BYLAYER
 10
58.1754285019
 20
62.4177541444
 11
51.8892230454
 21
66.0470144521
  0
LINE
  5
264
100
AcDbEntity
  8
0
100
AcDbLine
 62
7
  6
BYLAYER
 10
32.2958258238
 20
77.3590117008
 11
31.6730412607
 21
77.7185684017
  0
LINE
  5
265
100
AcDbEntity
  8
0
100
AcDbLine
 62
7
  6
BYLAYER
 10
44.3438441648
 20
73.1386944635
 11
38.037028787
 21
76.7798536455
  0
LINE
  5
266
100
AcDbEntity
  8
0
100
AcDbLine
 62
7
  6
BYLAYER
 10
35.0176777383
 20
78.5230373502
 11
32.2958258238
 21
80.0944637353
  0
LINE
  5
267
100
AcDbEntity
  8
0
100
AcDbLine
 62
7
  6
BYLAYER
 10
37.9864298127
 20
128.1838334826
 11
38.553226364
 21
125.0067325924
  0
LINE
  5
268
100
AcDbEntity
  8
0
100
AcDbLine
 62
7
  6
BYLAYER
 10
49.7080751816
 20
76.2513927738
 11
49.7080751816
 21
79.3622669831
  0
LINE
  5
269
100
AcDbEntity
  8
0
100
AcDbLine
 62
7
  6
BYLAYER
 10
49.7260356191
 20
79.3726363846
 11
49.7260356191
 21
76.2617621753
  0
LINE
  5
26A
100
AcDbEntity
  8
0
100
AcDbLine
 62
7
  6
BYLAYER
 10
50.0931643435
 20
15.1788873117
 11
50.0931643435
 21
20.7556044573
  0
LINE
  5
26B
100
AcDbEntity
  8
0
100
AcDbLine
 62
7
  6
BYLAYER
 10
50.0931643435
 20
69.1578621081
 11
50.0931643435
 21
76.0498051025
  0
LINE
  5
26C
100
AcDbEntity
  8
0
100
AcDbLine
 62
7
  6
BYLAYER
 10
52.4620294972
 20
19.3879704632
 11
52.4620294972
 21
59.0776630584
  0
LINE
  5
26D
100
AcDbEntity
  8
0
100
AcDbLine
 62
7
  6
BYLAYER
 10
49.7080751816
 20
76.2513927738
 11
49.7260356191
 21
76.2617621753
  0
LINE
  5
26E
100
AcDbEntity
  8
0
100
AcDbLine
 62
7
  6
BYLAYER
 10
46.1398879113
 20
74.1756346143
 11
44.3438441648
 21
73.1386944635
  0
LINE
  5
26F
100
AcDbEntity
  8
0
100
AcDbLine
 62
7
  6
BYLAYER
 10
49.7755332998
 20
76.2331853225
 11
47.9718528318
 21
75.1918361348
  0
LINE
  5
270
100
AcDbEntity
  8
0
100
AcDbLine
 62
7
  6
BYLAYER
 10
47.9538922448
 20
75.1814662886
 11
46.1578484983
 21
74.1445261377
  0
LINE
  5
271
100
AcDbEntity
  8
0
100
AcDbLine
 62
7
  6
BYLAYER
 10
39.5898293087
 20
70.3343592055
 11
38.037028787
 21
69.4378547577
  0
LINE
  5
272
100
AcDbEntity
  8
0
100
AcDbLine
 62
7
  6
BYLAYER
 10
55.7005472583
 20
75.9025898848
 11
61.6929694372
 21
79.3622957912
  0
LINE
  5
273
100
AcDbEntity
  8
0
100
AcDbLine
 62
7
  6
BYLAYER
 10
73.7137346698
 20
86.302446407
 11
79.7061568487
 21
89.7621523134
  0
LINE
  5
274
100
AcDbEntity
  8
0
100
AcDbLine
 62
7
  6
BYLAYER
 10
46.1578484983
 20
74.1445261377
 11
46.1398879113
 21
74.1548954529
  0
LINE
  5
275
100
AcDbEntity
  8
0
100
AcDbLine
 62
7
  6
BYLAYER
 10
34.0918695703
 20
81.1106647247
 11
34.0739089833
 21
81.1210340399
  0
LINE
  5
276
100
AcDbEntity
  8
0
100
AcDbLine
 62
7
  6
BYLAYER
 10
34.0918695703
 20
81.1314038861
 11
35.0176777383
 21
80.5969003832
  0
LINE
  5
277
100
AcDbEntity
  8
0
100
AcDbLine
 62
7
  6
BYLAYER
 10
38.037028787
 20
78.8537166785
 11
46.1398879113
 21
74.1756346143
  0
LINE
  5
278
100
AcDbEntity
  8
0
100
AcDbLine
 62
7
  6
BYLAYER
 10
47.9538922448
 20
75.1814662886
 11
38.037028787
 21
80.9068405502
  0
LINE
  5
279
100
AcDbEntity
  8
0
100
AcDbLine
 62
7
  6
BYLAYER
 10
47.9718528318
 20
75.1918361348
 11
38.037028787
 21
80.9275797116
  0
LINE
  5
27A
100
AcDbEntity
  8
0
100
AcDbLine
 62
7
  6
BYLAYER
 10
54.2401126567
 20
20.4145407678
 11
54.2401126567
 21
20.4352799292
  0
LINE
  5
27B
100
AcDbEntity
  8
0
100
AcDbLine
 62
7
  6
BYLAYER
 10
54.2401126567
 20
60.1249725244
 11
54.2401126567
 21
60.1457116858
  0
LINE
  5
27C
100
AcDbEntity
  8
0
100
AcDbLine
 62
7
  6
BYLAYER
 10
54.2580732438
 20
60.1146032092
 11
54.2580732438
 21
20.424910614
  0
LINE
  5
27D
100
AcDbEntity
  8
0
100
AcDbLine
 62
7
  6
BYLAYER
 10
55.7005471088
 20
72.8124543922
 11
55.7005472583
 21
93.2042761038
  0
LINE
  5
27E
100
AcDbEntity
  8
0
100
AcDbLine
 62
7
  6
BYLAYER
 10
56.0361564033
 20
21.4514809186
 11
56.0361564033
 21
61.1826518366
  0
LINE
  5
27F
100
AcDbEntity
  8
0
100
AcDbLine
 62
7
  6
BYLAYER
 10
56.0541169903
 20
21.420372442
 11
56.0541169903
 21
61.1930216828
  0
LINE
  5
280
100
AcDbEntity
  8
0
100
AcDbLine
 62
7
  6
BYLAYER
 10
56.5137206478
 20
18.8205830148
 11
56.5137206478
 21
20.4535878491
  0
LINE
  5
281
100
AcDbEntity
  8
0
100
AcDbLine
 62
7
  6
BYLAYER
 10
38.037028787
 20
63.715948783
 11
37.1390069137
 21
63.1974787076
  0
LINE
  5
282
100
AcDbEntity
  8
0
100
AcDbLine
 62
7
  6
BYLAYER
 10
55.7005471088
 20
72.8124543922
 11
61.6750088502
 21
76.2617908971
  0
LINE
  5
283
100
AcDbEntity
  8
0
100
AcDbLine
 62
7
  6
BYLAYER
 10
73.6957740828
 20
83.2019415129
 11
79.6702358242
 21
86.6512780178
  0
LINE
  5
284
100
AcDbEntity
  8
0
100
AcDbLine
 62
7
  6
BYLAYER
 10
61.6929694372
 20
76.2514215819
 11
73.7137346698
 21
83.1915721977
  0
LINE
  5
285
100
AcDbEntity
  8
0
100
AcDbLine
 62
7
  6
BYLAYER
 10
46.1398879113
 20
66.916928126
 11
44.3438441648
 21
65.8799879752
  0
LINE
  5
286
100
AcDbEntity
  8
0
100
AcDbLine
 62
7
  6
BYLAYER
 10
47.9538922448
 20
67.9434989617
 11
46.1578484983
 21
66.9065588108
  0
LINE
  5
287
100
AcDbEntity
  8
0
100
AcDbLine
 62
7
  6
BYLAYER
 10
80.0673483467
 20
86.4634874434
 11
56.3793698
 21
72.7873082887
  0
LINE
  5
288
100
AcDbEntity
  8
0
100
AcDbLine
 62
7
  6
BYLAYER
 10
50.0931643435
 20
69.1578621081
 11
47.9718528318
 21
67.9331296465
  0
LINE
  5
289
100
AcDbEntity
  8
0
100
AcDbLine
 62
7
  6
BYLAYER
 10
36.1448694867
 20
61.0001061909
 11
37.04289136
 21
61.5185762663
  0
LINE
  5
28A
100
AcDbEntity
  8
0
100
AcDbLine
 62
7
  6
BYLAYER
 10
38.0817981259
 20
82.9636751094
 11
49.7080751816
 21
76.2513927738
  0
LINE
  5
28B
100
AcDbEntity
  8
0
100
AcDbLine
 62
7
  6
BYLAYER
 10
49.7260356191
 20
76.2617621753
 11
55.7005471088
 21
72.8124543922
  0
LINE
  5
28C
100
AcDbEntity
  8
0
100
AcDbLine
 62
7
  6
BYLAYER
 10
56.3793697864
 20
72.7873082966
 11
56.0181781524
 21
72.9958376661
  0
LINE
  5
28D
100
AcDbEntity
  8
0
100
AcDbLine
 62
7
  6
BYLAYER
 10
49.7080751816
 20
79.3622669831
 11
55.7005472583
 21
75.9025898848
  0
LINE
  5
28E
100
AcDbEntity
  8
0
100
AcDbLine
 62
7
  6
BYLAYER
 10
58.1754285019
 20
12.5866116427
 11
58.1754285019
 21
22.6451049036
  0
LINE
  5
28F
100
AcDbEntity
  8
0
100
AcDbLine
 62
7
  6
BYLAYER
 10
58.1754285019
 20
62.4177541444
 11
58.1754285019
 21
69.676460617
  0
LINE
  5
290
100
AcDbEntity
  8
0
100
AcDbLine
 62
7
  6
BYLAYER
 10
61.6750088502
 20
76.2617908971
 11
61.6750088502
 21
79.3726651064
  0
LINE
  5
291
100
AcDbEntity
  8
0
100
AcDbLine
 62
7
  6
BYLAYER
 10
61.6929694372
 20
76.2514215819
 11
61.6929694372
 21
79.3622957912
  0
LINE
  5
292
100
AcDbEntity
  8
0
100
AcDbLine
 62
7
  6
BYLAYER
 10
58.1754285019
 20
69.6764606327
 11
81.8634070486
 21
83.3526397874
  0
LINE
  5
293
100
AcDbEntity
  8
0
100
AcDbLine
 62
7
  6
BYLAYER
 10
49.7679115337
 20
64.8222819905
 11
51.8892230454
 21
66.0470144521
  0
LINE
  5
294
100
AcDbEntity
  8
0
100
AcDbLine
 62
7
  6
BYLAYER
 10
47.9718677872
 20
63.7646026783
 11
49.7679115337
 21
64.8015428291
  0
LINE
  5
295
100
AcDbEntity
  8
0
100
AcDbLine
 62
7
  6
BYLAYER
 10
46.1758240407
 20
62.7069233661
 11
47.9718677872
 21
63.7438635169
  0
LINE
  5
296
100
AcDbEntity
  8
0
100
AcDbLine
 62
7
  6
BYLAYER
 10
61.6750088502
 20
76.2617908971
 11
61.6929694372
 21
76.2514215819
  0
LINE
  5
297
100
AcDbEntity
  8
0
100
AcDbLine
 62
7
  6
BYLAYER
 10
56.0541169903
 20
61.1930216828
 11
58.1754285019
 21
62.4177541444
  0
LINE
  5
298
100
AcDbEntity
  8
0
100
AcDbLine
 62
7
  6
BYLAYER
 10
54.2401126567
 20
60.1457116858
 11
56.0361564033
 21
61.1826518366
  0
LINE
  5
299
100
AcDbEntity
  8
0
100
AcDbLine
 62
7
  6
BYLAYER
 10
52.4620294972
 20
59.0776630584
 11
54.2580732438
 21
60.1146032092
  0
LINE
  5
29A
100
AcDbEntity
  8
0
100
AcDbLine
 62
7
  6
BYLAYER
 10
55.7005472583
 20
93.2042761038
 11
38.037028787
 21
103.4020825428
  0
LINE
  5
29B
100
AcDbEntity
  8
0
100
AcDbLine
 62
7
  6
BYLAYER
 10
35.0176777383
 20
105.1452662475
 11
31.6947377774
 21
107.0637231271
  0
LINE
  5
29C
100
AcDbEntity
  8
0
100
AcDbLine
 62
7
  6
BYLAYER
 10
73.7137346698
 20
83.1915721977
 11
73.7137346698
 21
86.302446407
  0
LINE
  5
29D
100
AcDbEntity
  8
0
100
AcDbLine
 62
7
  6
BYLAYER
 10
79.6702358242
 20
86.6512780178
 11
79.6702358242
 21
89.7621522271
  0
LINE
  5
29E
100
AcDbEntity
  8
0
100
AcDbLine
 62
7
  6
BYLAYER
 10
79.7061568487
 20
89.7621523134
 11
79.7061568487
 21
107.0638385324
  0
LINE
  5
29F
100
AcDbEntity
  8
0
100
AcDbLine
 62
7
  6
BYLAYER
 10
79.6881958017
 20
86.6823863152
 11
80.0673483331
 21
86.4634874513
  0
LINE
  5
2A0
100
AcDbEntity
  8
0
100
AcDbLine
 62
7
  6
BYLAYER
 10
81.8634070486
 20
83.3526397717
 11
81.8634070486
 21
26.2627907974
  0
LINE
  5
2A1
100
AcDbEntity
  8
0
100
AcDbLine
 62
7
  6
BYLAYER
 10
37.0498406799
 20
21.6611177085
 11
35.3386493939
 21
20.6731668561
  0
LINE
  5
2A2
100
AcDbEntity
  8
0
100
AcDbLine
 62
7
  6
BYLAYER
 10
44.3438441648
 20
21.9595064554
 11
46.1398879113
 21
22.9964466062
  0
LINE
  5
2A3
100
AcDbEntity
  8
0
100
AcDbLine
 62
7
  6
BYLAYER
 10
46.1578484983
 20
22.986077291
 11
46.1848200075
 21
23.0016492062
  0
LINE
  5
2A4
100
AcDbEntity
  8
0
100
AcDbLine
 62
7
  6
BYLAYER
 10
39.5898293087
 20
17.2617020921
 11
37.8786380226
 21
16.2737512397
  0
LINE
  5
2A5
100
AcDbEntity
  8
0
100
AcDbLine
 62
7
  6
BYLAYER
 10
55.7003473677
 20
120.9232855557
 11
79.7061568487
 21
107.0638385324
  0
LINE
  5
2A6
100
AcDbEntity
  8
0
100
AcDbLine
 62
7
  6
BYLAYER
 10
56.0361564033
 20
21.4514809186
 11
52.4620294972
 21
19.3879704632
  0
LINE
  5
2A7
100
AcDbEntity
  8
0
100
AcDbLine
 62
7
  6
BYLAYER
 10
58.1754285019
 20
22.6451049036
 11
56.0541169903
 21
21.420372442
  0
LINE
  5
2A8
100
AcDbEntity
  8
0
100
AcDbLine
 62
7
  6
BYLAYER
 10
44.3438441648
 20
11.9010131787
 11
46.1398879113
 21
12.9379533296
  0
LINE
  5
2A9
100
AcDbEntity
  8
0
100
AcDbLine
 62
7
  6
BYLAYER
 10
46.1578484983
 20
12.9483231758
 11
47.9538922448
 21
13.9852633266
  0
LINE
  5
2AA
100
AcDbEntity
  8
0
100
AcDbLine
 62
7
  6
BYLAYER
 10
47.9718528318
 20
13.9541548501
 11
50.0931643435
 21
15.1788873117
  0
LINE
  5
2AB
100
AcDbEntity
  8
0
100
AcDbLine
 62
7
  6
BYLAYER
 10
81.8634070486
 20
26.2627907817
 11
58.1754285019
 21
12.586611627
  0
LINE
  5
2AC
100
AcDbEntity
  8
0
100
AcDbLine
 62
7
  6
BYLAYER
 10
57.6493641126
 20
11.4238353384
 11
81.3373426593
 21
25.1000144931
  0
ARC
  5
2AD
100
AcDbEntity
  8
0
100
AcDbCircle
 62
7
  6
BYLAYER
 10
37.4477421516
 20
88.0944778598
 40
5.6962175
100
AcDbArc
 50
240.7694198855
 51
242.795994809
  0
ARC
  5
2AE
100
AcDbEntity
  8
0
100
AcDbCircle
 62
7
  6
BYLAYER
 10
37.3355434765
 20
87.879115857
 40
5.4533852958
100
AcDbArc
 50
242.8099982271
 51
243.4406704117
  0
ARC
  5
2AF
100
AcDbEntity
  8
0
100
AcDbCircle
 62
7
  6
BYLAYER
 10
37.2595793311
 20
87.7261365644
 40
5.2825842316
100
AcDbArc
 50
243.4357574673
 51
244.9923876118
  0
ARC
  5
2B0
100
AcDbEntity
  8
0
100
AcDbCircle
 62
7
  6
BYLAYER
 10
35.2354516105
 20
82.3692412518
 40
3.6946928672
100
AcDbArc
 50
193.7909376575
 51
194.1728408129
  0
ARC
  5
2B1
100
AcDbEntity
  8
0
100
AcDbCircle
 62
7
  6
BYLAYER
 10
35.1956590684
 20
82.3594821187
 40
3.653721084
100
AcDbArc
 50
193.3458667461
 51
193.7910622239
  0
ARC
  5
2B2
100
AcDbEntity
  8
0
100
AcDbCircle
 62
7
  6
BYLAYER
 10
35.1366142725
 20
82.3455335714
 40
3.5930511034
100
AcDbArc
 50
192.5812683295
 51
193.346781682
  0
ARC
  5
2B3
100
AcDbEntity
  8
0
100
AcDbCircle
 62
7
  6
BYLAYER
 10
48.5304255478
 20
22.9965014656
 40
2.3905376371
100
AcDbArc
 50
179.2155042815
 51
180.0013148553
  0
ARC
  5
2B4
100
AcDbEntity
  8
0
100
AcDbCircle
 62
7
  6
BYLAYER
 10
33.4551750953
 20
74.8852055744
 40
2.3905166305
100
AcDbArc
 50
239.999250381
 51
240.7838694084
  0
ARC
  5
2B5
100
AcDbEntity
  8
0
100
AcDbCircle
 62
7
  6
BYLAYER
 10
48.5202791341
 20
22.9861550135
 40
2.362430637
100
AcDbArc
 50
179.061688339
 51
180.0018849948
  0
ARC
  5
2B6
100
AcDbEntity
  8
0
100
AcDbCircle
 62
7
  6
BYLAYER
 10
33.4411370079
 20
74.8815838397
 40
2.3624004323
100
AcDbArc
 50
239.998681022
 51
240.9377037219
  0
ARC
  5
2B7
100
AcDbEntity
  8
0
100
AcDbCircle
 62
7
  6
BYLAYER
 10
31.3270325318
 20
72.3986487348
 40
0.8646775032
100
AcDbArc
 50
294.1146931245
 51
299.9894724104
  0
SPLINE
  5
2B8
100
AcDbEntity
  8
0
100
AcDbSpline
 62
7
  6
BYLAYER
 70
0
 71
3
 72
17
 73
13
 74
0
 42
0.0000001
 43
0.0000001
 44
0.0000000001
 40
0.0
 40
0.0
 40
0.0
 40
0.0
 40
0.042857965
 40
0.0874854797
 40
0.1353180708
 40
0.1872814984
 40
0.3045423159
 40
0.4382097446
 40
0.5825520305
 40
0.7297107839
 40
0.8713099826
 40
1.0
 40
1.0
 40
1.0
 40
1.0
 10
53.3149095786
 20
72.0039982016
 30
0.0
 10
53.380223519
 20
72.0417419912
 30
0.0
 10
53.5242471697
 20
72.101571214
 30
0.0
 10
53.7619542211
 20
72.13643546
 30
0.0
 10
54.0172410189
 20
72.1176235997
 30
0.0
 10
54.3881748214
 20
72.0189903755
 30
0.0
 10
54.8623571123
 20
71.7597064374
 30
0.0
 10
55.3862504356
 20
71.29574954
 30
0.0
 10
55.8493510368
 20
70.7030028989
 30
0.0
 10
56.2138300682
 20
70.029348095
 30
0.0
 10
56.4503469175
 20
69.3300263252
 30
0.0
 10
56.5137206478
 20
68.8537411471
 30
0.0
 10
56.5137206478
 20
68.6272304597
 30
0.0
  0
SPLINE
  5
2B9
100
AcDbEntity
  8
0
100
AcDbSpline
 62
7
  6
BYLAYER
 70
0
 71
3
 72
14
 73
10
 74
0
 42
0.0000001
 43
0.0000001
 44
0.0000000001
 40
0.0
 40
0.0
 40
0.0
 40
0.0
 40
0.2911328004
 40
0.4242735286
 40
0.5494938043
 40
0.6678878548
 40
0.7810346727
 40
0.8909461023
 40
1.0
 40
1.0
 40
1.0
 40
1.0
 10
49.067858186
 20
90.4808163275
 30
0.0
 10
49.067858186
 20
90.0623182522
 30
0.0
 10
49.015097624
 20
89.4487067386
 30
0.0
 10
48.8083357799
 20
88.6845999773
 30
0.0
 10
48.5986703024
 20
88.1832627554
 30
0.0
 10
48.3316276582
 20
87.742997187
 30
0.0
 10
48.009971608
 20
87.3689769084
 30
0.0
 10
47.6370806428
 20
87.0667639946
 30
0.0
 10
47.3581644462
 20
86.9163367167
 30
0.0
 10
47.2139550462
 20
86.8548689868
 30
0.0
  0
SPLINE
  5
2BA
100
AcDbEntity
  8
0
100
AcDbSpline
 62
7
  6
BYLAYER
 70
0
 71
3
 72
9
 73
5
 74
0
 42
0.0000001
 43
0.0000001
 44
0.0000000001
 40
0.0
 40
0.0
 40
0.0
 40
0.0
 40
0.5210126737
 40
1.0
 40
1.0
 40
1.0
 40
1.0
 10
56.3245952989
 20
21.5100444681
 30
0.0
 10
56.3846546687
 20
21.3329510306
 30
0.0
 10
56.4770782902
 20
20.9847314441
 30
0.0
 10
56.5137206478
 20
20.6255047869
 30
0.0
 10
56.5137206478
 20
20.4535878491
 30
0.0
  0
SPLINE
  5
2BB
100
AcDbEntity
  8
0
100
AcDbSpline
 62
7
  6
BYLAYER
 70
0
 71
3
 72
12
 73
8
 74
0
 42
0.0000001
 43
0.0000001
 44
0.0000000001
 40
0.0
 40
0.0
 40
0.0
 40
0.0
 40
0.2895562289
 40
0.5486533223
 40
0.7816321933
 40
0.8918390365
 40
1.0
 40
1.0
 40
1.0
 40
1.0
 10
38.037028787
 20
63.7159488013
 30
0.0
 10
38.0370287869
 20
63.4726787783
 30
0.0
 10
38.0001216133
 20
63.0100912644
 30
0.0
 10
37.8131633064
 20
62.3748525574
 30
0.0
 10
37.5442581082
 20
61.9366533445
 30
0.0
 10
37.2729092835
 20
61.6696122992
 30
0.0
 10
37.1215705963
 20
61.5640422184
 30
0.0
 10
37.0428737182
 20
61.518606823
 30
0.0
  0
SPLINE
  5
2BC
100
AcDbEntity
  8
0
100
AcDbSpline
 62
7
  6
BYLAYER
 70
0
 71
3
 72
11
 73
7
 74
0
 42
0.0000001
 43
0.0000001
 44
0.0000000001
 40
0.0
 40
0.0
 40
0.0
 40
0.0
 40
0.2177660095
 40
0.4508968553
 40
0.7103699668
 40
1.0
 40
1.0
 40
1.0
 40
1.0
 10
35.33867616
 20
20.6731208384
 30
0.0
 10
35.2549163842
 20
20.6247180242
 30
0.0
 10
35.098071796
 20
20.4930593737
 30
0.0
 10
34.9312046369
 20
20.2201002815
 30
0.0
 10
34.8321428236
 20
19.8838106162
 30
0.0
 10
34.8125850064
 20
19.6390546615
 30
0.0
 10
34.8125850064
 20
19.5103905644
 30
0.0
  0
SPLINE
  5
2BD
100
AcDbEntity
  8
0
100
AcDbSpline
 62
7
  6
BYLAYER
 70
0
 71
3
 72
9
 73
5
 74
0
 42
0.0000001
 43
0.0000001
 44
0.0000000001
 40
0.0
 40
0.0
 40
0.0
 40
0.0
 40
0.27667164
 40
1.0
 40
1.0
 40
1.0
 40
1.0
 10
33.7943704361
 20
64.6956889614
 30
0.0
 10
33.8761424621
 20
64.6484789283
 30
0.0
 10
34.1790666362
 20
64.4930312405
 30
0.0
 10
34.5230659527
 20
64.4017777085
 30
0.0
 10
34.7698689276
 20
64.4068618279
 30
0.0
  0
SPLINE
  5
2BE
100
AcDbEntity
  8
0
100
AcDbSpline
 62
7
  6
BYLAYER
 70
0
 71
3
 72
13
 73
9
 74
0
 42
0.0000001
 43
0.0000001
 44
0.0000000001
 40
0.0
 40
0.0
 40
0.0
 40
0.0
 40
0.114225918
 40
0.237559998
 40
0.5000010155
 40
0.7624414732
 40
0.8857749254
 40
1.0
 40
1.0
 40
1.0
 40
1.0
 10
31.6730412607
 20
68.36991849
 30
0.0
 10
31.6730412608
 20
68.2022770795
 30
0.0
 10
31.7037974173
 20
67.8532797614
 30
0.0
 10
31.8705126337
 20
67.1368468744
 30
0.0
 10
32.2579735919
 20
66.2581335588
 30
0.0
 10
32.825234106
 20
65.4832290029
 30
0.0
 10
33.3623266135
 20
64.9806383691
 30
0.0
 10
33.649188967
 20
64.7795076256
 30
0.0
 10
33.7943704361
 20
64.6956889614
 30
0.0
  0
SPLINE
  5
2BF
100
AcDbEntity
  8
0
100
AcDbSpline
 62
7
  6
BYLAYER
 70
0
 71
3
 72
12
 73
8
 74
0
 42
0.0000001
 43
0.0000001
 44
0.0000000001
 40
0.0
 40
0.0
 40
0.0
 40
0.0
 40
0.2895552427
 40
0.5486519847
 40
0.7816312597
 40
0.8918385311
 40
1.0
 40
1.0
 40
1.0
 40
1.0
 10
33.7448802172
 20
61.2378227362
 30
0.0
 10
33.955553073
 20
61.116193458
 30
0.0
 10
34.3746088285
 20
60.916872071
 30
0.0
 10
35.0182040489
 20
60.7611730317
 30
0.0
 10
35.5321346211
 20
60.7749544376
 30
0.0
 10
35.8990645316
 20
60.8764265735
 30
0.0
 10
36.0661567051
 20
60.9547023559
 30
0.0
 10
36.1448518449
 20
61.0001367476
 30
0.0
  0
SPLINE
  5
2C0
100
AcDbEntity
  8
0
100
AcDbSpline
 62
7
  6
BYLAYER
 70
0
 71
3
 72
15
 73
11
 74
0
 42
0.0000001
 43
0.0000001
 44
0.0000000001
 40
0.0
 40
0.0
 40
0.0
 40
0.0
 40
0.1141474765
 40
0.2373368178
 40
0.3669776594
 40
0.5000010819
 40
0.633024354
 40
0.7626647561
 40
0.8858534048
 40
1.0
 40
1.0
 40
1.0
 40
1.0
 10
28.653690212
 20
68.0963677802
 30
0.0
 10
28.6536902121
 20
67.8280860957
 30
0.0
 10
28.7028652125
 20
67.2697550111
 30
0.0
 10
28.8987238901
 20
66.4274642227
 30
0.0
 10
29.2126267017
 20
65.5743099838
 30
0.0
 10
29.6326068158
 20
64.7423506968
 30
0.0
 10
30.1431177712
 20
63.9626608858
 30
0.0
 10
30.7250213634
 20
63.2642413121
 30
0.0
 10
31.3565375636
 20
62.673484546
 30
0.0
 10
31.8154786343
 20
62.3517380595
 30
0.0
 10
32.0478169085
 20
62.2176005288
 30
0.0
  0
SPLINE
  5
2C1
100
AcDbEntity
  8
0
100
AcDbSpline
 62
7
  6
BYLAYER
 70
0
 71
3
 72
11
 73
7
 74
0
 42
0.0000001
 43
0.0000001
 44
0.0000000001
 40
0.0
 40
0.0
 40
0.0
 40
0.0
 40
0.289703328
 40
0.5490895199
 40
0.7822165955
 40
1.0
 40
1.0
 40
1.0
 40
1.0
 10
35.0176777383
 20
65.4020038874
 30
0.0
 10
35.0176777382
 20
65.2499994531
 30
0.0
 10
34.9946316299
 20
64.9609192347
 30
0.0
 10
34.8775576112
 20
64.563738163
 30
0.0
 10
34.6804438443
 20
64.2414481841
 30
0.0
 10
34.4952941861
 20
64.0857931109
 30
0.0
 10
34.396334361
 20
64.028659014
 30
0.0
  0
SPLINE
  5
2C2
100
AcDbEntity
  8
0
100
AcDbSpline
 62
7
  6
BYLAYER
 70
0
 71
3
 72
13
 73
9
 74
0
 42
0.0000001
 43
0.0000001
 44
0.0000000001
 40
0.0
 40
0.0
 40
0.0
 40
0.0
 40
0.1142250363
 40
0.2375584229
 40
0.4999988472
 40
0.7624398982
 40
0.8857740437
 40
1.0
 40
1.0
 40
1.0
 40
1.0
 10
32.8963485629
 20
109.8784921734
 30
0.0
 10
33.0415299834
 20
109.7946735373
 30
0.0
 10
33.3283922411
 20
109.5935429246
 30
0.0
 10
33.8654845988
 20
109.0909524233
 30
0.0
 10
34.4327451461
 20
108.316048028
 30
0.0
 10
34.82020626
 20
107.4373346608
 30
0.0
 10
34.9869215163
 20
106.7209015779
 30
0.0
 10
35.0176777382
 20
106.3719041114
 30
0.0
 10
35.0176777383
 20
106.2042626448
 30
0.0
  0
SPLINE
  5
2C3
100
AcDbEntity
  8
0
100
AcDbSpline
 62
7
  6
BYLAYER
 70
0
 71
3
 72
20
 73
16
 74
0
 42
0.0000001
 43
0.0000001
 44
0.0000000001
 40
0.0
 40
0.0
 40
0.0
 40
0.0
 40
0.0623995388
 40
0.1288074595
 40
0.2703007856
 40
0.4173602616
 40
0.5616140377
 40
0.6302529035
 40
0.6953778418
 40
0.7563615712
 40
0.8128329085
 40
0.8647629631
 40
0.912566707
 40
0.9571682936
 40
1.0
 40
1.0
 40
1.0
 40
1.0
 10
23.350399657
 20
129.2932418184
 30
0.0
 10
23.350399657
 20
128.961461463
 30
0.0
 10
23.3954607654
 20
128.2761005429
 30
0.0
 10
23.6473973229
 20
126.858975412
 30
0.0
 10
24.256006622
 20
125.0597709838
 30
0.0
 10
25.3557241513
 20
123.0274080258
 30
0.0
 10
26.5405045933
 20
121.5101888094
 30
0.0
 10
27.6065725716
 20
120.4831786246
 30
0.0
 10
28.4235969929
 20
119.8436578172
 30
0.0
 10
29.2537561556
 20
119.3357324414
 30
0.0
 10
30.0803487932
 20
118.9703815876
 30
0.0
 10
30.8869164394
 20
118.7561603671
 30
0.0
 10
31.6575723566
 20
118.69938378
 30
0.0
 10
32.3752585321
 20
118.8045463925
 30
0.0
 10
32.8100006013
 20
118.9852896306
 30
0.0
 10
33.0072300154
 20
119.0991533863
 30
0.0
  0
SPLINE
  5
2C4
100
AcDbEntity
  8
0
100
AcDbSpline
 62
7
  6
BYLAYER
 70
0
 71
3
 72
9
 73
5
 74
0
 42
0.0000001
 43
0.0000001
 44
0.0000000001
 40
0.0
 40
0.0
 40
0.0
 40
0.0
 40
0.2283577568
 40
1.0
 40
1.0
 40
1.0
 40
1.0
 10
34.9763551786
 20
73.3537063242
 30
0.0
 10
34.9486997292
 20
73.3001149122
 30
0.0
 10
34.8457459437
 20
73.0559978904
 30
0.0
 10
34.8125850064
 20
72.7868286908
 30
0.0
 10
34.8125850064
 20
72.5830476778
 30
0.0
  0
SPLINE
  5
2C5
100
AcDbEntity
  8
0
100
AcDbSpline
 62
7
  6
BYLAYER
 70
0
 71
3
 72
17
 73
13
 74
0
 42
0.0000001
 43
0.0000001
 44
0.0000000001
 40
0.0
 40
0.0
 40
0.0
 40
0.0
 40
0.1286930371
 40
0.2702795962
 40
0.4174375935
 40
0.5617786795
 40
0.6954478243
 40
0.81271112
 40
0.8646738576
 40
0.9125098523
 40
0.9571380034
 40
1.0
 40
1.0
 40
1.0
 40
1.0
 10
25.729827621
 20
127.4010437626
 30
0.0
 10
25.729827621
 20
127.0591326214
 30
0.0
 10
25.8254675881
 20
126.3402326432
 30
0.0
 10
26.182505816
 20
125.284692798
 30
0.0
 10
26.7326114288
 20
124.2678732355
 30
0.0
 10
27.4316332182
 20
123.3731608942
 30
0.0
 10
28.2224052494
 20
122.6728280678
 30
0.0
 10
28.9381466771
 20
122.2814236696
 30
0.0
 10
29.498051705
 20
122.1325168866
 30
0.0
 10
29.8834029092
 20
122.104097096
 30
0.0
 10
30.2422173702
 20
122.1567768315
 30
0.0
 10
30.4596368165
 20
122.2470388638
 30
0.0
 10
30.5582483347
 20
122.3039898611
 30
0.0
  0
SPLINE
  5
2C6
100
AcDbEntity
  8
0
100
AcDbSpline
 62
7
  6
BYLAYER
 70
0
 71
3
 72
11
 73
7
 74
0
 42
0.0000001
 43
0.0000001
 44
0.0000000001
 40
0.0
 40
0.0
 40
0.0
 40
0.0
 40
0.2177843137
 40
0.4509117637
 40
0.7102976701
 40
1.0
 40
1.0
 40
1.0
 40
1.0
 10
44.8804363039
 20
23.1455270771
 30
0.0
 10
44.9658960801
 20
23.1948669697
 30
0.0
 10
45.1622532021
 20
23.2661265774
 30
0.0
 10
45.4883990357
 20
23.274384527
 30
0.0
 10
45.8359940586
 20
23.1904465256
 30
0.0
 10
46.0621427833
 20
23.0828631906
 30
0.0
 10
46.1758240407
 20
23.0172307708
 30
0.0
  0
SPLINE
  5
2C7
100
AcDbEntity
  8
0
100
AcDbSpline
 62
7
  6
BYLAYER
 70
0
 71
3
 72
11
 73
7
 74
0
 42
0.0000001
 43
0.0000001
 44
0.0000000001
 40
0.0
 40
0.0
 40
0.0
 40
0.0
 40
0.2875208156
 40
0.5471370263
 40
0.7819972767
 40
1.0
 40
1.0
 40
1.0
 40
1.0
 10
38.553226364
 20
125.0067325924
 30
0.0
 10
38.553226364
 20
124.6319238463
 30
0.0
 10
38.5005774776
 20
123.9166684813
 30
0.0
 10
38.2350896247
 20
122.9248936108
 30
0.0
 10
37.7903063016
 20
122.0984132405
 30
0.0
 10
37.3683243046
 20
121.6705437975
 30
0.0
 10
37.1390069137
 20
121.5026894202
 30
0.0
  0
SPLINE
  5
2C8
100
AcDbEntity
  8
0
100
AcDbSpline
 62
7
  6
BYLAYER
 70
0
 71
3
 72
9
 73
5
 74
0
 42
0.0000001
 43
0.0000001
 44
0.0000000001
 40
0.0
 40
0.0
 40
0.0
 40
0.0
 40
0.2378103314
 40
1.0
 40
1.0
 40
1.0
 40
1.0
 10
26.0656993235
 20
87.0515244218
 30
0.0
 10
26.0656993235
 20
86.9589178986
 30
0.0
 10
26.0787631695
 20
86.5695373127
 30
0.0
 10
26.1398363821
 20
86.1824185664
 30
0.0
 10
26.2071395502
 20
85.8933431621
 30
0.0
  0
SPLINE
  5
2C9
100
AcDbEntity
  8
0
100
AcDbSpline
 62
7
  6
BYLAYER
 70
0
 71
3
 72
13
 73
9
 74
0
 42
0.0000001
 43
0.0000001
 44
0.0000000001
 40
0.0
 40
0.0
 40
0.0
 40
0.0
 40
0.3026503596
 40
0.5681487937
 40
0.6866383632
 40
0.7966028685
 40
0.9000656687
 40
1.0
 40
1.0
 40
1.0
 40
1.0
 10
28.2758038603
 20
82.3098124796
 30
0.0
 10
28.5336839917
 20
82.0683197331
 30
0.0
 10
29.0579606264
 20
81.6549499329
 30
0.0
 10
29.7905839924
 20
81.3049485816
 30
0.0
 10
30.3568488535
 20
81.1835194527
 30
0.0
 10
30.7465606152
 20
81.1707850322
 30
0.0
 10
31.1095467106
 20
81.2347722072
 30
0.0
 10
31.3302602442
 20
81.3290803861
 30
0.0
 10
31.4312818416
 20
81.3874232737
 30
0.0
  0
SPLINE
  5
2CA
100
AcDbEntity
  8
0
100
AcDbSpline
 62
7
  6
BYLAYER
 70
0
 71
3
 72
17
 73
13
 74
0
 42
0.0000001
 43
0.0000001
 44
0.0000000001
 40
0.0
 40
0.0
 40
0.0
 40
0.0
 40
0.1286846513
 40
0.2703032228
 40
0.4174430309
 40
0.5617811216
 40
0.695448235
 40
0.8127121431
 40
0.8646788239
 40
0.9125086207
 40
0.9571391214
 40
1.0
 40
1.0
 40
1.0
 40
1.0
 10
23.8807628625
 20
83.7937443853
 30
0.0
 10
23.8807628625
 20
83.6228013914
 30
0.0
 10
23.9286223118
 20
83.2633307512
 30
0.0
 10
24.1070766597
 20
82.735535611
 30
0.0
 10
24.3821954587
 20
82.2271463372
 30
0.0
 10
24.7316598138
 20
81.7798105105
 30
0.0
 10
25.1270507408
 20
81.4296365885
 30
0.0
 10
25.4849383174
 20
81.2340235644
 30
0.0
 10
25.7648665355
 20
81.1594399569
 30
0.0
 10
25.9575383871
 20
81.1453645849
 30
0.0
 10
26.1369725844
 20
81.1715377103
 30
0.0
 10
26.2456252266
 20
81.2168193488
 30
0.0
 10
26.2949342677
 20
81.245285236
 30
0.0
  0
SPLINE
  5
2CB
100
AcDbEntity
  8
0
100
AcDbSpline
 62
7
  6
BYLAYER
 70
0
 71
3
 72
11
 73
7
 74
0
 42
0.0000001
 43
0.0000001
 44
0.0000000001
 40
0.0
 40
0.0
 40
0.0
 40
0.0
 40
0.2177239861
 40
0.4508730345
 40
0.7104683317
 40
1.0
 40
1.0
 40
1.0
 40
1.0
 10
24.2950303579
 20
84.7092405165
 30
0.0
 10
24.2290747415
 20
84.6711646365
 30
0.0
 10
24.1055652233
 20
84.5675182724
 30
0.0
 10
23.974132178
 20
84.3525699174
 30
0.0
 10
23.896228855
 20
84.0877347314
 30
0.0
 10
23.8807628625
 20
83.895019011
 30
0.0
 10
23.8807628625
 20
83.7937443853
 30
0.0
  0
SPLINE
  5
2CC
100
AcDbEntity
  8
0
100
AcDbSpline
 62
7
  6
BYLAYER
 70
0
 71
3
 72
9
 73
5
 74
0
 42
0.0000001
 43
0.0000001
 44
0.0000000001
 40
0.0
 40
0.0
 40
0.0
 40
0.0
 40
0.2262586792
 40
1.0
 40
1.0
 40
1.0
 40
1.0
 10
31.9106545536
 20
110.1614227983
 30
0.0
 10
31.8706386947
 20
110.0952956491
 30
0.0
 10
31.7201649264
 20
109.7868926094
 30
0.0
 10
31.6730412609
 20
109.4364945867
 30
0.0
 10
31.6730412607
 20
109.1721772473
 30
0.0
  0
SPLINE
  5
2CD
100
AcDbEntity
  8
0
100
AcDbSpline
 62
7
  6
BYLAYER
 70
0
 71
3
 72
11
 73
7
 74
0
 42
0.0000001
 43
0.0000001
 44
0.0000000001
 40
0.0
 40
0.0
 40
0.0
 40
0.0
 40
0.2177843137
 40
0.4509117637
 40
0.7102976702
 40
1.0
 40
1.0
 40
1.0
 40
1.0
 10
31.3963627647
 20
110.0270520453
 30
0.0
 10
31.4953203563
 20
110.0841848527
 30
0.0
 10
31.7226908077
 20
110.1666994517
 30
0.0
 10
32.1003492528
 20
110.1762616909
 30
0.0
 10
32.502844647
 20
110.0790662289
 30
0.0
 10
32.7647120908
 20
109.9544908065
 30
0.0
 10
32.8963485629
 20
109.8784921734
 30
0.0
  0
SPLINE
  5
2CE
100
AcDbEntity
  8
0
100
AcDbSpline
 62
7
  6
BYLAYER
 70
0
 71
3
 72
11
 73
7
 74
0
 42
0.0000001
 43
0.0000001
 44
0.0000000001
 40
0.0
 40
0.0
 40
0.0
 40
0.0
 40
0.2177839466
 40
0.4509170841
 40
0.710307871
 40
1.0
 40
1.0
 40
1.0
 40
1.0
 10
26.5582847084
 20
129.232171628
 30
0.0
 10
26.4263481913
 20
129.1559744822
 30
0.0
 10
26.1794613161
 20
128.9484599353
 30
0.0
 10
25.9166440973
 20
128.5187202378
 30
0.0
 10
25.760554585
 20
127.9891452205
 30
0.0
 10
25.729827621
 20
127.6037087856
 30
0.0
 10
25.729827621
 20
127.4010437626
 30
0.0
  0
SPLINE
  5
2CF
100
AcDbEntity
  8
0
100
AcDbSpline
 62
7
  6
BYLAYER
 70
0
 71
3
 72
13
 73
9
 74
0
 42
0.0000001
 43
0.0000001
 44
0.0000000001
 40
0.0
 40
0.0
 40
0.0
 40
0.0
 40
0.1080933406
 40
0.2182330635
 40
0.3322579776
 40
0.4516883534
 40
0.7106279866
 40
1.0
 40
1.0
 40
1.0
 40
1.0
 10
25.007324901
 20
132.9554781782
 30
0.0
 10
24.8761626705
 20
132.8797560845
 30
0.0
 10
24.6239223124
 20
132.7038543151
 30
0.0
 10
24.290820799
 20
132.37581092
 30
0.0
 10
24.0041816293
 20
131.9866663327
 30
0.0
 10
23.6791971778
 20
131.3757106699
 30
0.0
 10
23.4115165263
 20
130.4692323386
 30
0.0
 10
23.350399657
 20
129.6986844024
 30
0.0
 10
23.350399657
 20
129.2932418184
 30
0.0
  0
SPLINE
  5
2D0
100
AcDbEntity
  8
0
100
AcDbSpline
 62
7
  6
BYLAYER
 70
0
 71
3
 72
11
 73
7
 74
0
 42
0.0000001
 43
0.0000001
 44
0.0000000001
 40
0.0
 40
0.0
 40
0.0
 40
0.0
 40
0.2177839466
 40
0.4509170841
 40
0.710307871
 40
1.0
 40
1.0
 40
1.0
 40
1.0
 10
26.9863222619
 20
89.0863652622
 30
0.0
 10
26.8397078073
 20
89.0016911839
 30
0.0
 10
26.5653547672
 20
88.7710906437
 30
0.0
 10
26.2732991328
 20
88.2935424048
 30
0.0
 10
26.0998446623
 20
87.7050521668
 30
0.0
 10
26.0656993235
 20
87.2767359285
 30
0.0
 10
26.0656993235
 20
87.0515244218
 30
0.0
  0
SPLINE
  5
2D1
100
AcDbEntity
  8
0
100
AcDbSpline
 62
7
  6
BYLAYER
 70
0
 71
3
 72
20
 73
16
 74
0
 42
0.0000001
 43
0.0000001
 44
0.0000000001
 40
0.0
 40
0.0
 40
0.0
 40
0.0
 40
0.0429991403
 40
0.0870427821
 40
0.1338516147
 40
0.1846443689
 40
0.2400592627
 40
0.3002138613
 40
0.3648193516
 40
0.4332721685
 40
0.5780694984
 40
0.7265558934
 40
0.869766251
 40
0.9369546642
 40
1.0
 40
1.0
 40
1.0
 40
1.0
 10
39.6126600442
 20
100.0207764018
 30
0.0
 10
39.7902834976
 20
100.154206004
 30
0.0
 10
40.1874070549
 20
100.3781743025
 30
0.0
 10
40.8645164251
 20
100.5503411978
 30
0.0
 10
41.6023865023
 20
100.5577481923
 30
0.0
 10
42.3824997502
 20
100.4038317619
 30
0.0
 10
43.1883261297
 20
100.0948705222
 30
0.0
 10
44.0030999613
 20
99.6390914357
 30
0.0
 10
44.8095475445
 20
99.046931291
 30
0.0
 10
45.8693316229
 20
98.0752851186
 30
0.0
 10
47.0528216156
 20
96.613619202
 30
0.0
 10
48.1552056961
 20
94.6349614753
 30
0.0
 10
48.7678769323
 20
92.8718147274
 30
0.0
 10
49.0222540178
 20
91.4798990202
 30
0.0
 10
49.067858186
 20
90.806542299
 30
0.0
 10
49.067858186
 20
90.4808163275
 30
0.0
  0
SPLINE
  5
2D2
100
AcDbEntity
  8
0
100
AcDbSpline
 62
7
  6
BYLAYER
 70
0
 71
3
 72
11
 73
7
 74
0
 42
0.0000001
 43
0.0000001
 44
0.0000000001
 40
0.0
 40
0.0
 40
0.0
 40
0.0
 40
0.2896413964
 40
0.5491107671
 40
0.7822355978
 40
1.0
 40
1.0
 40
1.0
 40
1.0
 10
56.5137206478
 20
68.6272304597
 30
0.0
 10
56.5137206478
 20
68.4929888376
 30
0.0
 10
56.4933158716
 20
68.2376294975
 30
0.0
 10
56.3899622288
 20
67.8867739715
 30
0.0
 10
56.2158634023
 20
67.6020048176
 30
0.0
 10
56.0522365936
 20
67.4646378083
 30
0.0
 10
55.9648501737
 20
67.4141387168
 30
0.0
  0
SPLINE
  5
2D3
100
AcDbEntity
  8
0
100
AcDbSpline
 62
7
  6
BYLAYER
 70
0
 71
3
 72
11
 73
7
 74
0
 42
0.0000001
 43
0.0000001
 44
0.0000000001
 40
0.0
 40
0.0
 40
0.0
 40
0.0
 40
0.289703328
 40
0.5490895199
 40
0.7822165955
 40
1.0
 40
1.0
 40
1.0
 40
1.0
 10
81.8634070486
 20
26.2627907974
 30
0.0
 10
81.8634070485
 20
26.1340937095
 30
0.0
 10
81.8438946768
 20
25.8893391242
 30
0.0
 10
81.7447720078
 20
25.5530591497
 30
0.0
 10
81.5778823517
 20
25.280186967
 30
0.0
 10
81.4211223075
 20
25.1483990048
 30
0.0
 10
81.3373363222
 20
25.1000254694
 30
0.0
  0
SPLINE
  5
2D4
100
AcDbEntity
  8
0
100
AcDbSpline
 62
7
  6
BYLAYER
 70
0
 71
3
 72
13
 73
9
 74
0
 42
0.0000001
 43
0.0000001
 44
0.0000000001
 40
0.0
 40
0.0
 40
0.0
 40
0.0
 40
0.1142250363
 40
0.2375584227
 40
0.4999988469
 40
0.7624398981
 40
0.8857740436
 40
1.0
 40
1.0
 40
1.0
 40
1.0
 10
80.0673483331
 20
86.4634874513
 30
0.0
 10
80.190268603
 20
86.3925210057
 30
0.0
 10
80.4331453159
 20
86.2222304203
 30
0.0
 10
80.8878835158
 20
85.7967037956
 30
0.0
 10
81.3681641165
 20
85.1406180722
 30
0.0
 10
81.696214529
 20
84.3966407511
 30
0.0
 10
81.8373667804
 20
83.7900607375
 30
0.0
 10
81.8634070485
 20
83.4945762142
 30
0.0
 10
81.8634070486
 20
83.3526397717
 30
0.0
  0
SPLINE
  5
2D5
100
AcDbEntity
  8
0
100
AcDbSpline
 62
7
  6
BYLAYER
 70
0
 71
3
 72
11
 73
7
 74
0
 42
0.0000001
 43
0.0000001
 44
0.0000000001
 40
0.0
 40
0.0
 40
0.0
 40
0.0
 40
0.2897023289
 40
0.5490881651
 40
0.7822156417
 40
1.0
 40
1.0
 40
1.0
 40
1.0
 10
56.3793697864
 20
11.5496270119
 30
0.0
 10
56.4908220007
 20
11.4852815018
 30
0.0
 10
56.712536393
 20
11.3798076184
 30
0.0
 10
57.0533158255
 20
11.2975154894
 30
0.0
 10
57.3730666291
 20
11.3056115202
 30
0.0
 10
57.5655736855
 20
11.3754738215
 30
0.0
 10
57.6493577755
 20
11.4238463147
 30
0.0
  0
SPLINE
  5
2D6
100
AcDbEntity
  8
0
100
AcDbSpline
 62
7
  6
BYLAYER
 70
0
 71
3
 72
11
 73
7
 74
0
 42
0.0000001
 43
0.0000001
 44
0.0000000001
 40
0.0
 40
0.0
 40
0.0
 40
0.0
 40
0.2896413964
 40
0.5491107671
 40
0.7822355978
 40
1.0
 40
1.0
 40
1.0
 40
1.0
 10
56.5137206478
 20
18.8205830148
 30
0.0
 10
56.5137206478
 20
18.6863413927
 30
0.0
 10
56.4933158716
 20
18.4309820526
 30
0.0
 10
56.3899622288
 20
18.0801265266
 30
0.0
 10
56.2158634023
 20
17.7953573727
 30
0.0
 10
56.0522365936
 20
17.6579903634
 30
0.0
 10
55.9648501737
 20
17.6074912719
 30
0.0
  0
SPLINE
  5
2D7
100
AcDbEntity
  8
0
100
AcDbSpline
 62
7
  6
BYLAYER
 70
0
 71
3
 72
13
 73
9
 74
0
 42
0.0000001
 43
0.0000001
 44
0.0000000001
 40
0.0
 40
0.0
 40
0.0
 40
0.0
 40
0.1142259181
 40
0.2375599981
 40
0.5000010158
 40
0.7624414734
 40
0.8857749255
 40
1.0
 40
1.0
 40
1.0
 40
1.0
 10
29.891039496
 20
28.9162418235
 30
0.0
 10
29.8910394962
 20
28.7743054286
 30
0.0
 10
29.9170797088
 20
28.4788210309
 30
0.0
 10
30.0582319264
 20
27.8722411833
 30
0.0
 10
30.3862822071
 20
27.1282639058
 30
0.0
 10
30.8665627797
 20
26.4721780464
 30
0.0
 10
31.3213011064
 20
26.0466513095
 30
0.0
 10
31.5641779004
 20
25.8763606134
 30
0.0
 10
31.6870982115
 20
25.805394144
 30
0.0
  0
SPLINE
  5
2D8
100
AcDbEntity
  8
0
100
AcDbSpline
 62
7
  6
BYLAYER
 70
0
 71
3
 72
17
 73
13
 74
0
 42
0.0000001
 43
0.0000001
 44
0.0000000001
 40
0.0
 40
0.0
 40
0.0
 40
0.0
 40
0.128688864
 40
0.2702797703
 40
0.4174318348
 40
0.5617733576
 40
0.6954455149
 40
0.8127096012
 40
0.8646749146
 40
0.9125085807
 40
0.9571389861
 40
1.0
 40
1.0
 40
1.0
 40
1.0
 10
34.8125850064
 20
19.5103905644
 30
0.0
 10
34.8125850064
 20
19.2932842921
 30
0.0
 10
34.8733240285
 20
18.836785372
 30
0.0
 10
35.1000112936
 20
18.1665179539
 30
0.0
 10
35.449336087
 20
17.520843509
 30
0.0
 10
35.8932018995
 20
16.9527000153
 30
0.0
 10
36.3953465262
 20
16.5079778083
 30
0.0
 10
36.8498571786
 20
16.2594511977
 30
0.0
 10
37.205397811
 20
16.164880112
 30
0.0
 10
37.4500974303
 20
16.1468617843
 30
0.0
 10
37.6779532487
 20
16.1802559318
 30
0.0
 10
37.8160038844
 20
16.2376179223
 30
0.0
 10
37.8786112565
 20
16.2737972574
 30
0.0
  0
SPLINE
  5
2D9
100
AcDbEntity
  8
0
100
AcDbSpline
 62
7
  6
BYLAYER
 70
0
 71
3
 72
9
 73
5
 74
0
 42
0.0000001
 43
0.0000001
 44
0.0000000001
 40
0.0
 40
0.0
 40
0.0
 40
0.0
 40
0.4798771256
 40
1.0
 40
1.0
 40
1.0
 40
1.0
 10
34.8125850064
 20
72.5830476778
 30
0.0
 10
34.8125850064
 20
72.4303535722
 30
0.0
 10
34.842770777
 20
72.1119019783
 30
0.0
 10
34.9196157606
 20
71.8020137159
 30
0.0
 10
34.9696395354
 20
71.6442547396
 30
0.0
  0
SPLINE
  5
2DA
100
AcDbEntity
  8
0
100
AcDbSpline
 62
7
  6
BYLAYER
 70
0
 71
3
 72
11
 73
7
 74
0
 42
0.0000001
 43
0.0000001
 44
0.0000000001
 40
0.0
 40
0.0
 40
0.0
 40
0.0
 40
0.2897033281
 40
0.5490895198
 40
0.7822165953
 40
1.0
 40
1.0
 40
1.0
 40
1.0
 10
32.2958258238
 20
72.835757247
 30
0.0
 10
32.2958258238
 20
72.7044862185
 30
0.0
 10
32.2759232046
 20
72.4548365439
 30
0.0
 10
32.1748180816
 20
72.1118309737
 30
0.0
 10
32.0045906327
 20
71.8335013509
 30
0.0
 10
31.844695389
 20
71.6990776309
 30
0.0
 10
31.7592336847
 20
71.6497366252
 30
0.0
  0
SPLINE
  5
2DB
100
AcDbEntity
  8
0
100
AcDbSpline
 62
7
  6
BYLAYER
 70
0
 71
3
 72
13
 73
9
 74
0
 42
0.0000001
 43
0.0000001
 44
0.0000000001
 40
0.0
 40
0.0
 40
0.0
 40
0.0
 40
0.1142250362
 40
0.2375584228
 40
0.4999988469
 40
0.762439898
 40
0.8857740437
 40
1.0
 40
1.0
 40
1.0
 40
1.0
 10
30.4638459479
 20
32.0883403363
 30
0.0
 10
30.5892246223
 20
32.0159545625
 30
0.0
 10
30.8369588673
 20
31.8422581662
 30
0.0
 10
31.3007918263
 20
31.4082210113
 30
0.0
 10
31.7906780344
 20
30.7390135784
 30
0.0
 10
32.1252894532
 20
29.9801567174
 30
0.0
 10
32.2692647501
 20
29.3614451088
 30
0.0
 10
32.2958258238
 20
29.0600508974
 30
0.0
 10
32.2958258238
 20
28.9152757272
 30
0.0
  0
SPLINE
  5
2DC
100
AcDbEntity
  8
0
100
AcDbSpline
 62
7
  6
BYLAYER
 70
0
 71
3
 72
9
 73
5
 74
0
 42
0.0000001
 43
0.0000001
 44
0.0000000001
 40
0.0
 40
0.0
 40
0.0
 40
0.0
 40
0.5084472745
 40
1.0
 40
1.0
 40
1.0
 40
1.0
 10
32.2073038484
 20
80.2007235764
 30
0.0
 10
32.0810835477
 20
80.3984992675
 30
0.0
 10
31.8622274727
 20
80.8069791631
 30
0.0
 10
31.7087558454
 20
81.2446830111
 30
0.0
 10
31.6532195748
 20
81.4646037409
 30
0.0
  0
SPLINE
  5
2DD
100
AcDbEntity
  8
0
100
AcDbSpline
 62
7
  6
BYLAYER
 70
0
 71
3
 72
13
 73
9
 74
0
 42
0.0000001
 43
0.0000001
 44
0.0000000001
 40
0.0
 40
0.0
 40
0.0
 40
0.0
 40
0.1142259181
 40
0.2375599981
 40
0.5000010158
 40
0.7624414734
 40
0.8857749255
 40
1.0
 40
1.0
 40
1.0
 40
1.0
 10
58.1754285019
 20
69.676460617
 30
0.0
 10
58.1754285018
 20
69.818397012
 30
0.0
 10
58.1493882891
 20
70.1138814097
 30
0.0
 10
58.0082360715
 20
70.7204612573
 30
0.0
 10
57.6801857908
 20
71.4644385348
 30
0.0
 10
57.1999052182
 20
72.1205243942
 30
0.0
 10
56.7451668915
 20
72.546051131
 30
0.0
 10
56.5022900975
 20
72.7163418272
 30
0.0
 10
56.3793697864
 20
72.7873082966
 30
0.0
  0
SPLINE
  5
2DE
100
AcDbEntity
  8
0
100
AcDbSpline
 62
7
  6
BYLAYER
 70
0
 71
3
 72
13
 73
9
 74
0
 42
0.0000001
 43
0.0000001
 44
0.0000000001
 40
0.0
 40
0.0
 40
0.0
 40
0.0
 40
0.1142259181
 40
0.2375599982
 40
0.5000010158
 40
0.7624414734
 40
0.8857749255
 40
1.0
 40
1.0
 40
1.0
 40
1.0
 10
50.0931643435
 20
69.1578621081
 30
0.0
 10
50.0931643435
 20
69.0159257143
 30
0.0
 10
50.1192045564
 20
68.7204413189
 30
0.0
 10
50.2603567746
 20
68.1138614764
 30
0.0
 10
50.5884070533
 20
67.3698842053
 30
0.0
 10
51.0686876213
 20
66.7137983508
 30
0.0
 10
51.5234259433
 20
66.2882716161
 30
0.0
 10
51.7663027352
 20
66.1179809208
 30
0.0
 10
51.8892230454
 20
66.0470144521
 30
0.0
  0
SPLINE
  5
2DF
100
AcDbEntity
  8
0
100
AcDbSpline
 62
7
  6
BYLAYER
 70
0
 71
3
 72
11
 73
7
 74
0
 42
0.0000001
 43
0.0000001
 44
0.0000000001
 40
0.0
 40
0.0
 40
0.0
 40
0.0
 40
0.2896413964
 40
0.5491107671
 40
0.7822355978
 40
1.0
 40
1.0
 40
1.0
 40
1.0
 10
52.7660391045
 20
70.7909064587
 30
0.0
 10
52.7660391045
 20
70.9251480808
 30
0.0
 10
52.7864438808
 20
71.1805074209
 30
0.0
 10
52.8897975236
 20
71.5313629469
 30
0.0
 10
53.0638963501
 20
71.8161321008
 30
0.0
 10
53.2275231588
 20
71.9534991101
 30
0.0
 10
53.3149095786
 20
72.0039982016
 30
0.0
  0
SPLINE
  5
2E0
100
AcDbEntity
  8
0
100
AcDbSpline
 62
7
  6
BYLAYER
 70
0
 71
3
 72
10
 73
6
 74
0
 42
0.0000001
 43
0.0000001
 44
0.0000000001
 40
0.0
 40
0.0
 40
0.0
 40
0.0
 40
0.2296846794
 40
0.4755740724
 40
1.0
 40
1.0
 40
1.0
 40
1.0
 10
39.087080046
 20
85.7553859292
 30
0.0
 10
39.087080046
 20
86.0549742014
 30
0.0
 10
39.0407479766
 20
86.6758597711
 30
0.0
 10
38.7847965874
 20
87.9569118776
 30
0.0
 10
38.4248813758
 20
88.9051520857
 30
0.0
 10
38.1242056431
 20
89.5195582983
 30
0.0
  0
SPLINE
  5
2E1
100
AcDbEntity
  8
0
100
AcDbSpline
 62
7
  6
BYLAYER
 70
0
 71
3
 72
12
 73
8
 74
0
 42
0.0000001
 43
0.0000001
 44
0.0000000001
 40
0.0
 40
0.0
 40
0.0
 40
0.0
 40
0.2917511418
 40
0.5531835622
 40
0.7862996108
 40
0.8948811952
 40
1.0
 40
1.0
 40
1.0
 40
1.0
 10
35.0266552259
 20
93.2605623623
 30
0.0
 10
34.7404659162
 20
93.4575757847
 30
0.0
 10
34.1679945156
 20
93.7913980286
 30
0.0
 10
33.277839382
 20
94.1025016112
 30
0.0
 10
32.552251741
 20
94.1691232408
 30
0.0
 10
32.023565414
 20
94.0930293364
 30
0.0
 10
31.7796792941
 20
94.0153021423
 30
0.0
 10
31.664210855
 20
93.9669439331
 30
0.0
  0
SPLINE
  5
2E2
100
AcDbEntity
  8
0
100
AcDbSpline
 62
7
  6
BYLAYER
 70
0
 71
3
 72
17
 73
13
 74
0
 42
0.0000001
 43
0.0000001
 44
0.0000000001
 40
0.0
 40
0.0
 40
0.0
 40
0.0
 40
0.1286930371
 40
0.2702795962
 40
0.4174375935
 40
0.5617786795
 40
0.6954478243
 40
0.81271112
 40
0.8646738576
 40
0.9125098523
 40
0.9571380034
 40
1.0
 40
1.0
 40
1.0
 40
1.0
 10
32.3519047801
 20
83.4222641141
 30
0.0
 10
32.3519047801
 20
83.8022128698
 30
0.0
 10
32.2456248666
 20
84.6010904705
 30
0.0
 10
31.8488661358
 20
85.7740591235
 30
0.0
 10
31.2375612736
 20
86.9039998624
 30
0.0
 10
30.4607733101
 20
87.8982489516
 30
0.0
 10
29.5820278905
 20
88.6764938049
 30
0.0
 10
28.7866602289
 20
89.1114419425
 30
0.0
 10
28.1644657667
 20
89.2769146051
 30
0.0
 10
27.736244241
 20
89.3084960974
 30
0.0
 10
27.3375116712
 20
89.2499557413
 30
0.0
 10
27.0959043115
 20
89.1496520579
 30
0.0
 10
26.9863222619
 20
89.0863652622
 30
0.0
  0
SPLINE
  5
2E3
100
AcDbEntity
  8
0
100
AcDbSpline
 62
7
  6
BYLAYER
 70
0
 71
3
 72
11
 73
7
 74
0
 42
0.0000001
 43
0.0000001
 44
0.0000000001
 40
0.0
 40
0.0
 40
0.0
 40
0.0
 40
0.2895453772
 40
0.5491366158
 40
0.7822776227
 40
1.0
 40
1.0
 40
1.0
 40
1.0
 10
30.6230215021
 20
84.4204127589
 30
0.0
 10
30.6230215021
 20
84.3191331064
 30
0.0
 10
30.6075567063
 20
84.1264130597
 30
0.0
 10
30.5296483468
 20
83.8615784544
 30
0.0
 10
30.3982180877
 20
83.6466328099
 30
0.0
 10
30.2747096118
 20
83.542991559
 30
0.0
 10
30.2087564963
 20
83.5049121246
 30
0.0
  0
SPLINE
  5
2E4
100
AcDbEntity
  8
0
100
AcDbSpline
 62
7
  6
BYLAYER
 70
0
 71
3
 72
11
 73
7
 74
0
 42
0.0000001
 43
0.0000001
 44
0.0000000001
 40
0.0
 40
0.0
 40
0.0
 40
0.0
 40
0.2201829834
 40
0.4579315046
 40
0.7176803844
 40
1.0
 40
1.0
 40
1.0
 40
1.0
 10
38.0782488254
 20
69.5054503891
 30
0.0
 10
38.1324371646
 20
69.5631790608
 30
0.0
 10
38.2296927627
 20
69.6983395269
 30
0.0
 10
38.3315498523
 20
69.9372611929
 30
0.0
 10
38.3922408644
 20
70.2123876876
 30
0.0
 10
38.4047024101
 20
70.4076637135
 30
0.0
 10
38.4047024101
 20
70.5091846449
 30
0.0
  0
SPLINE
  5
2E5
100
AcDbEntity
  8
0
100
AcDbSpline
 62
7
  6
BYLAYER
 70
0
 71
3
 72
17
 73
13
 74
0
 42
0.0000001
 43
0.0000001
 44
0.0000000001
 40
0.0
 40
0.0
 40
0.0
 40
0.0
 40
0.1286846513
 40
0.2703032228
 40
0.4174430309
 40
0.5617811216
 40
0.695448235
 40
0.8127121431
 40
0.8646788239
 40
0.9125086207
 40
0.9571391214
 40
1.0
 40
1.0
 40
1.0
 40
1.0
 10
26.7092017631
 20
82.1607813672
 30
0.0
 10
26.7092017631
 20
82.3317243611
 30
0.0
 10
26.6613423138
 20
82.6911950013
 30
0.0
 10
26.482887966
 20
83.2189901415
 30
0.0
 10
26.2077691669
 20
83.7273794153
 30
0.0
 10
25.8583048118
 20
84.174715242
 30
0.0
 10
25.4629138849
 20
84.524889164
 30
0.0
 10
25.1050263083
 20
84.7205021881
 30
0.0
 10
24.8250980902
 20
84.7950857956
 30
0.0
 10
24.6324262385
 20
84.8091611676
 30
0.0
 10
24.4529920413
 20
84.7829880422
 30
0.0
 10
24.3443393991
 20
84.7377064037
 30
0.0
 10
24.2950303579
 20
84.7092405165
 30
0.0
  0
SPLINE
  5
2E6
100
AcDbEntity
  8
0
100
AcDbSpline
 62
7
  6
BYLAYER
 70
0
 71
3
 72
13
 73
9
 74
0
 42
0.0000001
 43
0.0000001
 44
0.0000000001
 40
0.0
 40
0.0
 40
0.0
 40
0.0
 40
0.1142250363
 40
0.2375584229
 40
0.4999988472
 40
0.7624398982
 40
0.8857740437
 40
1.0
 40
1.0
 40
1.0
 40
1.0
 10
32.8963485629
 20
64.177218886
 30
0.0
 10
32.7511671423
 20
64.2610375221
 30
0.0
 10
32.4643048846
 20
64.4621681347
 30
0.0
 10
31.9272125269
 20
64.9647586361
 30
0.0
 10
31.3599519797
 20
65.7396630313
 30
0.0
 10
30.9724908657
 20
66.6183763985
 30
0.0
 10
30.8057756094
 20
67.3348094814
 30
0.0
 10
30.7750193875
 20
67.683806948
 30
0.0
 10
30.7750193874
 20
67.8514484145
 30
0.0
  0
SPLINE
  5
2E7
100
AcDbEntity
  8
0
100
AcDbSpline
 62
7
  6
BYLAYER
 70
0
 71
3
 72
11
 73
7
 74
0
 42
0.0000001
 43
0.0000001
 44
0.0000000001
 40
0.0
 40
0.0
 40
0.0
 40
0.0
 40
0.2897711749
 40
0.5490211784
 40
0.7821695315
 40
1.0
 40
1.0
 40
1.0
 40
1.0
 10
36.0394512911
 20
85.5512573765
 30
0.0
 10
36.0394512911
 20
85.325981391
 30
0.0
 10
36.005425429
 20
84.8976811353
 30
0.0
 10
35.8317938119
 20
84.309294157
 30
0.0
 10
35.5399465985
 20
83.8316711724
 30
0.0
 10
35.2654660038
 20
83.6011273398
 30
0.0
 10
35.1188286699
 20
83.5164160127
 30
0.0
  0
SPLINE
  5
2E8
100
AcDbEntity
  8
0
100
AcDbSpline
 62
7
  6
BYLAYER
 70
0
 71
3
 72
11
 73
7
 74
0
 42
0.0000001
 43
0.0000001
 44
0.0000000001
 40
0.0
 40
0.0
 40
0.0
 40
0.0
 40
0.2655873495
 40
0.5252570447
 40
0.7719866812
 40
1.0
 40
1.0
 40
1.0
 40
1.0
 10
35.0176777383
 20
88.8192465195
 30
0.0
 10
35.1777153566
 20
88.5578271011
 30
0.0
 10
35.4637600714
 20
88.021440266
 30
0.0
 10
35.7862544533
 20
87.1884851827
 30
0.0
 10
35.988380195
 20
86.3628468641
 30
0.0
 10
36.0394512911
 20
85.8144090864
 30
0.0
 10
36.0394512911
 20
85.5512573765
 30
0.0
  0
SPLINE
  5
2E9
100
AcDbEntity
  8
0
100
AcDbSpline
 62
7
  6
BYLAYER
 70
0
 71
3
 72
11
 73
7
 74
0
 42
0.0000001
 43
0.0000001
 44
0.0000000001
 40
0.0
 40
0.0
 40
0.0
 40
0.0
 40
0.289703328
 40
0.5490895199
 40
0.7822165955
 40
1.0
 40
1.0
 40
1.0
 40
1.0
 10
30.7750193874
 20
108.6537071719
 30
0.0
 10
30.7750193875
 20
108.8057116063
 30
0.0
 10
30.7980654959
 20
109.0947918247
 30
0.0
 10
30.9151395145
 20
109.4919728963
 30
0.0
 10
31.1122532814
 20
109.8142628753
 30
0.0
 10
31.2974029397
 20
109.9699179484
 30
0.0
 10
31.3963627647
 20
110.0270520453
 30
0.0
  0
SPLINE
  5
2EA
100
AcDbEntity
  8
0
100
AcDbSpline
 62
7
  6
BYLAYER
 70
0
 71
3
 72
15
 73
11
 74
0
 42
0.0000001
 43
0.0000001
 44
0.0000000001
 40
0.0
 40
0.0
 40
0.0
 40
0.0
 40
0.0881045641
 40
0.1843980013
 40
0.2938658857
 40
0.4177192007
 40
0.5543004777
 40
0.7000571259
 40
0.8503451442
 40
1.0
 40
1.0
 40
1.0
 40
1.0
 10
55.9648501737
 20
17.6074912719
 30
0.0
 10
55.862961337
 20
17.5486114861
 30
0.0
 10
55.6219535836
 20
17.4694396648
 30
0.0
 10
55.2234141248
 20
17.4895521583
 30
0.0
 10
54.8029120196
 20
17.6341027364
 30
0.0
 10
54.3782205929
 20
17.8923207594
 30
0.0
 10
53.9679948692
 20
18.2507645829
 30
0.0
 10
53.5917467461
 20
18.6918019351
 30
0.0
 10
53.2681885799
 20
19.1934041782
 30
0.0
 10
53.0958340956
 20
19.5566133848
 30
0.0
 10
53.0228456348
 20
19.7426999931
 30
0.0
  0
SPLINE
  5
2EB
100
AcDbEntity
  8
0
100
AcDbSpline
 62
7
  6
BYLAYER
 70
0
 71
3
 72
17
 73
13
 74
0
 42
0.0000001
 43
0.0000001
 44
0.0000000001
 40
0.0
 40
0.0
 40
0.0
 40
0.0
 40
0.0428570455
 40
0.087485165
 40
0.1353123244
 40
0.1872781392
 40
0.3045378316
 40
0.4381995438
 40
0.5825378192
 40
0.7296849502
 40
0.8713141218
 40
1.0
 40
1.0
 40
1.0
 40
1.0
 10
28.2088476073
 20
86.9688764113
 30
0.0
 10
28.2581506183
 20
86.9973425535
 30
0.0
 10
28.3667968904
 20
87.0426199674
 30
0.0
 10
28.546218378
 20
87.0687895891
 30
0.0
 10
28.73888357
 20
87.0547297538
 30
0.0
 10
29.0188014708
 20
86.9801445682
 30
0.0
 10
29.3766832716
 20
86.7845547054
 30
0.0
 10
29.7720730275
 20
86.4343962048
 30
0.0
 10
30.1215468935
 20
85.9870651831
 30
0.0
 10
30.3966918148
 20
85.4786621603
 30
0.0
 10
30.5751575223
 20
84.950843356
 30
0.0
 10
30.6230215021
 20
84.5913573734
 30
0.0
 10
30.6230215021
 20
84.4204127589
 30
0.0
  0
SPLINE
  5
2EC
100
AcDbEntity
  8
0
100
AcDbSpline
 62
7
  6
BYLAYER
 70
0
 71
3
 72
13
 73
9
 74
0
 42
0.0000001
 43
0.0000001
 44
0.0000000001
 40
0.0
 40
0.0
 40
0.0
 40
0.0
 40
0.1142250362
 40
0.2375584228
 40
0.4999988469
 40
0.762439898
 40
0.8857740437
 40
1.0
 40
1.0
 40
1.0
 40
1.0
 10
49.7679115337
 20
64.8222819905
 30
0.0
 10
49.6449912647
 20
64.8932484354
 30
0.0
 10
49.4021145539
 20
65.06353902
 30
0.0
 10
48.9473763588
 20
65.4890656424
 30
0.0
 10
48.4670957626
 20
66.145151361
 30
0.0
 10
48.1390453521
 20
66.8891286757
 30
0.0
 10
47.9978931002
 20
67.4957086841
 30
0.0
 10
47.9718528318
 20
67.7911932051
 30
0.0
 10
47.9718528318
 20
67.9331296465
 30
0.0
  0
SPLINE
  5
2ED
100
AcDbEntity
  8
0
100
AcDbSpline
 62
7
  6
BYLAYER
 70
0
 71
3
 72
13
 73
9
 74
0
 42
0.0000001
 43
0.0000001
 44
0.0000000001
 40
0.0
 40
0.0
 40
0.0
 40
0.0
 40
0.1142259181
 40
0.2375599982
 40
0.5000010158
 40
0.7624414734
 40
0.8857749255
 40
1.0
 40
1.0
 40
1.0
 40
1.0
 10
47.9538922448
 20
67.9434989617
 30
0.0
 10
47.9538922448
 20
67.8001432039
 30
0.0
 10
47.9801928599
 20
67.5017039645
 30
0.0
 10
48.1227566002
 20
66.8890583237
 30
0.0
 10
48.4540873817
 20
66.1376412798
 30
0.0
 10
48.9391707555
 20
65.4749945668
 30
0.0
 10
49.3984564606
 20
65.0452125647
 30
0.0
 10
49.6437620205
 20
64.8732189625
 30
0.0
 10
49.7679115337
 20
64.8015428291
 30
0.0
  0
SPLINE
  5
2EE
100
AcDbEntity
  8
0
100
AcDbSpline
 62
7
  6
BYLAYER
 70
0
 71
3
 72
20
 73
16
 74
0
 42
0.0000001
 43
0.0000001
 44
0.0000000001
 40
0.0
 40
0.0
 40
0.0
 40
0.0
 40
0.0623995388
 40
0.1288074595
 40
0.2703007856
 40
0.4173602616
 40
0.5616140377
 40
0.6302529035
 40
0.6953778418
 40
0.7563615712
 40
0.8128329085
 40
0.8647629631
 40
0.912566707
 40
0.9571682936
 40
1.0
 40
1.0
 40
1.0
 40
1.0
 10
34.6641552594
 20
122.7613897461
 30
0.0
 10
34.6641552594
 20
123.0931701016
 30
0.0
 10
34.619094151
 20
123.7785310216
 30
0.0
 10
34.3671575934
 20
125.1956561525
 30
0.0
 10
33.7585482943
 20
126.9948605807
 30
0.0
 10
32.6588307651
 20
129.0272235387
 30
0.0
 10
31.4740503231
 20
130.5444427551
 30
0.0
 10
30.4079823447
 20
131.57145294
 30
0.0
 10
29.5909579234
 20
132.2109737473
 30
0.0
 10
28.7607987608
 20
132.7188991231
 30
0.0
 10
27.9342061232
 20
133.084249977
 30
0.0
 10
27.127638477
 20
133.2984711974
 30
0.0
 10
26.3569825598
 20
133.3552477845
 30
0.0
 10
25.6392963843
 20
133.250085172
 30
0.0
 10
25.204554315
 20
133.0693419339
 30
0.0
 10
25.007324901
 20
132.9554781782
 30
0.0
  0
SPLINE
  5
2EF
100
AcDbEntity
  8
0
100
AcDbSpline
 62
7
  6
BYLAYER
 70
0
 71
3
 72
17
 73
13
 74
0
 42
0.0000001
 43
0.0000001
 44
0.0000000001
 40
0.0
 40
0.0
 40
0.0
 40
0.0
 40
0.128688864
 40
0.2702797703
 40
0.4174318348
 40
0.5617733576
 40
0.6954455149
 40
0.8127096012
 40
0.8646749146
 40
0.9125085807
 40
0.9571389861
 40
1.0
 40
1.0
 40
1.0
 40
1.0
 10
38.4047024101
 20
17.4365275314
 30
0.0
 10
38.4047024101
 20
17.6536338038
 30
0.0
 10
38.343963388
 20
18.1101327239
 30
0.0
 10
38.1172761229
 20
18.7804001419
 30
0.0
 10
37.7679513295
 20
19.4260745868
 30
0.0
 10
37.324085517
 20
19.9942180805
 30
0.0
 10
36.8219408903
 20
20.4389402875
 30
0.0
 10
36.3674302379
 20
20.6874668982
 30
0.0
 10
36.0118896055
 20
20.7820379838
 30
0.0
 10
35.7671899861
 20
20.8000563115
 30
0.0
 10
35.5393341677
 20
20.766662164
 30
0.0
 10
35.4012835321
 20
20.7093001735
 30
0.0
 10
35.33867616
 20
20.6731208384
 30
0.0
  0
SPLINE
  5
2F0
100
AcDbEntity
  8
0
100
AcDbSpline
 62
7
  6
BYLAYER
 70
0
 71
3
 72
11
 73
7
 74
0
 42
0.0000001
 43
0.0000001
 44
0.0000000001
 40
0.0
 40
0.0
 40
0.0
 40
0.0
 40
0.2177239861
 40
0.4508730345
 40
0.7104683317
 40
1.0
 40
1.0
 40
1.0
 40
1.0
 10
26.2949342677
 20
81.245285236
 30
0.0
 10
26.3608898841
 20
81.283361116
 30
0.0
 10
26.4843994023
 20
81.3870074801
 30
0.0
 10
26.6158324476
 20
81.6019558351
 30
0.0
 10
26.6937357706
 20
81.8667910211
 30
0.0
 10
26.7092017631
 20
82.0595067415
 30
0.0
 10
26.7092017631
 20
82.1607813672
 30
0.0
  0
SPLINE
  5
2F1
100
AcDbEntity
  8
0
100
AcDbSpline
 62
7
  6
BYLAYER
 70
0
 71
3
 72
11
 73
7
 74
0
 42
0.0000001
 43
0.0000001
 44
0.0000000001
 40
0.0
 40
0.0
 40
0.0
 40
0.0
 40
0.2177833596
 40
0.4509104087
 40
0.7102966711
 40
1.0
 40
1.0
 40
1.0
 40
1.0
 10
57.6493577755
 20
11.4238463147
 30
0.0
 10
57.7331437208
 20
11.472219879
 30
0.0
 10
57.8899037807
 20
11.6040077489
 30
0.0
 10
58.0567934424
 20
11.8768799478
 30
0.0
 10
58.1559160863
 20
12.2131599421
 30
0.0
 10
58.1754285018
 20
12.4579145548
 30
0.0
 10
58.1754285019
 20
12.5866116427
 30
0.0
  0
SPLINE
  5
2F2
100
AcDbEntity
  8
0
100
AcDbSpline
 62
7
  6
BYLAYER
 70
0
 71
3
 72
11
 73
7
 74
0
 42
0.0000001
 43
0.0000001
 44
0.0000000001
 40
0.0
 40
0.0
 40
0.0
 40
0.0
 40
0.2897016594
 40
0.5490895814
 40
0.7822189142
 40
1.0
 40
1.0
 40
1.0
 40
1.0
 10
31.8357163588
 20
124.3943527642
 30
0.0
 10
31.8357163588
 20
124.1916809004
 30
0.0
 10
31.8049885392
 20
123.8062399912
 30
0.0
 10
31.648897761
 20
123.2766604764
 30
0.0
 10
31.3860735822
 20
122.8469370212
 30
0.0
 10
31.1392012218
 20
122.6394089696
 30
0.0
 10
31.0072616808
 20
122.5632208013
 30
0.0
  0
SPLINE
  5
2F3
100
AcDbEntity
  8
0
100
AcDbSpline
 62
7
  6
BYLAYER
 70
0
 71
3
 72
9
 73
5
 74
0
 42
0.0000001
 43
0.0000001
 44
0.0000000001
 40
0.0
 40
0.0
 40
0.0
 40
0.0
 40
0.4760434782
 40
1.0
 40
1.0
 40
1.0
 40
1.0
 10
38.4047024101
 20
70.5091846449
 30
0.0
 10
38.4047024101
 20
70.7284743291
 30
0.0
 10
38.3427991623
 20
71.1895344531
 30
0.0
 10
38.1931826693
 20
71.6279655332
 30
0.0
 10
38.0963727385
 20
71.8490603068
 30
0.0
  0
SPLINE
  5
2F4
100
AcDbEntity
  8
0
100
AcDbSpline
 62
7
  6
BYLAYER
 70
0
 71
3
 72
17
 73
13
 74
0
 42
0.0000001
 43
0.0000001
 44
0.0000000001
 40
0.0
 40
0.0
 40
0.0
 40
0.0
 40
0.1286930371
 40
0.2702795962
 40
0.4174375935
 40
0.5617786795
 40
0.6954478243
 40
0.81271112
 40
0.8646738576
 40
0.9125098523
 40
0.9571380034
 40
1.0
 40
1.0
 40
1.0
 40
1.0
 10
31.3867054221
 20
124.1351177265
 30
0.0
 10
31.3867054221
 20
124.4770288678
 30
0.0
 10
31.291065455
 20
125.1959288459
 30
0.0
 10
30.9340272271
 20
126.2514686911
 30
0.0
 10
30.3839216143
 20
127.2682882536
 30
0.0
 10
29.6848998249
 20
128.1630005949
 30
0.0
 10
28.8941277937
 20
128.8633334213
 30
0.0
 10
28.178386366
 20
129.2547378195
 30
0.0
 10
27.6184813381
 20
129.4036446025
 30
0.0
 10
27.2331301339
 20
129.4320643932
 30
0.0
 10
26.8743156729
 20
129.3793846576
 30
0.0
 10
26.6568962266
 20
129.2891226253
 30
0.0
 10
26.5582847084
 20
129.232171628
 30
0.0
  0
SPLINE
  5
2F5
100
AcDbEntity
  8
0
100
AcDbSpline
 62
7
  6
BYLAYER
 70
0
 71
3
 72
15
 73
11
 74
0
 42
0.0000001
 43
0.0000001
 44
0.0000000001
 40
0.0
 40
0.0
 40
0.0
 40
0.0
 40
0.1077722235
 40
0.2270224024
 40
0.3553194276
 40
0.4891979435
 40
0.6246245301
 40
0.7573794319
 40
0.8836515893
 40
1.0
 40
1.0
 40
1.0
 40
1.0
 10
38.0360352776
 20
74.7457592629
 30
0.0
 10
38.1713291623
 20
74.6926621398
 30
0.0
 10
38.4436221
 20
74.5475339752
 30
0.0
 10
38.8225287844
 20
74.2513234934
 30
0.0
 10
39.1786017312
 20
73.8777952105
 30
0.0
 10
39.4957721718
 20
73.4437062716
 30
0.0
 10
39.7597913081
 20
72.9685506996
 30
0.0
 10
39.9589896249
 20
72.4736769287
 30
0.0
 10
40.0840118729
 20
71.9815576946
 30
0.0
 10
40.1158936962
 20
71.654041304
 30
0.0
 10
40.1158936962
 20
71.4971354972
 30
0.0
  0
SPLINE
  5
2F6
100
AcDbEntity
  8
0
100
AcDbSpline
 62
7
  6
BYLAYER
 70
0
 71
3
 72
11
 73
7
 74
0
 42
0.0000001
 43
0.0000001
 44
0.0000000001
 40
0.0
 40
0.0
 40
0.0
 40
0.0
 40
0.2177843137
 40
0.4509117637
 40
0.7102976702
 40
1.0
 40
1.0
 40
1.0
 40
1.0
 10
34.396334361
 20
64.028659014
 30
0.0
 10
34.2973767694
 20
63.9715262066
 30
0.0
 10
34.070006318
 20
63.8890116076
 30
0.0
 10
33.6923478729
 20
63.8794493684
 30
0.0
 10
33.2898524787
 20
63.9766448305
 30
0.0
 10
33.0279850349
 20
64.1012202528
 30
0.0
 10
32.8963485629
 20
64.177218886
 30
0.0
  0
SPLINE
  5
2F7
100
AcDbEntity
  8
0
100
AcDbSpline
 62
7
  6
BYLAYER
 70
0
 71
3
 72
9
 73
5
 74
0
 42
0.0000001
 43
0.0000001
 44
0.0000000001
 40
0.0
 40
0.0
 40
0.0
 40
0.0
 40
0.4887622756
 40
1.0
 40
1.0
 40
1.0
 40
1.0
 10
36.1448518449
 20
61.0001367476
 30
0.0
 10
36.2701687999
 20
61.0724880979
 30
0.0
 10
36.5071119844
 20
61.2567430209
 30
0.0
 10
36.6876819366
 20
61.4954929056
 30
0.0
 10
36.7652835905
 20
61.6254431197
 30
0.0
  0
SPLINE
  5
2F8
100
AcDbEntity
  8
0
100
AcDbSpline
 62
7
  6
BYLAYER
 70
0
 71
3
 72
10
 73
6
 74
0
 42
0.0000001
 43
0.0000001
 44
0.0000000001
 40
0.0
 40
0.0
 40
0.0
 40
0.0
 40
0.225673504
 40
0.5935376529
 40
1.0
 40
1.0
 40
1.0
 40
1.0
 10
36.7652835905
 20
61.6254431197
 30
0.0
 10
36.8282607764
 20
61.7309034853
 30
0.0
 10
36.969264943
 20
62.0233990779
 30
0.0
 10
37.1083369666
 20
62.5537056486
 30
0.0
 10
37.1390069136
 20
62.9762427263
 30
0.0
 10
37.1390069137
 20
63.1974787259
 30
0.0
  0
SPLINE
  5
2F9
100
AcDbEntity
  8
0
100
AcDbSpline
 62
7
  6
BYLAYER
 70
0
 71
3
 72
11
 73
7
 74
0
 42
0.0000001
 43
0.0000001
 44
0.0000000001
 40
0.0
 40
0.0
 40
0.0
 40
0.0
 40
0.2177660095
 40
0.4508968553
 40
0.7103699668
 40
1.0
 40
1.0
 40
1.0
 40
1.0
 10
37.8786112565
 20
16.2737972574
 30
0.0
 10
37.9623710322
 20
16.3222000717
 30
0.0
 10
38.1192156204
 20
16.4538587222
 30
0.0
 10
38.2860827795
 20
16.7268178143
 30
0.0
 10
38.3851445928
 20
17.0631074796
 30
0.0
 10
38.4047024101
 20
17.3078634343
 30
0.0
 10
38.4047024101
 20
17.4365275314
 30
0.0
  0
SPLINE
  5
2FA
100
AcDbEntity
  8
0
100
AcDbSpline
 62
7
  6
BYLAYER
 70
0
 71
3
 72
11
 73
7
 74
0
 42
0.0000001
 43
0.0000001
 44
0.0000000001
 40
0.0
 40
0.0
 40
0.0
 40
0.0
 40
0.2177839466
 40
0.4509170841
 40
0.710307871
 40
1.0
 40
1.0
 40
1.0
 40
1.0
 10
30.5582483347
 20
122.3039898611
 30
0.0
 10
30.6901848518
 20
122.3801870069
 30
0.0
 10
30.9370717271
 20
122.5877015538
 30
0.0
 10
31.1998889458
 20
123.0174412513
 30
0.0
 10
31.3559784581
 20
123.5470162686
 30
0.0
 10
31.3867054221
 20
123.9324527035
 30
0.0
 10
31.3867054221
 20
124.1351177265
 30
0.0
  0
SPLINE
  5
2FB
100
AcDbEntity
  8
0
100
AcDbSpline
 62
7
  6
BYLAYER
 70
0
 71
3
 72
17
 73
13
 74
0
 42
0.0000001
 43
0.0000001
 44
0.0000000001
 40
0.0
 40
0.0
 40
0.0
 40
0.0
 40
0.042857965
 40
0.0874854797
 40
0.1353180708
 40
0.1872814984
 40
0.3045423159
 40
0.4382097446
 40
0.5825520305
 40
0.7297107839
 40
0.8713099826
 40
1.0
 40
1.0
 40
1.0
 40
1.0
 10
55.9648501737
 20
67.4141387168
 30
0.0
 10
55.8995362334
 20
67.3763949272
 30
0.0
 10
55.7555125826
 20
67.3165657043
 30
0.0
 10
55.5178055312
 20
67.2817014584
 30
0.0
 10
55.2625187335
 20
67.3005133187
 30
0.0
 10
54.891584931
 20
67.3991465429
 30
0.0
 10
54.4174026401
 20
67.658430481
 30
0.0
 10
53.8935093168
 20
68.1223873784
 30
0.0
 10
53.4304087156
 20
68.7151340195
 30
0.0
 10
53.0659296842
 20
69.3887888234
 30
0.0
 10
52.8294128349
 20
70.0881105932
 30
0.0
 10
52.7660391045
 20
70.5643957713
 30
0.0
 10
52.7660391045
 20
70.7909064587
 30
0.0
  0
SPLINE
  5
2FC
100
AcDbEntity
  8
0
100
AcDbSpline
 62
7
  6
BYLAYER
 70
0
 71
3
 72
17
 73
13
 74
0
 42
0.0000001
 43
0.0000001
 44
0.0000000001
 40
0.0
 40
0.0
 40
0.0
 40
0.0
 40
0.0428592926
 40
0.087485474
 40
0.1353198781
 40
0.1872819044
 40
0.3045421965
 40
0.4382074305
 40
0.582548911
 40
0.7297129633
 40
0.8713059682
 40
1.0
 40
1.0
 40
1.0
 40
1.0
 10
27.0072932355
 20
129.4914107633
 30
0.0
 10
27.1059020141
 20
129.5483521636
 30
0.0
 10
27.3233027051
 20
129.638624614
 30
0.0
 10
27.6821032385
 20
129.6912895627
 30
0.0
 10
28.0674439301
 20
129.6628985894
 30
0.0
 10
28.6273349034
 20
129.5139860309
 30
0.0
 10
29.3430686499
 20
129.1226184686
 30
0.0
 10
30.1338407143
 20
128.4223079011
 30
0.0
 10
30.8328809784
 20
127.5276022449
 30
0.0
 10
31.3830170559
 20
126.5107590428
 30
0.0
 10
31.7400719679
 20
125.4551862318
 30
0.0
 10
31.8357163588
 20
124.7362665847
 30
0.0
 10
31.8357163588
 20
124.3943527642
 30
0.0
  0
SPLINE
  5
2FD
100
AcDbEntity
  8
0
100
AcDbSpline
 62
7
  6
BYLAYER
 70
0
 71
3
 72
17
 73
13
 74
0
 42
0.0000001
 43
0.0000001
 44
0.0000000001
 40
0.0
 40
0.0
 40
0.0
 40
0.0
 40
0.042857965
 40
0.0874854797
 40
0.1353180708
 40
0.1872814984
 40
0.3045423159
 40
0.4382097446
 40
0.5825520305
 40
0.7297107839
 40
0.8713099826
 40
1.0
 40
1.0
 40
1.0
 40
1.0
 10
37.0498634638
 20
21.6610784081
 30
0.0
 10
37.1124662595
 20
21.6972554744
 30
0.0
 10
37.25051157
 20
21.75460122
 30
0.0
 10
37.4783515362
 20
21.7880182709
 30
0.0
 10
37.7230415235
 20
21.7699872802
 30
0.0
 10
38.0785780738
 20
21.6754482654
 30
0.0
 10
38.5330773262
 20
21.4269270568
 30
0.0
 10
39.0352241342
 20
20.9822287475
 30
0.0
 10
39.4791016916
 20
20.414086684
 30
0.0
 10
39.8284514048
 20
19.7683949097
 30
0.0
 10
40.0551505735
 20
19.0981015907
 30
0.0
 10
40.1158936962
 20
18.6415867408
 30
0.0
 10
40.1158936962
 20
18.4244783838
 30
0.0
  0
SPLINE
  5
2FE
100
AcDbEntity
  8
0
100
AcDbSpline
 62
7
  6
BYLAYER
 70
0
 71
3
 72
13
 73
9
 74
0
 42
0.0000001
 43
0.0000001
 44
0.0000000001
 40
0.0
 40
0.0
 40
0.0
 40
0.0
 40
0.1080933406
 40
0.2182330635
 40
0.3322579776
 40
0.4516883534
 40
0.7106279866
 40
1.0
 40
1.0
 40
1.0
 40
1.0
 10
33.0072300154
 20
119.0991533863
 30
0.0
 10
33.1383922459
 20
119.17487548
 30
0.0
 10
33.390632604
 20
119.3507772494
 30
0.0
 10
33.7237341173
 20
119.6788206445
 30
0.0
 10
34.0103732871
 20
120.0679652318
 30
0.0
 10
34.3353577386
 20
120.6789208946
 30
0.0
 10
34.6030383901
 20
121.585399226
 30
0.0
 10
34.6641552594
 20
122.3559471621
 30
0.0
 10
34.6641552594
 20
122.7613897461
 30
0.0
  0
SPLINE
  5
2FF
100
AcDbEntity
  8
0
100
AcDbSpline
 62
7
  6
BYLAYER
 70
0
 71
3
 72
11
 73
7
 74
0
 42
0.0000001
 43
0.0000001
 44
0.0000000001
 40
0.0
 40
0.0
 40
0.0
 40
0.0
 40
0.2177839466
 40
0.4509170841
 40
0.710307871
 40
1.0
 40
1.0
 40
1.0
 40
1.0
 10
31.4312818416
 20
81.3874232737
 30
0.0
 10
31.5778962963
 20
81.472097352
 30
0.0
 10
31.8522493364
 20
81.7026978922
 30
0.0
 10
32.1443049707
 20
82.180246131
 30
0.0
 10
32.3177594413
 20
82.7687363691
 30
0.0
 10
32.3519047801
 20
83.1970526073
 30
0.0
 10
32.3519047801
 20
83.4222641141
 30
0.0
  0
SPLINE
  5
300
100
AcDbEntity
  8
0
100
AcDbSpline
 62
7
  6
BYLAYER
 70
0
 71
3
 72
11
 73
7
 74
0
 42
0.0000001
 43
0.0000001
 44
0.0000000001
 40
0.0
 40
0.0
 40
0.0
 40
0.0
 40
0.2896413964
 40
0.5491107671
 40
0.7822355978
 40
1.0
 40
1.0
 40
1.0
 40
1.0
 10
40.1158936962
 20
18.4244783838
 30
0.0
 10
40.1158936962
 20
18.2958090554
 30
0.0
 10
40.0963359107
 20
18.051049537
 30
0.0
 10
39.997272419
 20
17.7147578253
 30
0.0
 10
39.8304003363
 20
17.4418092778
 30
0.0
 10
39.6735655838
 20
17.3101442953
 30
0.0
 10
39.5898065248
 20
17.2617413925
 30
0.0
  0
SPLINE
  5
301
100
AcDbEntity
  8
0
100
AcDbSpline
 62
7
  6
BYLAYER
 70
0
 71
3
 72
11
 73
7
 74
0
 42
0.0000001
 43
0.0000001
 44
0.0000000001
 40
0.0
 40
0.0
 40
0.0
 40
0.0
 40
0.2896413964
 40
0.5491107671
 40
0.7822355978
 40
1.0
 40
1.0
 40
1.0
 40
1.0
 10
40.1158936962
 20
71.4971354972
 30
0.0
 10
40.1158936962
 20
71.3684661688
 30
0.0
 10
40.0963359107
 20
71.1237066504
 30
0.0
 10
39.997272419
 20
70.7874149387
 30
0.0
 10
39.8304003363
 20
70.5144663912
 30
0.0
 10
39.6735655838
 20
70.3828014087
 30
0.0
 10
39.5898065248
 20
70.3343985059
 30
0.0
  0
SPLINE
  5
302
100
AcDbEntity
  8
0
100
AcDbSpline
 62
7
  6
BYLAYER
 70
0
 71
3
 72
11
 73
7
 74
0
 42
0.0000001
 43
0.0000001
 44
0.0000000001
 40
0.0
 40
0.0
 40
0.0
 40
0.0
 40
0.2897033281
 40
0.5490895198
 40
0.7822165953
 40
1.0
 40
1.0
 40
1.0
 40
1.0
 10
44.3438441648
 20
21.9595064554
 30
0.0
 10
44.3438441648
 20
22.0907774838
 30
0.0
 10
44.363746784
 20
22.3404271584
 30
0.0
 10
44.464851907
 20
22.6834327287
 30
0.0
 10
44.6350793558
 20
22.9617623515
 30
0.0
 10
44.7949745996
 20
23.0961860714
 30
0.0
 10
44.8804363039
 20
23.1455270771
 30
0.0
  0
SPLINE
  5
303
100
AcDbEntity
  8
0
100
AcDbSpline
 62
7
  6
BYLAYER
 70
0
 71
3
 72
12
 73
8
 74
0
 42
0.0000001
 43
0.0000001
 44
0.0000000001
 40
0.0
 40
0.0
 40
0.0
 40
0.0
 40
0.1042457423
 40
0.2111801891
 40
0.4412965097
 40
0.7033297763
 40
1.0
 40
1.0
 40
1.0
 40
1.0
 10
32.374450824
 20
92.1971902681
 30
0.0
 10
32.4601944149
 20
92.246702697
 30
0.0
 10
32.6446167345
 20
92.3295213867
 30
0.0
 10
33.0553133511
 20
92.424108933
 30
0.0
 10
33.6349482969
 20
92.3927117642
 30
0.0
 10
34.3479176578
 20
92.1412143937
 30
0.0
 10
34.8025485562
 20
91.8601465308
 30
0.0
 10
35.0293051161
 20
91.6928756991
 30
0.0
  0
SPLINE
  5
304
100
AcDbEntity
  8
0
100
AcDbSpline
 62
7
  6
BYLAYER
 70
0
 71
3
 72
13
 73
9
 74
0
 42
0.0000001
 43
0.0000001
 44
0.0000000001
 40
0.0
 40
0.0
 40
0.0
 40
0.0
 40
0.1142259181
 40
0.2375599982
 40
0.5000010158
 40
0.7624414734
 40
0.8857749255
 40
1.0
 40
1.0
 40
1.0
 40
1.0
 10
46.1398879113
 20
66.916928126
 30
0.0
 10
46.1398879113
 20
66.7721530043
 30
0.0
 10
46.1664489285
 20
66.470758921
 30
0.0
 10
46.310424191
 20
65.8520474817
 30
0.0
 10
46.6450354753
 20
65.0931906651
 30
0.0
 10
47.1349216547
 20
64.4239830935
 30
0.0
 10
47.5987547431
 20
63.9899458242
 30
0.0
 10
47.8464890708
 20
63.816249315
 30
0.0
 10
47.9718677872
 20
63.7438635169
 30
0.0
  0
SPLINE
  5
305
100
AcDbEntity
  8
0
100
AcDbSpline
 62
7
  6
BYLAYER
 70
0
 71
3
 72
13
 73
9
 74
0
 42
0.0000001
 43
0.0000001
 44
0.0000000001
 40
0.0
 40
0.0
 40
0.0
 40
0.0
 40
0.1142250362
 40
0.2375584228
 40
0.4999988469
 40
0.762439898
 40
0.8857740437
 40
1.0
 40
1.0
 40
1.0
 40
1.0
 10
47.9718677872
 20
63.7646026783
 30
0.0
 10
47.8477183155
 20
63.8362787877
 30
0.0
 10
47.6024128376
 20
64.008272278
 30
0.0
 10
47.1431272605
 20
64.4380541667
 30
0.0
 10
46.6580438584
 20
65.1007007425
 30
0.0
 10
46.3267129437
 20
65.8521178304
 30
0.0
 10
46.1841491693
 20
66.4647636388
 30
0.0
 10
46.1578484983
 20
66.7632030051
 30
0.0
 10
46.1578484983
 20
66.9065588108
 30
0.0
  0
SPLINE
  5
306
100
AcDbEntity
  8
0
100
AcDbSpline
 62
7
  6
BYLAYER
 70
0
 71
3
 72
13
 73
9
 74
0
 42
0.0000001
 43
0.0000001
 44
0.0000000001
 40
0.0
 40
0.0
 40
0.0
 40
0.0
 40
0.1142250362
 40
0.2375584228
 40
0.4999988469
 40
0.762439898
 40
0.8857740437
 40
1.0
 40
1.0
 40
1.0
 40
1.0
 10
46.1758240407
 20
62.7069233661
 30
0.0
 10
46.0504453663
 20
62.7793091399
 30
0.0
 10
45.8027111213
 20
62.9530055361
 30
0.0
 10
45.3388781623
 20
63.387042691
 30
0.0
 10
44.8489919542
 20
64.0562501239
 30
0.0
 10
44.5143805354
 20
64.815106985
 30
0.0
 10
44.3704052385
 20
65.4338185935
 30
0.0
 10
44.3438441648
 20
65.735212805
 30
0.0
 10
44.3438441648
 20
65.8799879752
 30
0.0
  0
SPLINE
  5
307
100
AcDbEntity
  8
0
100
AcDbSpline
 62
7
  6
BYLAYER
 70
0
 71
3
 72
11
 73
7
 74
0
 42
0.0000001
 43
0.0000001
 44
0.0000000001
 40
0.0
 40
0.0
 40
0.0
 40
0.0
 40
0.2187499366
 40
0.4548746929
 40
0.7146297971
 40
1.0
 40
1.0
 40
1.0
 40
1.0
 10
38.1074620544
 20
83.0882956129
 30
0.0
 10
38.2681838545
 20
83.2282452094
 30
0.0
 10
38.5603720086
 20
83.5700453903
 30
0.0
 10
38.8671167828
 20
84.2016069013
 30
0.0
 10
39.0502934191
 20
84.9450422112
 30
0.0
 10
39.087080046
 20
85.4773686695
 30
0.0
 10
39.087080046
 20
85.7553859292
 30
0.0
  0
ENDSEC
  0
SECTION
  2
OBJECTS
  0
DICTIONARY
  5
C
100
AcDbDictionary
280
0
281
1
  3
ACAD_GROUP
350
D
  3
ACAD_MLINESTYLE
350
17
  3
ACAD_LAYOUT
350
1A
  3
ACAD_PLOTSETTINGS
350
19
  3
ACAD_PLOTSTYLENAME
350
E
  0
DICTIONARY
  5
D
102
{ACAD_REACTORS
330
C
102
}
100
AcDbDictionary
280
0
281
1
  0
ACDBDICTIONARYWDFLT
  5
E
102
{ACAD_REACTORS
330
C
102
}
100
AcDbDictionary
281
1
  3
Normal
350
F
100
AcDbDictionaryWithDefault
340
F
  0
DICTIONARY
  5
17
102
{ACAD_REACTORS
330
C
102
}
100
AcDbDictionary
280
0
281
1
  3
Standard
350
18
  0
DICTIONARY
  5
19
102
{ACAD_REACTORS
330
C
102
}
100
AcDbDictionary
281
1
  0
DICTIONARY
  5
1A
102
{ACAD_REACTORS
330
C
102
}
100
AcDbDictionary
281
1
  3
Model
350
308
  3
Layout1
350
309
  0
ACDBPLACEHOLDER
  5
F
102
{ACAD_REACTORS
330
E
102
}
  0
MLINESTYLE
  5
18
102
{ACAD_REACTORS
330
17
102
}
100
AcDbMlineStyle
  2
STANDARD
 70
0
  3

 62
256
 51
90.0
 52
90.0
 71
2
 49
0.5
 62
256
  6
BYLAYER
 49
-0.5
 62
256
  6
BYLAYER
  0
LAYOUT
  5
308
102
{ACAD_REACTORS
330
1A
102
}
100
AcDbPlotSettings
  1

  2
none_device
  4

  6

 40
0.0
 41
0.0
 42
0.0
 43
0.0
 44
210.0
 45
297.0
 46
0.0
 47
0.0
 48
0.0
 49
0.0
140
0.0
141
0.0
142
1.0
143
1.0
 70
1024
 72
1
 73
0
 74
0
  7

 75
0
147
1.0
148
0.0
149
0.0
100
AcDbLayout
  1
Model
 70
0
 71
0
 10
0.0
 20
0.0
 11
210.0
 21
297.0
 12
0.0
 22
0.0
 32
0.0
 14
0.0
 24
0.0
 34
0.0
 15
0.0
 25
0.0
 35
0.0
146
0.0
 13
0.0
 23
0.0
 33
0.0
 16
1.0
 26
0.0
 36
0.0
 17
0.0
 27
1.0
 37
0.0
 76
0
330
210
345
0
346
0
  0
LAYOUT
  5
309
102
{ACAD_REACTORS
330
1A
102
}
100
AcDbPlotSettings
  1

  2
none_device
  4

  6

 40
0.0
 41
0.0
 42
0.0
 43
0.0
 44
210.0
 45
297.0
 46
0.0
 47
0.0
 48
0.0
 49
0.0
140
0.0
141
0.0
142
1.0
143
1.0
 70
0
 72
1
 73
0
 74
0
  7

 75
0
147
1.0
148
0.0
149
0.0
100
AcDbLayout
  1
Layout1
 70
0
 71
1
 10
0.0
 20
0.0
 11
210.0
 21
297.0
 12
0.0
 22
0.0
 32
0.0
 14
0.0
 24
0.0
 34
0.0
 15
0.0
 25
0.0
 35
0.0
146
0.0
 13
0.0
 23
0.0
 33
0.0
 16
1.0
 26
0.0
 36
0.0
 17
0.0
 27
1.0
 37
0.0
 76
0
330
211
345
0
346
0
  0
ENDSEC
  0
EOF
