999
DXF file: C:\Users\sesa63760\Dev\_Creo\CAD\MCADID0003852_3D-CAD\drw0001_1.dxf
999
Pro/ENGINEER 2019471 by Parametric Technology Corporation
  0
SECTION
  2
HEADER
  9
$ACADVER
  1
AC1024
  9
$DWGCODEPAGE
  3
ANSI_1252
  9
$EXTMAX
 10
38.5115457983
 20
54.4663290575
 30
0.0
  9
$EXTMIN
 10
0.0
 20
0.0
 30
0.0
  9
$LIMMIN
 10
0.0
 20
0.0
  9
$LIMMAX
 10
38.5115457983
 20
54.4663290575
  9
$VIEWCTR
 10
19.2557728991
 20
27.2331645288
  9
$VIEWSIZE
 40
54.4663290575
  9
$CLAYER
  8
0
  9
$LTSCALE
 40
3.550397746
  9
$CELTYPE
  6
BYLAYER
  9
$DIMSCALE
 40
1.0
  9
$DIMASZ
 40
0.4584707833
  9
$DIMEXO
 40
1.0
  9
$DIMDLI
 40
2.453002079
  9
$DIMEXE
 40
1.0
  9
$DIMCEN
 40
0.5809741766
  9
$DIMLFAC
 40
1.0
  9
$DIMBLK
  1
_FILLED
  9
$DIMALT
 70
0
  9
$DIMALTF
 40
0.0393700787
  9
$DIMTXT
 40
0.6418590966
  9
$DIMTOL
 70
1
  9
$DIMLIM
 70
0
  9
$DIMTFAC
 40
1.0
  9
$DIMTP
 40
0.01
  9
$DIMTM
 40
0.01
  9
$DIMGAP
 40
0.625
  9
$DIMDSEP
 70
46
  9
$AUNITS
 70
0
  9
$PDMODE
 70
3
  9
$PDSIZE
 40
0.3125
  9
$HANDSEED
  5
255
  9
$TILEMODE
 70
1
  9
$MEASUREMENT
 70
1
  9
$INSUNITS
 70
4
  0
ENDSEC
  0
SECTION
  2
CLASSES
  0
CLASS
  1
ACDBDICTIONARYWDFLT
  2
AcDbDictionaryWithDefault
  3
AutoCAD 2000
 90
0
 91
1
280
0
281
0
  0
CLASS
  1
ACDBPLACEHOLDER
  2
AcDbPlaceHolder
  3
AutoCAD 2000
 90
0
 91
1
280
0
281
0
  0
CLASS
  1
LAYOUT
  2
AcDbLayout
  3
AutoCAD 2000
 90
0
 91
0
280
0
281
0
  0
ENDSEC
  0
SECTION
  2
TABLES
  0
TABLE
  2
VPORT
  5
8
100
AcDbSymbolTable
 70
2
  0
VPORT
  5
1F4
100
AcDbSymbolTableRecord
100
AcDbViewportTableRecord
  2
*ACTIVE
 70
0
 10
0.0
 20
0.0
 11
1.0
 21
1.0
 12
19.2557728991
 22
27.2331645288
 13
0.0
 23
0.0
 14
1.0
 24
1.0
 15
0.0
 25
0.0
 16
0.0
 26
0.0
 36
1.0
 17
0.0
 27
0.0
 37
0.0
 40
54.4663290575
 41
0.7070707071
 42
50.0
 43
0.0
 44
0.0
 50
0.0
 51
0.0
 71
0
 72
100
 73
1
 74
1
 75
0
 76
0
 77
0
 78
0
  0
ENDTAB
  0
TABLE
  2
LTYPE
  5
5
100
AcDbSymbolTable
 70
6
  0
LTYPE
  5
14
100
AcDbSymbolTableRecord
100
AcDbLinetypeTableRecord
  2
BYBLOCK
 70
0
  3

 72
65
 73
0
 40
0.0
  0
LTYPE
  5
15
100
AcDbSymbolTableRecord
100
AcDbLinetypeTableRecord
  2
BYLAYER
 70
0
  3

 72
65
 73
0
 40
0.0
  0
LTYPE
  5
16
100
AcDbSymbolTableRecord
100
AcDbLinetypeTableRecord
  2
CONTINUOUS
 70
64
  3
Solid line
 72
65
 73
0
 40
0.0
  0
LTYPE
  5
1F5
100
AcDbSymbolTableRecord
100
AcDbLinetypeTableRecord
  2
CENTER
 70
64
  3
____ _ ____ _ ____ _ ____ _ ____ _ ____ _ ____
 72
65
 73
4
 40
0.6
 49
0.375
 74
0
 49
-0.075
 74
0
 49
0.075
 74
0
 49
-0.075
 74
0
  0
LTYPE
  5
1F6
100
AcDbSymbolTableRecord
100
AcDbLinetypeTableRecord
  2
HIDDEN
 70
64
  3
- - - - - - - - - - - - - - - - - - - -
 72
65
 73
2
 40
0.2
 49
0.1
 74
0
 49
-0.1
 74
0
  0
LTYPE
  5
1F7
100
AcDbSymbolTableRecord
100
AcDbLinetypeTableRecord
  2
PHANTOM
 70
64
  3
_____ _ _ _____ _ _ _____ _ _ _____
 72
65
 73
6
 40
0.8
 49
0.45
 74
0
 49
-0.05
 74
0
 49
0.1
 74
0
 49
-0.05
 74
0
 49
0.1
 74
0
 49
-0.05
 74
0
  0
LTYPE
  5
1F8
100
AcDbSymbolTableRecord
100
AcDbLinetypeTableRecord
  2
DOT
 70
64
  3
. . . . . . . . . . . . . . . . . . . .
 72
65
 73
2
 40
0.2
 49
0.1
 74
0
 49
-0.1
 74
0
  0
LTYPE
  5
1F9
100
AcDbSymbolTableRecord
100
AcDbLinetypeTableRecord
  2
DASHED
 70
64
  3
- - - - - - - - - - - - - - - - - - - -
 72
65
 73
2
 40
0.2
 49
0.1
 74
0
 49
-0.1
 74
0
  0
ENDTAB
  0
TABLE
  2
LAYER
  5
2
100
AcDbSymbolTable
 70
36
  0
LAYER
  5
10
100
AcDbSymbolTableRecord
100
AcDbLayerTableRecord
  2
0
 70
0
 62
7
  6
CONTINUOUS
370
-3
390
F
  0
LAYER
  5
1FA
100
AcDbSymbolTableRecord
100
AcDbLayerTableRecord
  2
DEFAULT_1
 70
0
 62
7
  6
CENTER
370
-3
390
F
  0
LAYER
  5
1FB
100
AcDbSymbolTableRecord
100
AcDbLayerTableRecord
  2
DEFAULT_2
 70
0
 62
7
  6
HIDDEN
370
-3
390
F
  0
LAYER
  5
1FC
100
AcDbSymbolTableRecord
100
AcDbLayerTableRecord
  2
DEFAULT_3
 70
0
 62
7
  6
PHANTOM
370
-3
390
F
  0
LAYER
  5
1FD
100
AcDbSymbolTableRecord
100
AcDbLayerTableRecord
  2
00_COMPONENTS
 70
0
 62
7
  6
CONTINUOUS
370
-3
390
F
  0
LAYER
  5
1FE
100
AcDbSymbolTableRecord
100
AcDbLayerTableRecord
  2
01_1_DEFAULT_DATUMS
 70
0
 62
7
  6
CONTINUOUS
370
-3
390
F
  0
LAYER
  5
1FF
100
AcDbSymbolTableRecord
100
AcDbLayerTableRecord
  2
01_PLANES
 70
0
 62
7
  6
CONTINUOUS
370
-3
390
F
  0
LAYER
  5
200
100
AcDbSymbolTableRecord
100
AcDbLayerTableRecord
  2
02_COORD_SYS
 70
0
 62
7
  6
CONTINUOUS
370
-3
390
F
  0
LAYER
  5
201
100
AcDbSymbolTableRecord
100
AcDbLayerTableRecord
  2
03_AXES
 70
0
 62
7
  6
CONTINUOUS
370
-3
390
F
  0
LAYER
  5
202
100
AcDbSymbolTableRecord
100
AcDbLayerTableRecord
  2
04_POINTS
 70
0
 62
7
  6
CONTINUOUS
370
-3
390
F
  0
LAYER
  5
203
100
AcDbSymbolTableRecord
100
AcDbLayerTableRecord
  2
05_CURVES
 70
0
 62
7
  6
CONTINUOUS
370
-3
390
F
  0
LAYER
  5
204
100
AcDbSymbolTableRecord
100
AcDbLayerTableRecord
  2
06_SURFS
 70
0
 62
7
  6
CONTINUOUS
370
-3
390
F
  0
LAYER
  5
205
100
AcDbSymbolTableRecord
100
AcDbLayerTableRecord
  2
07_COSMETICS
 70
0
 62
7
  6
CONTINUOUS
370
-3
390
F
  0
LAYER
  5
206
100
AcDbSymbolTableRecord
100
AcDbLayerTableRecord
  2
10_NOTES
 70
0
 62
7
  6
CONTINUOUS
370
-3
390
F
  0
LAYER
  5
207
100
AcDbSymbolTableRecord
100
AcDbLayerTableRecord
  2
11_NOTES_PUB
 70
0
 62
7
  6
CONTINUOUS
370
-3
390
F
  0
LAYER
  5
208
100
AcDbSymbolTableRecord
100
AcDbLayerTableRecord
  2
13_REF_GTOL
 70
0
 62
7
  6
CONTINUOUS
370
-3
390
F
  0
LAYER
  5
209
100
AcDbSymbolTableRecord
100
AcDbLayerTableRecord
  2
16_MISC
 70
0
 62
7
  6
CONTINUOUS
370
-3
390
F
  0
LAYER
  5
20A
100
AcDbSymbolTableRecord
100
AcDbLayerTableRecord
  2
17_NO_PRINT
 70
0
 62
7
  6
CONTINUOUS
370
-3
390
F
  0
LAYER
  5
20B
100
AcDbSymbolTableRecord
100
AcDbLayerTableRecord
  2
18_DATUM_CAMS_JOINTS
 70
0
 62
7
  6
CONTINUOUS
370
-3
390
F
  0
LAYER
  5
20C
100
AcDbSymbolTableRecord
100
AcDbLayerTableRecord
  2
19_DATUM_FUNCTIONAL
 70
0
 62
7
  6
CONTINUOUS
370
-3
390
F
  0
LAYER
  5
20D
100
AcDbSymbolTableRecord
100
AcDbLayerTableRecord
  2
20_DATUM_KINEMATIC_SCHEME
 70
0
 62
7
  6
CONTINUOUS
370
-3
390
F
  0
ENDTAB
  0
TABLE
  2
STYLE
  5
3
100
AcDbSymbolTable
 70
1
  0
STYLE
  5
11
100
AcDbSymbolTableRecord
100
AcDbTextStyleTableRecord
  2
STANDARD
 70
0
 40
0.0
 41
1.0
 50
0.0
 71
0
 42
0.2
  3
ARIAL.TTF
  4

  0
STYLE
  5
20E
100
AcDbSymbolTableRecord
100
AcDbTextStyleTableRecord
  2
TEXTSTYLE_1
 70
0
 40
0.0
 41
0.8
 50
0.0
 71
0
 42
0.2
  3
gdt
  4

  0
ENDTAB
  0
TABLE
  2
VIEW
  5
6
100
AcDbSymbolTable
 70
0
  0
ENDTAB
  0
TABLE
  2
UCS
  5
7
100
AcDbSymbolTable
 70
0
  0
ENDTAB
  0
TABLE
  2
APPID
  5
9
100
AcDbSymbolTable
 70
1
  0
APPID
  5
20F
100
AcDbSymbolTableRecord
100
AcDbRegAppTableRecord
  2
ACAD
 70
0
  0
ENDTAB
  0
TABLE
  2
BLOCK_RECORD
  5
1
100
AcDbSymbolTable
 70
0
  0
BLOCK_RECORD
  5
210
100
AcDbSymbolTableRecord
100
AcDbBlockTableRecord
  2
*Model_Space
  0
BLOCK_RECORD
  5
211
100
AcDbSymbolTableRecord
100
AcDbBlockTableRecord
  2
*Paper_Space
  0
BLOCK_RECORD
  5
212
100
AcDbSymbolTableRecord
100
AcDbBlockTableRecord
  2
_FILLED
  0
ENDTAB
  0
TABLE
  2
DIMSTYLE
  5
A
100
AcDbSymbolTable
 70
1
100
AcDbDimStyleTable
 71
0
  0
DIMSTYLE
105
213
100
AcDbSymbolTableRecord
100
AcDbDimStyleTableRecord
  2
STANDARD
 70
0
  3

  4

 40
1.0
 41
0.4584707833
 42
1.0
 43
0.38
 44
1.0
 45
0.0
 46
0.0
 47
0.01
 48
0.01
140
0.6418590966
141
0.09
142
0.0
143
25.4
144
1.0
145
0.0
146
1.0
147
0.625
 71
1
 72
0
 73
0
 74
0
 75
0
 76
0
 77
1
 78
8
 79
2
170
0
171
1
172
0
173
0
174
0
175
0
176
0
177
0
178
0
270
2
179
2
271
2
272
2
273
2
274
2
275
0
280
0
281
0
282
0
283
1
284
8
285
0
286
0
287
3
288
0
340
11
278
46
341
212
342
212
343
212
344
212
  0
ENDTAB
  0
ENDSEC
  0
SECTION
  2
BLOCKS
  0
BLOCK
  5
20
100
AcDbEntity
  8
0
100
AcDbBlockBegin
  2
*Model_Space
 70
0
 10
0.0
 20
0.0
 30
0.0
  3
*Model_Space
  1

  0
ENDBLK
  5
21
100
AcDbEntity
  8
0
100
AcDbBlockEnd
  0
BLOCK
  5
1C
100
AcDbEntity
  8
0
100
AcDbBlockBegin
  2
*Paper_Space
 70
0
 10
0.0
 20
0.0
 30
0.0
  3
*Paper_Space
  1

  0
ENDBLK
  5
1D
100
AcDbEntity
  8
0
100
AcDbBlockEnd
  0
BLOCK
  5
214
100
AcDbEntity
  8
0
100
AcDbBlockBegin
  2
_FILLED
 70
64
 10
0.0
 20
0.0
  3
_FILLED
  1

  0
SOLID
  5
215
100
AcDbEntity
  8
0
  6
BYBLOCK
 62
0
100
AcDbTrace
 10
0.0
 20
0.0
 11
-1.0
 21
0.25
 12
-1.0
 22
-0.25
 13
-1.0
 23
-0.25
  0
ENDBLK
  5
216
100
AcDbEntity
  8
0
  6
BYBLOCK
 62
0
100
AcDbBlockEnd
  0
ENDSEC
  0
SECTION
  2
ENTITIES
  0
LINE
  5
217
100
AcDbEntity
  8
0
100
AcDbLine
 62
7
  6
BYLAYER
 10
12.3590563133
 20
24.4329178295
 11
12.3590550984
 21
24.5962134727
  0
LINE
  5
218
100
AcDbEntity
  8
0
100
AcDbLine
 62
7
  6
BYLAYER
 10
13.6601048528
 20
22.1794221611
 11
13.8015219988
 21
22.0977725993
  0
LINE
  5
219
100
AcDbEntity
  8
0
100
AcDbLine
 62
7
  6
BYLAYER
 10
32.0147878762
 20
36.634351649
 11
32.3432101297
 21
36.7286866152
  0
LINE
  5
21A
100
AcDbEntity
  8
0
100
AcDbLine
 62
7
  6
BYLAYER
 10
12.781563504
 20
25.5301106637
 11
32.0147878762
 21
36.634351649
  0
LINE
  5
21B
100
AcDbEntity
  8
0
100
AcDbLine
 62
7
  6
BYLAYER
 10
4.674894362
 20
19.6488642225
 11
13.1601404086
 21
24.5477940689
  0
LINE
  5
21C
100
AcDbEntity
  8
0
100
AcDbLine
 62
7
  6
BYLAYER
 10
13.1099857575
 20
25.6244456299
 11
12.781563504
 21
25.5301106637
  0
LINE
  5
21D
100
AcDbEntity
  8
0
100
AcDbLine
 62
7
  6
BYLAYER
 10
5.6748898852
 20
17.9168108302
 11
14.1601359317
 21
22.8157406766
  0
LINE
  5
21E
100
AcDbEntity
  8
0
100
AcDbLine
 62
7
  6
BYLAYER
 10
13.160153447
 20
24.5477715316
 11
13.3211317093
 21
24.5940366994
  0
LINE
  5
21F
100
AcDbEntity
  8
0
100
AcDbLine
 62
7
  6
BYLAYER
 10
14.8215543712
 20
21.9967217434
 11
34.0547787434
 21
33.1009627287
  0
LINE
  5
220
100
AcDbEntity
  8
0
100
AcDbLine
 62
7
  6
BYLAYER
 10
4.8358856628
 20
19.6951068529
 11
4.6748911079
 21
19.64886986
  0
LINE
  5
221
100
AcDbEntity
  8
0
100
AcDbLine
 62
7
  6
BYLAYER
 10
14.4931321177
 20
21.9023867772
 11
14.8215543712
 21
21.9967217434
  0
LINE
  5
222
100
AcDbEntity
  8
0
100
AcDbLine
 62
7
  6
BYLAYER
 10
5.5138985844
 20
17.8705681997
 11
5.6748840806
 21
17.9168208713
  0
ARC
  5
223
100
AcDbEntity
  8
0
100
AcDbCircle
 62
7
  6
BYLAYER
 10
31.1533985914
 20
33.8020532211
 40
3.3390070386
100
AcDbArc
 50
37.1828125661
 51
37.979362478
  0
ARC
  5
224
100
AcDbEntity
  8
0
100
AcDbCircle
 62
7
  6
BYLAYER
 10
31.5122361826
 20
34.0139568145
 40
2.9698007148
100
AcDbArc
 50
37.9786630547
 51
39.1537324467
  0
ARC
  5
225
100
AcDbEntity
  8
0
100
AcDbCircle
 62
7
  6
BYLAYER
 10
31.902928527
 20
34.6008660909
 40
2.2398804716
100
AcDbArc
 50
54.0038415167
 51
55.4977040647
  0
ARC
  5
226
100
AcDbEntity
  8
0
100
AcDbCircle
 62
7
  6
BYLAYER
 10
32.392343927
 20
34.0319275651
 40
2.0849440946
100
AcDbArc
 50
0.0806021487
 51
4.4665486094
  0
ARC
  5
227
100
AcDbEntity
  8
0
100
AcDbCircle
 62
7
  6
BYLAYER
 10
32.0125790099
 20
34.7648443576
 40
2.042636626
100
AcDbArc
 50
55.4270075389
 51
59.9701026591
  0
ARC
  5
228
100
AcDbEntity
  8
0
100
AcDbCircle
 62
7
  6
BYLAYER
 10
32.5642911233
 20
35.2004395661
 40
1.4954819423
100
AcDbArc
 50
62.5855406055
 51
64.9408297291
  0
ARC
  5
229
100
AcDbEntity
  8
0
100
AcDbCircle
 62
7
  6
BYLAYER
 10
32.3112502343
 20
35.3936902857
 40
1.3448497871
100
AcDbArc
 50
70.8823762541
 51
73.2216054623
  0
ARC
  5
22A
100
AcDbEntity
  8
0
100
AcDbCircle
 62
7
  6
BYLAYER
 10
32.8128909654
 20
35.8380861049
 40
0.8442899076
100
AcDbArc
 50
93.0530408749
 51
97.0713854484
  0
ARC
  5
22B
100
AcDbEntity
  8
0
100
AcDbCircle
 62
7
  6
BYLAYER
 10
22.6397512229
 20
27.380073049
 40
0.2321907705
100
AcDbArc
 50
60.0992920923
 51
73.0645881382
  0
SPLINE
  5
22C
100
AcDbEntity
  8
0
100
AcDbSpline
 62
7
  6
BYLAYER
 70
0
 71
3
 72
22
 73
18
 74
0
 42
0.0000001
 43
0.0000001
 44
0.0000000001
 40
0.0
 40
0.0
 40
0.0
 40
0.0
 40
0.0596312126
 40
0.1227594385
 40
0.1887614187
 40
0.2570271227
 40
0.3268985284
 40
0.3976137341
 40
0.4683803934
 40
0.5384137414
 40
0.6069514055
 40
0.6732908413
 40
0.7367984185
 40
0.7969652888
 40
0.8534209739
 40
0.9060409161
 40
1.0
 40
1.0
 40
1.0
 40
1.0
 10
4.4677823985
 20
19.1910782808
 30
0.0
 10
4.4677823985
 20
19.1547887788
 30
0.0
 10
4.4721114345
 20
19.080042461
 30
0.0
 10
4.4899587259
 20
18.9664071606
 30
0.0
 10
4.5192028454
 20
18.8497366587
 30
0.0
 10
4.5592609642
 20
18.7320012502
 30
0.0
 10
4.6095275624
 20
18.6151283634
 30
0.0
 10
4.66910593
 20
18.5010017893
 30
0.0
 10
4.7370914903
 20
18.3915586705
 30
0.0
 10
4.8122845212
 20
18.2885682341
 30
0.0
 10
4.8935092353
 20
18.1937750872
 30
0.0
 10
4.9793642169
 20
18.1086907445
 30
0.0
 10
5.068516049
 20
18.0347804216
 30
0.0
 10
5.1594096688
 20
17.9731897688
 30
0.0
 10
5.2507628006
 20
17.9249814001
 30
0.0
 10
5.3664251829
 20
17.8812757247
 30
0.0
 10
5.4567999196
 20
17.8675145372
 30
0.0
 10
5.5138985844
 20
17.8705681997
 30
0.0
  0
SPLINE
  5
22D
100
AcDbEntity
  8
0
100
AcDbSpline
 62
7
  6
BYLAYER
 70
0
 71
3
 72
9
 73
5
 74
0
 42
0.0000001
 43
0.0000001
 44
0.0000000001
 40
0.0
 40
0.0
 40
0.0
 40
0.0
 40
0.4814183968
 40
1.0
 40
1.0
 40
1.0
 40
1.0
 10
32.3432101297
 20
36.7286866152
 30
0.0
 10
32.401016527
 20
36.7317781275
 30
0.0
 10
32.5219220753
 20
36.7258206233
 30
0.0
 10
32.6397639801
 20
36.6992819081
 30
0.0
 10
32.699469077
 20
36.6812876917
 30
0.0
  0
SPLINE
  5
22E
100
AcDbEntity
  8
0
100
AcDbSpline
 62
7
  6
BYLAYER
 70
0
 71
3
 72
9
 73
5
 74
0
 42
0.0000001
 43
0.0000001
 44
0.0000000001
 40
0.0
 40
0.0
 40
0.0
 40
0.0
 40
0.2400603092
 40
1.0
 40
1.0
 40
1.0
 40
1.0
 10
32.7517000281
 20
36.6643692101
 30
0.0
 10
32.7753120374
 20
36.6561933644
 30
0.0
 10
32.8727523057
 20
36.6194995411
 30
0.0
 10
32.9663196469
 20
36.5728412566
 30
0.0
 10
33.0348202475
 20
36.5332863945
 30
0.0
  0
SPLINE
  5
22F
100
AcDbEntity
  8
0
100
AcDbSpline
 62
7
  6
BYLAYER
 70
0
 71
3
 72
9
 73
5
 74
0
 42
0.0000001
 43
0.0000001
 44
0.0000000001
 40
0.0
 40
0.0
 40
0.0
 40
0.0
 40
0.248577497
 40
1.0
 40
1.0
 40
1.0
 40
1.0
 10
22.2843185936
 20
26.6984411925
 30
0.0
 10
22.2874282767
 20
26.6966456964
 30
0.0
 10
22.3001669634
 20
26.689824574
 30
0.0
 10
22.3137884352
 20
26.6846662651
 30
0.0
 10
22.3242522665
 20
26.6817798691
 30
0.0
  0
SPLINE
  5
230
100
AcDbEntity
  8
0
100
AcDbSpline
 62
7
  6
BYLAYER
 70
0
 71
3
 72
11
 73
7
 74
0
 42
0.0000001
 43
0.0000001
 44
0.0000000001
 40
0.0
 40
0.0
 40
0.0
 40
0.0
 40
0.2195120931
 40
0.4567031506
 40
0.7166562671
 40
1.0
 40
1.0
 40
1.0
 40
1.0
 10
22.3242522665
 20
26.6817798691
 30
0.0
 10
22.3397233907
 20
26.6775122362
 30
0.0
 10
22.3732358426
 20
26.6730559559
 30
0.0
 10
22.4257363458
 20
26.6784044927
 30
0.0
 10
22.480575361
 20
26.6952175246
 30
0.0
 10
22.5163629733
 20
26.7128283862
 30
0.0
 10
22.5343033975
 20
26.7231862331
 30
0.0
  0
SPLINE
  5
231
100
AcDbEntity
  8
0
100
AcDbSpline
 62
7
  6
BYLAYER
 70
0
 71
3
 72
14
 73
10
 74
0
 42
0.0000001
 43
0.0000001
 44
0.0000000001
 40
0.0
 40
0.0
 40
0.0
 40
0.0
 40
0.1302738288
 40
0.2618945603
 40
0.5227807041
 40
0.6495284399
 40
0.772013654
 40
0.8891331949
 40
1.0
 40
1.0
 40
1.0
 40
1.0
 10
33.8531518127
 20
35.8414770739
 30
0.0
 10
33.9009081382
 20
35.7803085057
 30
0.0
 10
33.9921974397
 20
35.6535649375
 30
0.0
 10
34.1551375314
 20
35.387964166
 30
0.0
 10
34.2877243271
 20
35.1069495909
 30
0.0
 10
34.3848120412
 20
34.8187398817
 30
0.0
 10
34.4373743725
 20
34.6066408676
 30
0.0
 10
34.4695539157
 20
34.4000855468
 30
0.0
 10
34.4772779608
 20
34.2642004822
 30
0.0
 10
34.4772818946
 20
34.198157889
 30
0.0
  0
SPLINE
  5
232
100
AcDbEntity
  8
0
100
AcDbSpline
 62
7
  6
BYLAYER
 70
0
 71
3
 72
22
 73
18
 74
0
 42
0.0000001
 43
0.0000001
 44
0.0000000001
 40
0.0
 40
0.0
 40
0.0
 40
0.0
 40
0.0512185067
 40
0.1046840364
 40
0.1610434285
 40
0.2205939334
 40
0.2833124515
 40
0.348871808
 40
0.4167081629
 40
0.486085166
 40
0.5561503594
 40
0.6260101925
 40
0.6947803651
 40
0.7616549105
 40
0.8259696282
 40
0.8872567108
 40
1.0
 40
1.0
 40
1.0
 40
1.0
 10
34.4698610647
 20
33.7267425151
 30
0.0
 10
34.5038558388
 20
33.7785007515
 30
0.0
 10
34.5620479041
 20
33.8920302031
 30
0.0
 10
34.6173544766
 20
34.0796421705
 30
0.0
 10
34.6437474964
 20
34.2834559026
 30
0.0
 10
34.6423260842
 20
34.4999793034
 30
0.0
 10
34.6141130339
 20
34.7257743224
 30
0.0
 10
34.5601997873
 20
34.9570697278
 30
0.0
 10
34.4819481273
 20
35.1897666205
 30
0.0
 10
34.3809978007
 20
35.4194879032
 30
0.0
 10
34.2594395476
 20
35.6417817252
 30
0.0
 10
34.1197108353
 20
35.8522485167
 30
0.0
 10
33.964490112
 20
36.0466873918
 30
0.0
 10
33.7967488282
 20
36.2212415369
 30
0.0
 10
33.6192495367
 20
36.3725481575
 30
0.0
 10
33.3806535526
 20
36.5343990667
 30
0.0
 10
33.1844752702
 20
36.6207385632
 30
0.0
 10
33.0520119731
 20
36.6528845191
 30
0.0
  0
SPLINE
  5
233
100
AcDbEntity
  8
0
100
AcDbSpline
 62
7
  6
BYLAYER
 70
0
 71
3
 72
9
 73
5
 74
0
 42
0.0000001
 43
0.0000001
 44
0.0000000001
 40
0.0
 40
0.0
 40
0.0
 40
0.0
 40
0.5080086267
 40
1.0
 40
1.0
 40
1.0
 40
1.0
 10
33.0520119731
 20
36.6528845191
 30
0.0
 10
33.004906299
 20
36.6643160398
 30
0.0
 10
32.9106165801
 20
36.6809340228
 30
0.0
 10
32.8148013497
 20
36.6836847115
 30
0.0
 10
32.7679237448
 20
36.6811776759
 30
0.0
  0
SPLINE
  5
234
100
AcDbEntity
  8
0
100
AcDbSpline
 62
7
  6
BYLAYER
 70
0
 71
3
 72
18
 73
14
 74
0
 42
0.0000001
 43
0.0000001
 44
0.0000000001
 40
0.0
 40
0.0
 40
0.0
 40
0.0
 40
0.0623710931
 40
0.128856441
 40
0.2704466157
 40
0.4175574884
 40
0.5618675243
 40
0.6955087454
 40
0.8127497792
 40
0.8647061868
 40
0.9125264144
 40
0.9571478736
 40
1.0
 40
1.0
 40
1.0
 40
1.0
 10
22.5343033975
 20
26.7231862331
 30
0.0
 10
22.5522452932
 20
26.7335449296
 30
0.0
 10
22.5879176183
 20
26.7574186293
 30
0.0
 10
22.65677889
 20
26.8153157838
 30
0.0
 10
22.735152033
 20
26.9045040775
 30
0.0
 10
22.8107953252
 20
27.0275652107
 30
0.0
 10
22.8639729075
 20
27.1591591441
 30
0.0
 10
22.8903614571
 20
27.2885335815
 30
0.0
 10
22.8879772067
 20
27.3904718925
 30
0.0
 10
22.8691336113
 20
27.4604015449
 30
0.0
 10
22.8480967832
 20
27.5038758178
 30
0.0
 10
22.8200005491
 20
27.5394527605
 30
0.0
 10
22.796614976
 20
27.5573163492
 30
0.0
 10
22.7842882013
 20
27.5644336908
 30
0.0
  0
SPLINE
  5
235
100
AcDbEntity
  8
0
100
AcDbSpline
 62
7
  6
BYLAYER
 70
0
 71
3
 72
10
 73
6
 74
0
 42
0.0000001
 43
0.0000001
 44
0.0000000001
 40
0.0
 40
0.0
 40
0.0
 40
0.0
 40
0.2741606715
 40
0.5320933671
 40
1.0
 40
1.0
 40
1.0
 40
1.0
 10
34.4772859585
 20
34.0348606069
 30
0.0
 10
34.4772895788
 20
33.9747035264
 30
0.0
 10
34.4717932944
 20
33.8577815406
 30
0.0
 10
34.4380275562
 20
33.6408513136
 30
0.0
 10
34.3851536788
 20
33.4877323841
 30
0.0
 10
34.3360487755
 20
33.3975675171
 30
0.0
  0
SPLINE
  5
236
100
AcDbEntity
  8
0
100
AcDbSpline
 62
7
  6
BYLAYER
 70
0
 71
3
 72
11
 73
7
 74
0
 42
0.0000001
 43
0.0000001
 44
0.0000000001
 40
0.0
 40
0.0
 40
0.0
 40
0.0
 40
0.2611974087
 40
0.5130289453
 40
0.7582214269
 40
1.0
 40
1.0
 40
1.0
 40
1.0
 10
34.3360487755
 20
33.3975675171
 30
0.0
 10
34.3188220403
 20
33.3659363319
 30
0.0
 10
34.2812647844
 20
33.3057297361
 30
0.0
 10
34.2146686723
 20
33.2247247419
 30
0.0
 10
34.1394089109
 20
33.1555640683
 30
0.0
 10
34.0836519632
 20
33.1176331932
 30
0.0
 10
34.0547792957
 20
33.1009617721
 30
0.0
  0
SPLINE
  5
237
100
AcDbEntity
  8
0
100
AcDbSpline
 62
7
  6
BYLAYER
 70
0
 71
3
 72
15
 73
11
 74
0
 42
0.0000001
 43
0.0000001
 44
0.0000000001
 40
0.0
 40
0.0
 40
0.0
 40
0.0
 40
0.1080033174
 40
0.2180453049
 40
0.3319870011
 40
0.4513484363
 40
0.5772718325
 40
0.7104947627
 40
0.8513947606
 40
1.0
 40
1.0
 40
1.0
 40
1.0
 10
12.7815629505
 20
25.5301116224
 30
0.0
 10
12.7481194786
 20
25.5108009657
 30
0.0
 10
12.6838121485
 20
25.4659378181
 30
0.0
 10
12.5988607651
 20
25.3823014286
 30
0.0
 10
12.5257730591
 20
25.28306052
 30
0.0
 10
12.4652594514
 20
25.1692962876
 30
0.0
 10
12.4177970024
 20
25.0421792495
 30
0.0
 10
12.3837299355
 20
24.9029488835
 30
0.0
 10
12.3633452052
 20
24.7529370114
 30
0.0
 10
12.3590531317
 20
24.6493488921
 30
0.0
 10
12.3590562042
 20
24.5962128344
 30
0.0
  0
SPLINE
  5
238
100
AcDbEntity
  8
0
100
AcDbSpline
 62
7
  6
BYLAYER
 70
0
 71
3
 72
9
 73
5
 74
0
 42
0.0000001
 43
0.0000001
 44
0.0000000001
 40
0.0
 40
0.0
 40
0.0
 40
0.0
 40
0.2415520694
 40
1.0
 40
1.0
 40
1.0
 40
1.0
 10
12.3590562759
 20
24.432917851
 30
0.0
 10
12.3590564541
 20
24.4084264317
 30
0.0
 10
12.3612250795
 20
24.3070393288
 30
0.0
 10
12.3716291287
 20
24.2058851112
 30
0.0
 10
12.3833673318
 20
24.1298857955
 30
0.0
  0
SPLINE
  5
239
100
AcDbEntity
  8
0
100
AcDbSpline
 62
7
  6
BYLAYER
 70
0
 71
3
 72
9
 73
5
 74
0
 42
0.0000001
 43
0.0000001
 44
0.0000000001
 40
0.0
 40
0.0
 40
0.0
 40
0.0
 40
0.2581844489
 40
1.0
 40
1.0
 40
1.0
 40
1.0
 10
13.4064548015
 20
22.3547019333
 30
0.0
 10
13.4271162114
 20
22.3380305433
 30
0.0
 10
13.5082765343
 20
22.2748905644
 30
0.0
 10
13.5940500065
 20
22.2175802724
 30
0.0
 10
13.6601048699
 20
22.1794316777
 30
0.0
  0
SPLINE
  5
23A
100
AcDbEntity
  8
0
100
AcDbSpline
 62
7
  6
BYLAYER
 70
0
 71
3
 72
9
 73
5
 74
0
 42
0.0000001
 43
0.0000001
 44
0.0000000001
 40
0.0
 40
0.0
 40
0.0
 40
0.0
 40
0.5201980068
 40
1.0
 40
1.0
 40
1.0
 40
1.0
 10
13.8015219995
 20
22.09778391
 30
0.0
 10
13.8687430806
 20
22.0589692214
 30
0.0
 10
14.002627662
 20
21.9920140493
 30
0.0
 10
14.1450772603
 20
21.9451541291
 30
0.0
 10
14.2148208038
 20
21.9289787451
 30
0.0
  0
SPLINE
  5
23B
100
AcDbEntity
  8
0
100
AcDbSpline
 62
7
  6
BYLAYER
 70
0
 71
3
 72
9
 73
5
 74
0
 42
0.0000001
 43
0.0000001
 44
0.0000000001
 40
0.0
 40
0.0
 40
0.0
 40
0.0
 40
0.2613726631
 40
1.0
 40
1.0
 40
1.0
 40
1.0
 10
14.2148208038
 20
21.9289787451
 30
0.0
 10
14.2385917767
 20
21.9234656238
 30
0.0
 10
14.3301373555
 20
21.9051853689
 30
0.0
 10
14.4242718021
 20
21.8987040963
 30
0.0
 10
14.4931321177
 20
21.9023867772
 30
0.0
  0
SPLINE
  5
23C
100
AcDbEntity
  8
0
100
AcDbSpline
 62
7
  6
BYLAYER
 70
0
 71
3
 72
13
 73
9
 74
0
 42
0.0000001
 43
0.0000001
 44
0.0000000001
 40
0.0
 40
0.0
 40
0.0
 40
0.0
 40
0.1081291378
 40
0.2182429698
 40
0.3322250361
 40
0.4516480913
 40
0.7107031641
 40
1.0
 40
1.0
 40
1.0
 40
1.0
 10
4.6748948557
 20
19.6488633681
 30
0.0
 10
4.6584936395
 20
19.6393962083
 30
0.0
 10
4.6269773993
 20
19.6173868114
 30
0.0
 10
4.585328724
 20
19.576403842
 30
0.0
 10
4.549514379
 20
19.5277647232
 30
0.0
 10
4.5088887475
 20
19.4513853282
 30
0.0
 10
4.4754421401
 20
19.3380668365
 30
0.0
 10
4.4677823985
 20
19.2417449598
 30
0.0
 10
4.4677823985
 20
19.1910782808
 30
0.0
  0
SPLINE
  5
23D
100
AcDbEntity
  8
0
100
AcDbSpline
 62
7
  6
BYLAYER
 70
0
 71
3
 72
11
 73
7
 74
0
 42
0.0000001
 43
0.0000001
 44
0.0000000001
 40
0.0
 40
0.0
 40
0.0
 40
0.0
 40
0.2322591244
 40
0.4776310158
 40
0.734383829
 40
1.0
 40
1.0
 40
1.0
 40
1.0
 10
33.1762373765
 20
36.4516353787
 30
0.0
 10
33.2336008106
 20
36.4185115006
 30
0.0
 10
33.3477599211
 20
36.3436505808
 30
0.0
 10
33.511027801
 20
36.2120078734
 30
0.0
 10
33.6688214534
 20
36.0598305923
 30
0.0
 10
33.7673501881
 20
35.947841743
 30
0.0
 10
33.8151818466
 20
35.8890988237
 30
0.0
  0
SPLINE
  5
23E
100
AcDbEntity
  8
0
100
AcDbSpline
 62
7
  6
BYLAYER
 70
0
 71
3
 72
11
 73
7
 74
0
 42
0.0000001
 43
0.0000001
 44
0.0000000001
 40
0.0
 40
0.0
 40
0.0
 40
0.0
 40
0.2689308252
 40
0.5237772364
 40
0.766239184
 40
1.0
 40
1.0
 40
1.0
 40
1.0
 10
22.483233479
 20
27.5691732144
 30
0.0
 10
22.5012974752
 20
27.5796024052
 30
0.0
 10
22.5383114824
 20
27.5969586988
 30
0.0
 10
22.5962616803
 20
27.6117767249
 30
0.0
 10
22.6533366003
 20
27.6141372753
 30
0.0
 10
22.6900434547
 20
27.6074791119
 30
0.0
 10
22.7073868852
 20
27.6021945724
 30
0.0
  0
SPLINE
  5
23F
100
AcDbEntity
  8
0
100
AcDbSpline
 62
7
  6
BYLAYER
 70
0
 71
3
 72
9
 73
5
 74
0
 42
0.0000001
 43
0.0000001
 44
0.0000000001
 40
0.0
 40
0.0
 40
0.0
 40
0.0
 40
0.2378915085
 40
1.0
 40
1.0
 40
1.0
 40
1.0
 10
32.7558253604
 20
36.6649780256
 30
0.0
 10
32.7787180112
 20
36.6648485599
 30
0.0
 10
32.8749191504
 20
36.6601159945
 30
0.0
 10
32.9700063268
 20
36.639424664
 30
0.0
 10
33.0399039853
 20
36.6172194278
 30
0.0
  0
SPLINE
  5
240
100
AcDbEntity
  8
0
100
AcDbSpline
 62
7
  6
BYLAYER
 70
0
 71
3
 72
9
 73
5
 74
0
 42
0.0000001
 43
0.0000001
 44
0.0000000001
 40
0.0
 40
0.0
 40
0.0
 40
0.0
 40
0.2434555533
 40
1.0
 40
1.0
 40
1.0
 40
1.0
 10
33.0399039853
 20
36.6172194278
 30
0.0
 10
33.0530243768
 20
36.613051314
 30
0.0
 10
33.1066137886
 20
36.5949839787
 30
0.0
 10
33.1589532954
 20
36.5732681654
 30
0.0
 10
33.1977084741
 20
36.555153078
 30
0.0
  0
SPLINE
  5
241
100
AcDbEntity
  8
0
100
AcDbSpline
 62
7
  6
BYLAYER
 70
0
 71
3
 72
11
 73
7
 74
0
 42
0.0000001
 43
0.0000001
 44
0.0000000001
 40
0.0
 40
0.0
 40
0.0
 40
0.0
 40
0.2293155654
 40
0.4740540641
 40
0.7319353855
 40
1.0
 40
1.0
 40
1.0
 40
1.0
 10
33.2528466361
 20
36.5279777183
 30
0.0
 10
33.3161881698
 20
36.4951516933
 30
0.0
 10
33.4425904148
 20
36.4183083612
 30
0.0
 10
33.622786657
 20
36.2784314035
 30
0.0
 10
33.7966175472
 20
36.1127583242
 30
0.0
 10
33.9042702702
 20
35.9891943962
 30
0.0
 10
33.956313126
 20
35.9240280734
 30
0.0
  0
SPLINE
  5
242
100
AcDbEntity
  8
0
100
AcDbSpline
 62
7
  6
BYLAYER
 70
0
 71
3
 72
15
 73
11
 74
0
 42
0.0000001
 43
0.0000001
 44
0.0000000001
 40
0.0
 40
0.0
 40
0.0
 40
0.0
 40
0.1346418962
 40
0.2706888628
 40
0.4058838463
 40
0.5380137026
 40
0.6650290922
 40
0.7851587838
 40
0.8970612761
 40
1.0
 40
1.0
 40
1.0
 40
1.0
 10
33.956313126
 20
35.9240280734
 30
0.0
 10
34.0144827366
 20
35.8511900332
 30
0.0
 10
34.1244579815
 20
35.6990524859
 30
0.0
 10
34.2678474631
 20
35.4569654754
 30
0.0
 10
34.3879421455
 20
35.2044038959
 30
0.0
 10
34.4818010511
 20
34.9475890611
 30
0.0
 10
34.5471411513
 20
34.6927871539
 30
0.0
 10
34.5823258027
 20
34.4461339729
 30
0.0
 10
34.5864603227
 20
34.2136404658
 30
0.0
 10
34.5675349967
 20
34.0653458649
 30
0.0
 10
34.5521581604
 20
33.9957580086
 30
0.0
  0
SPLINE
  5
243
100
AcDbEntity
  8
0
100
AcDbSpline
 62
7
  6
BYLAYER
 70
0
 71
3
 72
9
 73
5
 74
0
 42
0.0000001
 43
0.0000001
 44
0.0000000001
 40
0.0
 40
0.0
 40
0.0
 40
0.0
 40
0.259815871
 40
1.0
 40
1.0
 40
1.0
 40
1.0
 10
34.5521581604
 20
33.9957580086
 30
0.0
 10
34.5480736463
 20
33.9772735442
 30
0.0
 10
34.5306395088
 20
33.9065317043
 30
0.0
 10
34.5060691259
 20
33.8374469056
 30
0.0
 10
34.4833431705
 20
33.7885387146
 30
0.0
  0
SPLINE
  5
244
100
AcDbEntity
  8
0
100
AcDbSpline
 62
7
  6
BYLAYER
 70
0
 71
3
 72
23
 73
19
 74
0
 42
0.0000001
 43
0.0000001
 44
0.0000000001
 40
0.0
 40
0.0
 40
0.0
 40
0.0
 40
0.0474306211
 40
0.0931509527
 40
0.1385667703
 40
0.1852250136
 40
0.2344518141
 40
0.2872195888
 40
0.3441044289
 40
0.4053168287
 40
0.4707633619
 40
0.540097416
 40
0.6127902237
 40
0.6881672534
 40
0.7654353109
 40
0.8437520397
 40
0.9222747209
 40
1.0
 40
1.0
 40
1.0
 40
1.0
 10
14.2839100581
 20
22.0031918118
 30
0.0
 10
14.3322970007
 20
22.0057795674
 30
0.0
 10
14.4271967252
 20
22.0200302709
 30
0.0
 10
14.5604062136
 20
22.0712737215
 30
0.0
 10
14.6778339405
 20
22.1511545009
 30
0.0
 10
14.7768719105
 20
22.2577111933
 30
0.0
 10
14.8559431483
 20
22.3884688984
 30
0.0
 10
14.9139576001
 20
22.5408676251
 30
0.0
 10
14.9503238529
 20
22.7122024995
 30
0.0
 10
14.9646795348
 20
22.8996411211
 30
0.0
 10
14.9568632859
 20
23.1001081588
 30
0.0
 10
14.9271120187
 20
23.3102984476
 30
0.0
 10
14.8759266837
 20
23.5267171769
 30
0.0
 10
14.8041579302
 20
23.7457229286
 30
0.0
 10
14.7130721573
 20
23.9636441401
 30
0.0
 10
14.6041458821
 20
24.1768299243
 30
0.0
 10
14.4792379904
 20
24.3815885923
 30
0.0
 10
14.3859514778
 20
24.511349083
 30
0.0
 10
14.3370859056
 20
24.5739384271
 30
0.0
  0
SPLINE
  5
245
100
AcDbEntity
  8
0
100
AcDbSpline
 62
7
  6
BYLAYER
 70
0
 71
3
 72
18
 73
14
 74
0
 42
0.0000001
 43
0.0000001
 44
0.0000000001
 40
0.0
 40
0.0
 40
0.0
 40
0.0
 40
0.0623710931
 40
0.128856441
 40
0.2704466157
 40
0.4175574884
 40
0.5618675243
 40
0.6955087454
 40
0.8127497792
 40
0.8647061868
 40
0.9125264144
 40
0.9571478736
 40
1.0
 40
1.0
 40
1.0
 40
1.0
 10
22.5343033975
 20
27.5396886502
 30
0.0
 10
22.5163615017
 20
27.5293299537
 30
0.0
 10
22.4806891767
 20
27.505456254
 30
0.0
 10
22.4118279049
 20
27.4475590995
 30
0.0
 10
22.3334547619
 20
27.3583708058
 30
0.0
 10
22.2578114697
 20
27.2353096726
 30
0.0
 10
22.2046338874
 20
27.1037157392
 30
0.0
 10
22.1782453379
 20
26.9743413018
 30
0.0
 10
22.1806295882
 20
26.8724029908
 30
0.0
 10
22.1994731837
 20
26.8024733384
 30
0.0
 10
22.2205100117
 20
26.7589990655
 30
0.0
 10
22.2486062458
 20
26.7234221228
 30
0.0
 10
22.271991819
 20
26.7055585341
 30
0.0
 10
22.2843185936
 20
26.6984411925
 30
0.0
  0
SPLINE
  5
246
100
AcDbEntity
  8
0
100
AcDbSpline
 62
7
  6
BYLAYER
 70
0
 71
3
 72
15
 73
11
 74
0
 42
0.0000001
 43
0.0000001
 44
0.0000000001
 40
0.0
 40
0.0
 40
0.0
 40
0.0
 40
0.1199010715
 40
0.2356305203
 40
0.3500121559
 40
0.4662957834
 40
0.5874524793
 40
0.7157999334
 40
0.8529979037
 40
1.0
 40
1.0
 40
1.0
 40
1.0
 10
13.0363662822
 20
25.3603429338
 30
0.0
 10
12.9922972946
 20
25.3579861043
 30
0.0
 10
12.9058372439
 20
25.3457468575
 30
0.0
 10
12.7834339353
 20
25.3029022468
 30
0.0
 10
12.673588203
 20
25.2363507526
 30
0.0
 10
12.5782911496
 20
25.1473931427
 30
0.0
 10
12.4989311149
 20
25.0376922818
 30
0.0
 10
12.4364669322
 20
24.9090906624
 30
0.0
 10
12.3915551015
 20
24.7635163394
 30
0.0
 10
12.3742397323
 20
24.660035601
 30
0.0
 10
12.3683065731
 20
24.6062548541
 30
0.0
  0
SPLINE
  5
247
100
AcDbEntity
  8
0
100
AcDbSpline
 62
7
  6
BYLAYER
 70
0
 71
3
 72
9
 73
5
 74
0
 42
0.0000001
 43
0.0000001
 44
0.0000000001
 40
0.0
 40
0.0
 40
0.0
 40
0.0
 40
0.2443448839
 40
1.0
 40
1.0
 40
1.0
 40
1.0
 10
12.3683065731
 20
24.6062548541
 30
0.0
 10
12.3667559144
 20
24.5921990066
 30
0.0
 10
12.3612559921
 20
24.5345827879
 30
0.0
 10
12.3590562759
 20
24.4766628616
 30
0.0
 10
12.3590562759
 20
24.4329303611
 30
0.0
  0
SPLINE
  5
248
100
AcDbEntity
  8
0
100
AcDbSpline
 62
7
  6
BYLAYER
 70
0
 71
3
 72
15
 73
11
 74
0
 42
0.0000001
 43
0.0000001
 44
0.0000000001
 40
0.0
 40
0.0
 40
0.0
 40
0.0
 40
0.1483236407
 40
0.2920812578
 40
0.4296603528
 40
0.5599996101
 40
0.6822944197
 40
0.7961507001
 40
0.9018095172
 40
1.0
 40
1.0
 40
1.0
 40
1.0
 10
14.3370859056
 20
24.5739384271
 30
0.0
 10
14.2892267226
 20
24.6352387402
 30
0.0
 10
14.1902504881
 20
24.7523561166
 30
0.0
 10
14.0310410399
 20
24.9121135694
 30
0.0
 10
13.8654662192
 20
25.0510864016
 30
0.0
 10
13.6963497376
 20
25.1668864333
 30
0.0
 10
13.5264814366
 20
25.2576509386
 30
0.0
 10
13.358514513
 20
25.321759123
 30
0.0
 10
13.1952566776
 20
25.3579461681
 30
0.0
 10
13.0877769176
 20
25.3630923979
 30
0.0
 10
13.0363662822
 20
25.3603429338
 30
0.0
  0
SPLINE
  5
249
100
AcDbEntity
  8
0
100
AcDbSpline
 62
7
  6
BYLAYER
 70
0
 71
3
 72
20
 73
16
 74
0
 42
0.0000001
 43
0.0000001
 44
0.0000000001
 40
0.0
 40
0.0
 40
0.0
 40
0.0
 40
0.0437220548
 40
0.088532618
 40
0.1353888022
 40
0.1850339283
 40
0.2379615121
 40
0.2944369651
 40
0.3545044408
 40
0.4180422043
 40
0.4847755009
 40
0.5543227851
 40
0.6997961353
 40
0.8500290835
 40
1.0
 40
1.0
 40
1.0
 40
1.0
 10
14.8215549235
 20
21.9967207868
 30
0.0
 10
14.8600934796
 20
22.0189734067
 30
0.0
 10
14.9338638368
 20
22.0719002668
 30
0.0
 10
15.0288364058
 20
22.1727950849
 30
0.0
 10
15.1076685547
 20
22.2939366803
 30
0.0
 10
15.1693523879
 20
22.4335877838
 30
0.0
 10
15.2134169022
 20
22.5898487444
 30
0.0
 10
15.2393721539
 20
22.7607685395
 30
0.0
 10
15.2470672722
 20
22.9442193334
 30
0.0
 10
15.2363945677
 20
23.1379279022
 30
0.0
 10
15.2075651456
 20
23.3394981636
 30
0.0
 10
15.1444260869
 20
23.6194917547
 30
0.0
 10
15.0222363995
 20
23.9720459092
 30
0.0
 10
14.8178605544
 20
24.3783054899
 30
0.0
 10
14.6460243706
 20
24.6322441449
 30
0.0
 10
14.5520879487
 20
24.7525623725
 30
0.0
  0
SPLINE
  5
24A
100
AcDbEntity
  8
0
100
AcDbSpline
 62
7
  6
BYLAYER
 70
0
 71
3
 72
25
 73
21
 74
0
 42
0.0000001
 43
0.0000001
 44
0.0000000001
 40
0.0
 40
0.0
 40
0.0
 40
0.0
 40
0.0492750265
 40
0.1038439296
 40
0.164064257
 40
0.2296891586
 40
0.2998707753
 40
0.3733989606
 40
0.4488301608
 40
0.5245815954
 40
0.5990579036
 40
0.6707452475
 40
0.738320275
 40
0.8007843546
 40
0.8576017248
 40
0.9088931074
 40
0.932786873
 40
0.9557430046
 40
0.9780391579
 40
1.0
 40
1.0
 40
1.0
 40
1.0
 10
13.3211317093
 20
24.5940366994
 30
0.0
 10
13.3596935344
 20
24.5960990033
 30
0.0
 10
13.4417403595
 20
24.5890076581
 30
0.0
 10
13.5650798214
 20
24.5500965535
 30
0.0
 10
13.69082672
 20
24.4840813707
 30
0.0
 10
13.8152630545
 20
24.3931993593
 30
0.0
 10
13.9347769802
 20
24.2802469313
 30
0.0
 10
14.0457122363
 20
24.1487009157
 30
0.0
 10
14.1446370304
 20
24.002625692
 30
0.0
 10
14.2284832425
 20
23.8465649298
 30
0.0
 10
14.2946590769
 20
23.6853807477
 30
0.0
 10
14.3410880734
 20
23.5240567164
 30
0.0
 10
14.3663238291
 20
23.3675560309
 30
0.0
 10
14.3695557826
 20
23.2205966648
 30
0.0
 10
14.3505497792
 20
23.0875820226
 30
0.0
 10
14.3153053735
 20
22.9892713476
 30
0.0
 10
14.2760605326
 20
22.9228890494
 30
0.0
 10
14.2422872388
 20
22.880272929
 30
0.0
 10
14.2037725804
 20
22.8440655133
 30
0.0
 10
14.1750428166
 20
22.824342654
 30
0.0
 10
14.1601369025
 20
22.8157389471
 30
0.0
  0
SPLINE
  5
24B
100
AcDbEntity
  8
0
100
AcDbSpline
 62
7
  6
BYLAYER
 70
0
 71
3
 72
15
 73
11
 74
0
 42
0.0000001
 43
0.0000001
 44
0.0000000001
 40
0.0
 40
0.0
 40
0.0
 40
0.0
 40
0.1483237797
 40
0.2920816671
 40
0.4296610117
 40
0.560000374
 40
0.6822950802
 40
0.7961510868
 40
0.901809617
 40
1.0
 40
1.0
 40
1.0
 40
1.0
 10
14.5520879487
 20
24.7525623725
 30
0.0
 10
14.4990265886
 20
24.8205258809
 30
0.0
 10
14.3892920983
 20
24.9503738996
 30
0.0
 10
14.2127775473
 20
25.1274973813
 30
0.0
 10
14.0292055688
 20
25.2815769577
 30
0.0
 10
13.8417067777
 20
25.4099644415
 30
0.0
 10
13.6533743554
 20
25.5105944088
 30
0.0
 10
13.4671500047
 20
25.5816699116
 30
0.0
 10
13.2861466796
 20
25.6217889759
 30
0.0
 10
13.1669844928
 20
25.6274939481
 30
0.0
 10
13.1099857575
 20
25.6244456299
 30
0.0
  0
SPLINE
  5
24C
100
AcDbEntity
  8
0
100
AcDbSpline
 62
7
  6
BYLAYER
 70
0
 71
3
 72
21
 73
17
 74
0
 42
0.0000001
 43
0.0000001
 44
0.0000000001
 40
0.0
 40
0.0
 40
0.0
 40
0.0
 40
0.0360917535
 40
0.0751783531
 40
0.1193534544
 40
0.1697268133
 40
0.226445831
 40
0.289070167
 40
0.4280556509
 40
0.5021184991
 40
0.577496759
 40
0.727224879
 40
0.7997317064
 40
0.869719589
 40
0.9366668304
 40
1.0
 40
1.0
 40
1.0
 40
1.0
 10
22.2552633351
 20
26.7149141983
 30
0.0
 10
22.2450673727
 20
26.7207752295
 30
0.0
 10
22.2256891513
 20
26.7364917246
 30
0.0
 10
22.2035840069
 20
26.7689874041
 30
0.0
 10
22.1875656739
 20
26.8097690552
 30
0.0
 10
22.1774243617
 20
26.8581772502
 30
0.0
 10
22.172970154
 20
26.913415843
 30
0.0
 10
22.1746636134
 20
26.9976770573
 30
0.0
 10
22.1881243992
 20
27.0869389765
 30
0.0
 10
22.2119452032
 20
27.1779132079
 30
0.0
 10
22.243460814
 20
27.2702172591
 30
0.0
 10
22.2852548165
 20
27.3583871282
 30
0.0
 10
22.3384206083
 20
27.4375644987
 30
0.0
 10
22.3824660137
 20
27.4899013545
 30
0.0
 10
22.4303873629
 20
27.5344422365
 30
0.0
 10
22.4653611861
 20
27.5588547029
 30
0.0
 10
22.483233479
 20
27.5691732144
 30
0.0
  0
SPLINE
  5
24D
100
AcDbEntity
  8
0
100
AcDbSpline
 62
7
  6
BYLAYER
 70
0
 71
3
 72
9
 73
5
 74
0
 42
0.0000001
 43
0.0000001
 44
0.0000000001
 40
0.0
 40
0.0
 40
0.0
 40
0.0
 40
0.2557980614
 40
1.0
 40
1.0
 40
1.0
 40
1.0
 10
13.6601048699
 20
22.1794316777
 30
0.0
 10
13.672620574
 20
22.1722034965
 30
0.0
 10
13.7218983166
 20
22.1445587977
 30
0.0
 10
13.772600662
 20
22.1194311709
 30
0.0
 10
13.8110532082
 20
22.1024168066
 30
0.0
  0
SPLINE
  5
24E
100
AcDbEntity
  8
0
100
AcDbSpline
 62
7
  6
BYLAYER
 70
0
 71
3
 72
9
 73
5
 74
0
 42
0.0000001
 43
0.0000001
 44
0.0000000001
 40
0.0
 40
0.0
 40
0.0
 40
0.0
 40
0.5273122355
 40
1.0
 40
1.0
 40
1.0
 40
1.0
 10
13.8110532082
 20
22.1024168066
 30
0.0
 10
13.8892477425
 20
22.0678175298
 30
0.0
 10
14.0438232411
 20
22.0149517257
 30
0.0
 10
14.2073698883
 20
21.9990984088
 30
0.0
 10
14.2839100581
 20
22.0031918118
 30
0.0
  0
SPLINE
  5
24F
100
AcDbEntity
  8
0
100
AcDbSpline
 62
7
  6
BYLAYER
 70
0
 71
3
 72
25
 73
21
 74
0
 42
0.0000001
 43
0.0000001
 44
0.0000000001
 40
0.0
 40
0.0
 40
0.0
 40
0.0
 40
0.0219594637
 40
0.0442540945
 40
0.0672088458
 40
0.0911009004
 40
0.1423884971
 40
0.1992018669
 40
0.2616641261
 40
0.3292381362
 40
0.4009245865
 40
0.4754002772
 40
0.5511509699
 40
0.62658252
 40
0.7001135333
 40
0.770299307
 40
0.8359287187
 40
0.8961529672
 40
0.9507245726
 40
1.0
 40
1.0
 40
1.0
 40
1.0
 10
5.6748909877
 20
17.9168089067
 30
0.0
 10
5.6897959614
 20
17.9254120853
 30
0.0
 10
5.7185240726
 20
17.945133214
 30
0.0
 10
5.7570371978
 20
17.9813374768
 30
0.0
 10
5.7908078162
 20
18.0239509837
 30
0.0
 10
5.8300542429
 20
18.0903260305
 30
0.0
 10
5.865296816
 20
18.1886295508
 30
0.0
 10
5.8843101912
 20
18.3216352204
 30
0.0
 10
5.8810811923
 20
18.4685896602
 30
0.0
 10
5.8558497966
 20
18.6250878757
 30
0.0
 10
5.8094278263
 20
18.7864119182
 30
0.0
 10
5.743255919
 20
18.9475959668
 30
0.0
 10
5.6594124233
 20
19.1036571868
 30
0.0
 10
5.560492213
 20
19.2497377862
 30
0.0
 10
5.4495558866
 20
19.3812906889
 30
0.0
 10
5.330036797
 20
19.4942506088
 30
0.0
 10
5.2055958817
 20
19.5851432277
 30
0.0
 10
5.0798414701
 20
19.6511633125
 30
0.0
 10
4.9564970987
 20
19.6900771791
 30
0.0
 10
4.8744478053
 20
19.6971691738
 30
0.0
 10
4.8358856628
 20
19.6951068529
 30
0.0
  0
SPLINE
  5
250
100
AcDbEntity
  8
0
100
AcDbSpline
 62
7
  6
BYLAYER
 70
0
 71
3
 72
9
 73
5
 74
0
 42
0.0000001
 43
0.0000001
 44
0.0000000001
 40
0.0
 40
0.0
 40
0.0
 40
0.0
 40
0.4844533406
 40
1.0
 40
1.0
 40
1.0
 40
1.0
 10
33.219375736
 20
36.4130557258
 30
0.0
 10
33.3233104808
 20
36.3375742049
 30
0.0
 10
33.5250906058
 20
36.1638338453
 30
0.0
 10
33.7011906866
 20
35.9645503395
 30
0.0
 10
33.7853123209
 20
35.8568033578
 30
0.0
  0
SPLINE
  5
251
100
AcDbEntity
  8
0
100
AcDbSpline
 62
7
  6
BYLAYER
 70
0
 71
3
 72
11
 73
7
 74
0
 42
0.0000001
 43
0.0000001
 44
0.0000000001
 40
0.0
 40
0.0
 40
0.0
 40
0.0
 40
0.2591702345
 40
0.517810048
 40
0.7673291501
 40
1.0
 40
1.0
 40
1.0
 40
1.0
 10
33.8136230568
 20
35.820016005
 30
0.0
 10
33.9062852561
 20
35.6978662631
 30
0.0
 10
34.0751286032
 20
35.4410339418
 30
0.0
 10
34.2740621852
 20
35.0316135687
 30
0.0
 10
34.4117666517
 20
34.6141636121
 30
0.0
 10
34.4602943877
 20
34.3315262748
 30
0.0
 10
34.4709559862
 20
34.1942968507
 30
0.0
  0
SPLINE
  5
252
100
AcDbEntity
  8
0
100
AcDbSpline
 62
7
  6
BYLAYER
 70
0
 71
3
 72
12
 73
8
 74
0
 42
0.0000001
 43
0.0000001
 44
0.0000000001
 40
0.0
 40
0.0
 40
0.0
 40
0.0
 40
0.1081522653
 40
0.2183171748
 40
0.4512898046
 40
0.7106881987
 40
1.0
 40
1.0
 40
1.0
 40
1.0
 10
22.7842882013
 20
27.5644336908
 30
0.0
 10
22.7760919354
 20
27.5691661229
 30
0.0
 10
22.758695202
 20
27.5773247297
 30
0.0
 10
22.7204850735
 20
27.5879136079
 30
0.0
 10
22.6669249247
 20
27.5893494833
 30
0.0
 10
22.5998961871
 20
27.5730791605
 30
0.0
 10
22.5562291476
 20
27.5523474124
 30
0.0
 10
22.5343033975
 20
27.5396886502
 30
0.0
  0
ENDSEC
  0
SECTION
  2
OBJECTS
  0
DICTIONARY
  5
C
100
AcDbDictionary
280
0
281
1
  3
ACAD_GROUP
350
D
  3
ACAD_MLINESTYLE
350
17
  3
ACAD_LAYOUT
350
1A
  3
ACAD_PLOTSETTINGS
350
19
  3
ACAD_PLOTSTYLENAME
350
E
  0
DICTIONARY
  5
D
102
{ACAD_REACTORS
330
C
102
}
100
AcDbDictionary
280
0
281
1
  0
ACDBDICTIONARYWDFLT
  5
E
102
{ACAD_REACTORS
330
C
102
}
100
AcDbDictionary
281
1
  3
Normal
350
F
100
AcDbDictionaryWithDefault
340
F
  0
DICTIONARY
  5
17
102
{ACAD_REACTORS
330
C
102
}
100
AcDbDictionary
280
0
281
1
  3
Standard
350
18
  0
DICTIONARY
  5
19
102
{ACAD_REACTORS
330
C
102
}
100
AcDbDictionary
281
1
  0
DICTIONARY
  5
1A
102
{ACAD_REACTORS
330
C
102
}
100
AcDbDictionary
281
1
  3
Model
350
253
  3
Layout1
350
254
  0
ACDBPLACEHOLDER
  5
F
102
{ACAD_REACTORS
330
E
102
}
  0
MLINESTYLE
  5
18
102
{ACAD_REACTORS
330
17
102
}
100
AcDbMlineStyle
  2
STANDARD
 70
0
  3

 62
256
 51
90.0
 52
90.0
 71
2
 49
0.5
 62
256
  6
BYLAYER
 49
-0.5
 62
256
  6
BYLAYER
  0
LAYOUT
  5
253
102
{ACAD_REACTORS
330
1A
102
}
100
AcDbPlotSettings
  1

  2
none_device
  4

  6

 40
0.0
 41
0.0
 42
0.0
 43
0.0
 44
210.0
 45
297.0
 46
0.0
 47
0.0
 48
0.0
 49
0.0
140
0.0
141
0.0
142
1.0
143
1.0
 70
1024
 72
1
 73
0
 74
0
  7

 75
0
147
1.0
148
0.0
149
0.0
100
AcDbLayout
  1
Model
 70
0
 71
0
 10
0.0
 20
0.0
 11
210.0
 21
297.0
 12
0.0
 22
0.0
 32
0.0
 14
0.0
 24
0.0
 34
0.0
 15
0.0
 25
0.0
 35
0.0
146
0.0
 13
0.0
 23
0.0
 33
0.0
 16
1.0
 26
0.0
 36
0.0
 17
0.0
 27
1.0
 37
0.0
 76
0
330
210
345
0
346
0
  0
LAYOUT
  5
254
102
{ACAD_REACTORS
330
1A
102
}
100
AcDbPlotSettings
  1

  2
none_device
  4

  6

 40
0.0
 41
0.0
 42
0.0
 43
0.0
 44
210.0
 45
297.0
 46
0.0
 47
0.0
 48
0.0
 49
0.0
140
0.0
141
0.0
142
1.0
143
1.0
 70
0
 72
1
 73
0
 74
0
  7

 75
0
147
1.0
148
0.0
149
0.0
100
AcDbLayout
  1
Layout1
 70
0
 71
1
 10
0.0
 20
0.0
 11
210.0
 21
297.0
 12
0.0
 22
0.0
 32
0.0
 14
0.0
 24
0.0
 34
0.0
 15
0.0
 25
0.0
 35
0.0
146
0.0
 13
0.0
 23
0.0
 33
0.0
 16
1.0
 26
0.0
 36
0.0
 17
0.0
 27
1.0
 37
0.0
 76
0
330
211
345
0
346
0
  0
ENDSEC
  0
EOF
